  0
SECTION
  2
HEADER
  0
ENDSEC
  0
SECTION
  2
TABLES
  0
TABLE
  2
LTYPE
 70
     4
  0
LTYPE
  2
CONTINUOUS
 70
    64
  3
Solid line
 72
    65
 73
     0
 40
0.000000
  0
LTYPE
  2
DASHED
 70
    64
  3
__ __ __ __ __ __ __ __ __ __ __ __ __ __ __
 72
    65
 73
     2
 40
3.500000
 49
2.000000
 49
-1.500000
  0
LTYPE
  2
CENTER
 70
    64
  3
____ _ ____ _ ____ _ ____ _ ____ _ ____ _ ____
 72
    65
 73
     4
 40
17.500000
 49
13.000000
 49
-1.500000
 49
1.500000
 49
-1.500000
  0
LTYPE
  2
PHANTOM
 70
    64
  3
_____ _ _ _____ _ _ _____ _ _ _____ _ _ ____  
 72
    65
 73
     6
 40
15.500000
 49
8.000000
 49
-1.500000
 49
1.500000
 49
-1.500000
 49
1.500000
 49
-1.500000
  0
LTYPE
  2
DASHED1
 70
    64
  3
__ __ __ __ __ __ __ __ __ __ __ __ __ __ __
 72
    65
 73
     2
 40
1.500000
 49
1.000000
 49
-0.500000
  0
LTYPE
  2
DASHED2
 70
    64
  3
__ __ __ __ __ __ __ __ __ __ __ __ __ __ __
 72
    65
 73
     2
 40
3.500000
 49
2.500000
 49
-1.000000
  0
LTYPE
  2
DASHED3
 70
    64
  3
__ __ __ __ __ __ __ __ __ __ __ __ __ __ __
 72
    65
 73
     2
 40
6.000000
 49
4.000000
 49
-2.000000
  0
LTYPE
  2
DASHED4
 70
    64
  3
__ __ __ __ __ __ __ __ __ __ __ __ __ __ __
 72
    65
 73
     2
 40
12.000000
 49
10.000000
 49
-2.000000
  0
LTYPE
  2
DASHED5
 70
    64
  3
__ __ __ __ __ __ __ __ __ __ __ __ __ __ __
 72
    65
 73
     2
 40
17.000000
 49
15.000000
 49
-2.000000
  0
LTYPE
  2
DASHED6
 70
    64
  3
__ __ __ __ __ __ __ __ __ __ __ __ __ __ __
 72
    65
 73
     2
 40
29.000000
 49
27.000000
 49
-2.000000
  0
LTYPE
  2
PHANTOM1
 70
    64
  3
_____ _ _ _____ _ _ _____ _ _ _____ _ _ ____  
 72
    65
 73
     6
 40
31.000000
 49
25.000000
 49
-1.500000
 49
1.000000
 49
-1.000000
 49
1.000000
 49
-1.500000
  0
LTYPE
  2
PHANTOM2
 70
    64
  3
_____ _ _ _____ _ _ _____ _ _ _____ _ _ ____  
 72
    65
 73
     6
 40
36.000000
 49
27.000000
 49
-1.500000
 49
2.500000
 49
-1.000000
 49
2.500000
 49
-1.500000
  0
LTYPE
  2
PHANTOM3
 70
    64
  3
_____ _ _ _____ _ _ _____ _ _ _____ _ _ ____  
 72
    65
 73
     6
 40
78.000000
 49
64.000000
 49
-2.000000
 49
4.000000
 49
-2.000000
 49
4.000000
 49
-2.000000
  0
LTYPE
  2
CENTER1
 70
    64
  3
____ _ ____ _ ____ _ ____ _ ____ _ ____ _ ____
 72
    65
 73
     4
 40
19.000000
 49
14.000000
 49
-1.000000
 49
3.000000
 49
-1.000000
  0
LTYPE
  2
CENTER2
 70
    64
  3
____ _ ____ _ ____ _ ____ _ ____ _ ____ _ ____
 72
    65
 73
     4
 40
28.500000
 49
25.000000
 49
-1.000000
 49
1.500000
 49
-1.000000
  0
LTYPE
  2
CENTER3
 70
    64
  3
____ _ ____ _ ____ _ ____ _ ____ _ ____ _ ____
 72
    65
 73
     4
 40
31.500000
 49
27.000000
 49
-1.000000
 49
2.500000
 49
-1.000000
  0
LTYPE
  2
CENTER4
 70
    64
  3
____ _ ____ _ ____ _ ____ _ ____ _ ____ _ ____
 72
    65
 73
     4
 40
50.000000
 49
45.000000
 49
-1.000000
 49
3.000000
 49
-1.000000
  0
LTYPE
  2
CENTER5
 70
    64
  3
____ _ ____ _ ____ _ ____ _ ____ _ ____ _ ____
 72
    65
 73
     4
 40
100.000000
 49
92.000000
 49
-2.000000
 49
4.000000
 49
-2.000000
  0
LTYPE
  2
SBK1
 70
    64
  3
______ _ _ _ ______ _ _ _ ______ _ _ _ _____  
 72
    65
 73
     8
 40
60.500000
 49
45.000000
 49
-2.000000
 49
2.500000
 49
-2.000000
 49
2.500000
 49
-2.000000
 49
2.500000
 49
-2.000000
  0
LTYPE
  2
SBK2
 70
    64
  3
______ _ _ _ ______ _ _ _ ______ _ _ _ _____  
 72
    65
 73
     8
 40
84.000000
 49
64.000000
 49
-2.000000
 49
4.000000
 49
-2.000000
 49
4.000000
 49
-2.000000
 49
4.000000
 49
-2.000000
  0
LTYPE
  2
STCH
 70
    64
  3
__ __ __ __ __ __ __ __ __ __ __ __ __ __ __
 72
    65
 73
     2
 40
3.000000
 49
1.000000
 49
-2.000000
  0
LTYPE
  2
MTCH
 70
    64
  3
_____ _ _ _____ _ _ _____ _ _ _____ _ _ ____  
 72
    65
 73
     6
 40
80.000000
 49
66.000000
 49
-2.000000
 49
4.000000
 49
-2.000000
 49
4.000000
 49
-2.000000
  0
ENDTAB
  0
TABLE
  2
LAYER
 70
     1
  0
LAYER
  2
0
 70
     0
 62
     7
  6
CONTINUOUS
  0
ENDTAB
  0
TABLE
  2
STYLE
 70
     1
  0
STYLE
  2
STANDARD
 70
     0
 40
0.000000
 41
1.000000
 50
0.000000
 71
     0
 42
0.200000
  3
txt
  4
BIGFONT
  0
ENDTAB
  0
TABLE
  2
VIEW
 70
     0
  0
ENDTAB
  0
ENDSEC
  0
SECTION
  2
BLOCKS
  0
ENDSEC
  0
SECTION
  2
ENTITIES
  0
POINT
  8
0
 10
-174.494415
 20
-270.000000
  0
POINT
  8
0
 10
-174.494385
 20
-39.999981
  0
POINT
  8
0
 10
-404.494263
 20
-39.999985
  0
POINT
  8
0
 10
-174.494415
 20
190.000061
  0
POINT
  8
0
 10
342.505615
 20
-39.999985
  0
POINT
  8
0
 10
162.505615
 20
-39.999981
  0
POINT
  8
0
 10
162.505585
 20
190.000061
  0
POINT
  8
0
 10
342.505615
 20
-39.999985
  0
POINT
  8
0
 10
402.005615
 20
-39.999985
  0
POINT
  8
0
 10
162.505585
 20
-270.000000
  0
POINT
  8
0
 10
-404.494263
 20
-39.999985
  0
POINT
  8
0
 10
-344.994263
 20
-39.999985
  0
LINE
  8
0
 62
     3
 10
-524.494446
 20
-360.000092
 11
-524.494446
 21
360.000092
  0
LINE
  8
0
 62
     3
 10
524.494446
 20
360.000092
 11
524.494446
 21
-360.000092
  0
LINE
  8
0
 62
     3
 10
-524.494446
 20
-360.000092
 11
524.494446
 21
-360.000092
  0
LINE
  8
0
 62
     3
 10
-524.494446
 20
360.000092
 11
524.494446
 21
360.000092
  0
LINE
  8
0
 62
     3
 10
-524.494446
 20
319.550598
 11
-224.494446
 21
319.550598
  0
LINE
  8
0
 62
     3
 10
-224.494446
 20
319.550598
 11
-224.494446
 21
360.000092
  0
LINE
  8
0
 62
     3
 10
308.764069
 20
-319.550690
 11
524.494446
 21
-319.550690
  0
LINE
  8
0
 62
     5
 10
365.406830
 20
-329.276672
 11
386.130402
 21
-329.276672
  0
LINE
  8
0
 62
     5
 10
365.406830
 20
-347.654236
 11
383.002350
 21
-347.654236
  0
LINE
  8
0
 62
     5
 10
365.406830
 20
-352.346344
 11
389.258545
 21
-352.346344
  0
LINE
  8
0
 62
     5
 10
365.406830
 20
-333.968781
 11
383.002350
 21
-333.968781
  0
LINE
  8
0
 62
     5
 10
365.406830
 20
-329.276672
 11
365.406830
 21
-333.968781
  0
LINE
  8
0
 62
     5
 10
389.258545
 20
-332.404785
 11
389.258545
 21
-352.346344
  0
LINE
  8
0
 62
     5
 10
383.002350
 20
-333.968781
 11
383.002350
 21
-347.654236
  0
LINE
  8
0
 62
     5
 10
392.777557
 20
-329.276672
 11
392.777557
 21
-333.968781
  0
LINE
  8
0
 62
     5
 10
415.065186
 20
-333.968781
 11
415.065186
 21
-349.218353
  0
LINE
  8
0
 62
     5
 10
408.809052
 20
-333.968781
 11
408.809052
 21
-347.654236
  0
LINE
  8
0
 62
     5
 10
365.406830
 20
-347.654236
 11
365.406830
 21
-352.346344
  0
LINE
  8
0
 62
     5
 10
392.777557
 20
-329.276672
 11
398.959137
 21
-329.276672
  0
LINE
  8
0
 62
     5
 10
392.777557
 20
-352.346344
 11
397.635284
 21
-352.346344
  0
LINE
  8
0
 62
     5
 10
392.777435
 20
-352.346161
 11
397.701843
 21
-333.968719
  0
LINE
  8
0
 62
     5
 10
392.777557
 20
-333.968781
 11
397.701874
 21
-333.968781
  0
LINE
  8
0
 62
     5
 10
397.635559
 20
-352.346558
 11
402.559723
 21
-333.969055
  0
LINE
  8
0
 62
     5
 10
404.116852
 20
-347.654236
 11
408.809052
 21
-347.654236
  0
LINE
  8
0
 62
     5
 10
404.116730
 20
-347.654144
 11
405.373871
 21
-352.346191
  0
LINE
  8
0
 62
     5
 10
405.374237
 20
-352.346344
 11
411.937195
 21
-352.346344
  0
LINE
  8
0
 62
     5
 10
402.559540
 20
-333.968781
 11
408.809052
 21
-333.968781
  0
LINE
  8
0
 62
     5
 10
403.816772
 20
-329.276672
 11
410.373047
 21
-329.276672
  0
LINE
  8
0
 62
     5
 10
398.959198
 20
-329.276703
 11
399.891571
 21
-325.796783
  0
LINE
  8
0
 62
     5
 10
403.816467
 20
-329.276459
 11
404.748840
 21
-325.796417
  0
LINE
  8
0
 62
     5
 10
418.975342
 20
-329.276672
 11
426.404572
 21
-329.276672
  0
LINE
  8
0
 62
     5
 10
418.975342
 20
-333.968781
 11
437.221191
 21
-333.968781
  0
LINE
  8
0
 62
     5
 10
426.404572
 20
-352.346344
 11
432.660645
 21
-352.346344
  0
LINE
  8
0
 62
     5
 10
418.975342
 20
-329.276672
 11
418.975342
 21
-333.968781
  0
LINE
  8
0
 62
     5
 10
442.045044
 20
-342.477020
 11
442.045044
 21
-347.654236
  0
LINE
  8
0
 62
     5
 10
418.975037
 20
-347.654053
 11
426.404388
 21
-344.189636
  0
LINE
  8
0
 62
     5
 10
418.975769
 20
-342.477356
 11
437.221558
 21
-333.969116
  0
LINE
  8
0
 62
     5
 10
418.975342
 20
-342.477020
 11
418.975342
 21
-347.654236
  0
LINE
  8
0
 62
     5
 10
432.660492
 20
-343.278107
 11
442.044983
 21
-347.654083
  0
LINE
  8
0
 62
     5
 10
436.062103
 20
-339.687286
 11
442.045654
 21
-342.477448
  0
LINE
  8
0
 62
     5
 10
442.045044
 20
-332.404785
 11
442.045044
 21
-334.903870
  0
LINE
  8
0
 62
     5
 10
426.404572
 20
-325.796722
 11
426.404572
 21
-329.276672
  0
LINE
  8
0
 62
     5
 10
432.660645
 20
-325.796722
 11
432.660645
 21
-329.276672
  0
LINE
  8
0
 62
     5
 10
432.660645
 20
-329.276672
 11
438.916931
 21
-329.276672
  0
LINE
  8
0
 62
     5
 10
426.404572
 20
-344.189972
 11
426.404572
 21
-352.346344
  0
LINE
  8
0
 62
     5
 10
432.660645
 20
-343.278320
 11
432.660645
 21
-352.346344
  0
LINE
  8
0
 62
     5
 10
436.062073
 20
-339.687256
 11
440.239532
 21
-337.739288
  0
LINE
  8
0
 62
     5
 10
463.159668
 20
-327.204376
 11
467.851685
 21
-327.204376
  0
LINE
  8
0
 62
     5
 10
444.000122
 20
-336.896667
 11
444.000122
 21
-341.946259
  0
LINE
  8
0
 62
     5
 10
467.851685
 20
-327.204376
 11
467.851685
 21
-329.276672
  0
LINE
  8
0
 62
     5
 10
463.159668
 20
-327.204376
 11
463.159668
 21
-328.215485
  0
LINE
  8
0
 62
     5
 10
456.903442
 20
-336.814453
 11
456.903442
 21
-352.346344
  0
LINE
  8
0
 62
     5
 10
444.000275
 20
-336.896881
 11
462.173828
 21
-329.669067
  0
LINE
  8
0
 62
     5
 10
444.000092
 20
-341.946411
 11
456.903412
 21
-336.814545
  0
LINE
  8
0
 62
     5
 10
456.903442
 20
-352.346344
 11
463.159668
 21
-352.346344
  0
LINE
  8
0
 62
     5
 10
463.159668
 20
-334.326324
 11
463.159668
 21
-352.346344
  0
LINE
  8
0
 62
     5
 10
463.160126
 20
-334.326630
 11
464.894257
 21
-333.636902
  0
LINE
  8
0
 62
     5
 10
399.891602
 20
-325.796722
 11
404.749207
 21
-325.796722
  0
LINE
  8
0
 62
     5
 10
412.523682
 20
-325.796722
 11
414.517731
 21
-325.796722
  0
LINE
  8
0
 62
     5
 10
426.404572
 20
-325.796722
 11
432.660645
 21
-325.796722
  0
LINE
  8
0
 62
     5
 10
412.523682
 20
-328.924835
 11
414.517731
 21
-328.924835
  0
LINE
  8
0
 62
     5
 10
412.523682
 20
-325.796722
 11
412.523682
 21
-328.924835
  0
LINE
  8
0
 62
     5
 10
414.517731
 20
-325.796722
 11
414.517731
 21
-328.924835
  0
LINE
  8
0
 62
     5
 10
415.690887
 20
-325.796722
 11
415.690887
 21
-328.924835
  0
LINE
  8
0
 62
     5
 10
417.919678
 20
-325.796722
 11
417.919678
 21
-328.924835
  0
LINE
  8
0
 62
     5
 10
415.690887
 20
-325.796722
 11
417.919678
 21
-325.796722
  0
LINE
  8
0
 62
     5
 10
415.690887
 20
-328.924835
 11
417.919678
 21
-328.924835
  0
LINE
  8
0
 62
     3
 10
308.764069
 20
319.550598
 11
524.494446
 21
319.550598
  0
LINE
  8
0
 62
     3
 10
308.764069
 20
360.000092
 11
308.764069
 21
319.550598
  0
LINE
  8
0
 62
     3
 10
308.764069
 20
-319.550690
 11
308.764069
 21
-360.000092
  0
LINE
  8
0
 10
-168.926392
 20
-235.787628
 11
-199.980698
 21
-181.999985
  0
LINE
  8
0
 10
-168.926392
 20
-235.787643
 11
-170.867538
 21
-228.543198
  0
LINE
  8
0
 10
-168.926392
 20
-235.787628
 11
-174.229691
 21
-230.484329
  0
LINE
  8
0
 10
-273.989929
 20
-181.999985
 11
-199.980698
 21
-181.999985
  0
LINE
  8
0
 10
-78.994400
 20
-10.535884
 11
-45.198681
 21
48.000011
  0
LINE
  8
0
 10
-78.994400
 20
-10.535883
 11
-77.053261
 21
-3.291439
  0
LINE
  8
0
 10
-78.994408
 20
-10.535887
 11
-73.691101
 21
-5.232585
  0
LINE
  8
0
 10
-45.198681
 20
48.000011
 11
49.932549
 21
48.000011
  0
LINE
  8
0
 10
-174.494385
 20
-97.999985
 11
-174.494385
 21
18.000019
  0
LINE
  8
0
 10
162.505615
 20
-97.999985
 11
162.505615
 21
18.000019
  0
LINE
  8
0
  6
CENTER
 10
-179.494385
 20
-39.999981
 11
167.505615
 21
-39.999981
  0
LINE
  8
0
  6
CENTER
 10
-105.994385
 20
-101.999985
 11
-105.994385
 21
22.000019
  0
LINE
  8
0
 10
-149.494385
 20
-97.999985
 11
-149.494385
 21
18.000019
  0
LINE
  8
0
 10
137.505615
 20
-97.999985
 11
137.505615
 21
18.000019
  0
LINE
  8
0
 10
-174.494385
 20
18.000019
 11
-149.494385
 21
18.000019
  0
LINE
  8
0
 10
-174.494385
 20
-97.999985
 11
-149.494385
 21
-97.999985
  0
LINE
  8
0
 10
137.505615
 20
-97.999985
 11
162.505615
 21
-97.999985
  0
LINE
  8
0
 10
137.505615
 20
18.000019
 11
162.505615
 21
18.000019
  0
LINE
  8
0
 10
166.505615
 20
-5.687988
 11
166.505615
 21
10.688019
  0
LINE
  8
0
 10
165.693634
 20
-6.499981
 11
162.505615
 21
-6.499981
  0
LINE
  8
0
 10
165.693604
 20
11.500019
 11
162.505615
 21
11.500019
  0
LINE
  8
0
 10
166.505615
 20
10.688019
 11
162.505615
 21
10.688019
  0
LINE
  8
0
 10
166.505615
 20
-5.687981
 11
162.505615
 21
-5.687981
  0
LINE
  8
0
 10
166.505554
 20
-5.687968
 11
165.693573
 21
-6.499956
  0
LINE
  8
0
 10
166.505569
 20
10.688009
 11
165.693573
 21
11.500001
  0
LINE
  8
0
 10
165.693604
 20
11.500019
 11
165.693604
 21
-6.499981
  0
LINE
  8
0
  6
CENTER
 10
-168.494385
 20
-14.999981
 11
-148.494385
 21
-14.999981
  0
LINE
  8
0
  6
CENTER
 10
-158.494385
 20
-4.999981
 11
-158.494385
 21
-24.999981
  0
LINE
  8
0
  6
CENTER
 10
146.505615
 20
-4.999981
 11
146.505615
 21
-24.999981
  0
LINE
  8
0
  6
CENTER
 10
156.505615
 20
-14.999981
 11
136.505615
 21
-14.999981
  0
LINE
  8
0
  6
CENTER
 10
-158.494385
 20
-74.999985
 11
-158.494385
 21
-54.999981
  0
LINE
  8
0
  6
CENTER
 10
-168.494385
 20
-64.999985
 11
-148.494385
 21
-64.999985
  0
LINE
  8
0
  6
CENTER
 10
146.505615
 20
-74.999985
 11
146.505615
 21
-54.999981
  0
LINE
  8
0
  6
CENTER
 10
156.505615
 20
-64.999985
 11
136.505615
 21
-64.999985
  0
LINE
  8
0
 10
148.005615
 20
-92.999985
 11
148.005615
 21
-97.999985
  0
LINE
  8
0
 10
159.005615
 20
-92.999985
 11
159.005615
 21
-97.999985
  0
LINE
  8
0
 10
-148.494385
 20
-96.999985
 11
-148.494385
 21
17.000019
  0
LINE
  8
0
 10
-63.494385
 20
-96.999985
 11
-63.494385
 21
17.000019
  0
LINE
  8
0
 10
-65.094383
 20
-96.999985
 11
-65.094383
 21
17.000019
  0
LINE
  8
0
 10
-146.894379
 20
-96.999985
 11
-146.894379
 21
17.000019
  0
LINE
  8
0
 10
-149.494385
 20
-96.999985
 11
137.505615
 21
-96.999985
  0
LINE
  8
0
 10
-148.494385
 20
17.000019
 11
-63.494385
 21
17.000019
  0
LINE
  8
0
  6
CENTER
 10
-137.994385
 20
-65.999985
 11
-123.994385
 21
-65.999985
  0
LINE
  8
0
  6
CENTER
 10
-130.994385
 20
-58.999981
 11
-130.994385
 21
-72.999985
  0
LINE
  8
0
  6
CENTER
 10
-80.994385
 20
-58.999981
 11
-80.994385
 21
-72.999985
  0
LINE
  8
0
  6
CENTER
 10
-73.994385
 20
-65.999985
 11
-87.994385
 21
-65.999985
  0
LINE
  8
0
  6
CENTER
 10
-130.994385
 20
-20.999981
 11
-130.994385
 21
-6.999981
  0
LINE
  8
0
  6
CENTER
 10
-137.994385
 20
-13.999981
 11
-123.994385
 21
-13.999981
  0
LINE
  8
0
  6
CENTER
 10
-80.994385
 20
-20.999981
 11
-80.994385
 21
-6.999981
  0
LINE
  8
0
  6
CENTER
 10
-73.994385
 20
-13.999981
 11
-87.994385
 21
-13.999981
  0
LINE
  8
0
 10
-109.994385
 20
-14.999981
 11
-109.994385
 21
-12.999981
  0
LINE
  8
0
 10
-101.994385
 20
-14.999981
 11
-101.994385
 21
-12.999981
  0
LINE
  8
0
  6
CENTER
 10
-112.994385
 20
-65.999985
 11
-98.994385
 21
-65.999985
  0
LINE
  8
0
  6
CENTER
 10
-112.994385
 20
-13.999981
 11
-98.994385
 21
-13.999981
  0
LINE
  8
0
 10
-149.494385
 20
-56.799980
 11
-148.494385
 21
-56.799980
  0
LINE
  8
0
 10
-149.494385
 20
-23.199982
 11
-148.494385
 21
-23.199982
  0
LINE
  8
0
 10
-63.494385
 20
-23.199982
 11
137.505615
 21
-23.199982
  0
LINE
  8
0
 10
-63.494385
 20
-56.799980
 11
137.505615
 21
-56.799980
  0
LINE
  8
0
  6
CENTER
 10
-68.494385
 20
2.500019
 11
171.505615
 21
2.500019
  0
LINE
  8
0
 10
-63.494385
 20
-7.499981
 11
137.505615
 21
-7.499981
  0
LINE
  8
0
 10
-63.494385
 20
12.500019
 11
137.505615
 21
12.500019
  0
LINE
  8
0
 10
-63.494385
 20
-72.499985
 11
137.505615
 21
-72.499985
  0
LINE
  8
0
  6
CENTER
 10
-68.494385
 20
-82.499985
 11
167.505615
 21
-82.499985
  0
LINE
  8
0
 10
-63.494385
 20
-92.499985
 11
137.505615
 21
-92.499985
  0
LINE
  8
0
 10
-149.494385
 20
-7.499981
 11
-148.494385
 21
-7.499981
  0
LINE
  8
0
 10
-149.494385
 20
12.500019
 11
-148.494385
 21
12.500019
  0
LINE
  8
0
 10
-149.494385
 20
-72.499985
 11
-148.494385
 21
-72.499985
  0
LINE
  8
0
 10
-149.494385
 20
-92.499985
 11
-148.494385
 21
-92.499985
  0
LINE
  8
0
  6
CENTER
 10
-179.494385
 20
-82.499985
 11
-144.494385
 21
-82.499985
  0
LINE
  8
0
 10
-146.894379
 20
-27.499981
 11
-65.094383
 21
-27.499981
  0
LINE
  8
0
 10
-146.894379
 20
-52.499981
 11
-65.094383
 21
-52.499981
  0
LINE
  8
0
 10
-56.694382
 20
-10.499981
 11
-56.694382
 21
-7.499981
  0
LINE
  8
0
 10
-63.494385
 20
-10.499981
 11
-56.694382
 21
-10.499981
  0
LINE
  8
0
 10
-63.494385
 20
15.500019
 11
-56.694382
 21
15.500019
  0
LINE
  8
0
  6
CENTER
 10
-183.494385
 20
2.500019
 11
-144.494385
 21
2.500019
  0
LINE
  8
0
 10
-178.494385
 20
-5.687988
 11
-178.494385
 21
10.688019
  0
LINE
  8
0
 10
-177.682404
 20
-6.499981
 11
-174.494385
 21
-6.499981
  0
LINE
  8
0
 10
-177.682388
 20
11.500019
 11
-174.494385
 21
11.500019
  0
LINE
  8
0
 10
-178.494385
 20
10.688019
 11
-174.494385
 21
10.688019
  0
LINE
  8
0
 10
-178.494385
 20
-5.687981
 11
-174.494385
 21
-5.687981
  0
LINE
  8
0
 10
-178.494370
 20
-5.687954
 11
-177.682373
 21
-6.499960
  0
LINE
  8
0
 10
-178.494339
 20
10.687987
 11
-177.682343
 21
11.499981
  0
LINE
  8
0
 10
-177.682388
 20
11.500019
 11
-177.682388
 21
-6.499981
  0
LINE
  8
0
 10
151.005615
 20
-91.556625
 11
151.005615
 21
-94.443375
  0
LINE
  8
0
 10
151.005646
 20
-94.443352
 11
153.505646
 21
-95.886726
  0
LINE
  8
0
 10
153.505661
 20
-95.886787
 11
156.005692
 21
-94.443398
  0
LINE
  8
0
 10
156.005615
 20
-94.443359
 11
156.005615
 21
-91.556595
  0
LINE
  8
0
  6
CENTER
 10
153.505615
 20
-84.999985
 11
153.505615
 21
-100.999985
  0
LINE
  8
0
 10
156.005615
 20
-91.556595
 11
153.505615
 21
-90.113220
  0
LINE
  8
0
 10
153.505692
 20
-90.113380
 11
151.005692
 21
-91.556755
  0
LINE
  8
0
  6
CENTER
 10
145.505615
 20
-92.999985
 11
161.505615
 21
-92.999985
  0
LINE
  8
0
 10
-56.694382
 20
12.500019
 11
-56.694382
 21
15.500019
  0
LINE
  8
0
  6
CENTER
 10
-174.494415
 20
183.000046
 11
-158.494415
 21
183.000046
  0
LINE
  8
0
  6
CENTER
 10
-166.494415
 20
191.000046
 11
-166.494415
 21
175.000046
  0
LINE
  8
0
 10
-168.994415
 20
181.556702
 11
-166.494385
 21
180.113312
  0
LINE
  8
0
 10
-166.494446
 20
180.113403
 11
-163.994431
 21
181.556778
  0
LINE
  8
0
 10
-163.994415
 20
181.556671
 11
-163.994415
 21
184.443420
  0
LINE
  8
0
 10
-163.994461
 20
184.443451
 11
-166.494476
 21
185.886841
  0
LINE
  8
0
 10
-166.494522
 20
185.886963
 11
-168.994522
 21
184.443573
  0
LINE
  8
0
 10
-168.994415
 20
184.443405
 11
-168.994415
 21
181.556641
  0
LINE
  8
0
  6
CENTER
 10
-183.494415
 20
170.000061
 11
-36.294418
 21
170.000061
  0
LINE
  8
0
 10
-178.494415
 20
178.188065
 11
-178.494415
 21
161.812057
  0
LINE
  8
0
 10
-177.682434
 20
179.000061
 11
-174.494415
 21
179.000061
  0
LINE
  8
0
 10
-177.682419
 20
161.000061
 11
-174.494415
 21
161.000061
  0
LINE
  8
0
 10
-178.494415
 20
161.812057
 11
-174.494415
 21
161.812057
  0
LINE
  8
0
 10
-178.494415
 20
178.188065
 11
-174.494415
 21
178.188065
  0
LINE
  8
0
 10
-178.494492
 20
178.188110
 11
-177.682495
 21
179.000122
  0
LINE
  8
0
 10
-178.494431
 20
161.812073
 11
-177.682419
 21
161.000076
  0
LINE
  8
0
 10
-177.682419
 20
161.000061
 11
-177.682419
 21
179.000061
  0
LINE
  8
0
  6
CENTER
 10
-179.494415
 20
146.000061
 11
167.505585
 21
146.000061
  0
LINE
  8
0
 10
-174.494415
 20
190.000061
 11
-149.494415
 21
190.000061
  0
LINE
  8
0
 10
-174.494415
 20
132.000061
 11
-149.494415
 21
132.000061
  0
LINE
  8
0
 10
-174.494415
 20
132.000061
 11
-174.494415
 21
190.000061
  0
LINE
  8
0
 10
-149.494415
 20
132.000061
 11
-149.494415
 21
190.000061
  0
LINE
  8
0
  6
CENTER
 10
171.505585
 20
170.000061
 11
132.505585
 21
170.000061
  0
LINE
  8
0
 10
166.505585
 20
178.188065
 11
166.505585
 21
161.812057
  0
LINE
  8
0
 10
165.693604
 20
179.000061
 11
162.505585
 21
179.000061
  0
LINE
  8
0
 10
165.693573
 20
161.000061
 11
162.505585
 21
161.000061
  0
LINE
  8
0
 10
166.505585
 20
161.812057
 11
162.505585
 21
161.812057
  0
LINE
  8
0
 10
166.505585
 20
178.188065
 11
162.505585
 21
178.188065
  0
LINE
  8
0
 10
166.505692
 20
178.188126
 11
165.693695
 21
179.000122
  0
LINE
  8
0
 10
166.505600
 20
161.812042
 11
165.693588
 21
161.000046
  0
LINE
  8
0
 10
165.693573
 20
161.000061
 11
165.693573
 21
179.000061
  0
LINE
  8
0
 10
162.505585
 20
190.000061
 11
137.505585
 21
190.000061
  0
LINE
  8
0
 10
162.505585
 20
132.000061
 11
162.505585
 21
190.000061
  0
LINE
  8
0
 10
137.505585
 20
132.000061
 11
137.505585
 21
190.000061
  0
LINE
  8
0
 10
162.505585
 20
132.000061
 11
137.505585
 21
132.000061
  0
LINE
  8
0
 10
-148.494415
 20
131.000061
 11
-148.494415
 21
188.000061
  0
LINE
  8
0
 10
-146.894409
 20
130.000061
 11
-146.894409
 21
188.000061
  0
LINE
  8
0
 10
-63.494415
 20
131.000061
 11
-63.494415
 21
188.000061
  0
LINE
  8
0
 10
-65.094414
 20
130.000061
 11
-65.094414
 21
188.000061
  0
LINE
  8
0
 10
-146.894409
 20
130.000061
 11
-65.094414
 21
130.000061
  0
LINE
  8
0
 10
-148.494415
 20
131.000061
 11
-146.894409
 21
131.000061
  0
LINE
  8
0
 10
-65.094414
 20
131.000061
 11
-63.494415
 21
131.000061
  0
LINE
  8
0
 10
-148.494415
 20
188.000061
 11
-63.494415
 21
188.000061
  0
LINE
  8
0
 10
-149.494415
 20
136.000061
 11
-148.494415
 21
136.000061
  0
LINE
  8
0
 10
-149.494415
 20
156.000061
 11
-148.494415
 21
156.000061
  0
LINE
  8
0
 10
-63.494415
 20
136.000061
 11
137.505585
 21
136.000061
  0
LINE
  8
0
 10
-57.271767
 20
156.000061
 11
137.505585
 21
156.000061
  0
LINE
  8
0
 10
-146.894409
 20
133.000061
 11
-65.094414
 21
133.000061
  0
LINE
  8
0
 10
-148.494415
 20
176.000061
 11
-63.494415
 21
176.000061
  0
LINE
  8
0
 10
-174.494415
 20
171.000229
 11
-149.494415
 21
171.000229
  0
LINE
  8
0
 10
-174.494415
 20
177.000351
 11
-149.494415
 21
177.000351
  0
LINE
  8
0
 10
-174.494415
 20
189.000046
 11
-149.494415
 21
189.000046
  0
LINE
  8
0
  6
CENTER
 10
162.505585
 20
183.000046
 11
146.505585
 21
183.000046
  0
LINE
  8
0
  6
CENTER
 10
154.505585
 20
191.000046
 11
154.505585
 21
175.000046
  0
LINE
  8
0
 10
157.005569
 20
181.556702
 11
154.505554
 21
180.113297
  0
LINE
  8
0
 10
154.505585
 20
180.113297
 11
152.005554
 21
181.556671
  0
LINE
  8
0
 10
152.005585
 20
181.556671
 11
152.005585
 21
184.443420
  0
LINE
  8
0
 10
152.005646
 20
184.443466
 11
154.505661
 21
185.886856
  0
LINE
  8
0
 10
154.505554
 20
185.886658
 11
157.005539
 21
184.443268
  0
LINE
  8
0
 10
157.005585
 20
184.443405
 11
157.005585
 21
181.556641
  0
LINE
  8
0
 10
162.505585
 20
177.000351
 11
137.505585
 21
177.000351
  0
LINE
  8
0
 10
162.505585
 20
189.000046
 11
137.505585
 21
189.000046
  0
LINE
  8
0
 10
162.505585
 20
171.000229
 11
137.505585
 21
171.000229
  0
LINE
  8
0
 10
-149.494415
 20
175.800064
 11
-148.494415
 21
175.800064
  0
LINE
  8
0
 10
-56.294418
 20
175.800064
 11
137.505585
 21
175.800064
  0
LINE
  8
0
 10
-148.494415
 20
183.000061
 11
-149.494415
 21
183.000061
  0
LINE
  8
0
 10
-56.294418
 20
162.000061
 11
-56.294418
 21
178.000061
  0
LINE
  8
0
 10
-56.694412
 20
157.000061
 11
-56.694412
 21
183.000076
  0
LINE
  8
0
 10
-41.294418
 20
167.500061
 11
-41.294418
 21
172.500061
  0
LINE
  8
0
 10
-56.294418
 20
167.500061
 11
-41.294418
 21
167.500061
  0
LINE
  8
0
 10
-56.294418
 20
172.500061
 11
-41.294418
 21
172.500061
  0
LINE
  8
0
 10
-62.333313
 20
154.988968
 11
-57.855522
 21
154.988968
  0
LINE
  8
0
 10
-56.694393
 20
157.000046
 11
-57.855503
 21
154.988937
  0
LINE
  8
0
 10
-62.333321
 20
162.494522
 11
-57.855507
 21
162.494522
  0
LINE
  8
0
 10
-62.333313
 20
177.505600
 11
-57.855515
 21
177.505600
  0
LINE
  8
0
 10
-56.694420
 20
183.000061
 11
-57.855534
 21
185.011154
  0
LINE
  8
0
 10
-62.333321
 20
185.011154
 11
-57.855522
 21
185.011154
  0
LINE
  8
0
 10
-63.494492
 20
183.000107
 11
-62.333378
 21
185.011200
  0
LINE
  8
0
 10
-63.494423
 20
157.000061
 11
-62.333302
 21
154.988953
  0
LINE
  8
0
 10
-56.694412
 20
183.000061
 11
137.505585
 21
183.000061
  0
LINE
  8
0
 10
-56.294415
 20
178.000046
 11
-56.694427
 21
178.400055
  0
LINE
  8
0
 10
-56.294388
 20
162.000031
 11
-56.694386
 21
161.600037
  0
LINE
  8
0
  6
CENTER
 10
407.005615
 20
-39.999985
 11
337.005615
 21
-39.999985
  0
LINE
  8
0
 10
402.005615
 20
-97.999985
 11
402.005615
 21
1.500015
  0
LINE
  8
0
 10
342.005615
 20
-93.999985
 11
342.005615
 21
-64.999985
  0
LINE
  8
0
 10
344.005615
 20
-97.999985
 11
344.005615
 21
18.000015
  0
LINE
  8
0
 10
383.005920
 20
18.000015
 11
344.005615
 21
18.000015
  0
LINE
  8
0
 10
402.005615
 20
-97.999985
 11
359.005615
 21
-97.999985
  0
LINE
  8
0
 10
342.005371
 20
-94.000092
 11
344.005371
 21
-96.000099
  0
LINE
  8
0
 10
342.005371
 20
14.000162
 11
344.005371
 21
16.000166
  0
LINE
  8
0
 10
342.505615
 20
-64.499985
 11
342.505615
 21
-15.499987
  0
LINE
  8
0
 10
342.005615
 20
-14.999985
 11
342.005615
 21
14.000015
  0
LINE
  8
0
 10
342.005615
 20
-64.999962
 11
342.505585
 21
-64.499954
  0
LINE
  8
0
 10
342.005615
 20
-15.000005
 11
342.505585
 21
-15.500012
  0
LINE
  8
0
  6
CENTER
 10
394.005615
 20
2.500015
 11
346.005615
 21
2.500015
  0
LINE
  8
0
 10
382.005554
 20
7.695986
 11
386.505524
 21
5.097910
  0
LINE
  8
0
 10
386.505585
 20
5.098068
 11
386.505585
 21
-0.098068
  0
LINE
  8
0
  6
CENTER
 10
382.005615
 20
14.500015
 11
382.005615
 21
-9.499985
  0
LINE
  8
0
 10
377.505707
 20
5.097991
 11
382.005707
 21
7.696054
  0
LINE
  8
0
 10
377.505585
 20
-0.098038
 11
377.505585
 21
5.098099
  0
LINE
  8
0
 10
382.005463
 20
-2.696335
 11
377.505493
 21
-0.098260
  0
LINE
  8
0
 10
386.505493
 20
-0.097887
 11
382.005524
 21
-2.695962
  0
LINE
  8
0
 10
358.005493
 20
7.696067
 11
362.505493
 21
5.097991
  0
LINE
  8
0
 10
362.505585
 20
5.098068
 11
362.505585
 21
-0.098068
  0
LINE
  8
0
  6
CENTER
 10
358.005615
 20
14.500015
 11
358.005615
 21
-9.499985
  0
LINE
  8
0
 10
353.505585
 20
5.098123
 11
358.005585
 21
7.696188
  0
LINE
  8
0
 10
353.505585
 20
-0.098038
 11
353.505585
 21
5.098099
  0
LINE
  8
0
 10
358.005432
 20
-2.696337
 11
353.505493
 21
-0.098277
  0
LINE
  8
0
 10
362.505585
 20
-0.098070
 11
358.005585
 21
-2.696151
  0
LINE
  8
0
  6
CENTER
 10
395.005615
 20
-2.999985
 11
395.005615
 21
23.000015
  0
LINE
  8
0
 10
401.005615
 20
3.500015
 11
390.949890
 21
3.500015
  0
LINE
  8
0
 10
402.005615
 20
1.500015
 11
390.949890
 21
1.500015
  0
LINE
  8
0
 10
401.005615
 20
3.500015
 11
401.005615
 21
12.000015
  0
LINE
  8
0
 10
401.005615
 20
12.000015
 11
389.005920
 21
12.000015
  0
LINE
  8
0
 10
383.005951
 20
18.000275
 11
389.006073
 21
12.000135
  0
LINE
  8
0
 10
392.005615
 20
1.500015
 11
392.005615
 21
3.500015
  0
LINE
  8
0
 10
398.005615
 20
1.500015
 11
398.005615
 21
3.500015
  0
LINE
  8
0
 10
392.547119
 20
1.500015
 11
392.547119
 21
3.500015
  0
LINE
  8
0
 10
397.464111
 20
1.500015
 11
397.464111
 21
3.500015
  0
LINE
  8
0
 10
390.005615
 20
12.000015
 11
390.005615
 21
17.400017
  0
LINE
  8
0
 10
400.005615
 20
12.000015
 11
400.005615
 21
17.400017
  0
LINE
  8
0
 10
399.405609
 20
18.000015
 11
390.605591
 21
18.000015
  0
LINE
  8
0
 10
400.005615
 20
17.400017
 11
390.005615
 21
17.400017
  0
LINE
  8
0
 10
390.005737
 20
17.399948
 11
390.605713
 21
17.999947
  0
LINE
  8
0
 10
400.005615
 20
17.399902
 11
399.405579
 21
17.999933
  0
LINE
  8
0
  6
CENTER
 10
348.005615
 20
-82.499985
 11
368.005615
 21
-82.499985
  0
LINE
  8
0
  6
CENTER
 10
358.005615
 20
-72.499985
 11
358.005615
 21
-92.499985
  0
LINE
  8
0
 10
357.005615
 20
-88.922607
 11
357.005615
 21
-97.999985
  0
LINE
  8
0
 10
359.005615
 20
-88.922607
 11
359.005615
 21
-97.999985
  0
LINE
  8
0
 10
357.005615
 20
-97.999985
 11
344.005615
 21
-97.999985
  0
LINE
  8
0
  6
CENTER
 10
337.005615
 20
-92.999985
 11
364.005615
 21
-92.999985
  0
LINE
  8
0
 10
357.005615
 20
-95.999985
 11
359.005615
 21
-95.999985
  0
LINE
  8
0
 10
357.005615
 20
-89.999985
 11
359.005615
 21
-89.999985
  0
LINE
  8
0
 10
357.005615
 20
-90.541489
 11
359.005615
 21
-90.541489
  0
LINE
  8
0
 10
357.005615
 20
-95.458481
 11
359.005615
 21
-95.458481
  0
LINE
  8
0
  6
CENTER
 10
-183.494415
 20
-249.999985
 11
-144.494415
 21
-249.999985
  0
LINE
  8
0
 10
-178.494415
 20
-258.187988
 11
-178.494415
 21
-241.811981
  0
LINE
  8
0
 10
-177.682434
 20
-259.000000
 11
-174.494415
 21
-259.000000
  0
LINE
  8
0
 10
-177.682419
 20
-240.999985
 11
-174.494415
 21
-240.999985
  0
LINE
  8
0
 10
-178.494415
 20
-241.811981
 11
-174.494415
 21
-241.811981
  0
LINE
  8
0
 10
-178.494415
 20
-258.187988
 11
-174.494415
 21
-258.187988
  0
LINE
  8
0
 10
-178.494324
 20
-258.187836
 11
-177.682312
 21
-258.999847
  0
LINE
  8
0
 10
-178.494370
 20
-241.811966
 11
-177.682373
 21
-240.999954
  0
LINE
  8
0
 10
-177.682419
 20
-240.999985
 11
-177.682419
 21
-259.000000
  0
LINE
  8
0
  6
CENTER
 10
147.005585
 20
-260.000000
 11
162.005585
 21
-260.000000
  0
LINE
  8
0
 10
154.505661
 20
-257.113495
 11
152.005661
 21
-258.556885
  0
LINE
  8
0
 10
152.005585
 20
-258.556641
 11
152.005585
 21
-261.443359
  0
LINE
  8
0
 10
152.005554
 20
-261.443451
 11
154.505524
 21
-262.886810
  0
LINE
  8
0
 10
154.505676
 20
-262.886841
 11
157.005676
 21
-261.443481
  0
LINE
  8
0
 10
157.005615
 20
-261.443359
 11
157.005615
 21
-258.556641
  0
LINE
  8
0
 10
157.005630
 20
-258.556671
 11
154.505615
 21
-257.113281
  0
LINE
  8
0
  6
CENTER
 10
154.505585
 20
-252.499985
 11
154.505585
 21
-267.500000
  0
LINE
  8
0
  6
CENTER
 10
-179.494415
 20
-225.999985
 11
167.505585
 21
-225.999985
  0
LINE
  8
0
 10
-174.494415
 20
-270.000000
 11
-149.494415
 21
-270.000000
  0
LINE
  8
0
 10
-174.494415
 20
-211.999985
 11
-149.494415
 21
-211.999985
  0
LINE
  8
0
 10
-174.494415
 20
-211.999985
 11
-174.494415
 21
-270.000000
  0
LINE
  8
0
 10
-149.494415
 20
-211.999985
 11
-149.494415
 21
-270.000000
  0
LINE
  8
0
  6
CENTER
 10
-173.494415
 20
-239.999985
 11
-159.494415
 21
-239.999985
  0
LINE
  8
0
  6
CENTER
 10
-166.494415
 20
-232.999985
 11
-166.494415
 21
-246.999985
  0
LINE
  8
0
  6
CENTER
 10
-173.494415
 20
-260.000000
 11
-159.494415
 21
-260.000000
  0
LINE
  8
0
  6
CENTER
 10
-166.494415
 20
-252.999985
 11
-166.494415
 21
-267.000000
  0
LINE
  8
0
  6
CENTER
 10
171.505585
 20
-249.999985
 11
132.505585
 21
-249.999985
  0
LINE
  8
0
 10
166.505585
 20
-258.187988
 11
166.505585
 21
-241.811981
  0
LINE
  8
0
 10
165.693604
 20
-259.000000
 11
162.505585
 21
-259.000000
  0
LINE
  8
0
 10
165.693573
 20
-240.999985
 11
162.505585
 21
-240.999985
  0
LINE
  8
0
 10
166.505585
 20
-241.811981
 11
162.505585
 21
-241.811981
  0
LINE
  8
0
 10
166.505585
 20
-258.187988
 11
162.505585
 21
-258.187988
  0
LINE
  8
0
 10
166.505692
 20
-258.188080
 11
165.693695
 21
-259.000092
  0
LINE
  8
0
 10
166.505630
 20
-241.812012
 11
165.693604
 21
-240.999985
  0
LINE
  8
0
 10
165.693573
 20
-240.999985
 11
165.693573
 21
-259.000000
  0
LINE
  8
0
 10
162.505585
 20
-270.000000
 11
137.505585
 21
-270.000000
  0
LINE
  8
0
 10
162.505585
 20
-211.999985
 11
162.505585
 21
-270.000000
  0
LINE
  8
0
 10
137.505585
 20
-211.999985
 11
137.505585
 21
-270.000000
  0
LINE
  8
0
 10
162.505585
 20
-211.999985
 11
137.505585
 21
-211.999985
  0
LINE
  8
0
 10
137.505585
 20
-226.999985
 11
162.505585
 21
-226.999985
  0
LINE
  8
0
 10
137.505585
 20
-224.999985
 11
162.505585
 21
-224.999985
  0
LINE
  8
0
  6
CENTER
 10
153.505585
 20
-206.999985
 11
153.505585
 21
-231.999985
  0
LINE
  8
0
 10
148.005585
 20
-211.999985
 11
148.005585
 21
-217.999985
  0
LINE
  8
0
 10
159.005585
 20
-211.999985
 11
159.005585
 21
-217.999985
  0
LINE
  8
0
 10
158.505585
 20
-212.599991
 11
158.505585
 21
-217.999985
  0
LINE
  8
0
 10
148.505585
 20
-212.599991
 11
148.505585
 21
-217.999985
  0
LINE
  8
0
 10
159.005585
 20
-217.999985
 11
148.005585
 21
-217.999985
  0
LINE
  8
0
 10
158.505585
 20
-212.599991
 11
148.505585
 21
-212.599991
  0
LINE
  8
0
 10
148.505661
 20
-212.600143
 11
149.105667
 21
-212.000137
  0
LINE
  8
0
 10
158.505569
 20
-212.600021
 11
157.905533
 21
-211.999985
  0
LINE
  8
0
 10
156.505585
 20
-224.999985
 11
156.505585
 21
-226.999985
  0
LINE
  8
0
 10
150.505585
 20
-224.999985
 11
150.505585
 21
-226.999985
  0
LINE
  8
0
 10
155.964081
 20
-224.999985
 11
155.964081
 21
-226.999985
  0
LINE
  8
0
 10
151.047089
 20
-224.999985
 11
151.047089
 21
-226.999985
  0
LINE
  8
0
 10
-148.494415
 20
-210.999985
 11
-148.494415
 21
-239.999985
  0
LINE
  8
0
 10
-146.894409
 20
-209.999985
 11
-146.894409
 21
-239.999985
  0
LINE
  8
0
 10
-63.494415
 20
-210.999985
 11
-63.494415
 21
-239.999985
  0
LINE
  8
0
 10
-65.094414
 20
-209.999985
 11
-65.094414
 21
-239.999985
  0
LINE
  8
0
 10
-146.894409
 20
-209.999985
 11
-65.094414
 21
-209.999985
  0
LINE
  8
0
 10
-148.494415
 20
-210.999985
 11
-146.894409
 21
-210.999985
  0
LINE
  8
0
 10
-65.094414
 20
-210.999985
 11
-63.494415
 21
-210.999985
  0
LINE
  8
0
 10
137.505585
 20
-263.000000
 11
-149.494415
 21
-263.000000
  0
LINE
  8
0
 10
137.505585
 20
-239.999985
 11
-149.494415
 21
-239.999985
  0
LINE
  8
0
 10
-146.894409
 20
-263.000000
 11
-146.894409
 21
-268.000000
  0
LINE
  8
0
 10
-148.494415
 20
-263.000000
 11
-148.494415
 21
-268.000000
  0
LINE
  8
0
 10
-65.094414
 20
-263.000000
 11
-65.094414
 21
-268.000000
  0
LINE
  8
0
 10
-63.494415
 20
-263.000000
 11
-63.494415
 21
-268.000000
  0
LINE
  8
0
 10
-148.494415
 20
-268.000000
 11
-63.494415
 21
-268.000000
  0
LINE
  8
0
 10
137.505585
 20
-243.499985
 11
-149.494415
 21
-243.499985
  0
LINE
  8
0
 10
137.505585
 20
-254.499985
 11
-149.494415
 21
-254.499985
  0
LINE
  8
0
 10
-149.494415
 20
-215.999985
 11
-148.494415
 21
-215.999985
  0
LINE
  8
0
 10
-149.494415
 20
-235.999985
 11
-148.494415
 21
-235.999985
  0
LINE
  8
0
 10
-63.494415
 20
-215.999985
 11
137.505585
 21
-215.999985
  0
LINE
  8
0
 10
-63.494415
 20
-235.999985
 11
137.505585
 21
-235.999985
  0
LINE
  8
0
 10
-146.894409
 20
-212.999985
 11
-65.094414
 21
-212.999985
  0
LINE
  8
0
 10
-148.494415
 20
-235.494431
 11
-63.494415
 21
-235.494431
  0
LINE
  8
0
  6
CENTER
 10
-409.494263
 20
-39.999985
 11
-339.494263
 21
-39.999985
  0
LINE
  8
0
 10
-344.494263
 20
-93.999985
 11
-344.494263
 21
-64.999985
  0
LINE
  8
0
 10
-404.494263
 20
-97.999985
 11
-346.494263
 21
-97.999985
  0
LINE
  8
0
 10
-344.494080
 20
-94.000084
 11
-346.494080
 21
-96.000092
  0
LINE
  8
0
 10
-344.994263
 20
-64.499985
 11
-344.994263
 21
-15.499987
  0
LINE
  8
0
 10
-344.494324
 20
-65.000053
 11
-344.994324
 21
-64.500053
  0
LINE
  8
0
 10
-344.494354
 20
-14.999935
 11
-344.994354
 21
-15.499941
  0
LINE
  8
0
  6
CENTER
 10
-360.494263
 20
-70.499985
 11
-360.494263
 21
-94.499985
  0
LINE
  8
0
  6
CENTER
 10
-372.494263
 20
-82.499985
 11
-348.494263
 21
-82.499985
  0
LINE
  8
0
 10
-364.994293
 20
-85.098145
 11
-360.494293
 21
-87.696213
  0
LINE
  8
0
 10
-360.494324
 20
-87.696114
 11
-355.994324
 21
-85.098045
  0
LINE
  8
0
 10
-355.994232
 20
-85.098038
 11
-355.994232
 21
-79.901901
  0
LINE
  8
0
 10
-355.994324
 20
-79.901924
 11
-360.494324
 21
-77.303856
  0
LINE
  8
0
 10
-360.494415
 20
-77.303719
 11
-364.994415
 21
-79.901787
  0
LINE
  8
0
 10
-364.994232
 20
-79.901932
 11
-364.994232
 21
-85.098068
  0
LINE
  8
0
  6
CENTER
 10
-401.994263
 20
-71.999985
 11
-386.994263
 21
-71.999985
  0
LINE
  8
0
 10
-394.494446
 20
-69.113159
 11
-396.994446
 21
-70.556534
  0
LINE
  8
0
 10
-396.994263
 20
-70.556610
 11
-396.994263
 21
-73.443359
  0
LINE
  8
0
 10
-396.994293
 20
-73.443474
 11
-394.494293
 21
-74.886848
  0
LINE
  8
0
 10
-394.494293
 20
-74.886711
 11
-391.994293
 21
-73.443336
  0
LINE
  8
0
 10
-391.994232
 20
-73.443375
 11
-391.994232
 21
-70.556625
  0
LINE
  8
0
 10
-391.994263
 20
-70.556709
 11
-394.494263
 21
-69.113335
  0
LINE
  8
0
  6
CENTER
 10
-394.494263
 20
-64.499985
 11
-394.494263
 21
-79.499985
  0
LINE
  8
0
  6
CENTER
 10
-381.994263
 20
-71.999985
 11
-366.994263
 21
-71.999985
  0
LINE
  8
0
 10
-374.494446
 20
-69.113129
 11
-376.994446
 21
-70.556503
  0
LINE
  8
0
 10
-376.994263
 20
-70.556610
 11
-376.994263
 21
-73.443359
  0
LINE
  8
0
 10
-376.994324
 20
-73.443436
 11
-374.494324
 21
-74.886810
  0
LINE
  8
0
 10
-374.494293
 20
-74.886688
 11
-371.994293
 21
-73.443314
  0
LINE
  8
0
 10
-371.994232
 20
-73.443375
 11
-371.994232
 21
-70.556625
  0
LINE
  8
0
 10
-371.994324
 20
-70.556686
 11
-374.494324
 21
-69.113312
  0
LINE
  8
0
  6
CENTER
 10
-374.494263
 20
-64.499985
 11
-374.494263
 21
-79.499985
  0
LINE
  8
0
 10
-404.494263
 20
-97.999985
 11
-404.494263
 21
1.500015
  0
LINE
  8
0
 10
-346.494263
 20
-97.999985
 11
-346.494263
 21
18.000015
  0
LINE
  8
0
 10
-385.494568
 20
18.000015
 11
-346.494263
 21
18.000015
  0
LINE
  8
0
 10
-344.494080
 20
14.000186
 11
-346.494080
 21
16.000179
  0
LINE
  8
0
 10
-344.494263
 20
-14.999985
 11
-344.494263
 21
14.000015
  0
LINE
  8
0
  6
CENTER
 10
-396.494263
 20
2.500015
 11
-348.494263
 21
2.500015
  0
LINE
  8
0
 10
-384.494415
 20
7.696320
 11
-388.994415
 21
5.098252
  0
LINE
  8
0
 10
-388.994232
 20
5.098068
 11
-388.994232
 21
-0.098068
  0
LINE
  8
0
  6
CENTER
 10
-384.494263
 20
14.500015
 11
-384.494263
 21
-9.499985
  0
LINE
  8
0
 10
-379.994324
 20
5.098124
 11
-384.494324
 21
7.696193
  0
LINE
  8
0
 10
-379.994232
 20
-0.098038
 11
-379.994232
 21
5.098099
  0
LINE
  8
0
 10
-384.494293
 20
-2.696057
 11
-379.994324
 21
-0.097989
  0
LINE
  8
0
 10
-388.994263
 20
-0.098121
 11
-384.494263
 21
-2.696190
  0
LINE
  8
0
 10
-360.494385
 20
7.696331
 11
-364.994385
 21
5.098263
  0
LINE
  8
0
 10
-364.994232
 20
5.098068
 11
-364.994232
 21
-0.098068
  0
LINE
  8
0
  6
CENTER
 10
-360.494263
 20
14.500015
 11
-360.494263
 21
-9.499985
  0
LINE
  8
0
 10
-355.994293
 20
5.098122
 11
-360.494293
 21
7.696190
  0
LINE
  8
0
 10
-355.994232
 20
-0.098038
 11
-355.994232
 21
5.098099
  0
LINE
  8
0
 10
-360.494324
 20
-2.696102
 11
-355.994324
 21
-0.098033
  0
LINE
  8
0
 10
-364.994263
 20
-0.098121
 11
-360.494263
 21
-2.696190
  0
LINE
  8
0
  6
CENTER
 10
-397.494263
 20
-2.999985
 11
-397.494263
 21
23.000015
  0
LINE
  8
0
 10
-403.494263
 20
3.500015
 11
-393.438538
 21
3.500015
  0
LINE
  8
0
 10
-404.494263
 20
1.500015
 11
-393.438538
 21
1.500015
  0
LINE
  8
0
 10
-403.494263
 20
3.500015
 11
-403.494263
 21
12.000015
  0
LINE
  8
0
 10
-403.494263
 20
12.000015
 11
-391.494568
 21
12.000015
  0
LINE
  8
0
 10
-385.494720
 20
18.000431
 11
-391.494873
 21
12.000295
  0
LINE
  8
0
 10
-394.494263
 20
1.500015
 11
-394.494263
 21
3.500015
  0
LINE
  8
0
 10
-400.494263
 20
1.500015
 11
-400.494263
 21
3.500015
  0
LINE
  8
0
 10
-395.035767
 20
1.500015
 11
-395.035767
 21
3.500015
  0
LINE
  8
0
 10
-399.952759
 20
1.500015
 11
-399.952759
 21
3.500015
  0
LINE
  8
0
 10
-392.494263
 20
12.000015
 11
-392.494263
 21
17.400017
  0
LINE
  8
0
 10
-402.494263
 20
12.000015
 11
-402.494263
 21
17.400017
  0
LINE
  8
0
 10
-401.894257
 20
18.000015
 11
-393.094238
 21
18.000015
  0
LINE
  8
0
 10
-402.494263
 20
17.400017
 11
-392.494263
 21
17.400017
  0
LINE
  8
0
 10
-392.494385
 20
17.399952
 11
-393.094360
 21
17.999950
  0
LINE
  8
0
 10
-402.494385
 20
17.400068
 11
-401.894348
 21
18.000095
  0
ARC
  8
0
 62
     5
 10
386.130402
 20
-332.404785
 40
3.128082
 50
0.000000
 51
90.000000
  0
ARC
  8
0
 62
     5
 10
411.937195
 20
-349.218353
 40
3.128082
 50
270.000000
 51
0.000000
  0
ARC
  8
0
 62
     5
 10
410.373047
 20
-333.968781
 40
4.692139
 50
0.000000
 51
90.000000
  0
ARC
  8
0
 62
     5
 10
438.916931
 20
-332.404785
 40
3.128082
 50
0.000000
 51
90.000000
  0
ARC
  8
0
 62
     5
 10
438.916931
 20
-334.903870
 40
3.128100
 50
294.999969
 51
0.000000
  0
ARC
  8
0
 62
     5
 10
463.159668
 20
-329.276672
 40
4.692149
 50
291.688202
 51
0.000000
  0
ARC
  8
0
 62
     5
 10
461.595520
 20
-328.215485
 40
1.564059
 50
291.688049
 51
0.000000
  0
CIRCLE
  8
0
 10
-105.994385
 20
-65.999985
 40
4.000000
  0
CIRCLE
  8
0
 10
-80.994385
 20
-13.999981
 40
3.323500
  0
CIRCLE
  8
0
 10
-80.994385
 20
-13.999981
 40
4.000000
  0
CIRCLE
  8
0
 10
-130.994385
 20
-13.999981
 40
4.000000
  0
ARC
  8
0
 10
-105.994385
 20
-14.999981
 40
4.000000
 50
179.999985
 51
0.000000
  0
CIRCLE
  8
0
 10
153.505615
 20
-92.999985
 40
5.000000
  0
ARC
  8
0
 10
-105.994385
 20
-12.999981
 40
4.000000
 50
0.000000
 51
179.999954
  0
CIRCLE
  8
0
 10
-158.494385
 20
-14.999981
 40
4.500000
  0
CIRCLE
  8
0
 10
-158.494385
 20
-14.999981
 40
7.000000
  0
CIRCLE
  8
0
 10
146.505615
 20
-14.999981
 40
7.000000
  0
CIRCLE
  8
0
 10
146.505615
 20
-14.999981
 40
4.500000
  0
CIRCLE
  8
0
 10
-158.494385
 20
-64.999985
 40
7.000000
  0
CIRCLE
  8
0
 10
-158.494385
 20
-64.999985
 40
4.500000
  0
CIRCLE
  8
0
 10
146.505615
 20
-64.999985
 40
7.000000
  0
CIRCLE
  8
0
 10
146.505615
 20
-64.999985
 40
4.500000
  0
ARC
  8
0
 10
153.505615
 20
-92.999985
 40
5.500000
 50
0.000000
 51
180.000000
  0
CIRCLE
  8
0
 10
-130.994385
 20
-65.999985
 40
4.000000
  0
CIRCLE
  8
0
 10
-130.994385
 20
-65.999985
 40
3.323500
  0
CIRCLE
  8
0
 10
-80.994385
 20
-65.999985
 40
3.323500
  0
CIRCLE
  8
0
 10
-80.994385
 20
-65.999985
 40
4.000000
  0
CIRCLE
  8
0
 10
-130.994385
 20
-13.999981
 40
3.323500
  0
ARC
  8
0
 10
-63.339607
 20
158.741745
 40
6.645191
 50
0.000000
 51
34.383945
  0
ARC
  8
0
 10
-63.339607
 20
181.258377
 40
6.645188
 50
325.616028
 51
0.000000
  0
ARC
  8
0
 10
-81.533417
 20
170.000061
 40
24.839014
 50
342.412140
 51
17.587828
  0
ARC
  8
0
 10
-38.655411
 20
170.000061
 40
24.839012
 50
162.412216
 51
197.587906
  0
ARC
  8
0
 10
-56.849220
 20
181.258377
 40
6.645191
 50
180.000137
 51
214.383957
  0
ARC
  8
0
 10
-56.849220
 20
158.741745
 40
6.645195
 50
145.616074
 51
180.000000
  0
CIRCLE
  8
0
 10
-166.494415
 20
183.000046
 40
5.000000
  0
CIRCLE
  8
0
 10
154.505585
 20
183.000046
 40
5.000000
  0
CIRCLE
  8
0
 10
382.005615
 20
2.500015
 40
8.188000
  0
CIRCLE
  8
0
 10
382.005615
 20
2.500015
 40
9.000000
  0
CIRCLE
  8
0
 10
358.005615
 20
2.500015
 40
9.000000
  0
CIRCLE
  8
0
 10
358.005615
 20
-82.499985
 40
6.500000
  0
CIRCLE
  8
0
 10
358.005615
 20
2.500015
 40
8.188000
  0
CIRCLE
  8
0
 10
-166.494415
 20
-260.000000
 40
4.283000
  0
CIRCLE
  8
0
 10
-166.494415
 20
-260.000000
 40
4.864000
  0
CIRCLE
  8
0
 10
154.505585
 20
-260.000000
 40
4.283000
  0
CIRCLE
  8
0
 10
154.505585
 20
-260.000000
 40
4.864000
  0
CIRCLE
  8
0
 10
-166.494415
 20
-239.999985
 40
4.864000
  0
CIRCLE
  8
0
 10
-166.494415
 20
-239.999985
 40
4.283000
  0
CIRCLE
  8
0
 10
-360.494263
 20
2.500015
 40
8.188000
  0
CIRCLE
  8
0
 10
-360.494263
 20
2.500015
 40
9.000000
  0
CIRCLE
  8
0
 10
-360.494263
 20
-82.499985
 40
9.000000
  0
CIRCLE
  8
0
 10
-360.494263
 20
-82.499985
 40
8.188000
  0
CIRCLE
  8
0
 10
-394.494263
 20
-71.999985
 40
4.283000
  0
CIRCLE
  8
0
 10
-394.494263
 20
-71.999985
 40
4.864000
  0
CIRCLE
  8
0
 10
-374.494263
 20
-71.999985
 40
4.283000
  0
CIRCLE
  8
0
 10
-374.494263
 20
-71.999985
 40
4.864000
  0
CIRCLE
  8
0
 10
-384.494263
 20
2.500015
 40
8.188000
  0
CIRCLE
  8
0
 10
-384.494263
 20
2.500015
 40
9.000000
  0
TEXT
  8
0
 10
320.176178
 20
329.975403
 40
12.000000
  1
DATE : SEP ,1991
 50
0.000000
 41
1.052631
 51
0.000000
  7
STANDARD
  0
TEXT
  8
0
 10
-488.244446
 20
328.175323
 40
14.000000
  1
RODLESS CYLINDER
 50
0.000000
 41
1.052632
 51
0.000000
  7
STANDARD
  0
TEXT
  8
0
 10
-493.244446
 20
267.950592
 40
14.000000
  1
MODEL : MRG* 32xSt-K(200)
 50
0.000000
 41
1.052632
 51
0.000000
  7
STANDARD
  0
TEXT
  8
0
 10
-273.159271
 20
-182.499985
 40
10.000000
  1
5-Rc1/8
 50
0.000000
 41
1.052632
 51
0.000000
  7
STANDARD
  0
TEXT
  8
0
 10
-44.377251
 20
47.500015
 40
10.000000
  1
4-M8x1.25
 50
0.000000
 41
1.052632
 51
0.000000
  7
STANDARD
  0
TEXT
  8
0
 10
-162.301559
 20
-235.879990
 40
3.200000
  1
A
 50
0.000000
 41
1.052632
 51
0.000000
  7
STANDARD
  0
TEXT
  8
0
 10
-162.301559
 20
-255.879974
 40
3.200000
  1
B
 50
0.000000
 41
1.052632
 51
0.000000
  7
STANDARD
  0
TEXT
  8
0
 10
146.698441
 20
-255.879974
 40
3.200000
  1
B
 50
0.000000
 41
1.052632
 51
0.000000
  7
STANDARD
  0
TEXT
  8
0
 10
-391.374268
 20
-64.192848
 40
3.200000
  1
B
 50
-90.000000
 41
1.052632
 51
0.000000
  7
STANDARD
  0
TEXT
  8
0
 10
-371.374268
 20
-64.192848
 40
3.200000
  1
A
 50
-90.000000
 41
1.052632
 51
0.000000
  7
STANDARD
  0
ENDSEC
  0
EOF
