  0
SECTION
  2
HEADER
  0
ENDSEC
  0
SECTION
  2
TABLES
  0
TABLE
  2
LTYPE
 70
     4
  0
LTYPE
  2
CONTINUOUS
 70
    64
  3
Solid line
 72
    65
 73
     0
 40
0.000000
  0
LTYPE
  2
DASHED
 70
    64
  3
__ __ __ __ __ __ __ __ __ __ __ __ __ __ __
 72
    65
 73
     2
 40
3.500000
 49
2.000000
 49
-1.500000
  0
LTYPE
  2
CENTER
 70
    64
  3
____ _ ____ _ ____ _ ____ _ ____ _ ____ _ ____
 72
    65
 73
     4
 40
17.500000
 49
13.000000
 49
-1.500000
 49
1.500000
 49
-1.500000
  0
LTYPE
  2
PHANTOM
 70
    64
  3
_____ _ _ _____ _ _ _____ _ _ _____ _ _ ____  
 72
    65
 73
     6
 40
15.500000
 49
8.000000
 49
-1.500000
 49
1.500000
 49
-1.500000
 49
1.500000
 49
-1.500000
  0
LTYPE
  2
DASHED1
 70
    64
  3
__ __ __ __ __ __ __ __ __ __ __ __ __ __ __
 72
    65
 73
     2
 40
1.500000
 49
1.000000
 49
-0.500000
  0
LTYPE
  2
DASHED2
 70
    64
  3
__ __ __ __ __ __ __ __ __ __ __ __ __ __ __
 72
    65
 73
     2
 40
3.500000
 49
2.500000
 49
-1.000000
  0
LTYPE
  2
DASHED3
 70
    64
  3
__ __ __ __ __ __ __ __ __ __ __ __ __ __ __
 72
    65
 73
     2
 40
6.000000
 49
4.000000
 49
-2.000000
  0
LTYPE
  2
DASHED4
 70
    64
  3
__ __ __ __ __ __ __ __ __ __ __ __ __ __ __
 72
    65
 73
     2
 40
12.000000
 49
10.000000
 49
-2.000000
  0
LTYPE
  2
DASHED5
 70
    64
  3
__ __ __ __ __ __ __ __ __ __ __ __ __ __ __
 72
    65
 73
     2
 40
17.000000
 49
15.000000
 49
-2.000000
  0
LTYPE
  2
DASHED6
 70
    64
  3
__ __ __ __ __ __ __ __ __ __ __ __ __ __ __
 72
    65
 73
     2
 40
29.000000
 49
27.000000
 49
-2.000000
  0
LTYPE
  2
PHANTOM1
 70
    64
  3
_____ _ _ _____ _ _ _____ _ _ _____ _ _ ____  
 72
    65
 73
     6
 40
31.000000
 49
25.000000
 49
-1.500000
 49
1.000000
 49
-1.000000
 49
1.000000
 49
-1.500000
  0
LTYPE
  2
PHANTOM2
 70
    64
  3
_____ _ _ _____ _ _ _____ _ _ _____ _ _ ____  
 72
    65
 73
     6
 40
36.000000
 49
27.000000
 49
-1.500000
 49
2.500000
 49
-1.000000
 49
2.500000
 49
-1.500000
  0
LTYPE
  2
PHANTOM3
 70
    64
  3
_____ _ _ _____ _ _ _____ _ _ _____ _ _ ____  
 72
    65
 73
     6
 40
78.000000
 49
64.000000
 49
-2.000000
 49
4.000000
 49
-2.000000
 49
4.000000
 49
-2.000000
  0
LTYPE
  2
CENTER1
 70
    64
  3
____ _ ____ _ ____ _ ____ _ ____ _ ____ _ ____
 72
    65
 73
     4
 40
19.000000
 49
14.000000
 49
-1.000000
 49
3.000000
 49
-1.000000
  0
LTYPE
  2
CENTER2
 70
    64
  3
____ _ ____ _ ____ _ ____ _ ____ _ ____ _ ____
 72
    65
 73
     4
 40
28.500000
 49
25.000000
 49
-1.000000
 49
1.500000
 49
-1.000000
  0
LTYPE
  2
CENTER3
 70
    64
  3
____ _ ____ _ ____ _ ____ _ ____ _ ____ _ ____
 72
    65
 73
     4
 40
31.500000
 49
27.000000
 49
-1.000000
 49
2.500000
 49
-1.000000
  0
LTYPE
  2
CENTER4
 70
    64
  3
____ _ ____ _ ____ _ ____ _ ____ _ ____ _ ____
 72
    65
 73
     4
 40
50.000000
 49
45.000000
 49
-1.000000
 49
3.000000
 49
-1.000000
  0
LTYPE
  2
CENTER5
 70
    64
  3
____ _ ____ _ ____ _ ____ _ ____ _ ____ _ ____
 72
    65
 73
     4
 40
100.000000
 49
92.000000
 49
-2.000000
 49
4.000000
 49
-2.000000
  0
LTYPE
  2
SBK1
 70
    64
  3
______ _ _ _ ______ _ _ _ ______ _ _ _ _____  
 72
    65
 73
     8
 40
60.500000
 49
45.000000
 49
-2.000000
 49
2.500000
 49
-2.000000
 49
2.500000
 49
-2.000000
 49
2.500000
 49
-2.000000
  0
LTYPE
  2
SBK2
 70
    64
  3
______ _ _ _ ______ _ _ _ ______ _ _ _ _____  
 72
    65
 73
     8
 40
84.000000
 49
64.000000
 49
-2.000000
 49
4.000000
 49
-2.000000
 49
4.000000
 49
-2.000000
 49
4.000000
 49
-2.000000
  0
LTYPE
  2
STCH
 70
    64
  3
__ __ __ __ __ __ __ __ __ __ __ __ __ __ __
 72
    65
 73
     2
 40
3.000000
 49
1.000000
 49
-2.000000
  0
LTYPE
  2
MTCH
 70
    64
  3
_____ _ _ _____ _ _ _____ _ _ _____ _ _ ____  
 72
    65
 73
     6
 40
80.000000
 49
66.000000
 49
-2.000000
 49
4.000000
 49
-2.000000
 49
4.000000
 49
-2.000000
  0
ENDTAB
  0
TABLE
  2
LAYER
 70
     1
  0
LAYER
  2
0
 70
     0
 62
     7
  6
CONTINUOUS
  0
ENDTAB
  0
TABLE
  2
STYLE
 70
     1
  0
STYLE
  2
STANDARD
 70
     0
 40
0.000000
 41
1.000000
 50
0.000000
 71
     0
 42
0.200000
  3
txt
  4
BIGFONT
  0
ENDTAB
  0
TABLE
  2
VIEW
 70
     0
  0
ENDTAB
  0
ENDSEC
  0
SECTION
  2
BLOCKS
  0
ENDSEC
  0
SECTION
  2
ENTITIES
  0
POINT
  8
0
 10
-197.247208
 20
-24.999987
  0
POINT
  8
0
 10
-62.247219
 20
-25.000002
  0
POINT
  8
0
 10
-62.247211
 20
97.999969
  0
POINT
  8
0
 10
-62.247215
 20
-142.999985
  0
POINT
  8
0
 10
163.247253
 20
-25.000006
  0
POINT
  8
0
 10
62.752781
 20
-25.000002
  0
POINT
  8
0
 10
62.752789
 20
97.999969
  0
POINT
  8
0
 10
197.247253
 20
-25.000006
  0
POINT
  8
0
 10
62.752785
 20
-142.999985
  0
POINT
  8
0
 10
-163.247208
 20
-24.999987
  0
LINE
  8
0
 62
     3
 10
-262.247223
 20
-180.000046
 11
-262.247223
 21
180.000046
  0
LINE
  8
0
 62
     3
 10
262.247223
 20
180.000046
 11
262.247223
 21
-180.000046
  0
LINE
  8
0
 62
     3
 10
-262.247223
 20
-180.000046
 11
262.247223
 21
-180.000046
  0
LINE
  8
0
 62
     3
 10
-262.247223
 20
180.000046
 11
262.247223
 21
180.000046
  0
LINE
  8
0
 62
     3
 10
-262.247223
 20
159.775299
 11
-154.382050
 21
159.775299
  0
LINE
  8
0
 62
     3
 10
-154.382050
 20
159.775299
 11
-154.382050
 21
180.000046
  0
LINE
  8
0
 62
     3
 10
154.382034
 20
-159.775345
 11
262.247223
 21
-159.775345
  0
LINE
  8
0
 62
     5
 10
182.703415
 20
-164.638336
 11
193.065201
 21
-164.638336
  0
LINE
  8
0
 62
     5
 10
182.703415
 20
-173.827118
 11
191.501175
 21
-173.827118
  0
LINE
  8
0
 62
     5
 10
182.703415
 20
-176.173172
 11
194.629272
 21
-176.173172
  0
LINE
  8
0
 62
     5
 10
182.703415
 20
-166.984390
 11
191.501175
 21
-166.984390
  0
LINE
  8
0
 62
     5
 10
182.703415
 20
-164.638336
 11
182.703415
 21
-166.984390
  0
LINE
  8
0
 62
     5
 10
194.629272
 20
-166.202393
 11
194.629272
 21
-176.173172
  0
LINE
  8
0
 62
     5
 10
191.501175
 20
-166.984390
 11
191.501175
 21
-173.827118
  0
LINE
  8
0
 62
     5
 10
196.388779
 20
-164.638336
 11
196.388779
 21
-166.984390
  0
LINE
  8
0
 62
     5
 10
207.532593
 20
-166.984390
 11
207.532593
 21
-174.609177
  0
LINE
  8
0
 62
     5
 10
204.404526
 20
-166.984390
 11
204.404526
 21
-173.827118
  0
LINE
  8
0
 62
     5
 10
182.703415
 20
-173.827118
 11
182.703415
 21
-176.173172
  0
LINE
  8
0
 62
     5
 10
196.388779
 20
-164.638336
 11
199.479568
 21
-164.638336
  0
LINE
  8
0
 62
     5
 10
196.388779
 20
-176.173172
 11
198.817642
 21
-176.173172
  0
LINE
  8
0
 62
     5
 10
196.388718
 20
-176.173080
 11
198.850922
 21
-166.984344
  0
LINE
  8
0
 62
     5
 10
196.388779
 20
-166.984390
 11
198.850937
 21
-166.984390
  0
LINE
  8
0
 62
     5
 10
198.817780
 20
-176.173279
 11
201.279861
 21
-166.984528
  0
LINE
  8
0
 62
     5
 10
202.058426
 20
-173.827118
 11
204.404526
 21
-173.827118
  0
LINE
  8
0
 62
     5
 10
202.058365
 20
-173.827072
 11
202.686935
 21
-176.173096
  0
LINE
  8
0
 62
     5
 10
202.687119
 20
-176.173172
 11
205.968597
 21
-176.173172
  0
LINE
  8
0
 62
     5
 10
201.279770
 20
-166.984390
 11
204.404526
 21
-166.984390
  0
LINE
  8
0
 62
     5
 10
201.908386
 20
-164.638336
 11
205.186523
 21
-164.638336
  0
LINE
  8
0
 62
     5
 10
199.479599
 20
-164.638351
 11
199.945786
 21
-162.898392
  0
LINE
  8
0
 62
     5
 10
201.908234
 20
-164.638229
 11
202.374420
 21
-162.898209
  0
LINE
  8
0
 62
     5
 10
209.487671
 20
-164.638336
 11
213.202286
 21
-164.638336
  0
LINE
  8
0
 62
     5
 10
209.487671
 20
-166.984390
 11
218.610596
 21
-166.984390
  0
LINE
  8
0
 62
     5
 10
213.202286
 20
-176.173172
 11
216.330322
 21
-176.173172
  0
LINE
  8
0
 62
     5
 10
209.487671
 20
-164.638336
 11
209.487671
 21
-166.984390
  0
LINE
  8
0
 62
     5
 10
221.022522
 20
-171.238510
 11
221.022522
 21
-173.827118
  0
LINE
  8
0
 62
     5
 10
209.487518
 20
-173.827026
 11
213.202194
 21
-172.094818
  0
LINE
  8
0
 62
     5
 10
209.487885
 20
-171.238678
 11
218.610779
 21
-166.984558
  0
LINE
  8
0
 62
     5
 10
209.487671
 20
-171.238510
 11
209.487671
 21
-173.827118
  0
LINE
  8
0
 62
     5
 10
216.330246
 20
-171.639053
 11
221.022491
 21
-173.827042
  0
LINE
  8
0
 62
     5
 10
218.031052
 20
-169.843643
 11
221.022827
 21
-171.238724
  0
LINE
  8
0
 62
     5
 10
221.022522
 20
-166.202393
 11
221.022522
 21
-167.451935
  0
LINE
  8
0
 62
     5
 10
213.202286
 20
-162.898361
 11
213.202286
 21
-164.638336
  0
LINE
  8
0
 62
     5
 10
216.330322
 20
-162.898361
 11
216.330322
 21
-164.638336
  0
LINE
  8
0
 62
     5
 10
216.330322
 20
-164.638336
 11
219.458466
 21
-164.638336
  0
LINE
  8
0
 62
     5
 10
213.202286
 20
-172.094986
 11
213.202286
 21
-176.173172
  0
LINE
  8
0
 62
     5
 10
216.330322
 20
-171.639160
 11
216.330322
 21
-176.173172
  0
LINE
  8
0
 62
     5
 10
218.030975
 20
-169.843597
 11
220.119705
 21
-168.869614
  0
LINE
  8
0
 62
     5
 10
231.579834
 20
-163.602188
 11
233.925842
 21
-163.602188
  0
LINE
  8
0
 62
     5
 10
222.000061
 20
-168.448334
 11
222.000061
 21
-170.973129
  0
LINE
  8
0
 62
     5
 10
233.925842
 20
-163.602188
 11
233.925842
 21
-164.638336
  0
LINE
  8
0
 62
     5
 10
231.579834
 20
-163.602188
 11
231.579834
 21
-164.107742
  0
LINE
  8
0
 62
     5
 10
228.451721
 20
-168.407227
 11
228.451721
 21
-176.173172
  0
LINE
  8
0
 62
     5
 10
222.000137
 20
-168.448441
 11
231.086914
 21
-164.834534
  0
LINE
  8
0
 62
     5
 10
222.000092
 20
-170.973236
 11
228.451752
 21
-168.407303
  0
LINE
  8
0
 62
     5
 10
228.451721
 20
-176.173172
 11
231.579834
 21
-176.173172
  0
LINE
  8
0
 62
     5
 10
231.579834
 20
-167.163162
 11
231.579834
 21
-176.173172
  0
LINE
  8
0
 62
     5
 10
231.580063
 20
-167.163315
 11
232.447128
 21
-166.818451
  0
LINE
  8
0
 62
     5
 10
199.945801
 20
-162.898361
 11
202.374603
 21
-162.898361
  0
LINE
  8
0
 62
     5
 10
206.261841
 20
-162.898361
 11
207.258865
 21
-162.898361
  0
LINE
  8
0
 62
     5
 10
213.202286
 20
-162.898361
 11
216.330322
 21
-162.898361
  0
LINE
  8
0
 62
     5
 10
206.261841
 20
-164.462418
 11
207.258865
 21
-164.462418
  0
LINE
  8
0
 62
     5
 10
206.261841
 20
-162.898361
 11
206.261841
 21
-164.462418
  0
LINE
  8
0
 62
     5
 10
207.258865
 20
-162.898361
 11
207.258865
 21
-164.462418
  0
LINE
  8
0
 62
     5
 10
207.845444
 20
-162.898361
 11
207.845444
 21
-164.462418
  0
LINE
  8
0
 62
     5
 10
208.959839
 20
-162.898361
 11
208.959839
 21
-164.462418
  0
LINE
  8
0
 62
     5
 10
207.845444
 20
-162.898361
 11
208.959839
 21
-162.898361
  0
LINE
  8
0
 62
     5
 10
207.845444
 20
-164.462418
 11
208.959839
 21
-164.462418
  0
LINE
  8
0
 62
     3
 10
154.382034
 20
159.775299
 11
262.247223
 21
159.775299
  0
LINE
  8
0
 62
     3
 10
154.382034
 20
180.000046
 11
154.382034
 21
159.775299
  0
LINE
  8
0
 62
     3
 10
154.382034
 20
-159.775345
 11
154.382034
 21
-180.000046
  0
LINE
  8
0
 10
-62.247219
 20
-55.000000
 11
-62.247219
 21
4.999998
  0
LINE
  8
0
  6
CENTER
 10
-67.247223
 20
-25.000002
 11
67.752777
 21
-25.000002
  0
LINE
  8
0
 10
-48.247219
 20
-55.000000
 11
-48.247219
 21
4.999998
  0
LINE
  8
0
 10
-62.247219
 20
4.999998
 11
-48.247219
 21
4.999998
  0
LINE
  8
0
 10
-62.247219
 20
-55.000000
 11
-48.247219
 21
-55.000000
  0
LINE
  8
0
  6
CENTER
 10
-59.247219
 20
-35.000000
 11
-47.247219
 21
-35.000000
  0
LINE
  8
0
  6
CENTER
 10
-53.247219
 20
-29.000002
 11
-53.247219
 21
-41.000000
  0
LINE
  8
0
  6
CENTER
 10
-53.247219
 20
-21.000002
 11
-53.247219
 21
-9.000002
  0
LINE
  8
0
  6
CENTER
 10
-59.247219
 20
-15.000002
 11
-47.247219
 21
-15.000002
  0
LINE
  8
0
 10
62.752781
 20
-55.000000
 11
62.752781
 21
4.999998
  0
LINE
  8
0
  6
CENTER
 10
59.752781
 20
-35.000000
 11
47.752781
 21
-35.000000
  0
LINE
  8
0
 10
48.752781
 20
-55.000000
 11
48.752781
 21
4.999998
  0
LINE
  8
0
 10
62.752781
 20
4.999998
 11
48.752781
 21
4.999998
  0
LINE
  8
0
  6
CENTER
 10
69.752777
 20
-5.000002
 11
45.752781
 21
-5.000002
  0
LINE
  8
0
 10
66.752777
 20
-9.459002
 11
66.752777
 21
-0.541002
  0
LINE
  8
0
 10
66.211777
 20
-0.000002
 11
62.752781
 21
-0.000002
  0
LINE
  8
0
 10
66.211777
 20
-10.000002
 11
62.752781
 21
-10.000002
  0
LINE
  8
0
 10
66.752777
 20
-9.459002
 11
62.752781
 21
-9.459002
  0
LINE
  8
0
 10
66.752777
 20
-0.541002
 11
62.752781
 21
-0.541002
  0
LINE
  8
0
 10
66.752823
 20
-0.540958
 11
66.211823
 21
0.000042
  0
LINE
  8
0
 10
66.752792
 20
-9.459007
 11
66.211792
 21
-10.000010
  0
LINE
  8
0
 10
66.211777
 20
-0.000002
 11
66.211777
 21
-10.000002
  0
LINE
  8
0
  6
CENTER
 10
53.752781
 20
-29.000002
 11
53.752781
 21
-41.000000
  0
LINE
  8
0
  6
CENTER
 10
53.752781
 20
-21.000002
 11
53.752781
 21
-9.000002
  0
LINE
  8
0
  6
CENTER
 10
59.752781
 20
-15.000002
 11
47.752781
 21
-15.000002
  0
LINE
  8
0
 10
62.752781
 20
-55.000000
 11
48.752781
 21
-55.000000
  0
LINE
  8
0
  6
CENTER
 10
58.752781
 20
-47.000000
 11
58.752781
 21
-57.000000
  0
LINE
  8
0
  6
CENTER
 10
53.752781
 20
-52.000000
 11
63.752781
 21
-52.000000
  0
LINE
  8
0
 10
61.752781
 20
-52.000000
 11
61.752781
 21
-55.000000
  0
LINE
  8
0
 10
55.752781
 20
-52.000000
 11
55.752781
 21
-55.000000
  0
LINE
  8
0
 10
57.502781
 20
-52.721691
 11
58.752777
 21
-53.443378
  0
LINE
  8
0
 10
58.752781
 20
-53.443398
 11
60.002781
 21
-52.721710
  0
LINE
  8
0
 10
60.002781
 20
-52.721695
 11
60.002781
 21
-51.278313
  0
LINE
  8
0
 10
60.002781
 20
-51.278313
 11
58.752781
 21
-50.556625
  0
LINE
  8
0
 10
58.752796
 20
-50.556652
 11
57.502796
 21
-51.278339
  0
LINE
  8
0
 10
57.502781
 20
-51.278313
 11
57.502781
 21
-52.721687
  0
LINE
  8
0
  6
CENTER
 10
-24.747219
 20
-57.500000
 11
-24.747219
 21
7.499998
  0
LINE
  8
0
 10
-47.247219
 20
4.499998
 11
-2.247219
 21
4.499998
  0
LINE
  8
0
 10
-47.247219
 20
-54.500000
 11
-2.247219
 21
-54.500000
  0
LINE
  8
0
 10
-3.447220
 20
-54.500000
 11
-3.447220
 21
4.499998
  0
LINE
  8
0
 10
-46.047218
 20
-54.500000
 11
-46.047218
 21
4.499998
  0
LINE
  8
0
 10
-2.247219
 20
-54.500000
 11
-2.247219
 21
4.499998
  0
LINE
  8
0
 10
-47.247219
 20
-54.500000
 11
-47.247219
 21
4.499998
  0
LINE
  8
0
 10
-46.047218
 20
-30.000002
 11
-3.447220
 21
-30.000002
  0
LINE
  8
0
 10
-46.047218
 20
-20.000002
 11
-3.447220
 21
-20.000002
  0
LINE
  8
0
  6
CENTER
 10
-40.747219
 20
-37.500000
 11
-33.747219
 21
-37.500000
  0
LINE
  8
0
  6
CENTER
 10
-37.247219
 20
-34.000000
 11
-37.247219
 21
-41.000000
  0
LINE
  8
0
  6
CENTER
 10
-37.247219
 20
-16.000002
 11
-37.247219
 21
-9.000002
  0
LINE
  8
0
  6
CENTER
 10
-40.747219
 20
-12.500002
 11
-33.747219
 21
-12.500002
  0
LINE
  8
0
  6
CENTER
 10
-12.247219
 20
-34.000000
 11
-12.247219
 21
-41.000000
  0
LINE
  8
0
  6
CENTER
 10
-8.747219
 20
-37.500000
 11
-15.747219
 21
-37.500000
  0
LINE
  8
0
  6
CENTER
 10
-12.247219
 20
-16.000002
 11
-12.247219
 21
-9.000002
  0
LINE
  8
0
  6
CENTER
 10
-8.747219
 20
-12.500002
 11
-15.747219
 21
-12.500002
  0
LINE
  8
0
  6
CENTER
 10
-28.247219
 20
-37.500000
 11
-21.247219
 21
-37.500000
  0
LINE
  8
0
  6
CENTER
 10
-28.247219
 20
-12.500002
 11
-21.247219
 21
-12.500002
  0
LINE
  8
0
 10
-26.747219
 20
-13.500002
 11
-26.747219
 21
-11.500002
  0
LINE
  8
0
 10
-22.747219
 20
-13.500002
 11
-22.747219
 21
-11.500002
  0
LINE
  8
0
  6
CENTER
 10
-5.247219
 20
-3.000002
 11
51.752781
 21
-3.000002
  0
LINE
  8
0
  6
CENTER
 10
-5.247219
 20
-47.000000
 11
65.752777
 21
-47.000000
  0
LINE
  8
0
 10
-48.247219
 20
-8.000002
 11
-47.247219
 21
-8.000002
  0
LINE
  8
0
 10
-48.247219
 20
1.999998
 11
-47.247219
 21
1.999998
  0
LINE
  8
0
 10
-48.247219
 20
-42.000000
 11
-47.247219
 21
-42.000000
  0
LINE
  8
0
 10
-48.247219
 20
-52.000000
 11
-47.247219
 21
-52.000000
  0
LINE
  8
0
 10
-2.247219
 20
-52.000000
 11
48.752781
 21
-52.000000
  0
LINE
  8
0
 10
-2.247219
 20
-42.000000
 11
48.752781
 21
-42.000000
  0
LINE
  8
0
 10
-2.247219
 20
-8.000002
 11
48.752781
 21
-8.000002
  0
LINE
  8
0
 10
-2.247219
 20
1.999998
 11
48.752781
 21
1.999998
  0
LINE
  8
0
 10
-48.247219
 20
-30.500002
 11
-47.247219
 21
-30.500002
  0
LINE
  8
0
 10
-48.247219
 20
-19.500002
 11
-47.247219
 21
-19.500002
  0
LINE
  8
0
 10
-2.247219
 20
-19.500002
 11
48.752781
 21
-19.500002
  0
LINE
  8
0
 10
-2.247219
 20
-30.500002
 11
48.752781
 21
-30.500002
  0
LINE
  8
0
  6
CENTER
 10
-69.247223
 20
-5.000002
 11
-45.247219
 21
-5.000002
  0
LINE
  8
0
 10
-66.247223
 20
-9.459002
 11
-66.247223
 21
-0.541002
  0
LINE
  8
0
 10
-65.706223
 20
-0.000002
 11
-62.247219
 21
-0.000002
  0
LINE
  8
0
 10
-65.706223
 20
-10.000002
 11
-62.247219
 21
-10.000002
  0
LINE
  8
0
 10
-66.247223
 20
-9.459002
 11
-62.247219
 21
-9.459002
  0
LINE
  8
0
 10
-66.247223
 20
-0.541002
 11
-62.247219
 21
-0.541002
  0
LINE
  8
0
 10
-66.247215
 20
-0.541004
 11
-65.706215
 21
-0.000003
  0
LINE
  8
0
 10
-66.247223
 20
-9.459002
 11
-65.706215
 21
-10.000003
  0
LINE
  8
0
 10
-65.706223
 20
-0.000002
 11
-65.706223
 21
-10.000002
  0
LINE
  8
0
  6
CENTER
 10
-67.747223
 20
-41.000000
 11
-59.247219
 21
-41.000000
  0
LINE
  8
0
 10
-64.747223
 20
-44.500000
 11
-64.747223
 21
-41.500000
  0
LINE
  8
0
 10
-64.434616
 20
-38.979279
 11
-62.559814
 21
-38.979279
  0
LINE
  8
0
 10
-64.434616
 20
-43.020721
 11
-62.559818
 21
-43.020721
  0
LINE
  8
0
 10
-64.434631
 20
-36.958549
 11
-62.559811
 21
-36.958549
  0
LINE
  8
0
 10
-64.434616
 20
-45.041451
 11
-62.559818
 21
-45.041451
  0
LINE
  8
0
 10
-64.747246
 20
-44.500015
 11
-64.434639
 21
-45.041466
  0
LINE
  8
0
 10
-64.747238
 20
-37.499992
 11
-64.434631
 21
-36.958542
  0
LINE
  8
0
 10
-62.247234
 20
-37.500019
 11
-62.559845
 21
-36.958565
  0
LINE
  8
0
 10
-62.247227
 20
-44.499992
 11
-62.559837
 21
-45.041451
  0
LINE
  8
0
 10
-63.247219
 20
-41.500000
 11
-63.247219
 21
-40.500000
  0
LINE
  8
0
 10
-64.747223
 20
-40.500000
 11
-63.247219
 21
-40.500000
  0
LINE
  8
0
 10
-64.747223
 20
-41.500000
 11
-63.247219
 21
-41.500000
  0
LINE
  8
0
 10
-64.747223
 20
-40.500000
 11
-64.747223
 21
-37.499985
  0
LINE
  8
0
 10
0.552780
 20
-8.000002
 11
0.552780
 21
-12.000002
  0
LINE
  8
0
 10
-2.247219
 20
-12.000002
 11
0.552780
 21
-12.000002
  0
LINE
  8
0
  6
CENTER
 10
-69.247208
 20
85.999969
 11
11.952785
 21
85.999969
  0
LINE
  8
0
 10
-66.247208
 20
90.458969
 11
-66.247208
 21
81.540970
  0
LINE
  8
0
 10
-65.706207
 20
80.999969
 11
-62.247211
 21
80.999969
  0
LINE
  8
0
 10
-65.706207
 20
90.999969
 11
-62.247211
 21
90.999969
  0
LINE
  8
0
 10
-66.247208
 20
90.458969
 11
-62.247211
 21
90.458969
  0
LINE
  8
0
 10
-66.247208
 20
81.540970
 11
-62.247211
 21
81.540970
  0
LINE
  8
0
 10
-66.247215
 20
81.540970
 11
-65.706207
 21
80.999969
  0
LINE
  8
0
 10
-66.247215
 20
90.458977
 11
-65.706215
 21
90.999977
  0
LINE
  8
0
 10
-65.706207
 20
80.999969
 11
-65.706207
 21
90.999969
  0
LINE
  8
0
  6
CENTER
 10
-67.747208
 20
80.499969
 11
-59.247211
 21
80.499969
  0
LINE
  8
0
 10
-64.747208
 20
80.999969
 11
-64.747208
 21
76.999954
  0
LINE
  8
0
 10
-62.247211
 20
64.999969
 11
-48.247211
 21
64.999969
  0
LINE
  8
0
 10
-62.247211
 20
64.999969
 11
-62.247211
 21
97.999969
  0
LINE
  8
0
 10
-48.247211
 20
64.999969
 11
-48.247211
 21
97.999969
  0
LINE
  8
0
 10
-62.247211
 20
97.999969
 11
-48.247211
 21
97.999969
  0
LINE
  8
0
  6
CENTER
 10
-67.747208
 20
91.999969
 11
-59.247211
 21
91.999969
  0
LINE
  8
0
  6
CENTER
 10
69.752792
 20
85.999969
 11
45.752789
 21
85.999969
  0
LINE
  8
0
 10
62.752789
 20
97.999969
 11
48.752789
 21
97.999969
  0
LINE
  8
0
 10
62.752789
 20
64.999969
 11
48.752789
 21
64.999969
  0
LINE
  8
0
 10
48.752789
 20
64.999969
 11
48.752789
 21
97.999969
  0
LINE
  8
0
 10
62.752789
 20
64.999969
 11
62.752789
 21
97.999969
  0
LINE
  8
0
 10
66.752792
 20
90.458969
 11
66.752792
 21
81.540970
  0
LINE
  8
0
 10
66.211792
 20
80.999969
 11
62.752789
 21
80.999969
  0
LINE
  8
0
 10
66.752800
 20
81.540985
 11
66.211800
 21
80.999985
  0
LINE
  8
0
 10
66.752792
 20
81.540970
 11
62.752789
 21
81.540970
  0
LINE
  8
0
 10
66.211792
 20
80.999969
 11
66.211792
 21
90.999969
  0
LINE
  8
0
 10
66.752777
 20
90.458954
 11
66.211769
 21
90.999954
  0
LINE
  8
0
 10
66.752792
 20
90.458969
 11
62.752789
 21
90.458969
  0
LINE
  8
0
 10
66.211792
 20
90.999969
 11
62.752789
 21
90.999969
  0
LINE
  8
0
  6
CENTER
 10
65.752792
 20
71.999969
 11
-65.247208
 21
71.999969
  0
LINE
  8
0
 10
48.752789
 20
66.999969
 11
-2.247211
 21
66.999969
  0
LINE
  8
0
 10
48.752789
 20
76.999969
 11
-2.247211
 21
76.999969
  0
LINE
  8
0
 10
-48.247211
 20
96.999969
 11
48.752789
 21
96.999969
  0
LINE
  8
0
 10
-47.247211
 20
63.999969
 11
-47.247211
 21
95.999969
  0
LINE
  8
0
 10
-46.047211
 20
63.999969
 11
-46.047211
 21
95.999969
  0
LINE
  8
0
 10
-3.447212
 20
63.999969
 11
-3.447212
 21
95.999969
  0
LINE
  8
0
 10
-2.247211
 20
63.999969
 11
-2.247211
 21
95.999969
  0
LINE
  8
0
 10
-47.247211
 20
63.999969
 11
-2.247211
 21
63.999969
  0
LINE
  8
0
 10
-47.247211
 20
66.999969
 11
-48.247211
 21
66.999969
  0
LINE
  8
0
 10
-47.247211
 20
76.999969
 11
-48.247211
 21
76.999969
  0
LINE
  8
0
 10
-62.247211
 20
86.824539
 11
-48.247211
 21
86.824539
  0
LINE
  8
0
 10
-62.247211
 20
89.999969
 11
-48.247211
 21
89.999969
  0
LINE
  8
0
  6
CENTER
 10
-57.247211
 20
99.500015
 11
-57.247211
 21
88.500015
  0
LINE
  8
0
  6
CENTER
 10
-62.747211
 20
94.000015
 11
-51.747211
 21
94.000015
  0
LINE
  8
0
 10
-58.747231
 20
93.133980
 11
-57.247227
 21
92.267952
  0
LINE
  8
0
 10
-57.247219
 20
92.267975
 11
-55.747219
 21
93.133995
  0
LINE
  8
0
 10
-55.747211
 20
93.133987
 11
-55.747211
 21
94.866043
  0
LINE
  8
0
 10
-55.747200
 20
94.866043
 11
-57.247204
 21
95.732071
  0
LINE
  8
0
 10
-57.247223
 20
95.732132
 11
-58.747227
 21
94.866112
  0
LINE
  8
0
 10
-58.747234
 20
94.866058
 11
-58.747234
 21
93.134003
  0
LINE
  8
0
 10
57.752773
 20
95.732079
 11
59.252777
 21
94.866051
  0
LINE
  8
0
 10
59.252811
 20
94.866058
 11
59.252811
 21
93.134003
  0
LINE
  8
0
 10
62.752789
 20
86.824539
 11
48.752789
 21
86.824539
  0
LINE
  8
0
 10
62.752789
 20
89.999969
 11
48.752789
 21
89.999969
  0
LINE
  8
0
  6
CENTER
 10
57.752789
 20
99.500015
 11
57.752789
 21
88.500015
  0
LINE
  8
0
  6
CENTER
 10
63.252789
 20
94.000015
 11
52.252789
 21
94.000015
  0
LINE
  8
0
 10
59.252811
 20
93.133980
 11
57.752808
 21
92.267960
  0
LINE
  8
0
 10
57.752781
 20
92.267944
 11
56.252781
 21
93.133965
  0
LINE
  8
0
 10
56.252789
 20
93.133987
 11
56.252789
 21
94.866043
  0
LINE
  8
0
 10
56.252792
 20
94.866043
 11
57.752796
 21
95.732071
  0
LINE
  8
0
 10
-47.247211
 20
95.999969
 11
-2.247211
 21
95.999969
  0
LINE
  8
0
 10
-47.247211
 20
64.999969
 11
-2.247211
 21
64.999969
  0
LINE
  8
0
 10
-47.247211
 20
89.999969
 11
-2.247211
 21
89.999969
  0
LINE
  8
0
 10
0.952789
 20
81.540970
 11
0.952789
 21
90.458969
  0
LINE
  8
0
 10
8.952785
 20
84.499969
 11
8.952785
 21
87.499969
  0
LINE
  8
0
 10
0.952789
 20
87.499969
 11
8.952785
 21
87.499969
  0
LINE
  8
0
 10
0.952789
 20
84.499969
 11
8.952785
 21
84.499969
  0
LINE
  8
0
 10
8.952785
 20
85.499969
 11
48.752789
 21
85.499969
  0
LINE
  8
0
 10
0.552788
 20
78.999947
 11
0.552788
 21
92.999969
  0
LINE
  8
0
 10
0.552788
 20
90.458969
 11
0.952789
 21
90.458969
  0
LINE
  8
0
 10
0.552788
 20
81.540970
 11
0.952789
 21
81.540970
  0
LINE
  8
0
 10
0.952804
 20
81.540947
 11
0.552801
 21
81.140945
  0
LINE
  8
0
 10
0.952790
 20
90.458984
 11
0.552789
 21
90.858994
  0
LINE
  8
0
 10
-1.622005
 20
94.082870
 11
-0.072422
 21
94.082870
  0
LINE
  8
0
 10
-1.621998
 20
90.041420
 11
-0.072426
 21
90.041420
  0
LINE
  8
0
 10
-1.621998
 20
81.958519
 11
-0.072426
 21
81.958519
  0
LINE
  8
0
 10
0.552807
 20
92.999985
 11
-0.072408
 21
94.082886
  0
LINE
  8
0
 10
0.552788
 20
78.999969
 11
-0.072427
 21
77.917068
  0
LINE
  8
0
 10
-1.622002
 20
77.917068
 11
-0.072414
 21
77.917068
  0
LINE
  8
0
 10
-2.247203
 20
92.999969
 11
-1.621988
 21
94.082870
  0
LINE
  8
0
 10
-2.247207
 20
78.999985
 11
-1.621992
 21
77.917084
  0
LINE
  8
0
 10
-48.247211
 20
94.082870
 11
-47.247211
 21
94.082870
  0
LINE
  8
0
 10
-48.247211
 20
77.917068
 11
-47.247211
 21
77.917068
  0
LINE
  8
0
 10
-48.247211
 20
90.041420
 11
-47.247211
 21
90.041420
  0
LINE
  8
0
 10
-48.247211
 20
81.958519
 11
-47.247211
 21
81.958519
  0
LINE
  8
0
 10
-64.747208
 20
76.999954
 11
-62.247211
 21
76.999954
  0
LINE
  8
0
 10
-64.434601
 20
80.499969
 11
-62.559818
 21
80.499969
  0
LINE
  8
0
 10
-64.747208
 20
90.999969
 11
-64.747208
 21
95.499985
  0
LINE
  8
0
 10
-64.434601
 20
91.999969
 11
-62.559818
 21
91.999969
  0
LINE
  8
0
 10
-64.747208
 20
95.499985
 11
-62.247211
 21
95.499985
  0
LINE
  8
0
 10
-62.247211
 20
97.499969
 11
-48.247211
 21
97.499969
  0
LINE
  8
0
 10
62.752789
 20
97.499969
 11
48.752789
 21
97.499969
  0
LINE
  8
0
 10
0.952789
 20
87.999969
 11
48.752789
 21
87.999969
  0
LINE
  8
0
  6
CENTER
 10
202.247253
 20
-25.000006
 11
158.247253
 21
-25.000006
  0
LINE
  8
0
 10
197.247253
 20
-55.000008
 11
197.247253
 21
-5.500006
  0
LINE
  8
0
 10
163.247253
 20
-53.500008
 11
163.247253
 21
-30.000006
  0
LINE
  8
0
 10
197.247253
 20
-55.000008
 11
171.747253
 21
-55.000008
  0
LINE
  8
0
 10
186.071823
 20
4.999994
 11
164.247253
 21
4.999994
  0
LINE
  8
0
 10
164.247253
 20
-55.000008
 11
164.247253
 21
4.999994
  0
LINE
  8
0
 10
163.247253
 20
-53.500019
 11
164.247238
 21
-54.500011
  0
LINE
  8
0
 10
163.247238
 20
3.500018
 11
164.247238
 21
4.500011
  0
LINE
  8
0
 10
163.747253
 20
-29.499994
 11
163.747253
 21
-20.500017
  0
LINE
  8
0
 10
163.247253
 20
-20.000006
 11
163.247253
 21
3.499994
  0
LINE
  8
0
 10
163.247208
 20
-20.000027
 11
163.747208
 21
-20.500044
  0
LINE
  8
0
 10
163.247223
 20
-29.999983
 11
163.747208
 21
-29.499977
  0
LINE
  8
0
  6
CENTER
 10
193.247253
 20
-5.000006
 11
177.247253
 21
-5.000006
  0
LINE
  8
0
  6
CENTER
 10
185.247253
 20
2.999994
 11
185.247253
 21
-13.000006
  0
LINE
  8
0
 10
187.747208
 20
-6.443335
 11
185.247192
 21
-7.886716
  0
LINE
  8
0
 10
185.247253
 20
-7.886739
 11
182.747269
 21
-6.443366
  0
LINE
  8
0
 10
182.747238
 20
-6.443380
 11
182.747238
 21
-3.556631
  0
LINE
  8
0
 10
182.747208
 20
-3.556547
 11
185.247208
 21
-2.113173
  0
LINE
  8
0
 10
185.247238
 20
-2.113314
 11
187.747238
 21
-3.556688
  0
LINE
  8
0
 10
187.747253
 20
-3.556631
 11
187.747253
 21
-6.443380
  0
LINE
  8
0
  6
CENTER
 10
171.247253
 20
3.499994
 11
171.247253
 21
-9.500006
  0
LINE
  8
0
  6
CENTER
 10
177.747253
 20
-3.000006
 11
164.747253
 21
-3.000006
  0
LINE
  8
0
 10
173.247253
 20
-4.154677
 11
171.247253
 21
-5.309379
  0
LINE
  8
0
 10
171.247238
 20
-5.309450
 11
169.247238
 21
-4.154748
  0
LINE
  8
0
 10
169.247238
 20
-4.154715
 11
169.247238
 21
-1.845312
  0
LINE
  8
0
 10
169.247238
 20
-1.845285
 11
171.247238
 21
-0.690584
  0
LINE
  8
0
 10
171.247238
 20
-0.690606
 11
173.247238
 21
-1.845308
  0
LINE
  8
0
 10
173.247253
 20
-1.845297
 11
173.247253
 21
-4.154699
  0
LINE
  8
0
 10
196.747253
 20
-4.500006
 11
190.222183
 21
-4.500006
  0
LINE
  8
0
 10
197.247253
 20
-5.500006
 11
190.222183
 21
-5.500006
  0
LINE
  8
0
 10
196.747253
 20
-4.500006
 11
196.747253
 21
-0.500006
  0
LINE
  8
0
 10
196.747253
 20
-0.500006
 11
189.247253
 21
-0.500006
  0
LINE
  8
0
 10
189.247131
 20
-0.500055
 11
186.071701
 21
4.999942
  0
LINE
  8
0
  6
CENTER
 10
193.247253
 20
-10.500006
 11
193.247253
 21
6.499994
  0
LINE
  8
0
 10
196.497253
 20
-0.500006
 11
196.497253
 21
3.099995
  0
LINE
  8
0
 10
189.997253
 20
-0.500006
 11
189.997253
 21
3.099995
  0
LINE
  8
0
 10
196.097260
 20
3.499994
 11
190.397247
 21
3.499994
  0
LINE
  8
0
 10
196.497253
 20
3.099995
 11
189.997253
 21
3.099995
  0
LINE
  8
0
 10
196.497147
 20
3.099923
 11
196.097137
 21
3.499934
  0
LINE
  8
0
 10
189.997208
 20
3.099990
 11
190.397202
 21
3.499982
  0
LINE
  8
0
 10
191.247253
 20
-5.500006
 11
191.247253
 21
-4.500006
  0
LINE
  8
0
 10
195.247253
 20
-5.500006
 11
195.247253
 21
-4.500006
  0
LINE
  8
0
 10
191.626251
 20
-5.500006
 11
191.626251
 21
-4.500006
  0
LINE
  8
0
 10
194.868256
 20
-5.500006
 11
194.868256
 21
-4.500006
  0
LINE
  8
0
 10
171.747253
 20
-55.000008
 11
171.747253
 21
-49.958046
  0
LINE
  8
0
 10
170.747253
 20
-55.000008
 11
170.747253
 21
-49.958046
  0
LINE
  8
0
  6
CENTER
 10
166.247253
 20
-47.000008
 11
176.247253
 21
-47.000008
  0
LINE
  8
0
  6
CENTER
 10
171.247253
 20
-42.000008
 11
171.247253
 21
-52.000008
  0
LINE
  8
0
 10
170.747253
 20
-55.000008
 11
164.247253
 21
-55.000008
  0
LINE
  8
0
  6
CENTER
 10
174.747253
 20
-52.000008
 11
161.247253
 21
-52.000008
  0
LINE
  8
0
 10
171.747253
 20
-53.500008
 11
170.747253
 21
-53.500008
  0
LINE
  8
0
 10
171.747253
 20
-50.500008
 11
170.747253
 21
-50.500008
  0
LINE
  8
0
 10
171.747253
 20
-53.229507
 11
170.747253
 21
-53.229507
  0
LINE
  8
0
 10
171.747253
 20
-50.770508
 11
170.747253
 21
-50.770508
  0
LINE
  8
0
  6
CENTER
 10
51.752785
 20
-136.999985
 11
63.752785
 21
-136.999985
  0
LINE
  8
0
 10
54.252796
 20
-139.020706
 11
57.752789
 21
-141.041428
  0
LINE
  8
0
 10
57.752789
 20
-141.041443
 11
61.252781
 21
-139.020721
  0
LINE
  8
0
 10
61.252800
 20
-139.020706
 11
61.252800
 21
-134.979263
  0
LINE
  8
0
 10
61.252785
 20
-134.979263
 11
57.752792
 21
-132.958542
  0
LINE
  8
0
 10
57.752804
 20
-132.958557
 11
54.252811
 21
-134.979279
  0
LINE
  8
0
 10
54.252800
 20
-134.979263
 11
54.252800
 21
-139.020706
  0
LINE
  8
0
 10
54.252800
 20
-137.499985
 11
61.252800
 21
-137.499985
  0
LINE
  8
0
 10
54.252800
 20
-136.499985
 11
61.252800
 21
-136.499985
  0
LINE
  8
0
  6
CENTER
 10
-69.247215
 20
-130.999985
 11
-45.247215
 21
-130.999985
  0
LINE
  8
0
 10
-66.247215
 20
-135.458984
 11
-66.247215
 21
-126.540985
  0
LINE
  8
0
 10
-65.706215
 20
-125.999985
 11
-64.747215
 21
-125.999985
  0
LINE
  8
0
 10
-65.706215
 20
-135.999985
 11
-64.747215
 21
-135.999985
  0
LINE
  8
0
 10
-66.247215
 20
-135.458984
 11
-64.747215
 21
-135.458984
  0
LINE
  8
0
 10
-66.247215
 20
-126.540985
 11
-64.747215
 21
-126.540985
  0
LINE
  8
0
 10
-66.247215
 20
-126.540993
 11
-65.706207
 21
-125.999985
  0
LINE
  8
0
 10
-66.247215
 20
-135.458984
 11
-65.706215
 21
-135.999985
  0
LINE
  8
0
 10
-65.706215
 20
-125.999985
 11
-65.706215
 21
-135.999985
  0
LINE
  8
0
  6
CENTER
 10
-67.747215
 20
-125.499985
 11
-53.247215
 21
-125.499985
  0
LINE
  8
0
 10
-62.247215
 20
-109.999985
 11
-48.247215
 21
-109.999985
  0
LINE
  8
0
 10
-62.247215
 20
-109.999985
 11
-62.247215
 21
-142.999985
  0
LINE
  8
0
 10
-48.247215
 20
-109.999985
 11
-48.247215
 21
-142.999985
  0
LINE
  8
0
 10
-62.247215
 20
-142.999985
 11
-48.247215
 21
-142.999985
  0
LINE
  8
0
  6
CENTER
 10
-67.747215
 20
-136.999985
 11
-53.247215
 21
-136.999985
  0
LINE
  8
0
 10
-64.747215
 20
-140.500046
 11
-64.747215
 21
-133.499969
  0
LINE
  8
0
  6
CENTER
 10
-57.247215
 20
-121.499985
 11
-57.247215
 21
-129.499985
  0
LINE
  8
0
  6
CENTER
 10
-57.247215
 20
-132.999985
 11
-57.247215
 21
-140.999985
  0
LINE
  8
0
  6
CENTER
 10
69.752785
 20
-130.999985
 11
45.752785
 21
-130.999985
  0
LINE
  8
0
 10
62.752785
 20
-142.999985
 11
48.752785
 21
-142.999985
  0
LINE
  8
0
 10
62.752785
 20
-109.999985
 11
48.752785
 21
-109.999985
  0
LINE
  8
0
 10
48.752785
 20
-109.999985
 11
48.752785
 21
-142.999985
  0
LINE
  8
0
 10
62.752785
 20
-109.999985
 11
62.752785
 21
-142.999985
  0
LINE
  8
0
 10
66.752785
 20
-135.458984
 11
66.752785
 21
-126.540985
  0
LINE
  8
0
 10
66.211784
 20
-125.999985
 11
62.752785
 21
-125.999985
  0
LINE
  8
0
 10
66.752792
 20
-126.540993
 11
66.211784
 21
-125.999985
  0
LINE
  8
0
 10
66.752785
 20
-126.540985
 11
62.752785
 21
-126.540985
  0
LINE
  8
0
 10
66.211784
 20
-125.999985
 11
66.211784
 21
-135.999985
  0
LINE
  8
0
 10
66.752792
 20
-135.458984
 11
66.211792
 21
-135.999985
  0
LINE
  8
0
 10
66.752785
 20
-135.458984
 11
62.752785
 21
-135.458984
  0
LINE
  8
0
 10
66.211784
 20
-135.999985
 11
62.752785
 21
-135.999985
  0
LINE
  8
0
  6
CENTER
 10
57.752785
 20
-130.999985
 11
57.752785
 21
-142.999985
  0
LINE
  8
0
  6
CENTER
 10
65.752785
 20
-116.999985
 11
-65.247215
 21
-116.999985
  0
LINE
  8
0
 10
62.752785
 20
-117.499985
 11
48.752785
 21
-117.499985
  0
LINE
  8
0
 10
62.752785
 20
-116.499985
 11
48.752785
 21
-116.499985
  0
LINE
  8
0
  6
CENTER
 10
58.752785
 20
-107.499985
 11
58.752785
 21
-122.499985
  0
LINE
  8
0
 10
55.752785
 20
-109.999985
 11
55.752785
 21
-113.499985
  0
LINE
  8
0
 10
61.752785
 20
-109.999985
 11
61.752785
 21
-113.499985
  0
LINE
  8
0
 10
57.252785
 20
-116.499985
 11
57.252785
 21
-117.499985
  0
LINE
  8
0
 10
60.252785
 20
-116.499985
 11
60.252785
 21
-117.499985
  0
LINE
  8
0
 10
59.982285
 20
-116.499985
 11
59.982285
 21
-117.499985
  0
LINE
  8
0
 10
57.523285
 20
-116.499985
 11
57.523285
 21
-117.499985
  0
LINE
  8
0
 10
61.752785
 20
-113.499985
 11
55.752785
 21
-113.499985
  0
LINE
  8
0
 10
61.502785
 20
-110.499985
 11
56.002785
 21
-110.499985
  0
LINE
  8
0
 10
61.502785
 20
-110.499985
 11
61.502785
 21
-113.499985
  0
LINE
  8
0
 10
56.002785
 20
-110.499985
 11
56.002785
 21
-113.499985
  0
LINE
  8
0
 10
48.752785
 20
-111.999985
 11
-2.247215
 21
-111.999985
  0
LINE
  8
0
 10
48.752785
 20
-121.999985
 11
-2.247215
 21
-121.999985
  0
LINE
  8
0
 10
-48.247215
 20
-141.999985
 11
48.752785
 21
-141.999985
  0
LINE
  8
0
 10
-48.247215
 20
-124.699982
 11
48.752785
 21
-124.699982
  0
LINE
  8
0
 10
-48.247215
 20
-127.499985
 11
48.752785
 21
-127.499985
  0
LINE
  8
0
 10
-48.247215
 20
-135.699982
 11
48.752785
 21
-135.699982
  0
LINE
  8
0
 10
-47.247215
 20
-108.999985
 11
-47.247215
 21
-124.699982
  0
LINE
  8
0
 10
-46.047215
 20
-108.999985
 11
-46.047215
 21
-124.699982
  0
LINE
  8
0
 10
-3.447216
 20
-108.999985
 11
-3.447216
 21
-124.699982
  0
LINE
  8
0
 10
-2.247215
 20
-108.999985
 11
-2.247215
 21
-124.699982
  0
LINE
  8
0
 10
-47.247215
 20
-108.999985
 11
-2.247215
 21
-108.999985
  0
LINE
  8
0
 10
-47.247215
 20
-111.999985
 11
-48.247215
 21
-111.999985
  0
LINE
  8
0
 10
-47.247215
 20
-121.999985
 11
-48.247215
 21
-121.999985
  0
LINE
  8
0
 10
-47.247215
 20
-121.324554
 11
-2.247215
 21
-121.324554
  0
LINE
  8
0
 10
-64.747215
 20
-140.500046
 11
-62.247215
 21
-140.500046
  0
LINE
  8
0
 10
-64.747215
 20
-133.499969
 11
-62.247215
 21
-133.499969
  0
LINE
  8
0
 10
-64.434624
 20
-136.999985
 11
-62.559807
 21
-136.999985
  0
LINE
  8
0
 10
-64.747215
 20
-129.000000
 11
-62.247215
 21
-129.000000
  0
LINE
  8
0
 10
-64.747215
 20
-121.999924
 11
-64.747215
 21
-129.000000
  0
LINE
  8
0
 10
-64.434624
 20
-125.499985
 11
-62.559807
 21
-125.499985
  0
LINE
  8
0
 10
-64.747215
 20
-121.999924
 11
-62.247215
 21
-121.999924
  0
LINE
  8
0
 10
-47.247215
 20
-109.999985
 11
-2.247215
 21
-109.999985
  0
LINE
  8
0
  6
CENTER
 10
-202.247208
 20
-24.999987
 11
-158.247208
 21
-24.999987
  0
LINE
  8
0
 10
-163.247208
 20
-53.499985
 11
-163.247208
 21
-29.999987
  0
LINE
  8
0
 10
-197.247208
 20
-54.999985
 11
-164.247208
 21
-54.999985
  0
LINE
  8
0
 10
-164.247208
 20
-54.999985
 11
-164.247208
 21
5.000013
  0
LINE
  8
0
 10
-163.247208
 20
-53.500015
 11
-164.247177
 21
-54.499992
  0
LINE
  8
0
 10
-163.247208
 20
3.500036
 11
-164.247177
 21
4.500016
  0
LINE
  8
0
 10
-163.747208
 20
-29.499975
 11
-163.747208
 21
-20.499998
  0
LINE
  8
0
 10
-163.247208
 20
-19.999987
 11
-163.247208
 21
3.500013
  0
LINE
  8
0
 10
-163.247192
 20
-20.000019
 11
-163.747192
 21
-20.500021
  0
LINE
  8
0
 10
-163.247177
 20
-29.999954
 11
-163.747177
 21
-29.499945
  0
LINE
  8
0
  6
CENTER
 10
-171.247208
 20
3.500013
 11
-171.247208
 21
-9.499987
  0
LINE
  8
0
 10
-173.247223
 20
-4.154695
 11
-171.247223
 21
-5.309388
  0
LINE
  8
0
 10
-171.247238
 20
-5.309369
 11
-169.247223
 21
-4.154667
  0
LINE
  8
0
 10
-169.247192
 20
-4.154696
 11
-169.247192
 21
-1.845293
  0
LINE
  8
0
 10
-169.247238
 20
-1.845272
 11
-171.247238
 21
-0.690571
  0
LINE
  8
0
 10
-171.247253
 20
-0.690512
 11
-173.247253
 21
-1.845213
  0
LINE
  8
0
 10
-173.247208
 20
-1.845278
 11
-173.247208
 21
-4.154680
  0
LINE
  8
0
 10
-173.247208
 20
-48.154694
 11
-173.247208
 21
-45.845291
  0
LINE
  8
0
 10
-173.247223
 20
-45.845306
 11
-171.247208
 21
-44.690605
  0
LINE
  8
0
 10
-171.247192
 20
-44.690552
 11
-169.247192
 21
-45.845253
  0
LINE
  8
0
  6
CENTER
 10
-171.247208
 20
-53.499985
 11
-171.247208
 21
-40.499985
  0
LINE
  8
0
  6
CENTER
 10
-177.747208
 20
-46.999985
 11
-164.747208
 21
-46.999985
  0
LINE
  8
0
 10
-169.247177
 20
-48.154705
 11
-171.247177
 21
-49.309406
  0
LINE
  8
0
 10
-169.247192
 20
-45.845276
 11
-169.247192
 21
-48.154678
  0
LINE
  8
0
 10
-171.247192
 20
-49.309387
 11
-173.247192
 21
-48.154686
  0
LINE
  8
0
  6
CENTER
 10
-197.247208
 20
-40.999985
 11
-173.747208
 21
-40.999985
  0
LINE
  8
0
  6
CENTER
 10
-191.247208
 20
-34.999985
 11
-191.247208
 21
-46.999985
  0
LINE
  8
0
 10
-194.747223
 20
-43.020733
 11
-191.247223
 21
-45.041454
  0
LINE
  8
0
 10
-191.247238
 20
-45.041431
 11
-187.747238
 21
-43.020710
  0
LINE
  8
0
 10
-187.747192
 20
-43.020706
 11
-187.747192
 21
-38.979263
  0
LINE
  8
0
 10
-187.747253
 20
-38.979275
 11
-191.247253
 21
-36.958553
  0
LINE
  8
0
 10
-191.247238
 20
-36.958492
 11
-194.747238
 21
-38.979214
  0
LINE
  8
0
 10
-194.747192
 20
-41.499985
 11
-187.747192
 21
-41.499985
  0
LINE
  8
0
 10
-194.747192
 20
-40.499985
 11
-187.747192
 21
-40.499985
  0
LINE
  8
0
 10
-194.747192
 20
-38.979263
 11
-194.747192
 21
-43.020706
  0
LINE
  8
0
  6
CENTER
 10
-179.747208
 20
-34.999985
 11
-179.747208
 21
-46.999985
  0
LINE
  8
0
 10
-183.247223
 20
-43.020729
 11
-179.747223
 21
-45.041454
  0
LINE
  8
0
 10
-179.747208
 20
-45.041420
 11
-176.247208
 21
-43.020699
  0
LINE
  8
0
 10
-176.247192
 20
-43.020706
 11
-176.247192
 21
-38.979263
  0
LINE
  8
0
 10
-176.247253
 20
-38.979279
 11
-179.747238
 21
-36.958557
  0
LINE
  8
0
 10
-179.747253
 20
-36.958488
 11
-183.247238
 21
-38.979210
  0
LINE
  8
0
 10
-183.247192
 20
-38.979263
 11
-183.247192
 21
-43.020706
  0
LINE
  8
0
 10
-183.247192
 20
-41.499985
 11
-176.247192
 21
-41.499985
  0
LINE
  8
0
 10
-183.247192
 20
-40.499985
 11
-176.247192
 21
-40.499985
  0
LINE
  8
0
 10
-197.247208
 20
-54.999985
 11
-197.247208
 21
-5.499987
  0
LINE
  8
0
 10
-186.071777
 20
5.000013
 11
-164.247208
 21
5.000013
  0
LINE
  8
0
  6
CENTER
 10
-193.247208
 20
-4.999987
 11
-177.247208
 21
-4.999987
  0
LINE
  8
0
  6
CENTER
 10
-185.247208
 20
3.000013
 11
-185.247208
 21
-12.999987
  0
LINE
  8
0
 10
-187.747223
 20
-6.443376
 11
-185.247223
 21
-7.886751
  0
LINE
  8
0
 10
-185.247223
 20
-7.886719
 11
-182.747223
 21
-6.443345
  0
LINE
  8
0
 10
-182.747192
 20
-6.443361
 11
-182.747192
 21
-3.556612
  0
LINE
  8
0
 10
-182.747208
 20
-3.556597
 11
-185.247208
 21
-2.113223
  0
LINE
  8
0
 10
-185.247269
 20
-2.113164
 11
-187.747269
 21
-3.556538
  0
LINE
  8
0
 10
-187.747208
 20
-3.556612
 11
-187.747208
 21
-6.443361
  0
LINE
  8
0
  6
CENTER
 10
-177.747208
 20
-2.999987
 11
-164.747208
 21
-2.999987
  0
LINE
  8
0
 10
-196.747208
 20
-4.499987
 11
-190.222137
 21
-4.499987
  0
LINE
  8
0
 10
-197.247208
 20
-5.499987
 11
-190.222137
 21
-5.499987
  0
LINE
  8
0
 10
-196.747208
 20
-4.499987
 11
-196.747208
 21
-0.499987
  0
LINE
  8
0
 10
-196.747208
 20
-0.499987
 11
-189.247208
 21
-0.499987
  0
LINE
  8
0
 10
-189.247253
 20
-0.499960
 11
-186.071823
 21
5.000038
  0
LINE
  8
0
  6
CENTER
 10
-193.247208
 20
-10.499987
 11
-193.247208
 21
6.500013
  0
LINE
  8
0
 10
-196.497208
 20
-0.499987
 11
-196.497208
 21
3.100014
  0
LINE
  8
0
 10
-189.997208
 20
-0.499987
 11
-189.997208
 21
3.100014
  0
LINE
  8
0
 10
-196.097214
 20
3.500013
 11
-190.397202
 21
3.500013
  0
LINE
  8
0
 10
-196.497208
 20
3.100014
 11
-189.997208
 21
3.100014
  0
LINE
  8
0
 10
-196.497192
 20
3.099974
 11
-196.097198
 21
3.499980
  0
LINE
  8
0
 10
-189.997177
 20
3.100046
 11
-190.397171
 21
3.500041
  0
LINE
  8
0
 10
-191.247208
 20
-5.499987
 11
-191.247208
 21
-4.499987
  0
LINE
  8
0
 10
-195.247208
 20
-5.499987
 11
-195.247208
 21
-4.499987
  0
LINE
  8
0
 10
-191.626205
 20
-5.499987
 11
-191.626205
 21
-4.499987
  0
LINE
  8
0
 10
-194.868210
 20
-5.499987
 11
-194.868210
 21
-4.499987
  0
LINE
  8
0
 10
-58.497227
 20
-123.334953
 11
-77.743164
 21
-90.000000
  0
LINE
  8
0
 10
-58.497231
 20
-123.334961
 11
-59.532505
 21
-119.471252
  0
LINE
  8
0
 10
-58.497227
 20
-123.334953
 11
-61.325653
 21
-120.506523
  0
LINE
  8
0
 10
-119.494995
 20
-90.000000
 11
-77.743164
 21
-90.000000
  0
LINE
  8
0
 10
-11.247224
 20
-10.767948
 11
9.403416
 21
25.000004
  0
LINE
  8
0
 10
-11.247224
 20
-10.767948
 11
-10.211947
 21
-6.904245
  0
LINE
  8
0
 10
-11.247224
 20
-10.767948
 11
-8.418797
 21
-7.939521
  0
LINE
  8
0
 10
9.403416
 20
25.000004
 11
52.127274
 21
25.000004
  0
ARC
  8
0
 62
     5
 10
193.065201
 20
-166.202393
 40
1.564041
 50
0.000000
 51
90.000000
  0
ARC
  8
0
 62
     5
 10
205.968597
 20
-174.609177
 40
1.564041
 50
270.000000
 51
0.000000
  0
ARC
  8
0
 62
     5
 10
205.186523
 20
-166.984390
 40
2.346069
 50
0.000000
 51
90.000000
  0
ARC
  8
0
 62
     5
 10
219.458466
 20
-166.202393
 40
1.564041
 50
0.000000
 51
90.000000
  0
ARC
  8
0
 62
     5
 10
219.458466
 20
-167.451935
 40
1.564050
 50
294.999969
 51
0.000000
  0
ARC
  8
0
 62
     5
 10
231.579834
 20
-164.638336
 40
2.346074
 50
291.688202
 51
0.000000
  0
ARC
  8
0
 62
     5
 10
230.797760
 20
-164.107742
 40
0.782030
 50
291.688049
 51
0.000000
  0
ARC
  8
0
 10
-62.958092
 20
-37.968914
 40
1.789124
 50
180.000000
 51
214.383148
  0
ARC
  8
0
 10
-64.036346
 20
-44.031090
 40
1.789127
 50
0.000000
 51
34.383209
  0
ARC
  8
0
 10
-68.934753
 20
-41.000000
 40
6.687533
 50
342.412506
 51
17.587538
  0
CIRCLE
  8
0
 10
-53.247219
 20
-35.000000
 40
2.250000
  0
CIRCLE
  8
0
 10
-53.247219
 20
-35.000000
 40
4.000000
  0
CIRCLE
  8
0
 10
-53.247219
 20
-15.000002
 40
4.000000
  0
CIRCLE
  8
0
 10
-53.247219
 20
-15.000002
 40
2.250000
  0
CIRCLE
  8
0
 10
53.752781
 20
-35.000000
 40
2.250000
  0
CIRCLE
  8
0
 10
53.752781
 20
-35.000000
 40
4.000000
  0
CIRCLE
  8
0
 10
53.752781
 20
-15.000002
 40
4.000000
  0
CIRCLE
  8
0
 10
53.752781
 20
-15.000002
 40
2.250000
  0
CIRCLE
  8
0
 10
58.752781
 20
-52.000000
 40
2.750000
  0
ARC
  8
0
 10
58.752781
 20
-52.000000
 40
3.000000
 50
0.000000
 51
180.000000
  0
CIRCLE
  8
0
 10
-37.247219
 20
-37.500000
 40
2.000000
  0
CIRCLE
  8
0
 10
-37.247219
 20
-37.500000
 40
1.621000
  0
CIRCLE
  8
0
 10
-37.247219
 20
-12.500002
 40
2.000000
  0
CIRCLE
  8
0
 10
-37.247219
 20
-12.500002
 40
1.621000
  0
CIRCLE
  8
0
 10
-12.247219
 20
-37.500000
 40
2.000000
  0
CIRCLE
  8
0
 10
-12.247219
 20
-37.500000
 40
1.621000
  0
CIRCLE
  8
0
 10
-12.247219
 20
-12.500002
 40
2.000000
  0
CIRCLE
  8
0
 10
-12.247219
 20
-12.500002
 40
1.621000
  0
CIRCLE
  8
0
 10
-24.747219
 20
-37.500000
 40
2.000000
  0
ARC
  8
0
 10
-24.747219
 20
-11.500002
 40
2.000000
 50
0.000000
 51
179.999969
  0
ARC
  8
0
 10
-24.747219
 20
-13.500002
 40
2.000000
 50
179.999969
 51
0.000000
  0
ARC
  8
0
 10
-64.036346
 20
-37.968914
 40
1.789126
 50
325.616791
 51
0.000000
  0
ARC
  8
0
 10
-58.059689
 20
-41.000000
 40
6.687529
 50
184.287750
 51
197.587524
  0
ARC
  8
0
 10
-62.958092
 20
-44.031090
 40
1.789123
 50
145.616714
 51
180.000000
  0
ARC
  8
0
 10
-58.059689
 20
-41.000000
 40
6.687534
 50
162.412476
 51
175.712250
  0
ARC
  8
0
 10
1.330952
 20
79.937790
 40
3.578162
 50
145.615952
 51
180.000122
  0
ARC
  8
0
 10
1.330952
 20
92.062149
 40
3.578164
 50
180.000000
 51
214.384186
  0
CIRCLE
  8
0
 10
-57.247211
 20
94.000015
 40
3.250000
  0
CIRCLE
  8
0
 10
57.752789
 20
94.000015
 40
3.250000
  0
ARC
  8
0
 10
-3.025375
 20
92.062149
 40
3.578164
 50
325.615814
 51
0.000000
  0
ARC
  8
0
 10
-12.821995
 20
85.999969
 40
13.374785
 50
342.412048
 51
17.587946
  0
ARC
  8
0
 10
-3.025375
 20
79.937790
 40
3.578164
 50
0.000000
 51
34.384155
  0
ARC
  8
0
 10
11.127575
 20
85.999969
 40
13.374785
 50
162.412094
 51
197.587982
  0
ARC
  8
0
 10
-59.692539
 20
78.749962
 40
5.054676
 50
159.743988
 51
200.256012
  0
ARC
  8
0
 10
-67.301880
 20
78.749962
 40
5.054669
 50
339.744049
 51
20.256033
  0
ARC
  8
0
 10
-59.692539
 20
82.249977
 40
5.054671
 50
194.317657
 51
200.255936
  0
ARC
  8
0
 10
-67.301880
 20
82.249977
 40
5.054671
 50
339.743866
 51
345.682343
  0
ARC
  8
0
 10
-59.692539
 20
93.749977
 40
5.054668
 50
159.743958
 51
200.255936
  0
ARC
  8
0
 10
-59.692539
 20
90.249962
 40
5.054676
 50
159.743988
 51
171.466995
  0
ARC
  8
0
 10
-67.301880
 20
90.249962
 40
5.054671
 50
8.533007
 51
20.256033
  0
ARC
  8
0
 10
-67.301880
 20
93.749977
 40
5.054671
 50
339.743866
 51
20.255938
  0
ARC
  8
0
 10
171.247253
 20
-47.000008
 40
2.999999
 50
279.594086
 51
260.405914
  0
CIRCLE
  8
0
 10
171.247253
 20
-47.000008
 40
2.500000
  0
CIRCLE
  8
0
 10
185.247253
 20
-5.000006
 40
5.000000
  0
CIRCLE
  8
0
 10
185.247253
 20
-5.000006
 40
4.459000
  0
CIRCLE
  8
0
 10
171.247253
 20
-3.000006
 40
4.250000
  0
ARC
  8
0
 10
57.752785
 20
-136.999985
 40
3.499998
 50
8.213215
 51
171.786789
  0
ARC
  8
0
 10
57.752785
 20
-136.999985
 40
3.499998
 50
188.213211
 51
351.786774
  0
CIRCLE
  8
0
 10
-57.247215
 20
-125.499985
 40
2.500000
  0
CIRCLE
  8
0
 10
-57.247215
 20
-125.499985
 40
2.067000
  0
CIRCLE
  8
0
 10
-57.247215
 20
-136.999985
 40
2.500000
  0
CIRCLE
  8
0
 10
-57.247215
 20
-136.999985
 40
2.067000
  0
ARC
  8
0
 10
-59.692310
 20
-135.249969
 40
5.054902
 50
159.745026
 51
200.254974
  0
ARC
  8
0
 10
-67.302116
 20
-135.249969
 40
5.054902
 50
339.745026
 51
20.254980
  0
ARC
  8
0
 10
-59.692310
 20
-138.750000
 40
5.054907
 50
159.744858
 51
200.254974
  0
ARC
  8
0
 10
-67.302116
 20
-138.750000
 40
5.054902
 50
339.745026
 51
20.254980
  0
ARC
  8
0
 10
-59.692310
 20
-127.249992
 40
5.054905
 50
159.744934
 51
200.254898
  0
ARC
  8
0
 10
-67.302116
 20
-127.249992
 40
5.054905
 50
339.744934
 51
20.254980
  0
ARC
  8
0
 10
-59.692310
 20
-123.749977
 40
5.054905
 50
159.744934
 51
200.255066
  0
ARC
  8
0
 10
-67.302116
 20
-123.749977
 40
5.054905
 50
339.744934
 51
20.254980
  0
CIRCLE
  8
0
 10
-171.247208
 20
-2.999987
 40
4.250000
  0
CIRCLE
  8
0
 10
-171.247208
 20
-46.999985
 40
4.250000
  0
ARC
  8
0
 10
-191.247208
 20
-40.999985
 40
3.499995
 50
8.213223
 51
171.786774
  0
ARC
  8
0
 10
-191.247208
 20
-40.999985
 40
3.499995
 50
188.213226
 51
351.786774
  0
ARC
  8
0
 10
-179.747208
 20
-40.999985
 40
3.499995
 50
188.213226
 51
351.786774
  0
ARC
  8
0
 10
-179.747208
 20
-40.999985
 40
3.499995
 50
8.213223
 51
171.786774
  0
CIRCLE
  8
0
 10
-185.247208
 20
-4.999987
 40
5.000000
  0
CIRCLE
  8
0
 10
-185.247208
 20
-4.999987
 40
4.459000
  0
TEXT
  8
0
 10
160.213089
 20
165.487701
 40
6.000000
  1
DATE : NOV ,1991
 50
0.000000
 41
1.052631
 51
0.000000
  7
STANDARD
  0
TEXT
  8
0
 10
-259.882812
 20
164.587692
 40
7.000000
  1
RODLESS CYLINDER
 50
0.000000
 41
0.956938
 51
0.000000
  7
STANDARD
  0
TEXT
  8
0
 10
-246.497223
 20
134.475296
 40
7.000000
  1
MODEL : MRG* 10xSt-K(50)
 50
0.000000
 41
1.052632
 51
0.000000
  7
STANDARD
  0
TEXT
  8
0
 10
-55.282928
 20
-134.799988
 40
2.000000
  1
B
 50
0.000000
 41
1.052632
 51
0.000000
  7
STANDARD
  0
TEXT
  8
0
 10
52.717072
 20
-133.799988
 40
2.000000
  1
B
 50
0.000000
 41
1.052632
 51
0.000000
  7
STANDARD
  0
TEXT
  8
0
 10
-55.282928
 20
-123.299988
 40
2.000000
  1
A
 50
0.000000
 41
1.052632
 51
0.000000
  7
STANDARD
  0
TEXT
  8
0
 10
-187.547211
 20
-35.464272
 40
2.000000
  1
B
 50
-90.000000
 41
1.052632
 51
0.000000
  7
STANDARD
  0
TEXT
  8
0
 10
-176.047211
 20
-35.464272
 40
2.000000
  1
A
 50
-90.000000
 41
1.052632
 51
0.000000
  7
STANDARD
  0
TEXT
  8
0
 10
-119.207428
 20
-89.999985
 40
5.000000
  1
5-M5x0.8
 50
0.000000
 41
1.052632
 51
0.000000
  7
STANDARD
  0
TEXT
  8
0
 10
10.439134
 20
25.000002
 40
5.000000
  1
4-M4x0.7
 50
0.000000
 41
1.052632
 51
0.000000
  7
STANDARD
  0
ENDSEC
  0
EOF
