  0
SECTION
  2
HEADER
  0
ENDSEC
  0
SECTION
  2
TABLES
  0
TABLE
  2
LTYPE
 70
     4
  0
LTYPE
  2
CONTINUOUS
 70
    64
  3
Solid line
 72
    65
 73
     0
 40
0.000000
  0
LTYPE
  2
DASHED
 70
    64
  3
__ __ __ __ __ __ __ __ __ __ __ __ __ __ __
 72
    65
 73
     2
 40
3.500000
 49
2.000000
 49
-1.500000
  0
LTYPE
  2
CENTER
 70
    64
  3
____ _ ____ _ ____ _ ____ _ ____ _ ____ _ ____
 72
    65
 73
     4
 40
17.500000
 49
13.000000
 49
-1.500000
 49
1.500000
 49
-1.500000
  0
LTYPE
  2
PHANTOM
 70
    64
  3
_____ _ _ _____ _ _ _____ _ _ _____ _ _ ____  
 72
    65
 73
     6
 40
15.500000
 49
8.000000
 49
-1.500000
 49
1.500000
 49
-1.500000
 49
1.500000
 49
-1.500000
  0
LTYPE
  2
DASHED1
 70
    64
  3
__ __ __ __ __ __ __ __ __ __ __ __ __ __ __
 72
    65
 73
     2
 40
1.500000
 49
1.000000
 49
-0.500000
  0
LTYPE
  2
DASHED2
 70
    64
  3
__ __ __ __ __ __ __ __ __ __ __ __ __ __ __
 72
    65
 73
     2
 40
3.500000
 49
2.500000
 49
-1.000000
  0
LTYPE
  2
DASHED3
 70
    64
  3
__ __ __ __ __ __ __ __ __ __ __ __ __ __ __
 72
    65
 73
     2
 40
6.000000
 49
4.000000
 49
-2.000000
  0
LTYPE
  2
DASHED4
 70
    64
  3
__ __ __ __ __ __ __ __ __ __ __ __ __ __ __
 72
    65
 73
     2
 40
12.000000
 49
10.000000
 49
-2.000000
  0
LTYPE
  2
DASHED5
 70
    64
  3
__ __ __ __ __ __ __ __ __ __ __ __ __ __ __
 72
    65
 73
     2
 40
17.000000
 49
15.000000
 49
-2.000000
  0
LTYPE
  2
DASHED6
 70
    64
  3
__ __ __ __ __ __ __ __ __ __ __ __ __ __ __
 72
    65
 73
     2
 40
29.000000
 49
27.000000
 49
-2.000000
  0
LTYPE
  2
PHANTOM1
 70
    64
  3
_____ _ _ _____ _ _ _____ _ _ _____ _ _ ____  
 72
    65
 73
     6
 40
31.000000
 49
25.000000
 49
-1.500000
 49
1.000000
 49
-1.000000
 49
1.000000
 49
-1.500000
  0
LTYPE
  2
PHANTOM2
 70
    64
  3
_____ _ _ _____ _ _ _____ _ _ _____ _ _ ____  
 72
    65
 73
     6
 40
36.000000
 49
27.000000
 49
-1.500000
 49
2.500000
 49
-1.000000
 49
2.500000
 49
-1.500000
  0
LTYPE
  2
PHANTOM3
 70
    64
  3
_____ _ _ _____ _ _ _____ _ _ _____ _ _ ____  
 72
    65
 73
     6
 40
78.000000
 49
64.000000
 49
-2.000000
 49
4.000000
 49
-2.000000
 49
4.000000
 49
-2.000000
  0
LTYPE
  2
CENTER1
 70
    64
  3
____ _ ____ _ ____ _ ____ _ ____ _ ____ _ ____
 72
    65
 73
     4
 40
19.000000
 49
14.000000
 49
-1.000000
 49
3.000000
 49
-1.000000
  0
LTYPE
  2
CENTER2
 70
    64
  3
____ _ ____ _ ____ _ ____ _ ____ _ ____ _ ____
 72
    65
 73
     4
 40
28.500000
 49
25.000000
 49
-1.000000
 49
1.500000
 49
-1.000000
  0
LTYPE
  2
CENTER3
 70
    64
  3
____ _ ____ _ ____ _ ____ _ ____ _ ____ _ ____
 72
    65
 73
     4
 40
31.500000
 49
27.000000
 49
-1.000000
 49
2.500000
 49
-1.000000
  0
LTYPE
  2
CENTER4
 70
    64
  3
____ _ ____ _ ____ _ ____ _ ____ _ ____ _ ____
 72
    65
 73
     4
 40
50.000000
 49
45.000000
 49
-1.000000
 49
3.000000
 49
-1.000000
  0
LTYPE
  2
CENTER5
 70
    64
  3
____ _ ____ _ ____ _ ____ _ ____ _ ____ _ ____
 72
    65
 73
     4
 40
100.000000
 49
92.000000
 49
-2.000000
 49
4.000000
 49
-2.000000
  0
LTYPE
  2
SBK1
 70
    64
  3
______ _ _ _ ______ _ _ _ ______ _ _ _ _____  
 72
    65
 73
     8
 40
60.500000
 49
45.000000
 49
-2.000000
 49
2.500000
 49
-2.000000
 49
2.500000
 49
-2.000000
 49
2.500000
 49
-2.000000
  0
LTYPE
  2
SBK2
 70
    64
  3
______ _ _ _ ______ _ _ _ ______ _ _ _ _____  
 72
    65
 73
     8
 40
84.000000
 49
64.000000
 49
-2.000000
 49
4.000000
 49
-2.000000
 49
4.000000
 49
-2.000000
 49
4.000000
 49
-2.000000
  0
LTYPE
  2
STCH
 70
    64
  3
__ __ __ __ __ __ __ __ __ __ __ __ __ __ __
 72
    65
 73
     2
 40
3.000000
 49
1.000000
 49
-2.000000
  0
LTYPE
  2
MTCH
 70
    64
  3
_____ _ _ _____ _ _ _____ _ _ _____ _ _ ____  
 72
    65
 73
     6
 40
80.000000
 49
66.000000
 49
-2.000000
 49
4.000000
 49
-2.000000
 49
4.000000
 49
-2.000000
  0
ENDTAB
  0
TABLE
  2
LAYER
 70
     1
  0
LAYER
  2
0
 70
     0
 62
     7
  6
CONTINUOUS
  0
ENDTAB
  0
TABLE
  2
STYLE
 70
     1
  0
STYLE
  2
STANDARD
 70
     0
 40
0.000000
 41
1.000000
 50
0.000000
 71
     0
 42
0.200000
  3
txt
  4
BIGFONT
  0
ENDTAB
  0
TABLE
  2
VIEW
 70
     0
  0
ENDTAB
  0
ENDSEC
  0
SECTION
  2
BLOCKS
  0
ENDSEC
  0
SECTION
  2
ENTITIES
  0
POINT
  8
0
 10
-71.873596
 20
172.999969
  0
POINT
  8
0
 10
-55.873596
 20
172.999969
  0
POINT
  8
0
 10
-71.873566
 20
62.000004
  0
POINT
  8
0
 10
-55.873566
 20
62.000004
  0
POINT
  8
0
 10
57.126411
 20
61.999996
  0
POINT
  8
0
 10
91.126404
 20
61.999996
  0
POINT
  8
0
 10
-71.873566
 20
-187.559982
  0
POINT
  8
0
 10
-55.873566
 20
-187.559982
  0
POINT
  8
0
 10
-71.873596
 20
-76.559998
  0
POINT
  8
0
 10
-55.873596
 20
-76.559998
  0
POINT
  8
0
 10
57.126404
 20
-187.559998
  0
POINT
  8
0
 10
91.126404
 20
-187.559998
  0
LINE
  8
0
 62
     3
 10
218.329163
 20
-225.956436
 11
370.873566
 21
-225.956436
  0
LINE
  8
0
 62
     3
 10
-218.329163
 20
225.956390
 11
-218.329163
 21
254.558487
  0
LINE
  8
0
 62
     3
 10
-370.873566
 20
225.956390
 11
-218.329163
 21
225.956390
  0
LINE
  8
0
 62
     3
 10
-370.873566
 20
254.558487
 11
370.873566
 21
254.558487
  0
LINE
  8
0
 62
     3
 10
-370.873566
 20
-254.558487
 11
370.873566
 21
-254.558487
  0
LINE
  8
0
 62
     3
 10
370.873566
 20
254.558487
 11
370.873566
 21
-254.558487
  0
LINE
  8
0
 62
     3
 10
-370.873566
 20
-254.558487
 11
-370.873566
 21
254.558487
  0
LINE
  8
0
 62
     3
 10
218.329163
 20
-225.956436
 11
218.329163
 21
-254.558487
  0
LINE
  8
0
 62
     3
 10
218.329163
 20
254.558487
 11
218.329163
 21
225.956390
  0
LINE
  8
0
 62
     3
 10
218.329163
 20
225.956390
 11
370.873566
 21
225.956390
  0
LINE
  8
0
 62
     5
 10
258.381622
 20
-232.833740
 11
258.381622
 21
-236.151566
  0
LINE
  8
0
 62
     5
 10
258.381622
 20
-236.151566
 11
270.823547
 21
-236.151566
  0
LINE
  8
0
 62
     5
 10
258.381622
 20
-249.146469
 11
275.247345
 21
-249.146469
  0
LINE
  8
0
 62
     5
 10
258.381622
 20
-245.828644
 11
270.823547
 21
-245.828644
  0
LINE
  8
0
 62
     5
 10
258.381622
 20
-232.833740
 11
273.035400
 21
-232.833740
  0
LINE
  8
0
 62
     5
 10
270.823547
 20
-236.151566
 11
270.823547
 21
-245.828644
  0
LINE
  8
0
 62
     5
 10
275.247345
 20
-235.045654
 11
275.247345
 21
-249.146469
  0
LINE
  8
0
 62
     5
 10
258.381622
 20
-245.828644
 11
258.381622
 21
-249.146469
  0
LINE
  8
0
 62
     5
 10
293.495392
 20
-236.151566
 11
293.495392
 21
-246.934647
  0
LINE
  8
0
 62
     5
 10
277.735657
 20
-232.833740
 11
277.735657
 21
-236.151566
  0
LINE
  8
0
 62
     5
 10
293.937836
 20
-232.584961
 11
295.513824
 21
-232.584961
  0
LINE
  8
0
 62
     5
 10
293.937836
 20
-230.373016
 11
295.513824
 21
-230.373016
  0
LINE
  8
0
 62
     5
 10
295.513824
 20
-230.373016
 11
295.513824
 21
-232.584961
  0
LINE
  8
0
 62
     5
 10
293.937836
 20
-230.373016
 11
293.937836
 21
-232.584961
  0
LINE
  8
0
 62
     5
 10
293.108276
 20
-230.373016
 11
293.108276
 21
-232.584961
  0
LINE
  8
0
 62
     5
 10
282.766052
 20
-230.373016
 11
286.200897
 21
-230.373016
  0
LINE
  8
0
 62
     5
 10
285.541260
 20
-232.833466
 11
286.200562
 21
-230.372711
  0
LINE
  8
0
 62
     5
 10
282.106689
 20
-232.833710
 11
282.766022
 21
-230.372986
  0
LINE
  8
0
 62
     5
 10
285.541565
 20
-232.833740
 11
290.177551
 21
-232.833740
  0
LINE
  8
0
 62
     5
 10
284.652557
 20
-236.151566
 11
289.071625
 21
-236.151566
  0
LINE
  8
0
 62
     5
 10
286.642853
 20
-249.146469
 11
291.283569
 21
-249.146469
  0
LINE
  8
0
 62
     5
 10
285.753693
 20
-245.828583
 11
286.642731
 21
-249.146347
  0
LINE
  8
0
 62
     5
 10
285.753754
 20
-245.828644
 11
289.071625
 21
-245.828644
  0
LINE
  8
0
 62
     5
 10
281.170746
 20
-249.146637
 11
284.652679
 21
-236.151733
  0
LINE
  8
0
 62
     5
 10
277.735657
 20
-236.151566
 11
281.217682
 21
-236.151566
  0
LINE
  8
0
 62
     5
 10
277.735413
 20
-249.146210
 11
281.217468
 21
-236.151337
  0
LINE
  8
0
 62
     5
 10
277.735657
 20
-249.146469
 11
281.170593
 21
-249.146469
  0
LINE
  8
0
 62
     5
 10
277.735657
 20
-232.833740
 11
282.106689
 21
-232.833740
  0
LINE
  8
0
 62
     5
 10
289.071625
 20
-236.151566
 11
289.071625
 21
-245.828644
  0
LINE
  8
0
 62
     5
 10
291.532288
 20
-230.373016
 11
293.108276
 21
-230.373016
  0
LINE
  8
0
 62
     5
 10
291.532288
 20
-232.584961
 11
293.108276
 21
-232.584961
  0
LINE
  8
0
 62
     5
 10
291.532288
 20
-230.373016
 11
291.532288
 21
-232.584961
  0
LINE
  8
0
 62
     5
 10
301.513550
 20
-230.373016
 11
305.937286
 21
-230.373016
  0
LINE
  8
0
 62
     5
 10
308.342316
 20
-240.195053
 11
311.296204
 21
-238.817642
  0
LINE
  8
0
 62
     5
 10
305.937286
 20
-242.734406
 11
305.937286
 21
-249.146469
  0
LINE
  8
0
 62
     5
 10
301.513550
 20
-243.379044
 11
301.513550
 21
-249.146469
  0
LINE
  8
0
 62
     5
 10
305.937286
 20
-232.833740
 11
310.361115
 21
-232.833740
  0
LINE
  8
0
 62
     5
 10
305.937286
 20
-230.373016
 11
305.937286
 21
-232.833740
  0
LINE
  8
0
 62
     5
 10
301.513550
 20
-230.373016
 11
301.513550
 21
-232.833740
  0
LINE
  8
0
 62
     5
 10
312.572998
 20
-235.045654
 11
312.572998
 21
-236.812775
  0
LINE
  8
0
 62
     5
 10
308.342377
 20
-240.195038
 11
312.573395
 21
-242.168030
  0
LINE
  8
0
 62
     5
 10
305.937256
 20
-242.734329
 11
312.573059
 21
-245.828613
  0
LINE
  8
0
 62
     5
 10
296.260284
 20
-242.167801
 11
296.260284
 21
-245.828644
  0
LINE
  8
0
 62
     5
 10
296.260742
 20
-242.168167
 11
309.162567
 21
-236.151932
  0
LINE
  8
0
 62
     5
 10
296.260254
 20
-245.828598
 11
301.513580
 21
-243.378937
  0
LINE
  8
0
 62
     5
 10
312.572998
 20
-242.167801
 11
312.572998
 21
-245.828644
  0
LINE
  8
0
 62
     5
 10
296.260284
 20
-232.833740
 11
296.260284
 21
-236.151566
  0
LINE
  8
0
 62
     5
 10
301.513550
 20
-249.146469
 11
305.937286
 21
-249.146469
  0
LINE
  8
0
 62
     5
 10
296.260284
 20
-236.151566
 11
309.162079
 21
-236.151566
  0
LINE
  8
0
 62
     5
 10
296.260284
 20
-232.833740
 11
301.513550
 21
-232.833740
  0
LINE
  8
0
 62
     5
 10
327.503998
 20
-236.404739
 11
328.730042
 21
-235.917068
  0
LINE
  8
0
 62
     5
 10
327.503357
 20
-236.404404
 11
327.503357
 21
-249.146469
  0
LINE
  8
0
 62
     5
 10
323.079498
 20
-249.146469
 11
327.503357
 21
-249.146469
  0
LINE
  8
0
 62
     5
 10
313.955292
 20
-241.792511
 11
323.079376
 21
-238.163742
  0
LINE
  8
0
 62
     5
 10
313.955536
 20
-238.221954
 11
326.806152
 21
-233.111084
  0
LINE
  8
0
 62
     5
 10
323.079498
 20
-238.163773
 11
323.079498
 21
-249.146469
  0
LINE
  8
0
 62
     5
 10
327.503357
 20
-231.368408
 11
327.503357
 21
-232.083389
  0
LINE
  8
0
 62
     5
 10
330.821106
 20
-231.368408
 11
330.821106
 21
-232.833755
  0
LINE
  8
0
 62
     5
 10
313.955444
 20
-238.221893
 11
313.955444
 21
-241.792496
  0
LINE
  8
0
 62
     5
 10
327.503357
 20
-231.368408
 11
330.821106
 21
-231.368408
  0
LINE
  8
0
 10
-370.873566
 20
0.000000
 11
370.873566
 21
0.000000
  0
LINE
  8
0
 10
220.873566
 20
-110.000000
 11
340.873566
 21
-110.000000
  0
LINE
  8
0
 10
220.873566
 20
-50.000000
 11
220.873566
 21
-155.000000
  0
LINE
  8
0
 10
290.873566
 20
-50.000000
 11
290.873566
 21
-155.000000
  0
LINE
  8
0
 10
220.873566
 20
-155.000000
 11
340.873566
 21
-155.000000
  0
LINE
  8
0
 10
220.873566
 20
-80.000000
 11
340.873566
 21
-80.000000
  0
LINE
  8
0
 10
220.873566
 20
-65.000000
 11
340.873566
 21
-65.000000
  0
LINE
  8
0
 10
220.873566
 20
-50.000000
 11
340.873566
 21
-50.000000
  0
LINE
  8
0
 10
340.873566
 20
-50.000000
 11
340.873566
 21
-155.000000
  0
LINE
  8
0
  6
CENTER
 10
-130.767731
 20
-169.559998
 11
-50.873596
 21
-169.559998
  0
LINE
  8
0
  6
CENTER
 10
-130.767731
 20
-59.559998
 11
-50.873596
 21
-59.559998
  0
LINE
  8
0
  6
CENTER
 10
74.126404
 20
-143.559998
 11
74.126404
 21
-197.559998
  0
LINE
  8
0
  6
CENTER
 10
48.126404
 20
-169.559998
 11
100.126404
 21
-169.559998
  0
LINE
  8
0
  6
PHANTOM
 10
56.126404
 20
-148.559998
 11
92.126404
 21
-148.559998
  0
LINE
  8
0
  6
PHANTOM
 10
56.126404
 20
-192.559998
 11
92.126404
 21
-192.559998
  0
LINE
  8
0
  6
PHANTOM
 10
92.126404
 20
-154.559998
 11
92.126404
 21
-184.559998
  0
LINE
  8
0
  6
PHANTOM
 10
56.126404
 20
-154.559998
 11
56.126404
 21
-184.559998
  0
LINE
  8
0
  6
PHANTOM
 10
56.126404
 20
-190.559998
 11
56.126404
 21
-192.559998
  0
LINE
  8
0
  6
PHANTOM
 10
91.126404
 20
-184.559998
 11
91.126404
 21
-190.559998
  0
LINE
  8
0
  6
PHANTOM
 10
92.126404
 20
-190.559998
 11
91.126404
 21
-190.559998
  0
LINE
  8
0
  6
PHANTOM
 10
92.126404
 20
-190.559998
 11
92.126404
 21
-192.559998
  0
LINE
  8
0
  6
PHANTOM
 10
92.126404
 20
-184.559998
 11
91.126404
 21
-184.559998
  0
LINE
  8
0
  6
PHANTOM
 10
53.126404
 20
-148.559998
 11
95.126404
 21
-148.559998
  0
LINE
  8
0
  6
PHANTOM
 10
56.126404
 20
-154.559998
 11
92.126404
 21
-154.559998
  0
LINE
  8
0
  6
PHANTOM
 10
95.126404
 20
-148.559998
 11
95.126404
 21
-176.559998
  0
LINE
  8
0
  6
PHANTOM
 10
53.126404
 20
-148.559998
 11
53.126404
 21
-176.559998
  0
LINE
  8
0
  6
PHANTOM
 10
53.126404
 20
-176.559998
 11
54.327408
 21
-176.559998
  0
LINE
  8
0
  6
PHANTOM
 10
93.925400
 20
-176.559998
 11
95.126404
 21
-176.559998
  0
LINE
  8
0
  6
PHANTOM
 10
-55.873566
 20
-154.559998
 11
-55.873566
 21
-184.059998
  0
LINE
  8
0
  6
PHANTOM
 10
-71.873566
 20
-154.559998
 11
-71.873566
 21
-184.059998
  0
LINE
  8
0
  6
PHANTOM
 10
-55.873566
 20
-192.559998
 11
-71.873566
 21
-192.559998
  0
LINE
  8
0
  6
PHANTOM
 10
-55.873566
 20
-154.559998
 11
-71.873566
 21
-154.559998
  0
LINE
  8
0
  6
PHANTOM
 10
-72.873566
 20
-182.759995
 11
-71.873566
 21
-182.759995
  0
LINE
  8
0
  6
PHANTOM
 10
-72.873566
 20
-156.360001
 11
-72.873566
 21
-182.759995
  0
LINE
  8
0
  6
PHANTOM
 10
-72.873566
 20
-156.360001
 11
-71.873566
 21
-156.360001
  0
LINE
  8
0
  6
PHANTOM
 10
-72.873596
 20
-72.759979
 11
-71.873596
 21
-72.759979
  0
LINE
  8
0
  6
PHANTOM
 10
-72.873596
 20
-46.359985
 11
-72.873596
 21
-72.759979
  0
LINE
  8
0
  6
PHANTOM
 10
-72.873596
 20
-46.359985
 11
-71.873596
 21
-46.359985
  0
LINE
  8
0
  6
PHANTOM
 10
-55.873596
 20
-41.559998
 11
-55.873596
 21
-77.559998
  0
LINE
  8
0
  6
PHANTOM
 10
-71.873596
 20
-41.559998
 11
-71.873596
 21
-77.559998
  0
LINE
  8
0
  6
PHANTOM
 10
-55.873596
 20
-77.559998
 11
-71.873596
 21
-77.559998
  0
LINE
  8
0
  6
PHANTOM
 10
-55.873596
 20
-41.559998
 11
-71.873596
 21
-41.559998
  0
LINE
  8
0
  6
PHANTOM
 10
-71.873566
 20
-191.059998
 11
-71.873566
 21
-192.559998
  0
LINE
  8
0
  6
PHANTOM
 10
-75.873596
 20
-46.359985
 11
-75.873596
 21
-72.759979
  0
LINE
  8
0
  6
PHANTOM
 10
-75.873566
 20
-156.360001
 11
-75.873566
 21
-182.759995
  0
LINE
  8
0
  6
PHANTOM
 10
-130.322891
 20
-186.560013
 11
-121.212624
 21
-152.560013
  0
LINE
  8
0
  6
PHANTOM
 10
-129.304687
 20
-72.759979
 11
-75.873596
 21
-72.759979
  0
LINE
  8
0
  6
PHANTOM
 10
-122.230835
 20
-46.359985
 11
-75.873596
 21
-46.359985
  0
LINE
  8
0
  6
PHANTOM
 10
-130.322876
 20
-76.559982
 11
-121.212601
 21
-42.559982
  0
LINE
  8
0
  6
PHANTOM
 10
-122.230835
 20
-156.360001
 11
-75.873566
 21
-156.360001
  0
LINE
  8
0
  6
PHANTOM
 10
-129.304687
 20
-182.759995
 11
-75.873566
 21
-182.759995
  0
LINE
  8
0
 10
220.873566
 20
120.000000
 11
340.873566
 21
120.000000
  0
LINE
  8
0
 10
220.873566
 20
180.000000
 11
220.873566
 21
75.000000
  0
LINE
  8
0
 10
290.873566
 20
180.000000
 11
290.873566
 21
75.000000
  0
LINE
  8
0
 10
220.873566
 20
75.000000
 11
340.873566
 21
75.000000
  0
LINE
  8
0
 10
220.873566
 20
150.000000
 11
340.873566
 21
150.000000
  0
LINE
  8
0
 10
220.873566
 20
165.000000
 11
340.873566
 21
165.000000
  0
LINE
  8
0
 10
220.873566
 20
180.000000
 11
340.873566
 21
180.000000
  0
LINE
  8
0
 10
340.873566
 20
180.000000
 11
340.873566
 21
75.000000
  0
LINE
  8
0
 10
220.873566
 20
-95.000000
 11
340.873566
 21
-95.000000
  0
LINE
  8
0
 10
220.873566
 20
135.000000
 11
340.873566
 21
135.000000
  0
LINE
  8
0
 10
220.873566
 20
-125.000000
 11
340.873566
 21
-125.000000
  0
LINE
  8
0
 10
220.873566
 20
105.000000
 11
340.873566
 21
105.000000
  0
LINE
  8
0
 10
220.873566
 20
-140.000000
 11
340.873566
 21
-140.000000
  0
LINE
  8
0
 10
220.873566
 20
90.000000
 11
340.873566
 21
90.000000
  0
LINE
  8
0
  6
PHANTOM
 10
-55.873566
 20
-191.059998
 11
-55.873566
 21
-192.559998
  0
LINE
  8
0
  6
CENTER
 10
-130.767731
 20
80.000000
 11
-50.873596
 21
80.000000
  0
LINE
  8
0
  6
CENTER
 10
-130.767731
 20
190.000000
 11
-50.873596
 21
190.000000
  0
LINE
  8
0
  6
CENTER
 10
74.126404
 20
106.000000
 11
74.126404
 21
52.000000
  0
LINE
  8
0
  6
CENTER
 10
48.126404
 20
80.000000
 11
100.126404
 21
80.000000
  0
LINE
  8
0
  6
PHANTOM
 10
56.126404
 20
101.000000
 11
92.126404
 21
101.000000
  0
LINE
  8
0
  6
PHANTOM
 10
56.126404
 20
57.000000
 11
92.126404
 21
57.000000
  0
LINE
  8
0
  6
PHANTOM
 10
92.126404
 20
95.000000
 11
92.126404
 21
65.000000
  0
LINE
  8
0
  6
PHANTOM
 10
56.126404
 20
95.000000
 11
56.126404
 21
65.000000
  0
LINE
  8
0
  6
PHANTOM
 10
56.126404
 20
59.000000
 11
56.126404
 21
57.000000
  0
LINE
  8
0
  6
PHANTOM
 10
91.126404
 20
65.000000
 11
91.126404
 21
59.000000
  0
LINE
  8
0
  6
PHANTOM
 10
92.126404
 20
59.000000
 11
91.126404
 21
59.000000
  0
LINE
  8
0
  6
PHANTOM
 10
92.126404
 20
59.000000
 11
92.126404
 21
57.000000
  0
LINE
  8
0
  6
PHANTOM
 10
92.126404
 20
65.000000
 11
91.126404
 21
65.000000
  0
LINE
  8
0
  6
PHANTOM
 10
53.126404
 20
101.000000
 11
95.126404
 21
101.000000
  0
LINE
  8
0
  6
PHANTOM
 10
56.126404
 20
95.000000
 11
92.126404
 21
95.000000
  0
LINE
  8
0
  6
PHANTOM
 10
95.126404
 20
101.000000
 11
95.126404
 21
73.000000
  0
LINE
  8
0
  6
PHANTOM
 10
53.126404
 20
101.000000
 11
53.126404
 21
73.000000
  0
LINE
  8
0
  6
PHANTOM
 10
53.126404
 20
73.000000
 11
54.327408
 21
73.000000
  0
LINE
  8
0
  6
PHANTOM
 10
93.925400
 20
73.000000
 11
95.126404
 21
73.000000
  0
LINE
  8
0
  6
PHANTOM
 10
-55.873566
 20
95.000000
 11
-55.873566
 21
65.500000
  0
LINE
  8
0
  6
PHANTOM
 10
-71.873566
 20
95.000000
 11
-71.873566
 21
65.500000
  0
LINE
  8
0
  6
PHANTOM
 10
-55.873566
 20
57.000000
 11
-71.873566
 21
57.000000
  0
LINE
  8
0
  6
PHANTOM
 10
-55.873566
 20
95.000000
 11
-71.873566
 21
95.000000
  0
LINE
  8
0
  6
PHANTOM
 10
-72.873566
 20
66.800003
 11
-71.873566
 21
66.800003
  0
LINE
  8
0
  6
PHANTOM
 10
-72.873566
 20
93.199997
 11
-72.873566
 21
66.800003
  0
LINE
  8
0
  6
PHANTOM
 10
-72.873566
 20
93.199997
 11
-71.873566
 21
93.199997
  0
LINE
  8
0
  6
PHANTOM
 10
-72.873596
 20
176.800018
 11
-71.873596
 21
176.800018
  0
LINE
  8
0
  6
PHANTOM
 10
-72.873596
 20
203.200012
 11
-72.873596
 21
176.800018
  0
LINE
  8
0
  6
PHANTOM
 10
-72.873596
 20
203.200012
 11
-71.873596
 21
203.200012
  0
LINE
  8
0
  6
PHANTOM
 10
-55.873596
 20
208.000000
 11
-55.873596
 21
172.000000
  0
LINE
  8
0
  6
PHANTOM
 10
-71.873596
 20
208.000000
 11
-71.873596
 21
172.000000
  0
LINE
  8
0
  6
PHANTOM
 10
-55.873596
 20
172.000000
 11
-71.873596
 21
172.000000
  0
LINE
  8
0
  6
PHANTOM
 10
-55.873596
 20
208.000000
 11
-71.873596
 21
208.000000
  0
LINE
  8
0
  6
PHANTOM
 10
-71.873566
 20
58.500000
 11
-71.873566
 21
57.000000
  0
LINE
  8
0
  6
PHANTOM
 10
-75.873596
 20
203.200012
 11
-75.873596
 21
176.800018
  0
LINE
  8
0
  6
PHANTOM
 10
-75.873566
 20
93.199997
 11
-75.873566
 21
66.800003
  0
LINE
  8
0
  6
PHANTOM
 10
-130.322876
 20
62.999992
 11
-121.212608
 21
96.999992
  0
LINE
  8
0
  6
PHANTOM
 10
-129.304687
 20
176.800018
 11
-75.873596
 21
176.800018
  0
LINE
  8
0
  6
PHANTOM
 10
-122.230835
 20
203.200012
 11
-75.873596
 21
203.200012
  0
LINE
  8
0
  6
PHANTOM
 10
-130.322891
 20
173.000000
 11
-121.212616
 21
206.999985
  0
LINE
  8
0
  6
PHANTOM
 10
-122.230835
 20
93.199997
 11
-75.873566
 21
93.199997
  0
LINE
  8
0
  6
PHANTOM
 10
-129.304687
 20
66.800003
 11
-75.873566
 21
66.800003
  0
LINE
  8
0
  6
PHANTOM
 10
-55.873566
 20
58.500000
 11
-55.873566
 21
57.000000
  0
LINE
  8
0
 10
-107.373566
 20
63.133984
 11
-107.373566
 21
60.866028
  0
LINE
  8
0
 10
-55.873566
 20
65.500000
 11
-110.873566
 21
65.500000
  0
LINE
  8
0
 10
-55.873566
 20
60.250004
 11
-98.405334
 21
60.250004
  0
LINE
  8
0
 10
-55.873566
 20
63.750004
 11
-98.405334
 21
63.750004
  0
LINE
  8
0
 10
-55.873566
 20
58.500004
 11
-110.873566
 21
58.500004
  0
LINE
  8
0
 10
-110.873566
 20
65.500000
 11
-110.873566
 21
58.500004
  0
LINE
  8
0
 10
-47.873566
 20
60.500004
 11
-83.507538
 21
60.500004
  0
LINE
  8
0
 10
-55.873566
 20
65.500000
 11
-55.873566
 21
63.500004
  0
LINE
  8
0
 10
-98.737183
 20
61.646423
 11
-98.525063
 21
61.434299
  0
LINE
  8
0
 10
-105.873566
 20
63.750004
 11
-105.873566
 21
60.250004
  0
LINE
  8
0
 10
-85.373566
 20
63.750004
 11
-85.373566
 21
60.250004
  0
LINE
  8
0
 10
-106.306656
 20
63.750065
 11
-107.373627
 21
63.134056
  0
LINE
  8
0
 10
-106.306610
 20
60.249996
 11
-107.373604
 21
60.866024
  0
LINE
  8
0
 10
-84.440544
 20
63.750000
 11
-83.507545
 21
63.500004
  0
LINE
  8
0
 10
-84.440552
 20
60.249977
 11
-83.507523
 21
60.499981
  0
LINE
  8
0
 10
-83.507538
 20
63.500000
 11
-83.507538
 21
60.500004
  0
LINE
  8
0
 10
-55.873566
 20
60.500004
 11
-55.873566
 21
58.500004
  0
LINE
  8
0
 10
-104.373566
 20
63.750004
 11
-104.373566
 21
60.250004
  0
LINE
  8
0
 10
-94.373566
 20
63.750004
 11
-94.373566
 21
60.250004
  0
LINE
  8
0
 10
-100.341797
 20
63.750004
 11
-110.873566
 21
63.750004
  0
LINE
  8
0
 10
-100.341797
 20
60.250004
 11
-110.873566
 21
60.250004
  0
LINE
  8
0
 10
-47.873566
 20
63.500004
 11
-83.507538
 21
63.500004
  0
LINE
  8
0
 10
-98.525055
 20
61.434368
 11
-98.807907
 21
61.151520
  0
LINE
  8
0
 10
-99.939262
 20
62.848549
 11
-100.222099
 21
62.565712
  0
LINE
  8
0
 10
-98.807907
 20
62.848507
 11
-98.525047
 21
62.565647
  0
LINE
  8
0
 10
-100.222122
 20
61.434311
 11
-99.939262
 21
61.151451
  0
LINE
  8
0
 10
-98.807907
 20
62.848572
 11
-99.020027
 21
62.636448
  0
LINE
  8
0
 10
-98.525078
 20
62.565742
 11
-98.737213
 21
62.353611
  0
LINE
  8
0
 10
-100.222107
 20
62.565659
 11
-100.009987
 21
62.353535
  0
LINE
  8
0
 10
-99.939270
 20
62.848515
 11
-99.727150
 21
62.636391
  0
LINE
  8
0
 10
-100.009987
 20
61.646492
 11
-100.222122
 21
61.434357
  0
LINE
  8
0
 10
-99.727158
 20
61.363667
 11
-99.939293
 21
61.151531
  0
LINE
  8
0
 10
-99.020020
 20
61.363567
 11
-98.807892
 21
61.151447
  0
LINE
  8
0
  6
CENTER
 10
-44.873566
 20
62.000004
 11
-113.873566
 21
62.000004
  0
LINE
  8
0
  6
CENTER
 10
-99.373566
 20
65.000000
 11
-99.373566
 21
59.000004
  0
LINE
  8
0
 10
-100.373550
 20
162.099976
 11
-100.373550
 21
163.899963
  0
LINE
  8
0
 10
-97.373550
 20
161.564560
 11
-97.373550
 21
162.099976
  0
LINE
  8
0
 10
-98.373550
 20
162.099976
 11
-98.373550
 21
163.899963
  0
LINE
  8
0
 10
-55.873581
 20
171.999969
 11
-55.873581
 21
163.899963
  0
LINE
  8
0
 10
-98.590042
 20
162.099976
 11
-98.590042
 21
163.899963
  0
LINE
  8
0
 10
-100.157028
 20
162.099976
 11
-100.157028
 21
163.899963
  0
LINE
  8
0
 10
-55.873581
 20
163.899963
 11
-110.873550
 21
163.899963
  0
LINE
  8
0
 10
-71.873581
 20
172.999969
 11
-110.873550
 21
172.999969
  0
LINE
  8
0
 10
-110.873550
 20
172.999969
 11
-110.873550
 21
163.899963
  0
LINE
  8
0
 10
-55.873581
 20
167.399963
 11
-110.873550
 21
167.399963
  0
LINE
  8
0
 10
-55.873581
 20
167.899963
 11
-110.873550
 21
167.899963
  0
LINE
  8
0
 10
-47.873581
 20
168.499969
 11
-55.873581
 21
168.499969
  0
LINE
  8
0
 10
-47.873581
 20
171.499969
 11
-55.873581
 21
171.499969
  0
LINE
  8
0
 10
-101.373550
 20
162.099960
 11
-97.373550
 21
162.099960
  0
LINE
  8
0
 10
-101.373550
 20
161.564560
 11
-101.373550
 21
162.099976
  0
LINE
  8
0
  6
CENTER
 10
-99.373550
 20
158.499969
 11
-99.373550
 21
170.899963
  0
LINE
  8
0
  6
CENTER
 10
-44.873581
 20
169.999969
 11
-113.873581
 21
169.999969
  0
LINE
  8
0
 10
52.026405
 20
65.000000
 11
57.126411
 21
65.000000
  0
LINE
  8
0
 10
52.026390
 20
58.999996
 11
57.126411
 21
58.999996
  0
LINE
  8
0
 10
57.126411
 20
65.000000
 11
57.126411
 21
58.999996
  0
LINE
  8
0
 10
48.026405
 20
60.249996
 11
48.026405
 21
58.499996
  0
LINE
  8
0
 10
51.126411
 20
59.999996
 11
56.126411
 21
59.999996
  0
LINE
  8
0
 10
48.026405
 20
65.500000
 11
48.026405
 21
63.749996
  0
LINE
  8
0
 10
56.126411
 20
64.149994
 11
56.126411
 21
59.849995
  0
LINE
  8
0
 10
49.026405
 20
64.750000
 11
49.026405
 21
63.749996
  0
LINE
  8
0
 10
50.826408
 20
64.750000
 11
50.826408
 21
59.249996
  0
LINE
  8
0
 10
50.826408
 20
64.149994
 11
56.126411
 21
64.149994
  0
LINE
  8
0
 10
50.826408
 20
59.849995
 11
56.126411
 21
59.849995
  0
LINE
  8
0
 10
48.026405
 20
58.499996
 11
51.526405
 21
58.499996
  0
LINE
  8
0
 10
48.026405
 20
65.500000
 11
51.526405
 21
65.500000
  0
LINE
  8
0
 10
48.026405
 20
63.749996
 11
49.026405
 21
63.749996
  0
LINE
  8
0
 10
48.026405
 20
60.249996
 11
49.026405
 21
60.249996
  0
LINE
  8
0
 10
49.026405
 20
60.249996
 11
49.026405
 21
59.249996
  0
LINE
  8
0
 10
49.026405
 20
59.249996
 11
50.826408
 21
59.249996
  0
LINE
  8
0
 10
49.026405
 20
64.750000
 11
50.826408
 21
64.750000
  0
LINE
  8
0
 10
51.526394
 20
58.500008
 11
52.026394
 21
59.000008
  0
LINE
  8
0
 10
51.526409
 20
65.499992
 11
52.026398
 21
65.000000
  0
LINE
  8
0
 10
52.126411
 20
63.999996
 11
52.126411
 21
59.999996
  0
LINE
  8
0
 10
51.126411
 20
63.999996
 11
56.126411
 21
63.999996
  0
LINE
  8
0
 10
49.326408
 20
64.500000
 11
49.326408
 21
59.499996
  0
LINE
  8
0
 10
49.326408
 20
64.500000
 11
50.826408
 21
64.500000
  0
LINE
  8
0
 10
49.326408
 20
59.499996
 11
50.826408
 21
59.499996
  0
LINE
  8
0
 10
50.826408
 20
62.999996
 11
51.126411
 21
62.999996
  0
LINE
  8
0
 10
50.826408
 20
62.783497
 11
51.126411
 21
62.783497
  0
LINE
  8
0
 10
50.826408
 20
61.216496
 11
51.126411
 21
61.216496
  0
LINE
  8
0
 10
50.826408
 20
60.999996
 11
51.126411
 21
60.999996
  0
LINE
  8
0
 10
51.126411
 20
63.999996
 11
51.126411
 21
59.999996
  0
LINE
  8
0
 10
46.226418
 20
63.999996
 11
46.226418
 21
59.999996
  0
LINE
  8
0
 10
45.691002
 20
63.999996
 11
46.226418
 21
63.999996
  0
LINE
  8
0
 10
45.691002
 20
59.999996
 11
46.226418
 21
59.999996
  0
LINE
  8
0
 10
46.226418
 20
60.999996
 11
49.326408
 21
60.999996
  0
LINE
  8
0
 10
46.226418
 20
62.999996
 11
49.326408
 21
62.999996
  0
LINE
  8
0
 10
46.226418
 20
62.783497
 11
49.326408
 21
62.783497
  0
LINE
  8
0
 10
46.226418
 20
61.216496
 11
49.326408
 21
61.216496
  0
LINE
  8
0
  6
CENTER
 10
42.626411
 20
61.999996
 11
60.126411
 21
61.999996
  0
LINE
  8
0
 10
-110.873566
 20
56.000004
 11
-110.873566
 21
39.500000
  0
LINE
  8
0
 10
-71.873566
 20
54.500000
 11
-71.873566
 21
39.500000
  0
LINE
  8
0
 10
-110.873566
 20
42.000000
 11
-71.873566
 21
42.000000
  0
LINE
  8
0
 10
-110.873566
 20
41.999996
 11
-106.043930
 21
43.294090
  0
LINE
  8
0
 10
-76.703194
 20
40.705906
 11
-71.873566
 21
42.000000
  0
LINE
  8
0
 10
-76.703194
 20
43.294094
 11
-71.873558
 21
41.999996
  0
LINE
  8
0
 10
-110.873558
 20
41.999996
 11
-106.043930
 21
40.705902
  0
LINE
  8
0
  6
CENTER
 10
-44.873573
 20
-187.559982
 11
-113.873566
 21
-187.559982
  0
LINE
  8
0
 10
-55.873573
 20
-184.059982
 11
-110.873566
 21
-184.059982
  0
LINE
  8
0
 10
-55.873573
 20
-189.309982
 11
-98.405334
 21
-189.309982
  0
LINE
  8
0
 10
-55.873573
 20
-185.809982
 11
-98.405334
 21
-185.809982
  0
LINE
  8
0
 10
-55.873573
 20
-191.059982
 11
-110.873566
 21
-191.059982
  0
LINE
  8
0
 10
-110.873566
 20
-184.059982
 11
-110.873566
 21
-191.059982
  0
LINE
  8
0
 10
-47.873573
 20
-189.059982
 11
-83.007545
 21
-189.059982
  0
LINE
  8
0
 10
-55.873573
 20
-184.059982
 11
-55.873573
 21
-186.059982
  0
LINE
  8
0
 10
-98.737190
 20
-187.913605
 11
-98.525070
 21
-188.125732
  0
LINE
  8
0
 10
-109.373566
 20
-185.809982
 11
-109.373566
 21
-189.309982
  0
LINE
  8
0
 10
-84.873573
 20
-185.809982
 11
-84.873573
 21
-189.309982
  0
LINE
  8
0
 10
-109.806610
 20
-185.809998
 11
-110.873573
 21
-186.426010
  0
LINE
  8
0
 10
-109.806656
 20
-189.310089
 11
-110.873642
 21
-188.694061
  0
LINE
  8
0
 10
-83.940559
 20
-185.809967
 11
-83.007561
 21
-186.059967
  0
LINE
  8
0
 10
-83.940544
 20
-189.309982
 11
-83.007515
 21
-189.059982
  0
LINE
  8
0
 10
-83.007545
 20
-186.059982
 11
-83.007545
 21
-189.059982
  0
LINE
  8
0
 10
-55.873573
 20
-189.059982
 11
-55.873573
 21
-191.059982
  0
LINE
  8
0
 10
-104.373566
 20
-185.809982
 11
-104.373566
 21
-189.309982
  0
LINE
  8
0
 10
-94.373573
 20
-185.809982
 11
-94.373573
 21
-189.309982
  0
LINE
  8
0
 10
-100.341797
 20
-185.809982
 11
-110.873566
 21
-185.809982
  0
LINE
  8
0
 10
-100.341797
 20
-189.309982
 11
-110.873566
 21
-189.309982
  0
LINE
  8
0
 10
-47.873573
 20
-186.059982
 11
-83.007545
 21
-186.059982
  0
LINE
  8
0
 10
-98.525032
 20
-188.125656
 11
-98.807884
 21
-188.408508
  0
LINE
  8
0
 10
-99.939262
 20
-186.711456
 11
-100.222099
 21
-186.994293
  0
LINE
  8
0
 10
-98.807930
 20
-186.711517
 11
-98.525070
 21
-186.994370
  0
LINE
  8
0
 10
-100.222122
 20
-188.125732
 11
-99.939262
 21
-188.408600
  0
LINE
  8
0
 10
-98.807899
 20
-186.711441
 11
-99.020027
 21
-186.923569
  0
LINE
  8
0
 10
-98.525047
 20
-186.994293
 11
-98.737183
 21
-187.206436
  0
LINE
  8
0
 10
-100.222137
 20
-186.994354
 11
-100.010017
 21
-187.206482
  0
LINE
  8
0
 10
-99.939278
 20
-186.711517
 11
-99.727158
 21
-186.923645
  0
LINE
  8
0
 10
-100.009979
 20
-187.913513
 11
-100.222115
 21
-188.125656
  0
LINE
  8
0
 10
-99.727127
 20
-188.196381
 11
-99.939262
 21
-188.408508
  0
LINE
  8
0
 10
-99.020050
 20
-188.196457
 11
-98.807930
 21
-188.408569
  0
LINE
  8
0
  6
CENTER
 10
-99.373566
 20
-184.559982
 11
-99.373566
 21
-190.559982
  0
LINE
  8
0
 10
-100.373566
 20
-87.459991
 11
-100.373566
 21
-85.660004
  0
LINE
  8
0
 10
-97.373566
 20
-87.995407
 11
-97.373566
 21
-87.459991
  0
LINE
  8
0
 10
-98.373566
 20
-87.459991
 11
-98.373566
 21
-85.660004
  0
LINE
  8
0
 10
-55.873596
 20
-77.559998
 11
-55.873596
 21
-85.660004
  0
LINE
  8
0
 10
-98.590057
 20
-87.459991
 11
-98.590057
 21
-85.660004
  0
LINE
  8
0
 10
-100.157043
 20
-87.459991
 11
-100.157043
 21
-85.660004
  0
LINE
  8
0
 10
-55.873596
 20
-85.660004
 11
-110.873566
 21
-85.660004
  0
LINE
  8
0
 10
-71.873596
 20
-76.559998
 11
-110.873566
 21
-76.559998
  0
LINE
  8
0
 10
-110.873566
 20
-76.559998
 11
-110.873566
 21
-85.660004
  0
LINE
  8
0
 10
-55.873596
 20
-82.160004
 11
-110.873566
 21
-82.160004
  0
LINE
  8
0
 10
-55.873596
 20
-81.660004
 11
-110.873566
 21
-81.660004
  0
LINE
  8
0
 10
-47.873596
 20
-81.059998
 11
-55.873596
 21
-81.059998
  0
LINE
  8
0
 10
-47.873596
 20
-78.059998
 11
-55.873596
 21
-78.059998
  0
LINE
  8
0
 10
-101.373566
 20
-87.460007
 11
-97.373566
 21
-87.460007
  0
LINE
  8
0
 10
-101.373566
 20
-87.995407
 11
-101.373566
 21
-87.459991
  0
LINE
  8
0
  6
CENTER
 10
-99.373566
 20
-91.059998
 11
-99.373566
 21
-78.660004
  0
LINE
  8
0
  6
CENTER
 10
-44.873596
 20
-79.559998
 11
-113.873596
 21
-79.559998
  0
LINE
  8
0
 10
52.026398
 20
-184.559998
 11
57.126404
 21
-184.559998
  0
LINE
  8
0
 10
52.026382
 20
-190.559998
 11
57.126404
 21
-190.559998
  0
LINE
  8
0
 10
57.126404
 20
-184.559998
 11
57.126404
 21
-190.559998
  0
LINE
  8
0
 10
48.026398
 20
-189.309998
 11
48.026398
 21
-191.059998
  0
LINE
  8
0
 10
51.126404
 20
-189.559998
 11
56.126404
 21
-189.559998
  0
LINE
  8
0
 10
48.026398
 20
-184.059998
 11
48.026398
 21
-185.809998
  0
LINE
  8
0
 10
56.126404
 20
-185.410004
 11
56.126404
 21
-189.709991
  0
LINE
  8
0
 10
49.026398
 20
-184.809998
 11
49.026398
 21
-185.809998
  0
LINE
  8
0
 10
50.826401
 20
-184.809998
 11
50.826401
 21
-190.309998
  0
LINE
  8
0
 10
50.826401
 20
-185.410004
 11
56.126404
 21
-185.410004
  0
LINE
  8
0
 10
50.826401
 20
-189.709991
 11
56.126404
 21
-189.709991
  0
LINE
  8
0
 10
48.026398
 20
-191.059998
 11
51.526398
 21
-191.059998
  0
LINE
  8
0
 10
48.026398
 20
-184.059998
 11
51.526398
 21
-184.059998
  0
LINE
  8
0
 10
48.026398
 20
-185.809998
 11
49.026398
 21
-185.809998
  0
LINE
  8
0
 10
48.026398
 20
-189.309998
 11
49.026398
 21
-189.309998
  0
LINE
  8
0
 10
49.026398
 20
-189.309998
 11
49.026398
 21
-190.309998
  0
LINE
  8
0
 10
49.026398
 20
-190.309998
 11
50.826401
 21
-190.309998
  0
LINE
  8
0
 10
49.026398
 20
-184.809998
 11
50.826401
 21
-184.809998
  0
LINE
  8
0
 10
51.526386
 20
-191.059982
 11
52.026386
 21
-190.559982
  0
LINE
  8
0
 10
51.526402
 20
-184.059998
 11
52.026394
 21
-184.559998
  0
LINE
  8
0
 10
52.126404
 20
-185.559998
 11
52.126404
 21
-189.559998
  0
LINE
  8
0
 10
51.126404
 20
-185.559998
 11
56.126404
 21
-185.559998
  0
LINE
  8
0
 10
49.326401
 20
-185.059998
 11
49.326401
 21
-190.059998
  0
LINE
  8
0
 10
49.326401
 20
-185.059998
 11
50.826401
 21
-185.059998
  0
LINE
  8
0
 10
49.326401
 20
-190.059998
 11
50.826401
 21
-190.059998
  0
LINE
  8
0
 10
50.826401
 20
-186.559998
 11
51.126404
 21
-186.559998
  0
LINE
  8
0
 10
50.826401
 20
-186.776489
 11
51.126404
 21
-186.776489
  0
LINE
  8
0
 10
50.826401
 20
-188.343506
 11
51.126404
 21
-188.343506
  0
LINE
  8
0
 10
50.826401
 20
-188.559998
 11
51.126404
 21
-188.559998
  0
LINE
  8
0
 10
51.126404
 20
-185.559998
 11
51.126404
 21
-189.559998
  0
LINE
  8
0
 10
46.226410
 20
-185.559998
 11
46.226410
 21
-189.559998
  0
LINE
  8
0
 10
45.690994
 20
-185.559998
 11
46.226410
 21
-185.559998
  0
LINE
  8
0
 10
45.690994
 20
-189.559998
 11
46.226410
 21
-189.559998
  0
LINE
  8
0
 10
46.226410
 20
-188.559998
 11
49.326401
 21
-188.559998
  0
LINE
  8
0
 10
46.226410
 20
-186.559998
 11
49.326401
 21
-186.559998
  0
LINE
  8
0
 10
46.226410
 20
-186.776489
 11
49.326401
 21
-186.776489
  0
LINE
  8
0
 10
46.226410
 20
-188.343506
 11
49.326401
 21
-188.343506
  0
LINE
  8
0
  6
CENTER
 10
42.626404
 20
-187.559998
 11
60.126404
 21
-187.559998
  0
LINE
  8
0
 10
-110.873566
 20
-207.559998
 11
-71.873566
 21
-207.559998
  0
LINE
  8
0
 10
-110.873566
 20
-193.559982
 11
-110.873566
 21
-210.059998
  0
LINE
  8
0
 10
-71.873566
 20
-195.059998
 11
-71.873566
 21
-210.059998
  0
LINE
  8
0
 10
-110.873558
 20
-207.559967
 11
-106.043922
 21
-206.265869
  0
LINE
  8
0
 10
-76.703209
 20
-208.854080
 11
-71.873573
 21
-207.559982
  0
LINE
  8
0
 10
-110.873550
 20
-207.559982
 11
-106.043922
 21
-208.854065
  0
LINE
  8
0
 10
-76.703186
 20
-206.265884
 11
-71.873558
 21
-207.559982
  0
ARC
  8
0
 62
     5
 10
273.035400
 20
-235.045654
 40
2.211884
 50
0.000000
 51
90.000000
  0
ARC
  8
0
 62
     5
 10
291.283569
 20
-246.934647
 40
2.211899
 50
270.000000
 51
0.000000
  0
ARC
  8
0
 62
     5
 10
290.177551
 20
-236.151566
 40
3.317841
 50
0.000000
 51
90.000000
  0
ARC
  8
0
 62
     5
 10
310.361115
 20
-236.812775
 40
2.211890
 50
294.999969
 51
0.000000
  0
ARC
  8
0
 62
     5
 10
310.361115
 20
-235.045654
 40
2.211884
 50
0.000000
 51
90.000000
  0
ARC
  8
0
 62
     5
 10
327.503357
 20
-232.833755
 40
3.317840
 50
291.688385
 51
0.000000
  0
ARC
  8
0
 62
     5
 10
326.397308
 20
-232.083389
 40
1.105946
 50
291.688965
 51
0.000000
  0
ARC
  8
0
  6
PHANTOM
 10
74.126404
 20
-169.559998
 40
20.999998
 50
328.997284
 51
340.528778
  0
ARC
  8
0
  6
PHANTOM
 10
74.126404
 20
-169.559998
 40
20.999996
 50
199.471176
 51
211.002701
  0
ARC
  8
0
  6
DASHED
 10
74.126404
 20
-169.559998
 40
21.000002
 50
211.002701
 51
328.997284
  0
ARC
  8
0
  6
PHANTOM
 10
-74.373596
 20
-46.359985
 40
1.500000
 50
0.000000
 51
180.000000
  0
ARC
  8
0
  6
PHANTOM
 10
-74.373566
 20
-182.759995
 40
1.500000
 50
180.000000
 51
240.073700
  0
ARC
  8
0
  6
PHANTOM
 10
-74.373566
 20
-156.360001
 40
1.500000
 50
0.000000
 51
180.000000
  0
ARC
  8
0
  6
PHANTOM
 10
-74.373596
 20
-72.759979
 40
1.500000
 50
180.000000
 51
0.000000
  0
ARC
  8
0
  6
PHANTOM
 10
-74.373566
 20
-182.759995
 40
1.500001
 50
299.926300
 51
0.000000
  0
ARC
  8
0
  6
PHANTOM
 10
74.126404
 20
80.000000
 40
21.000002
 50
328.997284
 51
340.528778
  0
ARC
  8
0
  6
PHANTOM
 10
74.126404
 20
80.000000
 40
21.000000
 50
199.471191
 51
211.002701
  0
ARC
  8
0
  6
DASHED
 10
74.126404
 20
80.000000
 40
21.000002
 50
211.002701
 51
328.997284
  0
ARC
  8
0
  6
PHANTOM
 10
-74.373596
 20
203.200012
 40
1.500000
 50
0.000000
 51
180.000000
  0
ARC
  8
0
  6
PHANTOM
 10
-74.373566
 20
66.800003
 40
1.500000
 50
180.000000
 51
240.073700
  0
ARC
  8
0
  6
PHANTOM
 10
-74.373566
 20
93.199997
 40
1.500000
 50
0.000000
 51
180.000000
  0
ARC
  8
0
  6
PHANTOM
 10
-74.373596
 20
176.800018
 40
1.500000
 50
180.000000
 51
0.000000
  0
ARC
  8
0
  6
PHANTOM
 10
-74.373566
 20
66.800003
 40
1.500001
 50
299.926300
 51
0.000000
  0
ARC
  8
0
 10
-49.727600
 20
61.250004
 40
2.000000
 50
337.975677
 51
22.024313
  0
ARC
  8
0
 10
-46.019531
 20
62.750004
 40
2.000000
 50
157.975693
 51
202.024307
  0
ARC
  8
0
 10
-99.373566
 20
61.010052
 40
0.500001
 50
45.000000
 51
135.000000
  0
ARC
  8
0
 10
-98.383606
 20
62.000004
 40
0.500001
 50
135.000000
 51
225.000000
  0
ARC
  8
0
 10
-99.373566
 20
62.989956
 40
0.500001
 50
225.000000
 51
315.000000
  0
ARC
  8
0
 10
-100.363525
 20
62.000004
 40
0.500001
 50
315.000000
 51
45.000000
  0
CIRCLE
  8
0
 10
-99.373566
 20
62.000004
 40
2.000000
  0
ARC
  8
0
 10
-98.073532
 20
161.564545
 40
0.699999
 50
301.332184
 51
0.000000
  0
ARC
  8
0
 10
-100.673569
 20
161.564545
 40
0.699997
 50
180.000000
 51
238.667831
  0
ARC
  8
0
 10
-99.373550
 20
163.699966
 40
3.200001
 50
238.667892
 51
301.332092
  0
ARC
  8
0
 10
-49.727615
 20
169.249969
 40
2.000000
 50
337.975677
 51
22.024313
  0
ARC
  8
0
 10
-46.019516
 20
170.749969
 40
2.000000
 50
157.975693
 51
202.024307
  0
ARC
  8
0
 10
45.691002
 20
63.299995
 40
0.700001
 50
90.000000
 51
148.667831
  0
ARC
  8
0
 10
47.826424
 20
61.999996
 40
3.200000
 50
148.667801
 51
211.332199
  0
ARC
  8
0
 10
45.691002
 20
60.699997
 40
0.699999
 50
211.332169
 51
270.000000
  0
CIRCLE
  8
0
 10
54.126411
 20
61.249996
 40
0.500000
  0
CIRCLE
  8
0
 10
54.126411
 20
62.749996
 40
0.500000
  0
CIRCLE
  8
0
 10
54.126411
 20
61.999996
 40
1.500000
  0
ARC
  8
0
 10
-49.727608
 20
-188.309982
 40
2.000000
 50
337.975677
 51
22.024313
  0
ARC
  8
0
 10
-46.019539
 20
-186.809982
 40
2.000000
 50
157.975693
 51
202.024307
  0
ARC
  8
0
 10
-99.373566
 20
-188.549942
 40
0.499995
 50
44.999382
 51
135.000626
  0
ARC
  8
0
 10
-98.383606
 20
-187.559982
 40
0.499995
 50
135.000626
 51
224.999374
  0
ARC
  8
0
 10
-99.373566
 20
-186.570023
 40
0.499995
 50
224.999374
 51
315.000610
  0
ARC
  8
0
 10
-100.363525
 20
-187.559982
 40
0.499995
 50
315.000610
 51
44.999382
  0
CIRCLE
  8
0
 10
-99.373566
 20
-187.559982
 40
2.000000
  0
ARC
  8
0
 10
-98.073547
 20
-87.995422
 40
0.699999
 50
301.332184
 51
0.000000
  0
ARC
  8
0
 10
-100.673584
 20
-87.995422
 40
0.699997
 50
180.000000
 51
238.667831
  0
ARC
  8
0
 10
-99.373566
 20
-85.860001
 40
3.200001
 50
238.667892
 51
301.332092
  0
ARC
  8
0
 10
-49.727631
 20
-80.309998
 40
2.000000
 50
337.975677
 51
22.024313
  0
ARC
  8
0
 10
-46.019531
 20
-78.809998
 40
2.000000
 50
157.975693
 51
202.024307
  0
ARC
  8
0
 10
45.690994
 20
-186.259995
 40
0.699997
 50
90.000000
 51
148.667831
  0
ARC
  8
0
 10
47.826416
 20
-187.559998
 40
3.200002
 50
148.667740
 51
211.332260
  0
ARC
  8
0
 10
45.690994
 20
-188.860001
 40
0.699999
 50
211.332169
 51
270.000000
  0
CIRCLE
  8
0
 10
54.126404
 20
-188.309998
 40
0.500000
  0
CIRCLE
  8
0
 10
54.126404
 20
-186.809998
 40
0.500000
  0
CIRCLE
  8
0
 10
54.126404
 20
-187.559998
 40
1.500000
  0
TEXT
  8
0
 10
226.462494
 20
233.607468
 40
8.500000
  1
DATE : SEP ,1991
 50
0.000000
 41
1.052631
 51
0.000000
  7
STANDARD
  0
TEXT
  8
0
 10
-360.779938
 20
232.257462
 40
10.000000
  1
MRC SENSOR SW
 50
0.000000
 41
1.052632
 51
0.000000
  7
STANDARD
  0
TEXT
  8
0
 10
-347.052124
 20
187.956390
 40
10.000000
  1
MODEL : ZC301
 50
0.000000
 41
1.052632
 51
0.000000
  7
STANDARD
  0
TEXT
  8
0
 10
-347.052124
 20
-38.000000
 40
10.000000
  1
MODEL : ZC305
 50
0.000000
 41
1.052632
 51
0.000000
  7
STANDARD
  0
TEXT
  8
0
 10
311.623566
 20
-62.799999
 40
7.000000
  1
A
 50
0.000000
 41
1.052632
 51
0.000000
  7
STANDARD
  0
TEXT
  8
0
 10
234.123566
 20
-137.800003
 40
7.000000
  1
MRCH32
 50
0.000000
 41
1.052632
 51
0.000000
  7
STANDARD
  0
TEXT
  8
0
 10
227.123566
 20
-62.799999
 40
7.000000
  1
CYLINDER
 50
0.000000
 41
1.052632
 51
0.000000
  7
STANDARD
  0
TEXT
  8
0
 10
234.123566
 20
-152.800003
 40
7.000000
  1
MRCH40
 50
0.000000
 41
1.052632
 51
0.000000
  7
STANDARD
  0
TEXT
  8
0
 10
313.123566
 20
-167.800003
 40
7.000000
  1
(mm)
 50
0.000000
 41
1.052632
 51
0.000000
  7
STANDARD
  0
TEXT
  8
0
 10
301.123566
 20
-137.800003
 40
7.000000
  1
43.5
 50
0.000000
 41
1.052632
 51
0.000000
  7
STANDARD
  0
TEXT
  8
0
 10
308.123566
 20
-77.800003
 40
7.000000
  1
28
 50
0.000000
 41
1.052632
 51
0.000000
  7
STANDARD
  0
TEXT
  8
0
 10
234.123566
 20
-77.800003
 40
7.000000
  1
MRCH10
 50
0.000000
 41
1.052632
 51
0.000000
  7
STANDARD
  0
TEXT
  8
0
 10
227.123566
 20
-47.799999
 40
7.000000
  1
DIMENSIONS OF A
 50
0.000000
 41
1.052632
 51
0.000000
  7
STANDARD
  0
TEXT
  8
0
 10
308.123566
 20
-152.800003
 40
7.000000
  1
49
 50
0.000000
 41
1.052632
 51
0.000000
  7
STANDARD
  0
TEXT
  8
0
 10
311.623566
 20
167.199997
 40
7.000000
  1
A
 50
0.000000
 41
1.052632
 51
0.000000
  7
STANDARD
  0
TEXT
  8
0
 10
234.123566
 20
92.199997
 40
7.000000
  1
MRCH32
 50
0.000000
 41
1.052632
 51
0.000000
  7
STANDARD
  0
TEXT
  8
0
 10
227.123566
 20
167.199997
 40
7.000000
  1
CYLINDER
 50
0.000000
 41
1.052632
 51
0.000000
  7
STANDARD
  0
TEXT
  8
0
 10
234.123566
 20
77.199997
 40
7.000000
  1
MRCH40
 50
0.000000
 41
1.052632
 51
0.000000
  7
STANDARD
  0
TEXT
  8
0
 10
313.123566
 20
62.200001
 40
7.000000
  1
(mm)
 50
0.000000
 41
1.052632
 51
0.000000
  7
STANDARD
  0
TEXT
  8
0
 10
301.123566
 20
92.199997
 40
7.000000
  1
43.5
 50
0.000000
 41
1.052632
 51
0.000000
  7
STANDARD
  0
TEXT
  8
0
 10
308.123566
 20
152.199997
 40
7.000000
  1
28
 50
0.000000
 41
1.052632
 51
0.000000
  7
STANDARD
  0
TEXT
  8
0
 10
234.123566
 20
152.199997
 40
7.000000
  1
MRCH10
 50
0.000000
 41
1.052632
 51
0.000000
  7
STANDARD
  0
TEXT
  8
0
 10
227.123566
 20
182.199997
 40
7.000000
  1
DIMENSIONS OF A
 50
0.000000
 41
1.052632
 51
0.000000
  7
STANDARD
  0
TEXT
  8
0
 10
308.123566
 20
77.199997
 40
7.000000
  1
49
 50
0.000000
 41
1.052632
 51
0.000000
  7
STANDARD
  0
TEXT
  8
0
 10
234.123566
 20
-122.800003
 40
7.000000
  1
MRCH25
 50
0.000000
 41
1.052632
 51
0.000000
  7
STANDARD
  0
TEXT
  8
0
 10
308.123566
 20
-122.800003
 40
7.000000
  1
39
 50
0.000000
 41
1.052632
 51
0.000000
  7
STANDARD
  0
TEXT
  8
0
 10
234.123566
 20
107.199997
 40
7.000000
  1
MRCH25
 50
0.000000
 41
1.052632
 51
0.000000
  7
STANDARD
  0
TEXT
  8
0
 10
308.123566
 20
107.199997
 40
7.000000
  1
39
 50
0.000000
 41
1.052632
 51
0.000000
  7
STANDARD
  0
TEXT
  8
0
 10
234.123566
 20
-107.800003
 40
7.000000
  1
MRCH20
 50
0.000000
 41
1.052632
 51
0.000000
  7
STANDARD
  0
TEXT
  8
0
 10
308.123566
 20
-107.800003
 40
7.000000
  1
36
 50
0.000000
 41
1.052632
 51
0.000000
  7
STANDARD
  0
TEXT
  8
0
 10
234.123566
 20
122.199997
 40
7.000000
  1
MRCH20
 50
0.000000
 41
1.052632
 51
0.000000
  7
STANDARD
  0
TEXT
  8
0
 10
308.123566
 20
122.199997
 40
7.000000
  1
36
 50
0.000000
 41
1.052632
 51
0.000000
  7
STANDARD
  0
TEXT
  8
0
 10
234.123566
 20
-92.800003
 40
7.000000
  1
MRCH16
 50
0.000000
 41
1.052632
 51
0.000000
  7
STANDARD
  0
TEXT
  8
0
 10
308.123566
 20
-92.800003
 40
7.000000
  1
33
 50
0.000000
 41
1.052632
 51
0.000000
  7
STANDARD
  0
TEXT
  8
0
 10
234.123566
 20
137.199997
 40
7.000000
  1
MRCH16
 50
0.000000
 41
1.052632
 51
0.000000
  7
STANDARD
  0
TEXT
  8
0
 10
308.123566
 20
137.199997
 40
7.000000
  1
33
 50
0.000000
 41
1.052632
 51
0.000000
  7
STANDARD
  0
TEXT
  8
0
 10
-95.623566
 20
43.700001
 40
7.000000
  1
A
 50
0.000000
 41
1.052632
 51
0.000000
  7
STANDARD
  0
TEXT
  8
0
 10
-95.623566
 20
-205.860001
 40
7.000000
  1
A
 50
0.000000
 41
1.052632
 51
0.000000
  7
STANDARD
  0
ENDSEC
  0
EOF
