  0
SECTION
  2
HEADER
  0
ENDSEC
  0
SECTION
  2
TABLES
  0
TABLE
  2
LTYPE
 70
     4
  0
LTYPE
  2
CONTINUOUS
 70
    64
  3
Solid line
 72
    65
 73
     0
 40
0.000000
  0
LTYPE
  2
DASHED
 70
    64
  3
__ __ __ __ __ __ __ __ __ __ __ __ __ __ __
 72
    65
 73
     2
 40
3.500000
 49
2.000000
 49
-1.500000
  0
LTYPE
  2
CENTER
 70
    64
  3
____ _ ____ _ ____ _ ____ _ ____ _ ____ _ ____
 72
    65
 73
     4
 40
17.500000
 49
13.000000
 49
-1.500000
 49
1.500000
 49
-1.500000
  0
LTYPE
  2
PHANTOM
 70
    64
  3
_____ _ _ _____ _ _ _____ _ _ _____ _ _ ____  
 72
    65
 73
     6
 40
15.500000
 49
8.000000
 49
-1.500000
 49
1.500000
 49
-1.500000
 49
1.500000
 49
-1.500000
  0
LTYPE
  2
DASHED1
 70
    64
  3
__ __ __ __ __ __ __ __ __ __ __ __ __ __ __
 72
    65
 73
     2
 40
1.500000
 49
1.000000
 49
-0.500000
  0
LTYPE
  2
DASHED2
 70
    64
  3
__ __ __ __ __ __ __ __ __ __ __ __ __ __ __
 72
    65
 73
     2
 40
3.500000
 49
2.500000
 49
-1.000000
  0
LTYPE
  2
DASHED3
 70
    64
  3
__ __ __ __ __ __ __ __ __ __ __ __ __ __ __
 72
    65
 73
     2
 40
6.000000
 49
4.000000
 49
-2.000000
  0
LTYPE
  2
DASHED4
 70
    64
  3
__ __ __ __ __ __ __ __ __ __ __ __ __ __ __
 72
    65
 73
     2
 40
12.000000
 49
10.000000
 49
-2.000000
  0
LTYPE
  2
DASHED5
 70
    64
  3
__ __ __ __ __ __ __ __ __ __ __ __ __ __ __
 72
    65
 73
     2
 40
17.000000
 49
15.000000
 49
-2.000000
  0
LTYPE
  2
DASHED6
 70
    64
  3
__ __ __ __ __ __ __ __ __ __ __ __ __ __ __
 72
    65
 73
     2
 40
29.000000
 49
27.000000
 49
-2.000000
  0
LTYPE
  2
PHANTOM1
 70
    64
  3
_____ _ _ _____ _ _ _____ _ _ _____ _ _ ____  
 72
    65
 73
     6
 40
31.000000
 49
25.000000
 49
-1.500000
 49
1.000000
 49
-1.000000
 49
1.000000
 49
-1.500000
  0
LTYPE
  2
PHANTOM2
 70
    64
  3
_____ _ _ _____ _ _ _____ _ _ _____ _ _ ____  
 72
    65
 73
     6
 40
36.000000
 49
27.000000
 49
-1.500000
 49
2.500000
 49
-1.000000
 49
2.500000
 49
-1.500000
  0
LTYPE
  2
PHANTOM3
 70
    64
  3
_____ _ _ _____ _ _ _____ _ _ _____ _ _ ____  
 72
    65
 73
     6
 40
78.000000
 49
64.000000
 49
-2.000000
 49
4.000000
 49
-2.000000
 49
4.000000
 49
-2.000000
  0
LTYPE
  2
CENTER1
 70
    64
  3
____ _ ____ _ ____ _ ____ _ ____ _ ____ _ ____
 72
    65
 73
     4
 40
19.000000
 49
14.000000
 49
-1.000000
 49
3.000000
 49
-1.000000
  0
LTYPE
  2
CENTER2
 70
    64
  3
____ _ ____ _ ____ _ ____ _ ____ _ ____ _ ____
 72
    65
 73
     4
 40
28.500000
 49
25.000000
 49
-1.000000
 49
1.500000
 49
-1.000000
  0
LTYPE
  2
CENTER3
 70
    64
  3
____ _ ____ _ ____ _ ____ _ ____ _ ____ _ ____
 72
    65
 73
     4
 40
31.500000
 49
27.000000
 49
-1.000000
 49
2.500000
 49
-1.000000
  0
LTYPE
  2
CENTER4
 70
    64
  3
____ _ ____ _ ____ _ ____ _ ____ _ ____ _ ____
 72
    65
 73
     4
 40
50.000000
 49
45.000000
 49
-1.000000
 49
3.000000
 49
-1.000000
  0
LTYPE
  2
CENTER5
 70
    64
  3
____ _ ____ _ ____ _ ____ _ ____ _ ____ _ ____
 72
    65
 73
     4
 40
100.000000
 49
92.000000
 49
-2.000000
 49
4.000000
 49
-2.000000
  0
LTYPE
  2
SBK1
 70
    64
  3
______ _ _ _ ______ _ _ _ ______ _ _ _ _____  
 72
    65
 73
     8
 40
60.500000
 49
45.000000
 49
-2.000000
 49
2.500000
 49
-2.000000
 49
2.500000
 49
-2.000000
 49
2.500000
 49
-2.000000
  0
LTYPE
  2
SBK2
 70
    64
  3
______ _ _ _ ______ _ _ _ ______ _ _ _ _____  
 72
    65
 73
     8
 40
84.000000
 49
64.000000
 49
-2.000000
 49
4.000000
 49
-2.000000
 49
4.000000
 49
-2.000000
 49
4.000000
 49
-2.000000
  0
LTYPE
  2
STCH
 70
    64
  3
__ __ __ __ __ __ __ __ __ __ __ __ __ __ __
 72
    65
 73
     2
 40
3.000000
 49
1.000000
 49
-2.000000
  0
LTYPE
  2
MTCH
 70
    64
  3
_____ _ _ _____ _ _ _____ _ _ _____ _ _ ____  
 72
    65
 73
     6
 40
80.000000
 49
66.000000
 49
-2.000000
 49
4.000000
 49
-2.000000
 49
4.000000
 49
-2.000000
  0
ENDTAB
  0
TABLE
  2
LAYER
 70
     1
  0
LAYER
  2
0
 70
     0
 62
     7
  6
CONTINUOUS
  0
ENDTAB
  0
TABLE
  2
STYLE
 70
     1
  0
STYLE
  2
STANDARD
 70
     0
 40
0.000000
 41
1.000000
 50
0.000000
 71
     0
 42
0.200000
  3
txt
  4
BIGFONT
  0
ENDTAB
  0
TABLE
  2
VIEW
 70
     0
  0
ENDTAB
  0
ENDSEC
  0
SECTION
  2
BLOCKS
  0
ENDSEC
  0
SECTION
  2
ENTITIES
  0
POINT
  8
0
 10
-172.247208
 20
114.999977
  0
POINT
  8
0
 10
-142.247223
 20
114.999977
  0
POINT
  8
0
 10
-172.247208
 20
44.999977
  0
POINT
  8
0
 10
-142.247238
 20
44.999977
  0
POINT
  8
0
 10
-53.747238
 20
44.999977
  0
POINT
  8
0
 10
-69.747223
 20
44.999977
  0
POINT
  8
0
 10
80.000000
 20
119.999977
  0
POINT
  8
0
 10
115.000008
 20
119.999977
  0
POINT
  8
0
 10
80.000000
 20
44.999977
  0
POINT
  8
0
 10
115.000008
 20
44.999977
  0
POINT
  8
0
 10
186.500000
 20
44.999977
  0
POINT
  8
0
 10
206.500000
 20
44.999977
  0
POINT
  8
0
 10
-182.247223
 20
-40.000069
  0
POINT
  8
0
 10
-132.247192
 20
-40.000069
  0
POINT
  8
0
 10
-182.247253
 20
-130.000046
  0
POINT
  8
0
 10
-132.247208
 20
-130.000046
  0
POINT
  8
0
 10
-69.247253
 20
-130.000046
  0
POINT
  8
0
 10
-44.247269
 20
-130.000046
  0
POINT
  8
0
 10
79.999954
 20
-40.000053
  0
POINT
  8
0
 10
129.999969
 20
-40.000053
  0
POINT
  8
0
 10
80.000000
 20
-120.000046
  0
POINT
  8
0
 10
129.999985
 20
-120.000046
  0
POINT
  8
0
 10
202.999969
 20
-120.000031
  0
POINT
  8
0
 10
229.999908
 20
-120.000031
  0
LINE
  8
0
 62
     3
 10
-262.247223
 20
-180.000046
 11
-262.247223
 21
180.000046
  0
LINE
  8
0
 62
     3
 10
262.247223
 20
180.000046
 11
262.247223
 21
-180.000046
  0
LINE
  8
0
 62
     3
 10
-262.247223
 20
-180.000046
 11
262.247223
 21
-180.000046
  0
LINE
  8
0
 62
     3
 10
-262.247223
 20
180.000046
 11
262.247223
 21
180.000046
  0
LINE
  8
0
 62
     3
 10
-262.247223
 20
159.775299
 11
-154.382050
 21
159.775299
  0
LINE
  8
0
 62
     3
 10
-154.382050
 20
159.775299
 11
-154.382050
 21
180.000046
  0
LINE
  8
0
 62
     3
 10
154.382034
 20
-159.775345
 11
262.247223
 21
-159.775345
  0
LINE
  8
0
 62
     5
 10
182.703415
 20
-164.638336
 11
193.065201
 21
-164.638336
  0
LINE
  8
0
 62
     5
 10
182.703415
 20
-173.827118
 11
191.501175
 21
-173.827118
  0
LINE
  8
0
 62
     5
 10
182.703415
 20
-176.173172
 11
194.629272
 21
-176.173172
  0
LINE
  8
0
 62
     5
 10
182.703415
 20
-166.984390
 11
191.501175
 21
-166.984390
  0
LINE
  8
0
 62
     5
 10
182.703415
 20
-164.638336
 11
182.703415
 21
-166.984390
  0
LINE
  8
0
 62
     5
 10
194.629272
 20
-166.202393
 11
194.629272
 21
-176.173172
  0
LINE
  8
0
 62
     5
 10
191.501175
 20
-166.984390
 11
191.501175
 21
-173.827118
  0
LINE
  8
0
 62
     5
 10
196.388779
 20
-164.638336
 11
196.388779
 21
-166.984390
  0
LINE
  8
0
 62
     5
 10
207.532593
 20
-166.984390
 11
207.532593
 21
-174.609177
  0
LINE
  8
0
 62
     5
 10
204.404526
 20
-166.984390
 11
204.404526
 21
-173.827118
  0
LINE
  8
0
 62
     5
 10
182.703415
 20
-173.827118
 11
182.703415
 21
-176.173172
  0
LINE
  8
0
 62
     5
 10
196.388779
 20
-164.638336
 11
199.479568
 21
-164.638336
  0
LINE
  8
0
 62
     5
 10
196.388779
 20
-176.173172
 11
198.817642
 21
-176.173172
  0
LINE
  8
0
 62
     5
 10
196.388718
 20
-176.173080
 11
198.850922
 21
-166.984344
  0
LINE
  8
0
 62
     5
 10
196.388779
 20
-166.984390
 11
198.850937
 21
-166.984390
  0
LINE
  8
0
 62
     5
 10
198.817780
 20
-176.173279
 11
201.279861
 21
-166.984528
  0
LINE
  8
0
 62
     5
 10
202.058426
 20
-173.827118
 11
204.404526
 21
-173.827118
  0
LINE
  8
0
 62
     5
 10
202.058365
 20
-173.827072
 11
202.686935
 21
-176.173096
  0
LINE
  8
0
 62
     5
 10
202.687119
 20
-176.173172
 11
205.968597
 21
-176.173172
  0
LINE
  8
0
 62
     5
 10
201.279770
 20
-166.984390
 11
204.404526
 21
-166.984390
  0
LINE
  8
0
 62
     5
 10
201.908386
 20
-164.638336
 11
205.186523
 21
-164.638336
  0
LINE
  8
0
 62
     5
 10
199.479599
 20
-164.638351
 11
199.945786
 21
-162.898392
  0
LINE
  8
0
 62
     5
 10
201.908234
 20
-164.638229
 11
202.374420
 21
-162.898209
  0
LINE
  8
0
 62
     5
 10
209.487671
 20
-164.638336
 11
213.202286
 21
-164.638336
  0
LINE
  8
0
 62
     5
 10
209.487671
 20
-166.984390
 11
218.610596
 21
-166.984390
  0
LINE
  8
0
 62
     5
 10
213.202286
 20
-176.173172
 11
216.330322
 21
-176.173172
  0
LINE
  8
0
 62
     5
 10
209.487671
 20
-164.638336
 11
209.487671
 21
-166.984390
  0
LINE
  8
0
 62
     5
 10
221.022522
 20
-171.238510
 11
221.022522
 21
-173.827118
  0
LINE
  8
0
 62
     5
 10
209.487518
 20
-173.827026
 11
213.202194
 21
-172.094818
  0
LINE
  8
0
 62
     5
 10
209.487885
 20
-171.238678
 11
218.610779
 21
-166.984558
  0
LINE
  8
0
 62
     5
 10
209.487671
 20
-171.238510
 11
209.487671
 21
-173.827118
  0
LINE
  8
0
 62
     5
 10
216.330246
 20
-171.639053
 11
221.022491
 21
-173.827042
  0
LINE
  8
0
 62
     5
 10
218.031052
 20
-169.843643
 11
221.022827
 21
-171.238724
  0
LINE
  8
0
 62
     5
 10
221.022522
 20
-166.202393
 11
221.022522
 21
-167.451935
  0
LINE
  8
0
 62
     5
 10
213.202286
 20
-162.898361
 11
213.202286
 21
-164.638336
  0
LINE
  8
0
 62
     5
 10
216.330322
 20
-162.898361
 11
216.330322
 21
-164.638336
  0
LINE
  8
0
 62
     5
 10
216.330322
 20
-164.638336
 11
219.458466
 21
-164.638336
  0
LINE
  8
0
 62
     5
 10
213.202286
 20
-172.094986
 11
213.202286
 21
-176.173172
  0
LINE
  8
0
 62
     5
 10
216.330322
 20
-171.639160
 11
216.330322
 21
-176.173172
  0
LINE
  8
0
 62
     5
 10
218.030975
 20
-169.843597
 11
220.119705
 21
-168.869614
  0
LINE
  8
0
 62
     5
 10
231.579834
 20
-163.602188
 11
233.925842
 21
-163.602188
  0
LINE
  8
0
 62
     5
 10
222.000061
 20
-168.448334
 11
222.000061
 21
-170.973129
  0
LINE
  8
0
 62
     5
 10
233.925842
 20
-163.602188
 11
233.925842
 21
-164.638336
  0
LINE
  8
0
 62
     5
 10
231.579834
 20
-163.602188
 11
231.579834
 21
-164.107742
  0
LINE
  8
0
 62
     5
 10
228.451721
 20
-168.407227
 11
228.451721
 21
-176.173172
  0
LINE
  8
0
 62
     5
 10
222.000137
 20
-168.448441
 11
231.086914
 21
-164.834534
  0
LINE
  8
0
 62
     5
 10
222.000092
 20
-170.973236
 11
228.451752
 21
-168.407303
  0
LINE
  8
0
 62
     5
 10
228.451721
 20
-176.173172
 11
231.579834
 21
-176.173172
  0
LINE
  8
0
 62
     5
 10
231.579834
 20
-167.163162
 11
231.579834
 21
-176.173172
  0
LINE
  8
0
 62
     5
 10
231.580063
 20
-167.163315
 11
232.447128
 21
-166.818451
  0
LINE
  8
0
 62
     5
 10
199.945801
 20
-162.898361
 11
202.374603
 21
-162.898361
  0
LINE
  8
0
 62
     5
 10
206.261841
 20
-162.898361
 11
207.258865
 21
-162.898361
  0
LINE
  8
0
 62
     5
 10
213.202286
 20
-162.898361
 11
216.330322
 21
-162.898361
  0
LINE
  8
0
 62
     5
 10
206.261841
 20
-164.462418
 11
207.258865
 21
-164.462418
  0
LINE
  8
0
 62
     5
 10
206.261841
 20
-162.898361
 11
206.261841
 21
-164.462418
  0
LINE
  8
0
 62
     5
 10
207.258865
 20
-162.898361
 11
207.258865
 21
-164.462418
  0
LINE
  8
0
 62
     5
 10
207.845444
 20
-162.898361
 11
207.845444
 21
-164.462418
  0
LINE
  8
0
 62
     5
 10
208.959839
 20
-162.898361
 11
208.959839
 21
-164.462418
  0
LINE
  8
0
 62
     5
 10
207.845444
 20
-162.898361
 11
208.959839
 21
-162.898361
  0
LINE
  8
0
 62
     5
 10
207.845444
 20
-164.462418
 11
208.959839
 21
-164.462418
  0
LINE
  8
0
 62
     3
 10
154.382034
 20
159.775299
 11
262.247223
 21
159.775299
  0
LINE
  8
0
 62
     3
 10
154.382034
 20
180.000046
 11
154.382034
 21
159.775299
  0
LINE
  8
0
 62
     3
 10
154.382034
 20
-159.775345
 11
154.382034
 21
-180.000046
  0
LINE
  8
0
 10
0.000000
 20
180.000046
 11
0.000000
 21
-180.000046
  0
LINE
  8
0
  6
CENTER
 10
-205.247223
 20
44.999977
 11
-139.247223
 21
44.999977
  0
LINE
  8
0
  6
PHANTOM
 10
-192.747223
 20
36.499977
 11
-192.747223
 21
53.499977
  0
LINE
  8
0
  6
PHANTOM
 10
-151.747223
 20
36.499977
 11
-151.747223
 21
53.499977
  0
LINE
  8
0
  6
PHANTOM
 10
-192.747223
 20
53.499977
 11
-188.247223
 21
53.499977
  0
LINE
  8
0
  6
PHANTOM
 10
-192.747223
 20
42.499977
 11
-177.401932
 21
42.499977
  0
LINE
  8
0
  6
PHANTOM
 10
-192.747223
 20
36.499977
 11
-151.747223
 21
36.499977
  0
LINE
  8
0
  6
CENTER
 10
-205.247223
 20
114.999977
 11
-139.247223
 21
114.999977
  0
LINE
  8
0
  6
PHANTOM
 10
-192.747223
 20
106.499977
 11
-192.747223
 21
123.499977
  0
LINE
  8
0
  6
PHANTOM
 10
-151.747223
 20
106.499969
 11
-151.747223
 21
123.499969
  0
LINE
  8
0
  6
PHANTOM
 10
-192.747223
 20
123.499977
 11
-188.247223
 21
123.499977
  0
LINE
  8
0
  6
PHANTOM
 10
-192.747223
 20
106.499977
 11
-188.247223
 21
106.499977
  0
LINE
  8
0
  6
PHANTOM
 10
-151.747223
 20
41.599976
 11
-142.247223
 21
41.599976
  0
LINE
  8
0
  6
PHANTOM
 10
-151.747223
 20
48.399979
 11
-142.247223
 21
48.399979
  0
LINE
  8
0
  6
CENTER
 10
-88.747223
 20
44.999977
 11
-50.747223
 21
44.999977
  0
LINE
  8
0
  6
CENTER
 10
-69.747223
 20
33.499977
 11
-69.747223
 21
60.999977
  0
LINE
  8
0
  6
PHANTOM
 10
-61.623184
 20
42.499977
 11
-61.247223
 21
42.499977
  0
LINE
  8
0
  6
PHANTOM
 10
-192.747223
 20
48.399979
 11
-202.247223
 21
48.399979
  0
LINE
  8
0
  6
PHANTOM
 10
-192.747223
 20
41.599976
 11
-202.247223
 21
41.599976
  0
LINE
  8
0
  6
PHANTOM
 10
-192.747223
 20
118.399979
 11
-202.247223
 21
118.399979
  0
LINE
  8
0
  6
PHANTOM
 10
-192.747223
 20
111.599976
 11
-202.247223
 21
111.599976
  0
LINE
  8
0
  6
PHANTOM
 10
-151.747223
 20
118.399979
 11
-142.247223
 21
118.399979
  0
LINE
  8
0
  6
PHANTOM
 10
-151.747223
 20
111.599976
 11
-142.247223
 21
111.599976
  0
LINE
  8
0
  6
PHANTOM
 10
-167.092529
 20
42.499977
 11
-151.747223
 21
42.499977
  0
LINE
  8
0
  6
PHANTOM
 10
-164.247223
 20
53.499977
 11
-163.247223
 21
53.499977
  0
LINE
  8
0
  6
PHANTOM
 10
-164.247223
 20
123.499977
 11
-163.247223
 21
123.499977
  0
LINE
  8
0
  6
PHANTOM
 10
-164.247223
 20
106.499977
 11
-163.247223
 21
106.499977
  0
LINE
  8
0
  6
PHANTOM
 10
-181.247223
 20
53.499977
 11
-180.247223
 21
53.499977
  0
LINE
  8
0
  6
PHANTOM
 10
-156.247223
 20
53.499977
 11
-151.747223
 21
53.499977
  0
LINE
  8
0
  6
PHANTOM
 10
-181.247223
 20
123.499977
 11
-180.247223
 21
123.499977
  0
LINE
  8
0
  6
PHANTOM
 10
-181.247223
 20
106.499977
 11
-180.247223
 21
106.499977
  0
LINE
  8
0
  6
PHANTOM
 10
-156.247223
 20
106.499977
 11
-151.747223
 21
106.499977
  0
LINE
  8
0
  6
PHANTOM
 10
-156.247223
 20
123.499977
 11
-151.747223
 21
123.499977
  0
LINE
  8
0
  6
CENTER
 10
42.000008
 20
44.999977
 11
118.000000
 21
44.999977
  0
LINE
  8
0
  6
PHANTOM
 10
59.500000
 20
41.499977
 11
75.133987
 21
41.499977
  0
LINE
  8
0
  6
PHANTOM
 10
100.500000
 20
32.499981
 11
100.500000
 21
57.499977
  0
LINE
  8
0
  6
PHANTOM
 10
59.500000
 20
32.499981
 11
59.500000
 21
57.499977
  0
LINE
  8
0
  6
PHANTOM
 10
59.500000
 20
57.499977
 11
65.500000
 21
57.499977
  0
LINE
  8
0
  6
PHANTOM
 10
100.500000
 20
50.499977
 11
115.000000
 21
50.499977
  0
LINE
  8
0
  6
PHANTOM
 10
100.500000
 20
39.499977
 11
115.000000
 21
39.499977
  0
LINE
  8
0
  6
PHANTOM
 10
59.500000
 20
32.499981
 11
100.500000
 21
32.499981
  0
LINE
  8
0
  6
CENTER
 10
42.000008
 20
119.999977
 11
118.000000
 21
119.999977
  0
LINE
  8
0
  6
PHANTOM
 10
100.500008
 20
107.499977
 11
100.500008
 21
132.499969
  0
LINE
  8
0
  6
PHANTOM
 10
59.500008
 20
107.499977
 11
59.500008
 21
132.499969
  0
LINE
  8
0
  6
PHANTOM
 10
59.500008
 20
132.499969
 11
65.500000
 21
132.499969
  0
LINE
  8
0
  6
PHANTOM
 10
59.500008
 20
107.499977
 11
65.500000
 21
107.499977
  0
LINE
  8
0
  6
PHANTOM
 10
100.500008
 20
125.499977
 11
115.000000
 21
125.499977
  0
LINE
  8
0
  6
PHANTOM
 10
100.500008
 20
114.499977
 11
115.000000
 21
114.499977
  0
LINE
  8
0
  6
CENTER
 10
186.500000
 20
29.499981
 11
186.500000
 21
64.999977
  0
LINE
  8
0
  6
CENTER
 10
163.500000
 20
44.999977
 11
209.500000
 21
44.999977
  0
LINE
  8
0
  6
PHANTOM
 10
198.500000
 20
41.499977
 11
199.000000
 21
41.499977
  0
LINE
  8
0
  6
PHANTOM
 10
59.500008
 20
125.499977
 11
45.000008
 21
125.499977
  0
LINE
  8
0
  6
PHANTOM
 10
59.500008
 20
114.499977
 11
45.000008
 21
114.499977
  0
LINE
  8
0
  6
PHANTOM
 10
59.500015
 20
50.499977
 11
45.000008
 21
50.499977
  0
LINE
  8
0
  6
PHANTOM
 10
59.500015
 20
39.499977
 11
45.000008
 21
39.499977
  0
LINE
  8
0
  6
PHANTOM
 10
87.000000
 20
57.499977
 11
87.500000
 21
57.499977
  0
LINE
  8
0
  6
PHANTOM
 10
84.866020
 20
41.499977
 11
100.500000
 21
41.499977
  0
LINE
  8
0
  6
PHANTOM
 10
94.500015
 20
132.499969
 11
100.500008
 21
132.499969
  0
LINE
  8
0
  6
PHANTOM
 10
94.500015
 20
107.499977
 11
100.500008
 21
107.499977
  0
LINE
  8
0
  6
PHANTOM
 10
72.500000
 20
57.499977
 11
73.000000
 21
57.499977
  0
LINE
  8
0
  6
PHANTOM
 10
94.500000
 20
57.499977
 11
100.500000
 21
57.499977
  0
LINE
  8
0
  6
PHANTOM
 10
72.500000
 20
132.499969
 11
73.000000
 21
132.499969
  0
LINE
  8
0
  6
PHANTOM
 10
72.500000
 20
107.499977
 11
73.000000
 21
107.499977
  0
LINE
  8
0
  6
PHANTOM
 10
87.500015
 20
132.499969
 11
87.000015
 21
132.499969
  0
LINE
  8
0
  6
PHANTOM
 10
87.500015
 20
107.499977
 11
87.000015
 21
107.499977
  0
LINE
  8
0
  6
CENTER
 10
-235.247208
 20
-130.000046
 11
-129.247208
 21
-130.000046
  0
LINE
  8
0
  6
PHANTOM
 10
-211.747223
 20
-135.000046
 11
-189.401932
 21
-135.000046
  0
LINE
  8
0
  6
PHANTOM
 10
-152.747223
 20
-115.000046
 11
-152.747223
 21
-145.000031
  0
LINE
  8
0
  6
PHANTOM
 10
-211.747223
 20
-115.000046
 11
-211.747223
 21
-145.000031
  0
LINE
  8
0
  6
PHANTOM
 10
-211.747223
 20
-115.000046
 11
-204.747223
 21
-115.000046
  0
LINE
  8
0
  6
PHANTOM
 10
-211.747223
 20
-145.000031
 11
-152.747223
 21
-145.000031
  0
LINE
  8
0
  6
CENTER
 10
-235.247208
 20
-40.000069
 11
-129.247208
 21
-40.000069
  0
LINE
  8
0
  6
PHANTOM
 10
-152.747208
 20
-25.000061
 11
-152.747208
 21
-55.000061
  0
LINE
  8
0
  6
PHANTOM
 10
-211.747208
 20
-25.000061
 11
-211.747208
 21
-55.000061
  0
LINE
  8
0
  6
PHANTOM
 10
-211.747208
 20
-25.000061
 11
-204.747223
 21
-25.000061
  0
LINE
  8
0
  6
PHANTOM
 10
-211.747208
 20
-55.000061
 11
-204.747223
 21
-55.000061
  0
LINE
  8
0
  6
PHANTOM
 10
-152.747208
 20
-138.700073
 11
-132.247208
 21
-138.700073
  0
LINE
  8
0
  6
PHANTOM
 10
-152.747208
 20
-121.300064
 11
-132.247208
 21
-121.300064
  0
LINE
  8
0
  6
CENTER
 10
-97.247253
 20
-130.000046
 11
-41.247253
 21
-130.000046
  0
LINE
  8
0
  6
CENTER
 10
-69.247253
 20
-107.000046
 11
-69.247253
 21
-148.000031
  0
LINE
  8
0
  6
PHANTOM
 10
-54.247269
 20
-115.063553
 11
-54.247269
 21
-123.000046
  0
LINE
  8
0
  6
PHANTOM
 10
-84.247253
 20
-115.063553
 11
-84.247253
 21
-123.000046
  0
LINE
  8
0
  6
PHANTOM
 10
-55.105118
 20
-135.000046
 11
-54.247269
 21
-135.000046
  0
LINE
  8
0
  6
PHANTOM
 10
-211.747208
 20
-121.300064
 11
-232.247208
 21
-121.300064
  0
LINE
  8
0
  6
PHANTOM
 10
-211.747208
 20
-138.700073
 11
-232.247208
 21
-138.700073
  0
LINE
  8
0
  6
PHANTOM
 10
-211.747208
 20
-31.300064
 11
-232.247208
 21
-31.300064
  0
LINE
  8
0
  6
PHANTOM
 10
-211.747208
 20
-48.700073
 11
-232.247208
 21
-48.700073
  0
LINE
  8
0
  6
PHANTOM
 10
-152.747208
 20
-48.700073
 11
-132.247208
 21
-48.700073
  0
LINE
  8
0
  6
PHANTOM
 10
-152.747208
 20
-31.300064
 11
-132.247208
 21
-31.300064
  0
LINE
  8
0
  6
PHANTOM
 10
-172.247223
 20
-115.000046
 11
-170.247223
 21
-115.000046
  0
LINE
  8
0
  6
PHANTOM
 10
-175.092529
 20
-135.000046
 11
-152.747223
 21
-135.000046
  0
LINE
  8
0
  6
PHANTOM
 10
-159.747192
 20
-55.000061
 11
-152.747208
 21
-55.000061
  0
LINE
  8
0
  6
PHANTOM
 10
-159.747192
 20
-25.000061
 11
-152.747208
 21
-25.000061
  0
LINE
  8
0
  6
PHANTOM
 10
-194.247223
 20
-115.000046
 11
-192.247223
 21
-115.000046
  0
LINE
  8
0
  6
PHANTOM
 10
-159.747223
 20
-115.000046
 11
-152.747223
 21
-115.000046
  0
LINE
  8
0
  6
PHANTOM
 10
-194.247223
 20
-55.000061
 11
-192.247223
 21
-55.000061
  0
LINE
  8
0
  6
PHANTOM
 10
-194.247223
 20
-25.000061
 11
-192.247223
 21
-25.000061
  0
LINE
  8
0
  6
PHANTOM
 10
-170.247192
 20
-55.000061
 11
-172.247192
 21
-55.000061
  0
LINE
  8
0
  6
PHANTOM
 10
-170.247192
 20
-25.000061
 11
-172.247192
 21
-25.000061
  0
LINE
  8
0
  6
CENTER
 10
24.999969
 20
-120.000046
 11
134.999969
 21
-120.000046
  0
LINE
  8
0
  6
PHANTOM
 10
46.000000
 20
-102.000046
 11
54.000000
 21
-102.000046
  0
LINE
  8
0
  6
PHANTOM
 10
46.000000
 20
-126.000046
 11
71.618805
 21
-126.000046
  0
LINE
  8
0
  6
PHANTOM
 10
46.000000
 20
-138.000046
 11
114.000000
 21
-138.000046
  0
LINE
  8
0
  6
PHANTOM
 10
114.000000
 20
-102.000046
 11
114.000000
 21
-138.000046
  0
LINE
  8
0
  6
PHANTOM
 10
46.000000
 20
-102.000046
 11
46.000000
 21
-138.000046
  0
LINE
  8
0
  6
PHANTOM
 10
29.999969
 20
-109.300049
 11
46.000000
 21
-109.300049
  0
LINE
  8
0
  6
PHANTOM
 10
29.999969
 20
-130.700043
 11
46.000000
 21
-130.700043
  0
LINE
  8
0
  6
CENTER
 10
24.999969
 20
-40.000053
 11
134.999969
 21
-40.000053
  0
LINE
  8
0
  6
PHANTOM
 10
45.999969
 20
-22.000053
 11
54.000000
 21
-22.000053
  0
LINE
  8
0
  6
PHANTOM
 10
45.999969
 20
-58.000053
 11
54.000000
 21
-58.000053
  0
LINE
  8
0
  6
PHANTOM
 10
113.999969
 20
-22.000053
 11
113.999969
 21
-58.000053
  0
LINE
  8
0
  6
PHANTOM
 10
45.999969
 20
-22.000053
 11
45.999969
 21
-58.000053
  0
LINE
  8
0
  6
PHANTOM
 10
29.999969
 20
-29.300056
 11
46.000000
 21
-29.300056
  0
LINE
  8
0
  6
PHANTOM
 10
29.999969
 20
-50.700050
 11
46.000000
 21
-50.700050
  0
LINE
  8
0
  6
CENTER
 10
170.999969
 20
-120.000031
 11
234.999969
 21
-120.000031
  0
LINE
  8
0
  6
CENTER
 10
202.999969
 20
-92.000038
 11
202.999969
 21
-143.000031
  0
LINE
  8
0
  6
PHANTOM
 10
220.999969
 20
-102.000038
 11
220.999969
 21
-112.000038
  0
LINE
  8
0
  6
PHANTOM
 10
184.999969
 20
-102.000038
 11
184.999969
 21
-112.000038
  0
LINE
  8
0
  6
PHANTOM
 10
184.999969
 20
-126.000031
 11
186.029404
 21
-126.000031
  0
LINE
  8
0
  6
PHANTOM
 10
219.970535
 20
-126.000031
 11
220.999969
 21
-126.000031
  0
LINE
  8
0
  6
PHANTOM
 10
77.500000
 20
-126.000046
 11
82.500000
 21
-126.000046
  0
LINE
  8
0
  6
PHANTOM
 10
88.381195
 20
-126.000046
 11
114.000000
 21
-126.000046
  0
LINE
  8
0
  6
PHANTOM
 10
93.000000
 20
-102.000046
 11
95.000000
 21
-102.000046
  0
LINE
  8
0
  6
PHANTOM
 10
65.000000
 20
-102.000046
 11
67.000000
 21
-102.000046
  0
LINE
  8
0
  6
PHANTOM
 10
106.000000
 20
-102.000046
 11
114.000000
 21
-102.000046
  0
LINE
  8
0
  6
PHANTOM
 10
93.000000
 20
-22.000053
 11
95.000000
 21
-22.000053
  0
LINE
  8
0
  6
PHANTOM
 10
93.000000
 20
-58.000053
 11
95.000000
 21
-58.000053
  0
LINE
  8
0
  6
PHANTOM
 10
65.000000
 20
-22.000053
 11
67.000000
 21
-22.000053
  0
LINE
  8
0
  6
PHANTOM
 10
65.000000
 20
-58.000053
 11
67.000000
 21
-58.000053
  0
LINE
  8
0
  6
PHANTOM
 10
106.000000
 20
-58.000053
 11
113.999969
 21
-58.000053
  0
LINE
  8
0
  6
PHANTOM
 10
106.000000
 20
-22.000053
 11
113.999969
 21
-22.000053
  0
LINE
  8
0
  6
PHANTOM
 10
113.999969
 20
-29.300056
 11
129.999969
 21
-29.300056
  0
LINE
  8
0
  6
PHANTOM
 10
113.999969
 20
-50.700050
 11
129.999969
 21
-50.700050
  0
LINE
  8
0
  6
PHANTOM
 10
113.999969
 20
-109.300049
 11
129.999969
 21
-109.300049
  0
LINE
  8
0
  6
PHANTOM
 10
113.999969
 20
-130.700043
 11
129.999969
 21
-130.700043
  0
LINE
  8
0
  6
PHANTOM
 10
-78.247223
 20
42.499977
 11
-77.871262
 21
42.499977
  0
LINE
  8
0
  6
PHANTOM
 10
-61.247223
 20
48.499977
 11
-61.247223
 21
53.499977
  0
LINE
  8
0
  6
PHANTOM
 10
-78.247223
 20
48.499977
 11
-78.247223
 21
53.499977
  0
LINE
  8
0
 10
118.749969
 20
199.999908
 11
121.249969
 21
199.999908
  0
LINE
  8
0
 10
118.749969
 20
201.499908
 11
118.749969
 21
199.999908
  0
LINE
  8
0
 10
121.249969
 20
201.499908
 11
121.249969
 21
199.999908
  0
LINE
  8
0
 10
121.249969
 20
238.499908
 11
121.249969
 21
239.999908
  0
LINE
  8
0
 10
118.749969
 20
238.499908
 11
118.749969
 21
239.999908
  0
LINE
  8
0
 10
118.749969
 20
239.999908
 11
121.249969
 21
239.999908
  0
LINE
  8
0
 10
112.999969
 20
238.499908
 11
112.999969
 21
201.499908
  0
LINE
  8
0
 10
126.999969
 20
238.499908
 11
126.999969
 21
201.499908
  0
LINE
  8
0
 10
112.999969
 20
201.499908
 11
126.999969
 21
201.499908
  0
LINE
  8
0
 10
112.999969
 20
238.499908
 11
126.999969
 21
238.499908
  0
LINE
  8
0
 10
105.499969
 20
235.499908
 11
105.499969
 21
204.499908
  0
LINE
  8
0
 10
112.499969
 20
235.499908
 11
112.499969
 21
204.499908
  0
LINE
  8
0
 10
112.499969
 20
206.499908
 11
112.999969
 21
206.499908
  0
LINE
  8
0
 10
112.499969
 20
233.499908
 11
112.999969
 21
233.499908
  0
LINE
  8
0
 10
105.499969
 20
204.499908
 11
112.999969
 21
204.499908
  0
LINE
  8
0
 10
105.499969
 20
235.499908
 11
112.999969
 21
235.499908
  0
LINE
  8
0
 10
109.933350
 20
213.399979
 11
110.400040
 21
212.933289
  0
LINE
  8
0
 10
107.599899
 20
211.066544
 11
108.066589
 21
210.599854
  0
LINE
  8
0
 10
107.599892
 20
212.933304
 11
108.066582
 21
213.399994
  0
LINE
  8
0
 10
109.933357
 20
210.599869
 11
110.400055
 21
211.066574
  0
LINE
  8
0
 10
110.400040
 20
211.066559
 11
109.961624
 21
211.504974
  0
LINE
  8
0
 10
109.933372
 20
210.599838
 11
109.494957
 21
211.038254
  0
LINE
  8
0
 10
108.066605
 20
210.599899
 11
108.505013
 21
211.038300
  0
LINE
  8
0
 10
107.599907
 20
211.066559
 11
108.038307
 21
211.504959
  0
LINE
  8
0
 10
108.038315
 20
212.494904
 11
107.599915
 21
212.933304
  0
LINE
  8
0
 10
108.504982
 20
212.961609
 11
108.066589
 21
213.400009
  0
LINE
  8
0
 10
109.494942
 20
212.961594
 11
109.933350
 21
213.399994
  0
LINE
  8
0
 10
109.961647
 20
212.494934
 11
110.400055
 21
212.933334
  0
LINE
  8
0
 10
109.933327
 20
226.599854
 11
110.400017
 21
227.066544
  0
LINE
  8
0
 10
107.599884
 20
228.933273
 11
108.066582
 21
229.399979
  0
LINE
  8
0
 10
107.599953
 20
227.066559
 11
108.066643
 21
226.599854
  0
LINE
  8
0
 10
109.933372
 20
229.399994
 11
110.400055
 21
228.933319
  0
LINE
  8
0
 10
110.400024
 20
228.933350
 11
109.961601
 21
228.494934
  0
LINE
  8
0
 10
109.933342
 20
229.400040
 11
109.494926
 21
228.961624
  0
LINE
  8
0
 10
108.066566
 20
229.399948
 11
108.504967
 21
228.961548
  0
LINE
  8
0
 10
107.599899
 20
228.933273
 11
108.038300
 21
228.494873
  0
LINE
  8
0
 10
108.038307
 20
227.504929
 11
107.599899
 21
227.066528
  0
LINE
  8
0
 10
108.504982
 20
227.038254
 11
108.066574
 21
226.599854
  0
LINE
  8
0
 10
109.494934
 20
227.038239
 11
109.933350
 21
226.599823
  0
LINE
  8
0
 10
109.961639
 20
227.504913
 11
110.400047
 21
227.066513
  0
LINE
  8
0
 10
134.499985
 20
235.499908
 11
134.499985
 21
204.499908
  0
LINE
  8
0
 10
127.499985
 20
235.499908
 11
127.499985
 21
204.499908
  0
LINE
  8
0
 10
127.499985
 20
206.499908
 11
126.999985
 21
206.499908
  0
LINE
  8
0
 10
127.499985
 20
233.499908
 11
126.999985
 21
233.499908
  0
LINE
  8
0
 10
134.499985
 20
204.499908
 11
126.999985
 21
204.499908
  0
LINE
  8
0
 10
134.499985
 20
235.499908
 11
126.999985
 21
235.499908
  0
LINE
  8
0
 10
130.066605
 20
213.400009
 11
129.599915
 21
212.933319
  0
LINE
  8
0
 10
132.400070
 20
211.066544
 11
131.933380
 21
210.599854
  0
LINE
  8
0
 10
132.399994
 20
212.933243
 11
131.933304
 21
213.399933
  0
LINE
  8
0
 10
130.066589
 20
210.599823
 11
129.599899
 21
211.066513
  0
LINE
  8
0
 10
129.599930
 20
211.066574
 11
130.038330
 21
211.504974
  0
LINE
  8
0
 10
130.066620
 20
210.599884
 11
130.505020
 21
211.038284
  0
LINE
  8
0
 10
131.933334
 20
210.599823
 11
131.494919
 21
211.038223
  0
LINE
  8
0
 10
132.400055
 20
211.066513
 11
131.961655
 21
211.504929
  0
LINE
  8
0
 10
131.961670
 20
212.494904
 11
132.400070
 21
212.933304
  0
LINE
  8
0
 10
131.494995
 20
212.961624
 11
131.933380
 21
213.400009
  0
LINE
  8
0
 10
130.505005
 20
212.961578
 11
130.066605
 21
213.399979
  0
LINE
  8
0
 10
130.038239
 20
212.494812
 11
129.599838
 21
212.933212
  0
LINE
  8
0
 10
130.066650
 20
226.599838
 11
129.599945
 21
227.066528
  0
LINE
  8
0
 10
132.400101
 20
228.933319
 11
131.933411
 21
229.400024
  0
LINE
  8
0
 10
132.400024
 20
227.066528
 11
131.933334
 21
226.599838
  0
LINE
  8
0
 10
130.066620
 20
229.399963
 11
129.599930
 21
228.933273
  0
LINE
  8
0
 10
129.599930
 20
228.933319
 11
130.038361
 21
228.494888
  0
LINE
  8
0
 10
130.066650
 20
229.400024
 11
130.505066
 21
228.961609
  0
LINE
  8
0
 10
131.933365
 20
229.399963
 11
131.494965
 21
228.961563
  0
LINE
  8
0
 10
132.400055
 20
228.933273
 11
131.961655
 21
228.494873
  0
LINE
  8
0
 10
131.961655
 20
227.504929
 11
132.400055
 21
227.066528
  0
LINE
  8
0
 10
131.495056
 20
227.038330
 11
131.933456
 21
226.599930
  0
LINE
  8
0
 10
130.505005
 20
227.038208
 11
130.066605
 21
226.599808
  0
LINE
  8
0
 10
130.038330
 20
227.504913
 11
129.599899
 21
227.066498
  0
LINE
  8
0
  6
CENTER
 10
108.999977
 20
224.499908
 11
108.999977
 21
231.499908
  0
LINE
  8
0
  6
CENTER
 10
105.499977
 20
227.999908
 11
112.499977
 21
227.999908
  0
LINE
  8
0
  6
CENTER
 10
105.499977
 20
211.999908
 11
112.499977
 21
211.999908
  0
LINE
  8
0
  6
CENTER
 10
108.999977
 20
215.499908
 11
108.999977
 21
208.499908
  0
LINE
  8
0
  6
CENTER
 10
116.499977
 20
214.999908
 11
116.499977
 21
208.999908
  0
LINE
  8
0
  6
CENTER
 10
113.499977
 20
211.999908
 11
119.499977
 21
211.999908
  0
LINE
  8
0
  6
CENTER
 10
116.499977
 20
224.999908
 11
116.499977
 21
230.999908
  0
LINE
  8
0
  6
CENTER
 10
113.499977
 20
227.999908
 11
119.499977
 21
227.999908
  0
LINE
  8
0
  6
CENTER
 10
123.499977
 20
224.999908
 11
123.499977
 21
230.999908
  0
LINE
  8
0
  6
CENTER
 10
126.499977
 20
227.999908
 11
120.499977
 21
227.999908
  0
LINE
  8
0
  6
CENTER
 10
123.499977
 20
214.999908
 11
123.499977
 21
208.999908
  0
LINE
  8
0
  6
CENTER
 10
126.499977
 20
211.999908
 11
120.499977
 21
211.999908
  0
LINE
  8
0
  6
CENTER
 10
130.999969
 20
215.499908
 11
130.999969
 21
208.499908
  0
LINE
  8
0
  6
CENTER
 10
134.499969
 20
211.999908
 11
127.499977
 21
211.999908
  0
LINE
  8
0
  6
CENTER
 10
130.999969
 20
224.499908
 11
130.999969
 21
231.499908
  0
LINE
  8
0
  6
CENTER
 10
134.499969
 20
227.999908
 11
127.499977
 21
227.999908
  0
LINE
  8
0
 10
118.749969
 20
199.999908
 11
121.249969
 21
199.999908
  0
LINE
  8
0
 10
118.749969
 20
201.499908
 11
118.749969
 21
199.999908
  0
LINE
  8
0
 10
121.249969
 20
201.499908
 11
121.249969
 21
199.999908
  0
LINE
  8
0
 10
121.249969
 20
238.499908
 11
121.249969
 21
239.999908
  0
LINE
  8
0
 10
118.749969
 20
238.499908
 11
118.749969
 21
239.999908
  0
LINE
  8
0
 10
118.749969
 20
239.999908
 11
121.249969
 21
239.999908
  0
LINE
  8
0
 10
112.999969
 20
238.499908
 11
112.999969
 21
201.499908
  0
LINE
  8
0
 10
126.999969
 20
238.499908
 11
126.999969
 21
201.499908
  0
LINE
  8
0
 10
112.999969
 20
201.499908
 11
126.999969
 21
201.499908
  0
LINE
  8
0
 10
112.999969
 20
238.499908
 11
126.999969
 21
238.499908
  0
LINE
  8
0
 10
105.499969
 20
235.499908
 11
105.499969
 21
204.499908
  0
LINE
  8
0
 10
112.499969
 20
235.499908
 11
112.499969
 21
204.499908
  0
LINE
  8
0
 10
112.499969
 20
206.499908
 11
112.999969
 21
206.499908
  0
LINE
  8
0
 10
112.499969
 20
233.499908
 11
112.999969
 21
233.499908
  0
LINE
  8
0
 10
105.499969
 20
204.499908
 11
112.999969
 21
204.499908
  0
LINE
  8
0
 10
105.499969
 20
235.499908
 11
112.999969
 21
235.499908
  0
LINE
  8
0
 10
109.933350
 20
213.399979
 11
110.400040
 21
212.933289
  0
LINE
  8
0
 10
107.599899
 20
211.066544
 11
108.066589
 21
210.599854
  0
LINE
  8
0
 10
107.599892
 20
212.933304
 11
108.066582
 21
213.399994
  0
LINE
  8
0
 10
109.933357
 20
210.599869
 11
110.400055
 21
211.066574
  0
LINE
  8
0
 10
110.400040
 20
211.066559
 11
109.961624
 21
211.504974
  0
LINE
  8
0
 10
109.933372
 20
210.599838
 11
109.494957
 21
211.038254
  0
LINE
  8
0
 10
108.066605
 20
210.599899
 11
108.505013
 21
211.038300
  0
LINE
  8
0
 10
107.599907
 20
211.066559
 11
108.038307
 21
211.504959
  0
LINE
  8
0
 10
108.038315
 20
212.494904
 11
107.599915
 21
212.933304
  0
LINE
  8
0
 10
108.504982
 20
212.961609
 11
108.066589
 21
213.400009
  0
LINE
  8
0
 10
109.494942
 20
212.961594
 11
109.933350
 21
213.399994
  0
LINE
  8
0
 10
109.961647
 20
212.494934
 11
110.400055
 21
212.933334
  0
LINE
  8
0
 10
109.933327
 20
226.599854
 11
110.400017
 21
227.066544
  0
LINE
  8
0
 10
107.599884
 20
228.933273
 11
108.066582
 21
229.399979
  0
LINE
  8
0
 10
107.599953
 20
227.066559
 11
108.066643
 21
226.599854
  0
LINE
  8
0
 10
109.933372
 20
229.399994
 11
110.400055
 21
228.933319
  0
LINE
  8
0
 10
110.400024
 20
228.933350
 11
109.961601
 21
228.494934
  0
LINE
  8
0
 10
109.933342
 20
229.400040
 11
109.494926
 21
228.961624
  0
LINE
  8
0
 10
108.066566
 20
229.399948
 11
108.504967
 21
228.961548
  0
LINE
  8
0
 10
107.599899
 20
228.933273
 11
108.038300
 21
228.494873
  0
LINE
  8
0
 10
108.038307
 20
227.504929
 11
107.599899
 21
227.066528
  0
LINE
  8
0
 10
108.504982
 20
227.038254
 11
108.066574
 21
226.599854
  0
LINE
  8
0
 10
109.494934
 20
227.038239
 11
109.933350
 21
226.599823
  0
LINE
  8
0
 10
109.961639
 20
227.504913
 11
110.400047
 21
227.066513
  0
LINE
  8
0
 10
134.499985
 20
235.499908
 11
134.499985
 21
204.499908
  0
LINE
  8
0
 10
127.499985
 20
235.499908
 11
127.499985
 21
204.499908
  0
LINE
  8
0
 10
127.499985
 20
206.499908
 11
126.999985
 21
206.499908
  0
LINE
  8
0
 10
127.499985
 20
233.499908
 11
126.999985
 21
233.499908
  0
LINE
  8
0
 10
134.499985
 20
204.499908
 11
126.999985
 21
204.499908
  0
LINE
  8
0
 10
134.499985
 20
235.499908
 11
126.999985
 21
235.499908
  0
LINE
  8
0
 10
130.066605
 20
213.400009
 11
129.599915
 21
212.933319
  0
LINE
  8
0
 10
132.400070
 20
211.066544
 11
131.933380
 21
210.599854
  0
LINE
  8
0
 10
132.399994
 20
212.933243
 11
131.933304
 21
213.399933
  0
LINE
  8
0
 10
130.066589
 20
210.599823
 11
129.599899
 21
211.066513
  0
LINE
  8
0
 10
129.599930
 20
211.066574
 11
130.038330
 21
211.504974
  0
LINE
  8
0
 10
130.066620
 20
210.599884
 11
130.505020
 21
211.038284
  0
LINE
  8
0
 10
131.933334
 20
210.599823
 11
131.494919
 21
211.038223
  0
LINE
  8
0
 10
132.400055
 20
211.066513
 11
131.961655
 21
211.504929
  0
LINE
  8
0
 10
131.961670
 20
212.494904
 11
132.400070
 21
212.933304
  0
LINE
  8
0
 10
131.494995
 20
212.961624
 11
131.933380
 21
213.400009
  0
LINE
  8
0
 10
130.505005
 20
212.961578
 11
130.066605
 21
213.399979
  0
LINE
  8
0
 10
130.038239
 20
212.494812
 11
129.599838
 21
212.933212
  0
LINE
  8
0
 10
130.066650
 20
226.599838
 11
129.599945
 21
227.066528
  0
LINE
  8
0
 10
132.400101
 20
228.933319
 11
131.933411
 21
229.400024
  0
LINE
  8
0
 10
132.400024
 20
227.066528
 11
131.933334
 21
226.599838
  0
LINE
  8
0
 10
130.066620
 20
229.399963
 11
129.599930
 21
228.933273
  0
LINE
  8
0
 10
129.599930
 20
228.933319
 11
130.038361
 21
228.494888
  0
LINE
  8
0
 10
130.066650
 20
229.400024
 11
130.505066
 21
228.961609
  0
LINE
  8
0
 10
131.933365
 20
229.399963
 11
131.494965
 21
228.961563
  0
LINE
  8
0
 10
132.400055
 20
228.933273
 11
131.961655
 21
228.494873
  0
LINE
  8
0
 10
131.961655
 20
227.504929
 11
132.400055
 21
227.066528
  0
LINE
  8
0
 10
131.495056
 20
227.038330
 11
131.933456
 21
226.599930
  0
LINE
  8
0
 10
130.505005
 20
227.038208
 11
130.066605
 21
226.599808
  0
LINE
  8
0
 10
130.038330
 20
227.504913
 11
129.599899
 21
227.066498
  0
LINE
  8
0
  6
CENTER
 10
108.999977
 20
224.499908
 11
108.999977
 21
231.499908
  0
LINE
  8
0
  6
CENTER
 10
105.499977
 20
227.999908
 11
112.499977
 21
227.999908
  0
LINE
  8
0
  6
CENTER
 10
105.499977
 20
211.999908
 11
112.499977
 21
211.999908
  0
LINE
  8
0
  6
CENTER
 10
108.999977
 20
215.499908
 11
108.999977
 21
208.499908
  0
LINE
  8
0
  6
CENTER
 10
116.499977
 20
214.999908
 11
116.499977
 21
208.999908
  0
LINE
  8
0
  6
CENTER
 10
113.499977
 20
211.999908
 11
119.499977
 21
211.999908
  0
LINE
  8
0
  6
CENTER
 10
116.499977
 20
224.999908
 11
116.499977
 21
230.999908
  0
LINE
  8
0
  6
CENTER
 10
113.499977
 20
227.999908
 11
119.499977
 21
227.999908
  0
LINE
  8
0
  6
CENTER
 10
123.499977
 20
224.999908
 11
123.499977
 21
230.999908
  0
LINE
  8
0
  6
CENTER
 10
126.499977
 20
227.999908
 11
120.499977
 21
227.999908
  0
LINE
  8
0
  6
CENTER
 10
123.499977
 20
214.999908
 11
123.499977
 21
208.999908
  0
LINE
  8
0
  6
CENTER
 10
126.499977
 20
211.999908
 11
120.499977
 21
211.999908
  0
LINE
  8
0
  6
CENTER
 10
130.999969
 20
215.499908
 11
130.999969
 21
208.499908
  0
LINE
  8
0
  6
CENTER
 10
134.499969
 20
211.999908
 11
127.499977
 21
211.999908
  0
LINE
  8
0
  6
CENTER
 10
130.999969
 20
224.499908
 11
130.999969
 21
231.499908
  0
LINE
  8
0
  6
CENTER
 10
134.499969
 20
227.999908
 11
127.499977
 21
227.999908
  0
LINE
  8
0
  6
PHANTOM
 10
174.000000
 20
41.499977
 11
174.500000
 21
41.499977
  0
LINE
  8
0
  6
PHANTOM
 10
199.000000
 20
49.999977
 11
199.000000
 21
57.414192
  0
LINE
  8
0
  6
PHANTOM
 10
174.000000
 20
49.999977
 11
174.000000
 21
57.414192
  0
LINE
  8
0
 10
354.500000
 20
71.561203
 11
353.000000
 21
71.561203
  0
LINE
  8
0
 10
359.500000
 20
84.999954
 11
386.500000
 21
84.999954
  0
LINE
  8
0
 10
357.500000
 20
66.499954
 11
360.500000
 21
66.499954
  0
LINE
  8
0
 10
385.500000
 20
66.499954
 11
385.500000
 21
74.999954
  0
LINE
  8
0
 10
360.500000
 20
66.499954
 11
360.500000
 21
74.999954
  0
LINE
  8
0
 10
354.500000
 20
70.196106
 11
356.500000
 21
70.196106
  0
LINE
  8
0
 10
354.500000
 20
64.999954
 11
356.500000
 21
64.999954
  0
LINE
  8
0
 10
359.500000
 20
86.999954
 11
386.500000
 21
86.999954
  0
LINE
  8
0
 10
391.500000
 20
64.999954
 11
391.500000
 21
81.999954
  0
LINE
  8
0
 10
354.500000
 20
64.999954
 11
354.500000
 21
81.999954
  0
LINE
  8
0
 10
356.500000
 20
64.999954
 11
356.500000
 21
81.999954
  0
LINE
  8
0
 10
389.500000
 20
64.999954
 11
389.500000
 21
81.999954
  0
LINE
  8
0
 10
389.500000
 20
64.999954
 11
391.500000
 21
64.999954
  0
LINE
  8
0
 10
389.500000
 20
70.196106
 11
391.500000
 21
70.196106
  0
LINE
  8
0
 10
361.000000
 20
82.499954
 11
385.000000
 21
82.499954
  0
LINE
  8
0
 10
357.500000
 20
77.499954
 11
359.500000
 21
77.499954
  0
LINE
  8
0
 10
359.500000
 20
66.499954
 11
359.500000
 21
80.999954
  0
LINE
  8
0
 10
386.500000
 20
66.499954
 11
386.500000
 21
80.999954
  0
LINE
  8
0
 10
357.500000
 20
66.499954
 11
357.500000
 21
80.999954
  0
LINE
  8
0
 10
388.500000
 20
66.499954
 11
388.500000
 21
80.999954
  0
LINE
  8
0
 10
386.500000
 20
77.499954
 11
388.500000
 21
77.499954
  0
LINE
  8
0
 10
361.000000
 20
84.499954
 11
385.000000
 21
84.499954
  0
LINE
  8
0
 10
393.000000
 20
67.999954
 11
393.000000
 21
71.999954
  0
LINE
  8
0
 10
385.500000
 20
74.999954
 11
386.500000
 21
74.999954
  0
LINE
  8
0
 10
388.500000
 20
71.999954
 11
389.500000
 21
71.999954
  0
LINE
  8
0
 10
388.500000
 20
67.999954
 11
389.500000
 21
67.999954
  0
LINE
  8
0
 10
391.500000
 20
71.999954
 11
393.000000
 21
71.999954
  0
LINE
  8
0
 10
391.500000
 20
67.999954
 11
393.000000
 21
67.999954
  0
LINE
  8
0
 10
388.500000
 20
71.561203
 11
389.500000
 21
71.561203
  0
LINE
  8
0
 10
388.500000
 20
68.438705
 11
389.500000
 21
68.438705
  0
LINE
  8
0
 10
391.500000
 20
71.561203
 11
393.000000
 21
71.561203
  0
LINE
  8
0
 10
391.500000
 20
68.438705
 11
393.000000
 21
68.438705
  0
LINE
  8
0
 10
360.500000
 20
74.999954
 11
359.500000
 21
74.999954
  0
LINE
  8
0
 10
357.500000
 20
71.999954
 11
356.500000
 21
71.999954
  0
LINE
  8
0
 10
357.500000
 20
71.561203
 11
356.500000
 21
71.561203
  0
LINE
  8
0
 10
357.500000
 20
68.438705
 11
356.500000
 21
68.438705
  0
LINE
  8
0
 10
357.500000
 20
67.999954
 11
356.500000
 21
67.999954
  0
LINE
  8
0
 10
354.500000
 20
68.438705
 11
353.000000
 21
68.438705
  0
LINE
  8
0
 10
354.500000
 20
67.999954
 11
353.000000
 21
67.999954
  0
LINE
  8
0
 10
353.000000
 20
67.999954
 11
353.000000
 21
71.999954
  0
LINE
  8
0
 10
354.500000
 20
71.999954
 11
353.000000
 21
71.999954
  0
LINE
  8
0
 10
385.500000
 20
66.499954
 11
388.500000
 21
66.499954
  0
LINE
  8
0
  6
PHANTOM
 10
-84.247253
 20
-135.000046
 11
-83.389389
 21
-135.000046
  0
LINE
  8
0
 10
-262.247223
 20
9.999977
 11
262.247223
 21
9.999977
  0
LINE
  8
0
  6
PHANTOM
 10
184.999969
 20
-125.000031
 11
184.999969
 21
-126.000031
  0
LINE
  8
0
  6
PHANTOM
 10
220.999969
 20
-125.000031
 11
220.999969
 21
-126.000031
  0
LINE
  8
0
 10
-180.247208
 20
57.999947
 11
-164.247208
 21
57.999947
  0
LINE
  8
0
 10
-180.247208
 20
48.232002
 11
-180.247208
 21
57.999947
  0
LINE
  8
0
 10
-164.247208
 20
48.231998
 11
-164.247208
 21
57.999947
  0
LINE
  8
0
 10
-175.381180
 20
40.499947
 11
-173.247208
 21
40.499947
  0
LINE
  8
0
 10
-173.247208
 20
40.499947
 11
-173.247208
 21
49.999947
  0
LINE
  8
0
 10
-171.247208
 20
40.499947
 11
-171.247208
 21
49.999947
  0
LINE
  8
0
 10
-171.247208
 20
40.499947
 11
-169.113235
 21
40.499947
  0
LINE
  8
0
 10
-176.680313
 20
41.249897
 11
-179.845383
 21
46.731953
  0
LINE
  8
0
 10
-167.814285
 20
41.249992
 11
-164.649216
 21
46.732048
  0
LINE
  8
0
 10
-156.247208
 20
52.026226
 11
-156.247208
 21
55.499947
  0
LINE
  8
0
 10
-188.247208
 20
52.026222
 11
-188.247208
 21
55.499947
  0
LINE
  8
0
 10
-188.247208
 20
55.499947
 11
-181.247208
 21
55.499947
  0
LINE
  8
0
 10
-163.247208
 20
55.499947
 11
-156.247208
 21
55.499947
  0
LINE
  8
0
 10
-181.247208
 20
52.499947
 11
-181.247208
 21
55.499947
  0
LINE
  8
0
 10
-163.247208
 20
52.499947
 11
-163.247208
 21
55.499947
  0
LINE
  8
0
 10
-165.765121
 20
44.798908
 11
-157.747147
 21
49.428085
  0
LINE
  8
0
 10
-178.729218
 20
44.798996
 11
-186.747177
 21
49.428162
  0
LINE
  8
0
 10
-173.247208
 20
42.499947
 11
-171.247208
 21
42.499947
  0
LINE
  8
0
 10
-180.747208
 20
51.999947
 11
-180.247208
 21
51.999947
  0
LINE
  8
0
 10
-164.247208
 20
51.999947
 11
-163.747208
 21
51.999947
  0
LINE
  8
0
  6
CENTER
 10
-172.247208
 20
33.499947
 11
-172.247208
 21
60.999947
  0
LINE
  8
0
 10
-180.247208
 20
129.499985
 11
-180.247208
 21
100.499985
  0
LINE
  8
0
 10
-164.247208
 20
129.499985
 11
-164.247208
 21
100.499985
  0
LINE
  8
0
 10
-180.247208
 20
100.499985
 11
-164.247208
 21
100.499985
  0
LINE
  8
0
 10
-180.247208
 20
129.499985
 11
-164.247208
 21
129.499985
  0
LINE
  8
0
 10
-188.247208
 20
126.499985
 11
-188.247208
 21
103.499985
  0
LINE
  8
0
 10
-181.247208
 20
126.499985
 11
-181.247208
 21
103.499985
  0
LINE
  8
0
 10
-163.247208
 20
126.499985
 11
-163.247208
 21
103.499985
  0
LINE
  8
0
 10
-156.247208
 20
126.499985
 11
-156.247208
 21
103.499985
  0
LINE
  8
0
 10
-181.247208
 20
124.499985
 11
-180.247208
 21
124.499985
  0
LINE
  8
0
 10
-181.247208
 20
105.499985
 11
-180.247208
 21
105.499985
  0
LINE
  8
0
 10
-164.247208
 20
124.499985
 11
-163.247208
 21
124.499985
  0
LINE
  8
0
 10
-164.247208
 20
105.499985
 11
-163.247208
 21
105.499985
  0
LINE
  8
0
 10
-188.247208
 20
126.499985
 11
-180.247208
 21
126.499985
  0
LINE
  8
0
 10
-164.247208
 20
126.499985
 11
-156.247208
 21
126.499985
  0
LINE
  8
0
 10
-164.247208
 20
103.499985
 11
-156.247208
 21
103.499985
  0
LINE
  8
0
 10
-188.247208
 20
103.499985
 11
-180.247208
 21
103.499985
  0
LINE
  8
0
 10
-173.247208
 20
130.999985
 11
-171.247208
 21
130.999985
  0
LINE
  8
0
 10
-173.247208
 20
98.999985
 11
-171.247208
 21
98.999985
  0
LINE
  8
0
 10
-173.247208
 20
130.999985
 11
-173.247208
 21
129.499985
  0
LINE
  8
0
 10
-171.247208
 20
130.999985
 11
-171.247208
 21
129.499985
  0
LINE
  8
0
 10
-173.247208
 20
100.499985
 11
-173.247208
 21
98.999985
  0
LINE
  8
0
 10
-171.247208
 20
100.499985
 11
-171.247208
 21
98.999985
  0
LINE
  8
0
  6
CENTER
 10
-184.747208
 20
114.499985
 11
-184.747208
 21
105.499985
  0
LINE
  8
0
  6
CENTER
 10
-189.247208
 20
109.999985
 11
-180.247208
 21
109.999985
  0
LINE
  8
0
  6
CENTER
 10
-184.747208
 20
115.499985
 11
-184.747208
 21
124.499985
  0
LINE
  8
0
  6
CENTER
 10
-189.247208
 20
119.999985
 11
-180.247208
 21
119.999985
  0
LINE
  8
0
  6
CENTER
 10
-172.247208
 20
133.999969
 11
-172.247208
 21
95.999985
  0
LINE
  8
0
  6
CENTER
 10
-176.747208
 20
118.499985
 11
-176.747208
 21
111.499985
  0
LINE
  8
0
  6
CENTER
 10
-167.747208
 20
118.499985
 11
-167.747208
 21
111.499985
  0
LINE
  8
0
  6
CENTER
 10
-159.747208
 20
115.499985
 11
-159.747208
 21
124.499985
  0
LINE
  8
0
  6
CENTER
 10
-155.247208
 20
119.999985
 11
-164.247208
 21
119.999985
  0
LINE
  8
0
  6
CENTER
 10
-159.747208
 20
114.499985
 11
-159.747208
 21
105.499985
  0
LINE
  8
0
  6
CENTER
 10
-155.247208
 20
109.999985
 11
-164.247208
 21
109.999985
  0
LINE
  8
0
 10
-185.997238
 20
109.278305
 11
-184.747238
 21
108.556618
  0
LINE
  8
0
 10
-184.747223
 20
108.556648
 11
-183.497223
 21
109.278336
  0
LINE
  8
0
 10
-183.497208
 20
109.278297
 11
-183.497208
 21
110.721672
  0
LINE
  8
0
 10
-183.497223
 20
110.721680
 11
-184.747223
 21
111.443367
  0
LINE
  8
0
 10
-184.747238
 20
111.443398
 11
-185.997238
 21
110.721710
  0
LINE
  8
0
 10
-185.997208
 20
110.721672
 11
-185.997208
 21
109.278297
  0
LINE
  8
0
 10
-183.497192
 20
119.278275
 11
-184.747192
 21
118.556587
  0
LINE
  8
0
 10
-183.497208
 20
120.721672
 11
-183.497208
 21
119.278297
  0
LINE
  8
0
 10
-184.747208
 20
121.443367
 11
-183.497192
 21
120.721672
  0
LINE
  8
0
 10
-185.997177
 20
120.721642
 11
-184.747177
 21
121.443329
  0
LINE
  8
0
 10
-185.997208
 20
119.278297
 11
-185.997208
 21
120.721672
  0
LINE
  8
0
 10
-184.747192
 20
118.556610
 11
-185.997192
 21
119.278297
  0
LINE
  8
0
 10
-160.997192
 20
110.721680
 11
-159.747192
 21
111.443367
  0
LINE
  8
0
 10
-160.997208
 20
109.278297
 11
-160.997208
 21
110.721672
  0
LINE
  8
0
 10
-159.747208
 20
108.556602
 11
-160.997223
 21
109.278297
  0
LINE
  8
0
 10
-158.497177
 20
109.278259
 11
-159.747162
 21
108.556572
  0
LINE
  8
0
 10
-158.497208
 20
110.721672
 11
-158.497208
 21
109.278297
  0
LINE
  8
0
 10
-159.747223
 20
111.443359
 11
-158.497208
 21
110.721664
  0
LINE
  8
0
 10
-160.997192
 20
119.278275
 11
-159.747208
 21
118.556595
  0
LINE
  8
0
 10
-160.997208
 20
120.721672
 11
-160.997208
 21
119.278297
  0
LINE
  8
0
 10
-159.747177
 20
121.443329
 11
-160.997177
 21
120.721642
  0
LINE
  8
0
 10
-158.497192
 20
120.721649
 11
-159.747192
 21
121.443336
  0
LINE
  8
0
 10
-158.497208
 20
119.278297
 11
-158.497208
 21
120.721672
  0
LINE
  8
0
 10
-159.747162
 20
118.556549
 11
-158.497162
 21
119.278236
  0
LINE
  8
0
 10
-79.247238
 20
57.999977
 11
-60.247238
 21
57.999977
  0
LINE
  8
0
 10
-79.247238
 20
55.999977
 11
-60.247238
 21
55.999977
  0
LINE
  8
0
 10
-78.247238
 20
53.499977
 11
-61.247238
 21
53.499977
  0
LINE
  8
0
 10
-81.247238
 20
42.499977
 11
-78.247238
 21
42.499977
  0
LINE
  8
0
 10
-78.247238
 20
42.499985
 11
-78.247238
 21
48.499977
  0
LINE
  8
0
 10
-61.247238
 20
42.499969
 11
-61.247238
 21
48.499977
  0
LINE
  8
0
 10
-78.247238
 20
55.499977
 11
-61.247238
 21
55.499977
  0
LINE
  8
0
 10
-84.247238
 20
40.499977
 11
-82.247238
 21
40.499977
  0
LINE
  8
0
 10
-84.247238
 20
47.428181
 11
-82.247238
 21
47.428181
  0
LINE
  8
0
 10
-55.247238
 20
40.499977
 11
-55.247238
 21
52.999977
  0
LINE
  8
0
 10
-84.247238
 20
40.499977
 11
-84.247238
 21
52.999977
  0
LINE
  8
0
 10
-82.247238
 20
40.499977
 11
-82.247238
 21
52.999977
  0
LINE
  8
0
 10
-57.247238
 20
40.499977
 11
-57.247238
 21
52.999977
  0
LINE
  8
0
 10
-57.247238
 20
47.428181
 11
-55.247238
 21
47.428181
  0
LINE
  8
0
 10
-57.247238
 20
40.499977
 11
-55.247238
 21
40.499977
  0
LINE
  8
0
 10
-58.247238
 20
42.499977
 11
-58.247238
 21
52.499977
  0
LINE
  8
0
 10
-81.247238
 20
42.499977
 11
-81.247238
 21
52.499977
  0
LINE
  8
0
 10
-60.247238
 20
42.499977
 11
-60.247238
 21
52.499977
  0
LINE
  8
0
 10
-79.247238
 20
42.499977
 11
-79.247238
 21
52.499977
  0
LINE
  8
0
 10
-53.747238
 20
43.499977
 11
-53.747238
 21
46.499977
  0
LINE
  8
0
 10
-58.247238
 20
46.499977
 11
-57.247238
 21
46.499977
  0
LINE
  8
0
 10
-58.247238
 20
43.499977
 11
-57.247238
 21
43.499977
  0
LINE
  8
0
 10
-55.247238
 20
46.499977
 11
-53.747238
 21
46.499977
  0
LINE
  8
0
 10
-55.247238
 20
43.499977
 11
-53.747238
 21
43.499977
  0
LINE
  8
0
 10
-81.247238
 20
50.294205
 11
-79.247238
 21
50.294205
  0
LINE
  8
0
 10
-60.247238
 20
50.294205
 11
-58.247238
 21
50.294205
  0
LINE
  8
0
 10
-81.247238
 20
46.499977
 11
-82.247238
 21
46.499977
  0
LINE
  8
0
 10
-81.247238
 20
43.499977
 11
-82.247238
 21
43.499977
  0
LINE
  8
0
 10
-84.247238
 20
43.499977
 11
-85.747238
 21
43.499977
  0
LINE
  8
0
 10
-85.747238
 20
43.499977
 11
-85.747238
 21
46.499977
  0
LINE
  8
0
 10
-84.247238
 20
46.499977
 11
-85.747238
 21
46.499977
  0
LINE
  8
0
 10
-79.247238
 20
48.499977
 11
-78.247238
 21
48.499977
  0
LINE
  8
0
 10
-61.247238
 20
48.499977
 11
-60.247238
 21
48.499977
  0
LINE
  8
0
 10
-85.747238
 20
46.118011
 11
-84.247238
 21
46.118011
  0
LINE
  8
0
 10
-85.747238
 20
43.881943
 11
-84.247238
 21
43.881943
  0
LINE
  8
0
 10
-82.247238
 20
46.118011
 11
-81.247238
 21
46.118011
  0
LINE
  8
0
 10
-82.247238
 20
43.881943
 11
-81.247238
 21
43.881943
  0
LINE
  8
0
 10
-58.247238
 20
46.118011
 11
-57.247238
 21
46.118011
  0
LINE
  8
0
 10
-58.247238
 20
43.881943
 11
-57.247238
 21
43.881943
  0
LINE
  8
0
 10
-55.247238
 20
46.118011
 11
-53.747238
 21
46.118011
  0
LINE
  8
0
 10
-55.247238
 20
43.881943
 11
-53.747238
 21
43.881943
  0
LINE
  8
0
 10
-61.247238
 20
42.499977
 11
-58.247238
 21
42.499977
  0
LINE
  8
0
 10
73.000000
 20
61.999977
 11
87.000000
 21
61.999977
  0
LINE
  8
0
 10
73.000000
 20
45.999985
 11
73.000000
 21
61.999977
  0
LINE
  8
0
 10
87.000000
 20
45.999981
 11
87.000000
 21
61.999977
  0
LINE
  8
0
 10
76.866028
 20
39.999981
 11
78.750000
 21
39.999981
  0
LINE
  8
0
 10
81.250000
 20
39.999981
 11
81.250000
 21
49.499981
  0
LINE
  8
0
 10
78.750000
 20
39.999981
 11
78.750000
 21
49.499981
  0
LINE
  8
0
 10
81.250000
 20
39.999981
 11
83.133972
 21
39.999981
  0
LINE
  8
0
 10
84.432968
 20
40.749989
 11
86.598038
 21
44.499992
  0
LINE
  8
0
 10
75.566971
 20
40.749969
 11
73.401901
 21
44.499969
  0
LINE
  8
0
 10
78.750000
 20
41.499977
 11
81.250000
 21
41.499977
  0
LINE
  8
0
 10
65.500000
 20
53.742615
 11
65.500000
 21
59.499977
  0
LINE
  8
0
 10
65.500000
 20
59.499977
 11
72.500000
 21
59.499977
  0
LINE
  8
0
 10
72.500000
 20
56.499977
 11
72.500000
 21
59.499977
  0
LINE
  8
0
 10
73.000000
 20
55.999977
 11
73.000000
 21
55.999977
  0
LINE
  8
0
 10
73.292885
 20
44.707062
 11
66.378662
 21
51.621281
  0
LINE
  8
0
 10
87.000000
 20
55.999977
 11
87.000000
 21
55.999977
  0
LINE
  8
0
 10
87.500000
 20
56.499977
 11
87.500000
 21
59.499977
  0
LINE
  8
0
 10
94.500000
 20
59.499977
 11
87.500000
 21
59.499977
  0
LINE
  8
0
 10
94.500000
 20
53.742615
 11
94.500000
 21
59.499977
  0
LINE
  8
0
 10
86.707092
 20
44.707085
 11
93.621315
 21
51.621304
  0
LINE
  8
0
  6
CENTER
 10
80.000000
 20
29.499981
 11
80.000000
 21
64.999977
  0
LINE
  8
0
 10
78.749954
 20
99.999931
 11
81.249954
 21
99.999931
  0
LINE
  8
0
 10
78.749954
 20
101.499931
 11
78.749954
 21
99.999931
  0
LINE
  8
0
 10
81.249954
 20
101.499931
 11
81.249954
 21
99.999931
  0
LINE
  8
0
 10
81.249954
 20
138.499924
 11
81.249954
 21
139.999924
  0
LINE
  8
0
 10
78.749954
 20
138.499924
 11
78.749954
 21
139.999924
  0
LINE
  8
0
 10
78.749954
 20
139.999924
 11
81.249954
 21
139.999924
  0
LINE
  8
0
 10
72.999954
 20
138.499924
 11
72.999954
 21
101.499931
  0
LINE
  8
0
 10
86.999954
 20
138.499924
 11
86.999954
 21
101.499931
  0
LINE
  8
0
 10
72.999954
 20
101.499931
 11
86.999954
 21
101.499931
  0
LINE
  8
0
 10
72.999954
 20
138.499924
 11
86.999954
 21
138.499924
  0
LINE
  8
0
 10
65.499954
 20
135.499939
 11
65.499954
 21
104.499931
  0
LINE
  8
0
 10
72.499954
 20
135.499939
 11
72.499954
 21
104.499931
  0
LINE
  8
0
 10
72.499954
 20
106.499931
 11
72.999954
 21
106.499931
  0
LINE
  8
0
 10
72.499954
 20
133.499939
 11
72.999954
 21
133.499939
  0
LINE
  8
0
 10
65.499954
 20
104.499931
 11
72.999954
 21
104.499931
  0
LINE
  8
0
 10
65.499954
 20
135.499939
 11
72.999954
 21
135.499939
  0
LINE
  8
0
 10
94.499969
 20
135.499939
 11
94.499969
 21
104.499931
  0
LINE
  8
0
 10
87.499969
 20
135.499939
 11
87.499969
 21
104.499931
  0
LINE
  8
0
 10
87.499969
 20
106.499931
 11
86.999969
 21
106.499931
  0
LINE
  8
0
 10
87.499969
 20
133.499939
 11
86.999969
 21
133.499939
  0
LINE
  8
0
 10
94.499969
 20
104.499931
 11
86.999969
 21
104.499931
  0
LINE
  8
0
 10
94.499969
 20
135.499939
 11
86.999969
 21
135.499939
  0
LINE
  8
0
  6
CENTER
 10
80.000000
 20
96.999977
 11
80.000000
 21
142.999969
  0
LINE
  8
0
  6
CENTER
 10
68.999969
 20
124.499931
 11
68.999969
 21
131.499939
  0
LINE
  8
0
  6
CENTER
 10
65.499969
 20
127.999931
 11
72.499969
 21
127.999931
  0
LINE
  8
0
  6
CENTER
 10
68.999969
 20
115.499931
 11
68.999969
 21
108.499931
  0
LINE
  8
0
  6
CENTER
 10
65.499969
 20
111.999931
 11
72.499969
 21
111.999931
  0
LINE
  8
0
  6
CENTER
 10
76.499969
 20
114.999931
 11
76.499969
 21
108.999931
  0
LINE
  8
0
  6
CENTER
 10
73.499969
 20
111.999931
 11
79.499969
 21
111.999931
  0
LINE
  8
0
  6
CENTER
 10
86.499969
 20
111.999931
 11
80.499969
 21
111.999931
  0
LINE
  8
0
  6
CENTER
 10
83.499969
 20
114.999931
 11
83.499969
 21
108.999931
  0
LINE
  8
0
  6
CENTER
 10
90.999969
 20
115.499931
 11
90.999969
 21
108.499931
  0
LINE
  8
0
  6
CENTER
 10
94.499969
 20
111.999931
 11
87.499969
 21
111.999931
  0
LINE
  8
0
  6
CENTER
 10
90.999969
 20
124.499931
 11
90.999969
 21
131.499939
  0
LINE
  8
0
  6
CENTER
 10
94.499969
 20
127.999931
 11
87.499969
 21
127.999931
  0
LINE
  8
0
  6
CENTER
 10
83.499969
 20
124.999931
 11
83.499969
 21
130.999939
  0
LINE
  8
0
  6
CENTER
 10
86.499969
 20
127.999931
 11
80.499969
 21
127.999931
  0
LINE
  8
0
  6
CENTER
 10
76.499969
 20
124.999931
 11
76.499969
 21
130.999939
  0
LINE
  8
0
  6
CENTER
 10
73.499969
 20
127.999931
 11
79.499969
 21
127.999931
  0
LINE
  8
0
 10
67.749969
 20
111.278244
 11
68.999969
 21
110.556557
  0
LINE
  8
0
 10
68.999962
 20
110.556564
 11
70.249969
 21
111.278259
  0
LINE
  8
0
 10
70.249969
 20
111.278244
 11
70.249969
 21
112.721619
  0
LINE
  8
0
 10
70.249977
 20
112.721634
 11
68.999977
 21
113.443321
  0
LINE
  8
0
 10
68.999969
 20
113.443329
 11
67.749969
 21
112.721642
  0
LINE
  8
0
 10
67.749969
 20
112.721619
 11
67.749969
 21
111.278244
  0
LINE
  8
0
 10
70.249977
 20
127.278259
 11
68.999962
 21
126.556564
  0
LINE
  8
0
 10
68.999969
 20
126.556564
 11
67.749962
 21
127.278252
  0
LINE
  8
0
 10
67.749969
 20
127.278244
 11
67.749969
 21
128.721619
  0
LINE
  8
0
 10
67.749969
 20
128.721603
 11
68.999962
 21
129.443283
  0
LINE
  8
0
 10
68.999969
 20
129.443314
 11
70.249969
 21
128.721634
  0
LINE
  8
0
 10
70.249969
 20
128.721619
 11
70.249969
 21
127.278244
  0
LINE
  8
0
 10
89.750046
 20
112.721626
 11
91.000046
 21
113.443314
  0
LINE
  8
0
 10
91.000046
 20
113.443314
 11
92.250046
 21
112.721626
  0
LINE
  8
0
 10
92.250038
 20
112.721619
 11
92.250038
 21
111.278244
  0
LINE
  8
0
 10
92.250031
 20
111.278229
 11
91.000031
 21
110.556541
  0
LINE
  8
0
 10
91.000038
 20
110.556564
 11
89.750038
 21
111.278259
  0
LINE
  8
0
 10
89.750038
 20
111.278244
 11
89.750038
 21
112.721619
  0
LINE
  8
0
 10
89.750031
 20
127.278236
 11
91.000038
 21
126.556549
  0
LINE
  8
0
 10
91.000046
 20
126.556541
 11
92.250046
 21
127.278229
  0
LINE
  8
0
 10
92.250038
 20
127.278244
 11
92.250038
 21
128.721619
  0
LINE
  8
0
 10
92.250046
 20
128.721634
 11
91.000046
 21
129.443329
  0
LINE
  8
0
 10
91.000046
 20
129.443298
 11
89.750046
 21
128.721603
  0
LINE
  8
0
 10
89.750038
 20
128.721619
 11
89.750038
 21
127.278244
  0
LINE
  8
0
 10
199.000000
 20
41.499977
 11
202.000000
 21
41.499977
  0
LINE
  8
0
 10
168.000000
 20
46.999977
 11
166.500000
 21
46.999977
  0
LINE
  8
0
 10
166.500000
 20
42.999977
 11
166.500000
 21
46.999977
  0
LINE
  8
0
 10
168.000000
 20
46.561226
 11
166.500000
 21
46.561226
  0
LINE
  8
0
 10
173.000000
 20
59.999977
 11
200.000000
 21
59.999977
  0
LINE
  8
0
 10
171.000000
 20
41.499977
 11
174.000000
 21
41.499977
  0
LINE
  8
0
 10
199.000000
 20
41.499977
 11
199.000000
 21
49.999977
  0
LINE
  8
0
 10
174.000000
 20
41.499977
 11
174.000000
 21
49.999977
  0
LINE
  8
0
 10
168.000000
 20
45.196133
 11
170.000000
 21
45.196133
  0
LINE
  8
0
 10
168.000000
 20
39.999981
 11
170.000000
 21
39.999981
  0
LINE
  8
0
 10
173.000000
 20
61.999977
 11
200.000000
 21
61.999977
  0
LINE
  8
0
 10
205.000000
 20
39.999981
 11
205.000000
 21
56.999977
  0
LINE
  8
0
 10
168.000000
 20
39.999981
 11
168.000000
 21
56.999977
  0
LINE
  8
0
 10
170.000000
 20
39.999981
 11
170.000000
 21
56.999977
  0
LINE
  8
0
 10
203.000000
 20
39.999981
 11
203.000000
 21
56.999977
  0
LINE
  8
0
 10
203.000000
 20
39.999981
 11
205.000000
 21
39.999981
  0
LINE
  8
0
 10
203.000000
 20
45.196133
 11
205.000000
 21
45.196133
  0
LINE
  8
0
 10
174.500000
 20
57.499977
 11
198.500000
 21
57.499977
  0
LINE
  8
0
 10
171.000000
 20
52.499973
 11
173.000000
 21
52.499973
  0
LINE
  8
0
 10
173.000000
 20
41.499977
 11
173.000000
 21
55.999977
  0
LINE
  8
0
 10
200.000000
 20
41.499977
 11
200.000000
 21
55.999977
  0
LINE
  8
0
 10
171.000000
 20
41.499977
 11
171.000000
 21
55.999977
  0
LINE
  8
0
 10
202.000000
 20
41.499977
 11
202.000000
 21
55.999977
  0
LINE
  8
0
 10
200.000000
 20
52.499973
 11
202.000000
 21
52.499973
  0
LINE
  8
0
 10
174.500000
 20
59.499977
 11
198.500000
 21
59.499977
  0
LINE
  8
0
 10
206.500000
 20
42.999977
 11
206.500000
 21
46.999977
  0
LINE
  8
0
 10
199.000000
 20
49.999977
 11
200.000000
 21
49.999977
  0
LINE
  8
0
 10
202.000000
 20
46.999977
 11
203.000000
 21
46.999977
  0
LINE
  8
0
 10
202.000000
 20
42.999977
 11
203.000000
 21
42.999977
  0
LINE
  8
0
 10
205.000000
 20
46.999977
 11
206.500000
 21
46.999977
  0
LINE
  8
0
 10
205.000000
 20
42.999977
 11
206.500000
 21
42.999977
  0
LINE
  8
0
 10
202.000000
 20
46.561226
 11
203.000000
 21
46.561226
  0
LINE
  8
0
 10
202.000000
 20
43.438728
 11
203.000000
 21
43.438728
  0
LINE
  8
0
 10
205.000000
 20
46.561226
 11
206.500000
 21
46.561226
  0
LINE
  8
0
 10
205.000000
 20
43.438728
 11
206.500000
 21
43.438728
  0
LINE
  8
0
 10
174.000000
 20
49.999977
 11
173.000000
 21
49.999977
  0
LINE
  8
0
 10
171.000000
 20
46.999977
 11
170.000000
 21
46.999977
  0
LINE
  8
0
 10
171.000000
 20
46.561226
 11
170.000000
 21
46.561226
  0
LINE
  8
0
 10
171.000000
 20
43.438728
 11
170.000000
 21
43.438728
  0
LINE
  8
0
 10
171.000000
 20
42.999977
 11
170.000000
 21
42.999977
  0
LINE
  8
0
 10
168.000000
 20
43.438728
 11
166.500000
 21
43.438728
  0
LINE
  8
0
 10
168.000000
 20
42.999977
 11
166.500000
 21
42.999977
  0
LINE
  8
0
 10
-192.247253
 20
-110.000046
 11
-172.247253
 21
-110.000046
  0
LINE
  8
0
 10
-192.247253
 20
-110.000046
 11
-192.247253
 21
-129.268005
  0
LINE
  8
0
 10
-172.247253
 20
-110.000046
 11
-172.247253
 21
-129.268005
  0
LINE
  8
0
 10
-184.247253
 20
-135.000046
 11
-180.247253
 21
-135.000046
  0
LINE
  8
0
 10
-184.247253
 20
-125.500046
 11
-184.247253
 21
-137.000046
  0
LINE
  8
0
 10
-180.247253
 20
-125.500046
 11
-180.247253
 21
-137.000046
  0
LINE
  8
0
 10
-186.515198
 20
-137.000046
 11
-184.247253
 21
-137.000046
  0
LINE
  8
0
 10
-180.247253
 20
-137.000046
 11
-177.979309
 21
-137.000046
  0
LINE
  8
0
 10
-175.381287
 20
-135.500000
 11
-172.649231
 21
-130.767960
  0
LINE
  8
0
 10
-189.113251
 20
-135.500031
 11
-191.845306
 21
-130.767990
  0
LINE
  8
0
 10
-159.747253
 20
-112.500046
 11
-159.747253
 21
-116.257401
  0
LINE
  8
0
 10
-204.747253
 20
-112.500046
 11
-204.747253
 21
-116.257401
  0
LINE
  8
0
 10
-170.247253
 20
-112.500046
 11
-159.747253
 21
-112.500046
  0
LINE
  8
0
 10
-204.747253
 20
-112.500046
 11
-194.247253
 21
-112.500046
  0
LINE
  8
0
 10
-194.247253
 20
-112.500046
 11
-194.247253
 21
-117.000046
  0
LINE
  8
0
 10
-170.247253
 20
-112.500046
 11
-170.247253
 21
-117.000046
  0
LINE
  8
0
 10
-193.247253
 20
-118.000046
 11
-192.247253
 21
-118.000046
  0
LINE
  8
0
 10
-171.247253
 20
-118.000046
 11
-172.247253
 21
-118.000046
  0
LINE
  8
0
 10
-172.372284
 20
-130.125092
 11
-160.625916
 21
-118.378716
  0
LINE
  8
0
 10
-192.122147
 20
-130.125000
 11
-203.868500
 21
-118.378647
  0
LINE
  8
0
  6
CENTER
 10
-182.247253
 20
-107.000046
 11
-182.247253
 21
-148.000031
  0
LINE
  8
0
 10
-192.247238
 20
-17.500072
 11
-192.247238
 21
-62.500072
  0
LINE
  8
0
 10
-172.247238
 20
-17.500072
 11
-172.247238
 21
-62.500072
  0
LINE
  8
0
 10
-192.247238
 20
-62.500072
 11
-172.247238
 21
-62.500072
  0
LINE
  8
0
 10
-192.247238
 20
-17.500072
 11
-172.247238
 21
-17.500072
  0
LINE
  8
0
 10
-184.247238
 20
-65.000076
 11
-180.247238
 21
-65.000076
  0
LINE
  8
0
 10
-204.747238
 20
-21.000072
 11
-204.747238
 21
-59.000072
  0
LINE
  8
0
 10
-194.247238
 20
-21.000072
 11
-194.247238
 21
-59.000072
  0
LINE
  8
0
 10
-194.247238
 20
-23.500072
 11
-192.247238
 21
-23.500072
  0
LINE
  8
0
 10
-194.247238
 20
-56.500072
 11
-192.247238
 21
-56.500072
  0
LINE
  8
0
 10
-204.747238
 20
-59.000072
 11
-192.247238
 21
-59.000072
  0
LINE
  8
0
 10
-204.747238
 20
-21.000072
 11
-192.247238
 21
-21.000072
  0
LINE
  8
0
 10
-159.747208
 20
-21.000072
 11
-159.747208
 21
-59.000072
  0
LINE
  8
0
 10
-170.247208
 20
-21.000072
 11
-170.247208
 21
-59.000072
  0
LINE
  8
0
 10
-170.247208
 20
-23.500072
 11
-172.247208
 21
-23.500072
  0
LINE
  8
0
 10
-170.247208
 20
-56.500072
 11
-172.247208
 21
-56.500072
  0
LINE
  8
0
 10
-159.747208
 20
-59.000072
 11
-172.247208
 21
-59.000072
  0
LINE
  8
0
 10
-159.747208
 20
-21.000072
 11
-172.247208
 21
-21.000072
  0
LINE
  8
0
 10
-184.247238
 20
-17.500072
 11
-184.247238
 21
-15.000072
  0
LINE
  8
0
 10
-184.247238
 20
-15.000072
 11
-180.247238
 21
-15.000072
  0
LINE
  8
0
 10
-180.247238
 20
-17.500072
 11
-180.247238
 21
-15.000072
  0
LINE
  8
0
 10
-184.247238
 20
-62.500072
 11
-184.247238
 21
-65.000076
  0
LINE
  8
0
 10
-180.247238
 20
-62.500072
 11
-180.247238
 21
-65.000076
  0
LINE
  8
0
  6
CENTER
 10
-182.247223
 20
-12.000072
 11
-182.247223
 21
-68.000076
  0
LINE
  8
0
  6
CENTER
 10
-177.247223
 20
-34.000072
 11
-177.247223
 21
-26.000072
  0
LINE
  8
0
  6
CENTER
 10
-187.247223
 20
-34.000072
 11
-187.247223
 21
-26.000072
  0
LINE
  8
0
  6
CENTER
 10
-199.747223
 20
-23.000072
 11
-199.747223
 21
-37.000072
  0
LINE
  8
0
  6
CENTER
 10
-206.747223
 20
-30.000072
 11
-192.747223
 21
-30.000072
  0
LINE
  8
0
  6
CENTER
 10
-191.247223
 20
-30.000072
 11
-183.247223
 21
-30.000072
  0
LINE
  8
0
  6
CENTER
 10
-173.247223
 20
-30.000072
 11
-181.247223
 21
-30.000072
  0
LINE
  8
0
  6
CENTER
 10
-164.747223
 20
-23.000072
 11
-164.747223
 21
-37.000072
  0
LINE
  8
0
  6
CENTER
 10
-157.747223
 20
-30.000072
 11
-171.747223
 21
-30.000072
  0
LINE
  8
0
  6
CENTER
 10
-164.747223
 20
-57.000072
 11
-164.747223
 21
-43.000072
  0
LINE
  8
0
  6
CENTER
 10
-157.747223
 20
-50.000072
 11
-171.747223
 21
-50.000072
  0
LINE
  8
0
  6
CENTER
 10
-177.247223
 20
-46.000072
 11
-177.247223
 21
-54.000072
  0
LINE
  8
0
  6
CENTER
 10
-173.247223
 20
-50.000072
 11
-181.247223
 21
-50.000072
  0
LINE
  8
0
  6
CENTER
 10
-187.247223
 20
-46.000072
 11
-187.247223
 21
-54.000072
  0
LINE
  8
0
  6
CENTER
 10
-191.247223
 20
-50.000072
 11
-183.247223
 21
-50.000072
  0
LINE
  8
0
  6
CENTER
 10
-199.747223
 20
-57.000072
 11
-199.747223
 21
-43.000072
  0
LINE
  8
0
  6
CENTER
 10
-206.747223
 20
-50.000072
 11
-192.747223
 21
-50.000072
  0
LINE
  8
0
 10
-201.247223
 20
-50.866104
 11
-199.747223
 21
-51.732136
  0
LINE
  8
0
 10
-199.747238
 20
-51.732113
 11
-198.247223
 21
-50.866085
  0
LINE
  8
0
 10
-198.247223
 20
-50.866096
 11
-198.247223
 21
-49.134048
  0
LINE
  8
0
 10
-198.247208
 20
-49.134079
 11
-199.747223
 21
-48.268051
  0
LINE
  8
0
 10
-199.747238
 20
-48.268002
 11
-201.247238
 21
-49.134029
  0
LINE
  8
0
 10
-201.247223
 20
-49.134048
 11
-201.247223
 21
-50.866100
  0
LINE
  8
0
 10
-198.247238
 20
-30.866091
 11
-199.747238
 21
-31.732119
  0
LINE
  8
0
 10
-199.747238
 20
-31.732143
 11
-201.247238
 21
-30.866123
  0
LINE
  8
0
 10
-201.247223
 20
-30.866096
 11
-201.247223
 21
-29.134045
  0
LINE
  8
0
 10
-201.247238
 20
-29.134033
 11
-199.747238
 21
-28.268015
  0
LINE
  8
0
 10
-199.747253
 20
-28.268026
 11
-198.247253
 21
-29.134052
  0
LINE
  8
0
 10
-198.247223
 20
-29.134047
 11
-198.247223
 21
-30.866098
  0
LINE
  8
0
 10
-166.247223
 20
-49.134041
 11
-164.747223
 21
-48.268017
  0
LINE
  8
0
 10
-164.747238
 20
-48.268051
 11
-163.247238
 21
-49.134068
  0
LINE
  8
0
 10
-163.247223
 20
-49.134048
 11
-163.247223
 21
-50.866100
  0
LINE
  8
0
 10
-163.247253
 20
-50.866108
 11
-164.747223
 21
-51.732121
  0
LINE
  8
0
 10
-164.747238
 20
-51.732147
 11
-166.247238
 21
-50.866119
  0
LINE
  8
0
 10
-166.247223
 20
-50.866096
 11
-166.247223
 21
-49.134048
  0
LINE
  8
0
 10
-166.247238
 20
-30.866104
 11
-164.747223
 21
-31.732132
  0
LINE
  8
0
 10
-164.747223
 20
-31.732107
 11
-163.247223
 21
-30.866089
  0
LINE
  8
0
 10
-163.247223
 20
-30.866096
 11
-163.247223
 21
-29.134045
  0
LINE
  8
0
 10
-163.247208
 20
-29.134035
 11
-164.747208
 21
-28.268011
  0
LINE
  8
0
 10
-164.747223
 20
-28.268038
 11
-166.247238
 21
-29.134066
  0
LINE
  8
0
 10
-166.247223
 20
-29.134047
 11
-166.247223
 21
-30.866098
  0
LINE
  8
0
 10
-83.747269
 20
-115.000076
 11
-54.747269
 21
-115.000076
  0
LINE
  8
0
 10
-88.247269
 20
-135.000076
 11
-84.247269
 21
-135.000076
  0
LINE
  8
0
 10
-84.147270
 20
-110.000076
 11
-54.347267
 21
-110.000076
  0
LINE
  8
0
 10
-91.747269
 20
-130.071869
 11
-89.147270
 21
-130.071869
  0
LINE
  8
0
 10
-91.747269
 20
-137.000076
 11
-89.147270
 21
-137.000076
  0
LINE
  8
0
 10
-91.747269
 20
-117.600075
 11
-91.747269
 21
-137.000076
  0
LINE
  8
0
 10
-46.747269
 20
-117.600075
 11
-46.747269
 21
-137.000076
  0
LINE
  8
0
 10
-89.147270
 20
-117.600075
 11
-89.147270
 21
-137.000076
  0
LINE
  8
0
 10
-49.347275
 20
-117.600075
 11
-49.347275
 21
-137.000076
  0
LINE
  8
0
 10
-49.347275
 20
-130.071869
 11
-46.747269
 21
-130.071869
  0
LINE
  8
0
 10
-49.347275
 20
-137.000076
 11
-46.747269
 21
-137.000076
  0
LINE
  8
0
 10
-94.247269
 20
-127.000076
 11
-94.247269
 21
-133.000076
  0
LINE
  8
0
 10
-85.747269
 20
-117.000076
 11
-85.747269
 21
-135.000076
  0
LINE
  8
0
 10
-52.747269
 20
-117.000076
 11
-52.747269
 21
-135.000076
  0
LINE
  8
0
 10
-88.247269
 20
-117.000076
 11
-88.247269
 21
-135.000076
  0
LINE
  8
0
 10
-50.247269
 20
-117.000076
 11
-50.247269
 21
-135.000076
  0
LINE
  8
0
 10
-83.747269
 20
-112.500076
 11
-54.747269
 21
-112.500076
  0
LINE
  8
0
 10
-88.247269
 20
-117.500076
 11
-85.747269
 21
-117.500076
  0
LINE
  8
0
 10
-52.747269
 20
-117.500076
 11
-50.247269
 21
-117.500076
  0
LINE
  8
0
 10
-85.747269
 20
-123.000076
 11
-84.247269
 21
-123.000076
  0
LINE
  8
0
 10
-54.247284
 20
-123.000076
 11
-52.747269
 21
-123.000076
  0
LINE
  8
0
 10
-94.247269
 20
-127.000076
 11
-91.747269
 21
-127.000076
  0
LINE
  8
0
 10
-94.247269
 20
-133.000076
 11
-91.747269
 21
-133.000076
  0
LINE
  8
0
 10
-89.147270
 20
-127.000076
 11
-88.247269
 21
-127.000076
  0
LINE
  8
0
 10
-89.147270
 20
-133.000076
 11
-88.247269
 21
-133.000076
  0
LINE
  8
0
 10
-94.247269
 20
-127.764008
 11
-91.747269
 21
-127.764008
  0
LINE
  8
0
 10
-94.247269
 20
-132.236145
 11
-91.747269
 21
-132.236145
  0
LINE
  8
0
 10
-89.147270
 20
-127.764008
 11
-88.247269
 21
-127.764008
  0
LINE
  8
0
 10
-89.147270
 20
-132.236145
 11
-88.247269
 21
-132.236145
  0
LINE
  8
0
 10
-49.347275
 20
-127.000076
 11
-50.247269
 21
-127.000076
  0
LINE
  8
0
 10
-49.347275
 20
-127.764008
 11
-50.247269
 21
-127.764008
  0
LINE
  8
0
 10
-49.347275
 20
-132.236145
 11
-50.247269
 21
-132.236145
  0
LINE
  8
0
 10
-49.347275
 20
-133.000076
 11
-50.247269
 21
-133.000076
  0
LINE
  8
0
 10
-44.247269
 20
-132.236145
 11
-46.747269
 21
-132.236145
  0
LINE
  8
0
 10
-44.247269
 20
-133.000076
 11
-46.747269
 21
-133.000076
  0
LINE
  8
0
 10
-44.247269
 20
-127.000076
 11
-44.247269
 21
-133.000076
  0
LINE
  8
0
 10
-44.247269
 20
-127.764008
 11
-46.747269
 21
-127.764008
  0
LINE
  8
0
 10
-44.247269
 20
-127.000076
 11
-46.747269
 21
-127.000076
  0
LINE
  8
0
 10
-84.247269
 20
-123.000076
 11
-84.247269
 21
-135.000076
  0
LINE
  8
0
 10
-54.247284
 20
-123.000076
 11
-54.247284
 21
-135.000076
  0
LINE
  8
0
 10
-54.247284
 20
-135.000076
 11
-50.247269
 21
-135.000076
  0
LINE
  8
0
 10
106.000092
 20
-107.500175
 11
89.585022
 21
-123.915237
  0
LINE
  8
0
 10
54.000027
 20
-107.500061
 11
70.415115
 21
-123.915154
  0
LINE
  8
0
 10
95.000015
 20
-99.500076
 11
95.000015
 21
-102.500076
  0
LINE
  8
0
 10
65.000015
 20
-99.500076
 11
65.000015
 21
-102.500076
  0
LINE
  8
0
 10
67.000015
 20
-97.000069
 11
93.000015
 21
-97.000069
  0
LINE
  8
0
 10
74.216904
 20
-127.500061
 11
77.500015
 21
-127.500061
  0
LINE
  8
0
 10
93.000015
 20
-97.000069
 11
93.000015
 21
-118.000061
  0
LINE
  8
0
 10
67.000015
 20
-97.000069
 11
67.000015
 21
-118.000061
  0
LINE
  8
0
 10
77.500015
 20
-113.500076
 11
77.500015
 21
-127.500061
  0
LINE
  8
0
 10
82.500015
 20
-113.500076
 11
82.500015
 21
-127.500061
  0
LINE
  8
0
 10
82.500015
 20
-127.500061
 11
85.783142
 21
-127.500061
  0
LINE
  8
0
 10
93.000046
 20
-118.000084
 11
88.381241
 21
-126.000084
  0
LINE
  8
0
 10
67.000000
 20
-118.000069
 11
71.618805
 21
-126.000076
  0
LINE
  8
0
 10
77.500015
 20
-125.000061
 11
82.500015
 21
-125.000061
  0
LINE
  8
0
 10
54.000019
 20
-99.500076
 11
65.000015
 21
-99.500076
  0
LINE
  8
0
 10
95.000015
 20
-99.500076
 11
106.000015
 21
-99.500076
  0
LINE
  8
0
 10
54.000019
 20
-99.500076
 11
54.000019
 21
-107.500076
  0
LINE
  8
0
 10
106.000015
 20
-99.500076
 11
106.000015
 21
-107.500076
  0
LINE
  8
0
  6
CENTER
 10
80.000000
 20
-92.000038
 11
80.000000
 21
-143.000046
  0
LINE
  8
0
 10
66.999985
 20
-14.400063
 11
66.999985
 21
-65.600060
  0
LINE
  8
0
 10
92.999985
 20
-14.400063
 11
92.999985
 21
-65.600060
  0
LINE
  8
0
 10
66.999985
 20
-65.600060
 11
92.999985
 21
-65.600060
  0
LINE
  8
0
 10
66.999985
 20
-14.400063
 11
92.999985
 21
-14.400063
  0
LINE
  8
0
 10
64.999985
 20
-18.000061
 11
64.999985
 21
-62.000061
  0
LINE
  8
0
 10
53.999981
 20
-18.000061
 11
53.999981
 21
-62.000061
  0
LINE
  8
0
 10
94.999985
 20
-18.000061
 11
94.999985
 21
-62.000061
  0
LINE
  8
0
 10
105.999985
 20
-18.000061
 11
105.999985
 21
-62.000061
  0
LINE
  8
0
 10
53.999981
 20
-18.000061
 11
66.999985
 21
-18.000061
  0
LINE
  8
0
 10
53.999981
 20
-62.000061
 11
66.999985
 21
-62.000061
  0
LINE
  8
0
 10
92.999985
 20
-18.000061
 11
105.999985
 21
-18.000061
  0
LINE
  8
0
 10
92.999985
 20
-62.000061
 11
105.999985
 21
-62.000061
  0
LINE
  8
0
 10
64.999985
 20
-20.500061
 11
66.999985
 21
-20.500061
  0
LINE
  8
0
 10
64.999985
 20
-59.500061
 11
66.999985
 21
-59.500061
  0
LINE
  8
0
 10
92.999985
 20
-20.500061
 11
94.999985
 21
-20.500061
  0
LINE
  8
0
 10
92.999985
 20
-59.500061
 11
94.999985
 21
-59.500061
  0
LINE
  8
0
 10
77.499954
 20
-67.000061
 11
82.499954
 21
-67.000061
  0
LINE
  8
0
 10
77.499954
 20
-13.000061
 11
82.499954
 21
-13.000061
  0
LINE
  8
0
 10
77.499954
 20
-13.000061
 11
77.499954
 21
-14.400063
  0
LINE
  8
0
 10
82.499954
 20
-13.000061
 11
82.499954
 21
-14.400063
  0
LINE
  8
0
 10
77.499954
 20
-65.600060
 11
77.499954
 21
-67.000061
  0
LINE
  8
0
 10
82.499954
 20
-65.600060
 11
82.499954
 21
-67.000061
  0
LINE
  8
0
  6
CENTER
 10
79.999954
 20
-8.000061
 11
79.999954
 21
-72.000061
  0
LINE
  8
0
  6
CENTER
 10
99.999954
 20
-20.000061
 11
99.999954
 21
-34.000061
  0
LINE
  8
0
  6
CENTER
 10
106.999954
 20
-27.000061
 11
92.999954
 21
-27.000061
  0
LINE
  8
0
  6
CENTER
 10
99.999954
 20
-60.000061
 11
99.999954
 21
-46.000061
  0
LINE
  8
0
  6
CENTER
 10
106.999954
 20
-53.000061
 11
92.999954
 21
-53.000061
  0
LINE
  8
0
  6
CENTER
 10
87.999954
 20
-57.000061
 11
87.999954
 21
-49.000061
  0
LINE
  8
0
  6
CENTER
 10
91.999954
 20
-53.000061
 11
83.999954
 21
-53.000061
  0
LINE
  8
0
  6
CENTER
 10
91.999954
 20
-27.000061
 11
83.999954
 21
-27.000061
  0
LINE
  8
0
  6
CENTER
 10
87.999954
 20
-23.000061
 11
87.999954
 21
-31.000061
  0
LINE
  8
0
  6
CENTER
 10
71.999954
 20
-23.000061
 11
71.999954
 21
-31.000061
  0
LINE
  8
0
  6
CENTER
 10
67.999954
 20
-27.000061
 11
75.999954
 21
-27.000061
  0
LINE
  8
0
  6
CENTER
 10
71.999954
 20
-57.000061
 11
71.999954
 21
-49.000061
  0
LINE
  8
0
  6
CENTER
 10
67.999954
 20
-53.000061
 11
75.999954
 21
-53.000061
  0
LINE
  8
0
  6
CENTER
 10
59.999950
 20
-60.000061
 11
59.999950
 21
-46.000061
  0
LINE
  8
0
  6
CENTER
 10
52.999950
 20
-53.000061
 11
66.999954
 21
-53.000061
  0
LINE
  8
0
  6
CENTER
 10
52.999950
 20
-27.000061
 11
66.999954
 21
-27.000061
  0
LINE
  8
0
  6
CENTER
 10
59.999950
 20
-20.000061
 11
59.999950
 21
-34.000061
  0
LINE
  8
0
 10
58.499943
 20
-53.866089
 11
59.999950
 21
-54.732117
  0
LINE
  8
0
 10
59.999950
 20
-54.732124
 11
61.499954
 21
-53.866100
  0
LINE
  8
0
 10
61.499954
 20
-53.866089
 11
61.499954
 21
-52.134033
  0
LINE
  8
0
 10
61.499943
 20
-52.134033
 11
59.999947
 21
-51.268009
  0
LINE
  8
0
 10
59.999966
 20
-51.268036
 11
58.499966
 21
-52.134064
  0
LINE
  8
0
 10
58.499954
 20
-52.134033
 11
58.499954
 21
-53.866089
  0
LINE
  8
0
 10
61.499966
 20
-27.866104
 11
59.999969
 21
-28.732128
  0
LINE
  8
0
 10
59.999950
 20
-28.732115
 11
58.499943
 21
-27.866087
  0
LINE
  8
0
 10
58.499954
 20
-27.866087
 11
58.499954
 21
-26.134035
  0
LINE
  8
0
 10
61.499954
 20
-26.134035
 11
61.499954
 21
-27.866087
  0
LINE
  8
0
 10
59.999958
 20
-25.268015
 11
61.499958
 21
-26.134037
  0
LINE
  8
0
 10
58.499962
 20
-26.134048
 11
59.999962
 21
-25.268023
  0
LINE
  8
0
 10
98.499969
 20
-52.134052
 11
99.999969
 21
-51.268028
  0
LINE
  8
0
 10
99.999954
 20
-51.268009
 11
101.499962
 21
-52.134033
  0
LINE
  8
0
 10
101.499947
 20
-52.134033
 11
101.499947
 21
-53.866089
  0
LINE
  8
0
 10
98.499947
 20
-53.866089
 11
98.499947
 21
-52.134033
  0
LINE
  8
0
 10
99.999954
 20
-54.732117
 11
98.499954
 21
-53.866089
  0
LINE
  8
0
 10
101.499969
 20
-53.866112
 11
99.999969
 21
-54.732136
  0
LINE
  8
0
 10
98.499962
 20
-27.866079
 11
99.999962
 21
-28.732107
  0
LINE
  8
0
 10
99.999947
 20
-28.732113
 11
101.499954
 21
-27.866085
  0
LINE
  8
0
 10
101.499947
 20
-27.866087
 11
101.499947
 21
-26.134035
  0
LINE
  8
0
 10
98.499947
 20
-26.134035
 11
98.499947
 21
-27.866087
  0
LINE
  8
0
 10
99.999969
 20
-25.268030
 11
98.499969
 21
-26.134058
  0
LINE
  8
0
 10
101.499969
 20
-26.134026
 11
99.999969
 21
-25.268002
  0
LINE
  8
0
 10
184.999908
 20
-102.000023
 11
220.999908
 21
-102.000023
  0
LINE
  8
0
 10
184.899902
 20
-97.000023
 11
221.099915
 21
-97.000023
  0
LINE
  8
0
 10
177.399902
 20
-127.500015
 11
179.999908
 21
-127.500015
  0
LINE
  8
0
 10
184.999908
 20
-99.500023
 11
220.999908
 21
-99.500023
  0
LINE
  8
0
 10
224.999908
 20
-103.500023
 11
224.999908
 21
-127.500015
  0
LINE
  8
0
 10
180.999908
 20
-103.500023
 11
180.999908
 21
-127.500015
  0
LINE
  8
0
 10
183.499908
 20
-103.500023
 11
183.499908
 21
-127.500015
  0
LINE
  8
0
 10
222.499908
 20
-103.500023
 11
222.499908
 21
-127.500015
  0
LINE
  8
0
 10
180.999908
 20
-127.500015
 11
183.499908
 21
-127.500015
  0
LINE
  8
0
 10
225.999908
 20
-127.500015
 11
228.599915
 21
-127.500015
  0
LINE
  8
0
 10
222.499908
 20
-127.500015
 11
224.999908
 21
-127.500015
  0
LINE
  8
0
 10
228.599915
 20
-104.500023
 11
228.599915
 21
-127.500015
  0
LINE
  8
0
 10
177.399902
 20
-104.500023
 11
177.399902
 21
-127.500015
  0
LINE
  8
0
 10
179.999908
 20
-104.500023
 11
179.999908
 21
-127.500015
  0
LINE
  8
0
 10
225.999908
 20
-104.500023
 11
225.999908
 21
-127.500015
  0
LINE
  8
0
 10
229.999908
 20
-116.000023
 11
229.999908
 21
-124.000015
  0
LINE
  8
0
 10
175.999908
 20
-116.000023
 11
175.999908
 21
-124.000015
  0
LINE
  8
0
 10
183.499908
 20
-112.000023
 11
184.999908
 21
-112.000023
  0
LINE
  8
0
 10
183.499908
 20
-125.000015
 11
184.999908
 21
-125.000015
  0
LINE
  8
0
 10
220.999908
 20
-112.000023
 11
222.499908
 21
-112.000023
  0
LINE
  8
0
 10
220.999908
 20
-125.000015
 11
222.499908
 21
-125.000015
  0
LINE
  8
0
 10
175.999908
 20
-116.000023
 11
177.399902
 21
-116.000023
  0
LINE
  8
0
 10
175.999908
 20
-124.000015
 11
177.399902
 21
-124.000015
  0
LINE
  8
0
 10
179.999908
 20
-116.000023
 11
180.999908
 21
-116.000023
  0
LINE
  8
0
 10
179.999908
 20
-124.000015
 11
180.999908
 21
-124.000015
  0
LINE
  8
0
 10
224.999908
 20
-116.000023
 11
225.999908
 21
-116.000023
  0
LINE
  8
0
 10
224.999908
 20
-124.000015
 11
225.999908
 21
-124.000015
  0
LINE
  8
0
 10
228.599915
 20
-116.000023
 11
229.999908
 21
-116.000023
  0
LINE
  8
0
 10
228.599915
 20
-124.000015
 11
229.999908
 21
-124.000015
  0
LINE
  8
0
 10
177.399902
 20
-118.000015
 11
179.999908
 21
-118.000015
  0
LINE
  8
0
 10
225.999908
 20
-118.000015
 11
228.599915
 21
-118.000015
  0
LINE
  8
0
 10
175.999908
 20
-116.877533
 11
177.399902
 21
-116.877533
  0
LINE
  8
0
 10
175.999908
 20
-123.122528
 11
177.399902
 21
-123.122528
  0
LINE
  8
0
 10
224.999908
 20
-116.877533
 11
225.999908
 21
-116.877533
  0
LINE
  8
0
 10
224.999908
 20
-123.122528
 11
225.999908
 21
-123.122528
  0
LINE
  8
0
 10
179.999908
 20
-116.877533
 11
180.999908
 21
-116.877533
  0
LINE
  8
0
 10
179.999908
 20
-123.122528
 11
180.999908
 21
-123.122528
  0
LINE
  8
0
 10
228.599915
 20
-116.877533
 11
229.999908
 21
-116.877533
  0
LINE
  8
0
 10
228.599915
 20
-123.122528
 11
229.999908
 21
-123.122528
  0
LINE
  8
0
 10
180.999908
 20
-107.500031
 11
183.499908
 21
-107.500031
  0
LINE
  8
0
 10
222.499908
 20
-107.500031
 11
224.999908
 21
-107.500031
  0
LINE
  8
0
 10
184.999908
 20
-112.000023
 11
184.999908
 21
-125.000015
  0
LINE
  8
0
 10
220.999908
 20
-112.000023
 11
220.999908
 21
-125.000015
  0
ARC
  8
0
 62
     5
 10
193.065201
 20
-166.202393
 40
1.564041
 50
0.000000
 51
90.000000
  0
ARC
  8
0
 62
     5
 10
205.968597
 20
-174.609177
 40
1.564041
 50
270.000000
 51
0.000000
  0
ARC
  8
0
 62
     5
 10
205.186523
 20
-166.984390
 40
2.346069
 50
0.000000
 51
90.000000
  0
ARC
  8
0
 62
     5
 10
219.458466
 20
-166.202393
 40
1.564041
 50
0.000000
 51
90.000000
  0
ARC
  8
0
 62
     5
 10
219.458466
 20
-167.451935
 40
1.564050
 50
294.999969
 51
0.000000
  0
ARC
  8
0
 62
     5
 10
231.579834
 20
-164.638336
 40
2.346074
 50
291.688202
 51
0.000000
  0
ARC
  8
0
 62
     5
 10
230.797760
 20
-164.107742
 40
0.782030
 50
291.688049
 51
0.000000
  0
ARC
  8
0
  6
PHANTOM
 10
-69.747223
 20
44.999977
 40
8.499999
 50
197.104614
 51
342.895355
  0
ARC
  8
0
  6
PHANTOM
 10
-136.493103
 20
46.699978
 40
6.000005
 50
163.540802
 51
196.459198
  0
ARC
  8
0
  6
PHANTOM
 10
-148.001343
 20
43.299976
 40
6.000006
 50
343.540771
 51
16.459240
  0
ARC
  8
0
  6
PHANTOM
 10
-208.001343
 20
46.699978
 40
6.000004
 50
343.540833
 51
16.459240
  0
ARC
  8
0
  6
PHANTOM
 10
-196.493103
 20
43.299976
 40
6.000005
 50
163.540802
 51
196.459274
  0
ARC
  8
0
  6
PHANTOM
 10
-208.001343
 20
116.699982
 40
6.000005
 50
343.540802
 51
16.459206
  0
ARC
  8
0
  6
PHANTOM
 10
-196.493103
 20
113.299973
 40
6.000005
 50
163.540802
 51
196.459274
  0
ARC
  8
0
  6
PHANTOM
 10
-148.001343
 20
113.299973
 40
6.000007
 50
343.540710
 51
16.459274
  0
ARC
  8
0
  6
PHANTOM
 10
-136.493103
 20
116.699982
 40
6.000005
 50
163.540802
 51
196.459198
  0
CIRCLE
  8
0
  6
PHANTOM
 10
-69.747223
 20
44.999977
 40
3.400002
  0
ARC
  8
0
  6
PHANTOM
 10
186.500000
 20
44.999977
 40
12.499999
 50
196.260193
 51
343.739807
  0
ARC
  8
0
  6
PHANTOM
 10
124.614441
 20
47.749977
 40
9.999998
 50
164.038010
 51
195.961975
  0
ARC
  8
0
  6
PHANTOM
 10
105.385567
 20
42.249977
 40
9.999999
 50
344.037994
 51
15.962016
  0
ARC
  8
0
  6
PHANTOM
 10
124.614441
 20
122.749977
 40
9.999999
 50
164.037979
 51
195.961975
  0
ARC
  8
0
  6
PHANTOM
 10
105.385567
 20
117.249977
 40
9.999999
 50
344.037994
 51
15.962016
  0
ARC
  8
0
  6
PHANTOM
 10
35.385567
 20
122.749977
 40
10.000000
 50
344.038025
 51
15.962016
  0
ARC
  8
0
  6
PHANTOM
 10
54.614449
 20
117.249977
 40
10.000002
 50
164.037994
 51
195.962021
  0
ARC
  8
0
  6
PHANTOM
 10
35.385567
 20
47.749977
 40
10.000000
 50
344.038025
 51
15.962016
  0
ARC
  8
0
  6
PHANTOM
 10
54.614449
 20
42.249977
 40
10.000001
 50
164.038010
 51
195.962036
  0
ARC
  8
0
  6
PHANTOM
 10
-69.247253
 20
-130.000046
 40
14.999995
 50
199.471161
 51
340.528778
  0
ARC
  8
0
  6
PHANTOM
 10
-117.891815
 20
-125.650070
 40
15.000008
 50
163.142059
 51
196.857910
  0
ARC
  8
0
  6
PHANTOM
 10
-146.602600
 20
-134.350067
 40
14.999995
 50
343.142029
 51
16.857986
  0
ARC
  8
0
  6
PHANTOM
 10
-217.891800
 20
-134.350067
 40
14.999995
 50
163.142014
 51
196.857910
  0
ARC
  8
0
  6
PHANTOM
 10
-246.602600
 20
-125.650070
 40
15.000005
 50
343.142090
 51
16.857885
  0
ARC
  8
0
  6
PHANTOM
 10
-246.602600
 20
-35.650070
 40
15.000008
 50
343.142059
 51
16.857901
  0
ARC
  8
0
  6
PHANTOM
 10
-217.891800
 20
-44.350067
 40
14.999996
 50
163.141998
 51
196.857910
  0
ARC
  8
0
  6
PHANTOM
 10
-146.602600
 20
-44.350067
 40
14.999992
 50
343.142029
 51
16.857958
  0
ARC
  8
0
  6
PHANTOM
 10
-117.891815
 20
-35.650070
 40
15.000007
 50
163.142059
 51
196.857895
  0
CIRCLE
  8
0
  6
PHANTOM
 10
-69.247253
 20
-130.000046
 40
8.700000
  0
ARC
  8
0
  6
PHANTOM
 10
202.999969
 20
-120.000031
 40
18.000000
 50
199.471191
 51
340.528778
  0
CIRCLE
  8
0
  6
PHANTOM
 10
202.999969
 20
-120.000031
 40
10.700000
  0
ARC
  8
0
  6
PHANTOM
 10
49.271133
 20
-34.650047
 40
20.000000
 50
164.484467
 51
195.515518
  0
ARC
  8
0
  6
PHANTOM
 10
10.728806
 20
-45.350044
 40
20.000000
 50
344.484436
 51
15.515552
  0
ARC
  8
0
  6
PHANTOM
 10
149.271118
 20
-34.650047
 40
20.000004
 50
164.484467
 51
195.515518
  0
ARC
  8
0
  6
PHANTOM
 10
110.728821
 20
-45.350044
 40
20.000006
 50
344.484467
 51
15.515547
  0
ARC
  8
0
  6
PHANTOM
 10
49.271133
 20
-114.650047
 40
20.000000
 50
164.484467
 51
195.515533
  0
ARC
  8
0
  6
PHANTOM
 10
10.728806
 20
-125.350037
 40
20.000002
 50
344.484436
 51
15.515552
  0
ARC
  8
0
  6
PHANTOM
 10
110.728821
 20
-125.350037
 40
20.000008
 50
344.484436
 51
15.515547
  0
ARC
  8
0
  6
PHANTOM
 10
149.271118
 20
-114.650047
 40
20.000004
 50
164.484467
 51
195.515533
  0
ARC
  8
0
 10
130.999985
 20
226.543259
 40
0.700007
 50
45.000000
 51
135.000000
  0
CIRCLE
  8
0
 10
130.999969
 20
227.999908
 40
2.750000
  0
ARC
  8
0
 10
132.456635
 20
211.999908
 40
0.700007
 50
135.000000
 51
225.000000
  0
ARC
  8
0
 10
130.999985
 20
210.543274
 40
0.700007
 50
45.000000
 51
135.000000
  0
ARC
  8
0
 10
129.543335
 20
211.999908
 40
0.700007
 50
315.000000
 51
45.000000
  0
ARC
  8
0
 10
130.999985
 20
213.456558
 40
0.700007
 50
225.000000
 51
315.000000
  0
CIRCLE
  8
0
 10
130.999969
 20
211.999908
 40
2.750000
  0
ARC
  8
0
 10
132.456635
 20
227.999908
 40
0.700007
 50
135.000000
 51
225.000000
  0
ARC
  8
0
 10
129.543335
 20
227.999908
 40
0.700007
 50
315.000000
 51
45.000000
  0
ARC
  8
0
 10
130.999985
 20
229.456543
 40
0.700007
 50
225.000000
 51
315.000000
  0
ARC
  8
0
 10
107.543327
 20
227.999908
 40
0.700002
 50
314.999573
 51
45.000443
  0
ARC
  8
0
 10
108.999969
 20
229.456543
 40
0.700002
 50
225.000443
 51
314.999573
  0
ARC
  8
0
 10
110.456612
 20
227.999908
 40
0.700002
 50
134.999557
 51
225.000443
  0
ARC
  8
0
 10
108.999969
 20
226.543259
 40
0.700002
 50
45.000443
 51
134.999557
  0
CIRCLE
  8
0
 10
108.999977
 20
227.999908
 40
2.750000
  0
ARC
  8
0
 10
107.543327
 20
211.999908
 40
0.700002
 50
314.999573
 51
45.000443
  0
ARC
  8
0
 10
108.999969
 20
210.543274
 40
0.700002
 50
45.000443
 51
134.999557
  0
ARC
  8
0
 10
110.456612
 20
211.999908
 40
0.700002
 50
134.999557
 51
225.000443
  0
ARC
  8
0
 10
108.999969
 20
213.456558
 40
0.700002
 50
225.000443
 51
314.999573
  0
CIRCLE
  8
0
 10
108.999977
 20
211.999908
 40
2.750000
  0
CIRCLE
  8
0
 10
123.499977
 20
227.999908
 40
1.750000
  0
CIRCLE
  8
0
 10
116.499977
 20
227.999908
 40
1.750000
  0
CIRCLE
  8
0
 10
123.499977
 20
211.999908
 40
1.750000
  0
CIRCLE
  8
0
 10
116.499977
 20
211.999908
 40
1.750000
  0
ARC
  8
0
 10
130.999985
 20
226.543259
 40
0.700007
 50
45.000000
 51
135.000000
  0
CIRCLE
  8
0
 10
130.999969
 20
227.999908
 40
2.750000
  0
ARC
  8
0
 10
132.456635
 20
211.999908
 40
0.700007
 50
135.000000
 51
225.000000
  0
ARC
  8
0
 10
130.999985
 20
210.543274
 40
0.700007
 50
45.000000
 51
135.000000
  0
ARC
  8
0
 10
129.543335
 20
211.999908
 40
0.700007
 50
315.000000
 51
45.000000
  0
ARC
  8
0
 10
130.999985
 20
213.456558
 40
0.700007
 50
225.000000
 51
315.000000
  0
CIRCLE
  8
0
 10
130.999969
 20
211.999908
 40
2.750000
  0
ARC
  8
0
 10
132.456635
 20
227.999908
 40
0.700007
 50
135.000000
 51
225.000000
  0
ARC
  8
0
 10
129.543335
 20
227.999908
 40
0.700007
 50
315.000000
 51
45.000000
  0
ARC
  8
0
 10
130.999985
 20
229.456543
 40
0.700007
 50
225.000000
 51
315.000000
  0
ARC
  8
0
 10
107.543327
 20
227.999908
 40
0.700002
 50
314.999573
 51
45.000443
  0
ARC
  8
0
 10
108.999969
 20
229.456543
 40
0.700002
 50
225.000443
 51
314.999573
  0
ARC
  8
0
 10
110.456612
 20
227.999908
 40
0.700002
 50
134.999557
 51
225.000443
  0
ARC
  8
0
 10
108.999969
 20
226.543259
 40
0.700002
 50
45.000443
 51
134.999557
  0
CIRCLE
  8
0
 10
108.999977
 20
227.999908
 40
2.750000
  0
ARC
  8
0
 10
107.543327
 20
211.999908
 40
0.700002
 50
314.999573
 51
45.000443
  0
ARC
  8
0
 10
108.999969
 20
210.543274
 40
0.700002
 50
45.000443
 51
134.999557
  0
ARC
  8
0
 10
110.456612
 20
211.999908
 40
0.700002
 50
134.999557
 51
225.000443
  0
ARC
  8
0
 10
108.999969
 20
213.456558
 40
0.700002
 50
225.000443
 51
314.999573
  0
CIRCLE
  8
0
 10
108.999977
 20
211.999908
 40
2.750000
  0
CIRCLE
  8
0
 10
123.499977
 20
227.999908
 40
1.750000
  0
CIRCLE
  8
0
 10
116.499977
 20
227.999908
 40
1.750000
  0
CIRCLE
  8
0
 10
123.499977
 20
211.999908
 40
1.750000
  0
CIRCLE
  8
0
 10
116.499977
 20
211.999908
 40
1.750000
  0
ARC
  8
0
 10
385.000000
 20
80.999954
 40
3.500000
 50
0.000000
 51
90.000000
  0
ARC
  8
0
 10
361.000000
 20
80.999954
 40
3.500000
 50
90.000000
 51
180.000000
  0
ARC
  8
0
 10
385.000000
 20
80.999954
 40
1.500000
 50
0.000000
 51
90.000000
  0
ARC
  8
0
 10
361.000000
 20
80.999954
 40
1.500000
 50
90.000000
 51
180.000000
  0
ARC
  8
0
 10
359.500000
 20
81.999954
 40
5.000000
 50
90.000000
 51
180.000000
  0
CIRCLE
  8
0
 10
373.000000
 20
69.999954
 40
5.500000
  0
ARC
  8
0
 10
359.500000
 20
81.999954
 40
3.000000
 50
90.000000
 51
180.000000
  0
ARC
  8
0
 10
386.500000
 20
81.999954
 40
5.000000
 50
0.000000
 51
90.000000
  0
ARC
  8
0
 10
386.500000
 20
81.999954
 40
3.000000
 50
0.000000
 51
90.000000
  0
CIRCLE
  8
0
  6
PHANTOM
 10
186.500000
 20
44.999977
 40
5.500000
  0
ARC
  8
0
 10
-172.247208
 20
44.999947
 40
1.500000
 50
228.189697
 51
311.810303
  0
ARC
  8
0
 10
-172.247208
 20
44.999947
 40
1.500000
 50
48.189693
 51
131.810303
  0
ARC
  8
0
 10
-185.247208
 20
52.026222
 40
3.000000
 50
180.000000
 51
240.000000
  0
ARC
  8
0
 10
-159.247208
 20
52.026226
 40
3.000000
 50
300.000000
 51
0.000000
  0
ARC
  8
0
 10
-163.747208
 20
52.499947
 40
0.500000
 50
270.000000
 51
0.000000
  0
ARC
  8
0
 10
-180.747208
 20
52.499947
 40
0.500000
 50
180.000000
 51
270.000000
  0
ARC
  8
0
 10
-177.247208
 20
48.232002
 40
3.000000
 50
180.000000
 51
209.999924
  0
ARC
  8
0
 10
-167.247208
 20
48.231998
 40
3.000006
 50
330.000061
 51
0.000000
  0
ARC
  8
0
 10
-169.113235
 20
41.999947
 40
1.500000
 50
270.000000
 51
330.000061
  0
ARC
  8
0
 10
-175.381180
 20
41.999947
 40
1.500001
 50
209.999802
 51
270.000000
  0
ARC
  8
0
 10
-172.247208
 20
49.999947
 40
1.000000
 50
0.000000
 51
180.000000
  0
CIRCLE
  8
0
 10
-176.747208
 20
114.999985
 40
1.750000
  0
CIRCLE
  8
0
 10
-167.747208
 20
114.999985
 40
1.750000
  0
CIRCLE
  8
0
 10
-184.747208
 20
119.999985
 40
2.750000
  0
CIRCLE
  8
0
 10
-159.747208
 20
109.999985
 40
2.750000
  0
CIRCLE
  8
0
 10
-159.747208
 20
119.999985
 40
2.750000
  0
CIRCLE
  8
0
 10
-184.747208
 20
109.999985
 40
2.750000
  0
ARC
  8
0
 10
-61.247238
 20
52.499977
 40
3.000000
 50
0.000000
 51
90.000000
  0
ARC
  8
0
 10
-78.247238
 20
52.499977
 40
3.000000
 50
90.000000
 51
180.000000
  0
ARC
  8
0
 10
-61.247238
 20
52.499977
 40
1.000000
 50
0.000000
 51
90.000000
  0
ARC
  8
0
 10
-78.247238
 20
52.499977
 40
1.000000
 50
90.000000
 51
180.000000
  0
ARC
  8
0
 10
-60.247238
 20
52.999977
 40
5.000000
 50
0.000000
 51
90.000000
  0
ARC
  8
0
 10
-79.247238
 20
52.999977
 40
5.000000
 50
90.000000
 51
179.999954
  0
ARC
  8
0
 10
-79.247238
 20
52.999977
 40
3.000000
 50
90.000000
 51
180.000000
  0
ARC
  8
0
 10
-60.247238
 20
52.999977
 40
3.000000
 50
0.000000
 51
90.000000
  0
ARC
  8
0
 10
80.000000
 20
44.999977
 40
1.999999
 50
231.317795
 51
308.682190
  0
ARC
  8
0
 10
80.000000
 20
44.999977
 40
1.999999
 50
51.317799
 51
128.682205
  0
ARC
  8
0
 10
80.000000
 20
44.999977
 40
5.000001
 50
76.127907
 51
103.872093
  0
ARC
  8
0
 10
91.500000
 20
53.742615
 40
3.000000
 50
315.000061
 51
0.000073
  0
ARC
  8
0
 10
87.000000
 20
56.499977
 40
0.500000
 50
270.000000
 51
0.000000
  0
ARC
  8
0
 10
68.500000
 20
53.742615
 40
3.000000
 50
180.000000
 51
224.999954
  0
ARC
  8
0
 10
73.000000
 20
56.499977
 40
0.500000
 50
180.000000
 51
270.000000
  0
ARC
  8
0
 10
76.000000
 20
45.999985
 40
3.000000
 50
180.000000
 51
210.000000
  0
ARC
  8
0
 10
84.000000
 20
45.999981
 40
3.000000
 50
330.000000
 51
0.000000
  0
ARC
  8
0
 10
83.133972
 20
41.499981
 40
1.500000
 50
270.000000
 51
330.000061
  0
ARC
  8
0
 10
80.000000
 20
49.499981
 40
1.250000
 50
0.000000
 51
180.000000
  0
ARC
  8
0
 10
76.866028
 20
41.499981
 40
1.500001
 50
209.999802
 51
270.000000
  0
CIRCLE
  8
0
 10
76.499969
 20
111.999931
 40
1.750000
  0
CIRCLE
  8
0
 10
83.499969
 20
111.999931
 40
1.750000
  0
CIRCLE
  8
0
 10
76.499969
 20
127.999931
 40
1.750000
  0
CIRCLE
  8
0
 10
83.499969
 20
127.999931
 40
1.750000
  0
CIRCLE
  8
0
 10
68.999969
 20
111.999931
 40
2.750000
  0
CIRCLE
  8
0
 10
68.999969
 20
127.999931
 40
2.750000
  0
CIRCLE
  8
0
 10
90.999969
 20
111.999931
 40
2.750000
  0
CIRCLE
  8
0
 10
90.999969
 20
127.999931
 40
2.750000
  0
ARC
  8
0
 10
200.000000
 20
56.999977
 40
3.000000
 50
0.000000
 51
90.000000
  0
ARC
  8
0
 10
200.000000
 20
56.999977
 40
5.000000
 50
0.000000
 51
90.000000
  0
ARC
  8
0
 10
173.000000
 20
56.999977
 40
3.000000
 50
90.000000
 51
180.000000
  0
ARC
  8
0
 10
173.000000
 20
56.999977
 40
5.000000
 50
90.000000
 51
179.999954
  0
ARC
  8
0
 10
174.500000
 20
55.999977
 40
1.500000
 50
90.000000
 51
180.000000
  0
ARC
  8
0
 10
198.500000
 20
55.999977
 40
1.500000
 50
0.000000
 51
90.000000
  0
ARC
  8
0
 10
174.500000
 20
55.999977
 40
3.500000
 50
90.000000
 51
179.999939
  0
ARC
  8
0
 10
198.500000
 20
55.999977
 40
3.500000
 50
0.000000
 51
90.000000
  0
ARC
  8
0
 10
-182.247253
 20
-130.000046
 40
3.000000
 50
228.189697
 51
311.810303
  0
ARC
  8
0
 10
-182.247253
 20
-130.000046
 40
3.000000
 50
48.189693
 51
131.810303
  0
ARC
  8
0
 10
-201.747253
 20
-116.257401
 40
3.000000
 50
180.000000
 51
224.999893
  0
ARC
  8
0
 10
-162.747253
 20
-116.257401
 40
3.000003
 50
315.000000
 51
0.000000
  0
ARC
  8
0
 10
-171.247253
 20
-117.000046
 40
1.000000
 50
270.000000
 51
0.000000
  0
ARC
  8
0
 10
-193.247253
 20
-117.000046
 40
1.000000
 50
180.000000
 51
270.000000
  0
ARC
  8
0
 10
-189.247253
 20
-129.268005
 40
3.000000
 50
180.000000
 51
209.999924
  0
ARC
  8
0
 10
-175.247253
 20
-129.268005
 40
3.000006
 50
330.000061
 51
0.000000
  0
ARC
  8
0
 10
-177.979309
 20
-134.000046
 40
3.000000
 50
270.000000
 51
330.000061
  0
ARC
  8
0
 10
-186.515198
 20
-134.000046
 40
2.999993
 50
210.000076
 51
270.000000
  0
ARC
  8
0
 10
-182.247253
 20
-125.500046
 40
2.000000
 50
0.000000
 51
180.000000
  0
CIRCLE
  8
0
 10
-164.747223
 20
-30.000072
 40
4.200000
  0
CIRCLE
  8
0
 10
-164.747223
 20
-50.000072
 40
4.200000
  0
CIRCLE
  8
0
 10
-199.747223
 20
-30.000072
 40
4.200000
  0
CIRCLE
  8
0
 10
-199.747223
 20
-50.000072
 40
4.200000
  0
CIRCLE
  8
0
 10
-177.247223
 20
-30.000072
 40
2.250000
  0
CIRCLE
  8
0
 10
-177.247223
 20
-50.000072
 40
2.250000
  0
CIRCLE
  8
0
 10
-187.247223
 20
-30.000072
 40
2.250000
  0
CIRCLE
  8
0
 10
-187.247223
 20
-50.000072
 40
2.250000
  0
ARC
  8
0
 10
-54.347267
 20
-117.600075
 40
5.000000
 50
0.000000
 51
80.645218
  0
ARC
  8
0
 10
-83.747269
 20
-117.000076
 40
4.500000
 50
90.000000
 51
180.000000
  0
ARC
  8
0
 10
-54.747269
 20
-117.000076
 40
4.500000
 50
0.000000
 51
90.000000
  0
ARC
  8
0
 10
-54.747269
 20
-117.000076
 40
2.000000
 50
0.000000
 51
90.000000
  0
ARC
  8
0
 10
-83.747269
 20
-117.000076
 40
2.000000
 50
90.000000
 51
180.000000
  0
ARC
  8
0
 10
-54.347267
 20
-117.600075
 40
7.599998
 50
0.000000
 51
89.999969
  0
ARC
  8
0
 10
-84.147270
 20
-117.600075
 40
7.599998
 50
90.000000
 51
179.999939
  0
ARC
  8
0
 10
-84.147270
 20
-117.600075
 40
5.000000
 50
99.354874
 51
180.000000
  0
ARC
  8
0
 10
80.000015
 20
-113.500076
 40
2.500000
 50
0.000000
 51
180.000000
  0
ARC
  8
0
 10
85.783142
 20
-124.500061
 40
3.000000
 50
270.000000
 51
330.000000
  0
ARC
  8
0
 10
74.216904
 20
-124.500061
 40
3.000000
 50
210.000000
 51
270.000000
  0
ARC
  8
0
 10
80.000015
 20
-120.000076
 40
7.999998
 50
74.057663
 51
105.942337
  0
ARC
  8
0
 10
80.000015
 20
-120.000076
 40
3.999999
 50
51.317799
 51
128.682205
  0
ARC
  8
0
 10
80.000015
 20
-120.000076
 40
3.999999
 50
231.317795
 51
308.682190
  0
ARC
  8
0
 10
93.000015
 20
-102.500076
 40
2.000000
 50
270.000000
 51
0.000000
  0
ARC
  8
0
 10
67.000015
 20
-102.500076
 40
2.000000
 50
180.000000
 51
270.000000
  0
CIRCLE
  8
0
 10
99.999954
 20
-27.000061
 40
4.200000
  0
CIRCLE
  8
0
 10
99.999954
 20
-53.000061
 40
4.200000
  0
CIRCLE
  8
0
 10
59.999950
 20
-27.000061
 40
4.200000
  0
CIRCLE
  8
0
 10
59.999950
 20
-53.000061
 40
4.200000
  0
CIRCLE
  8
0
 10
87.999954
 20
-53.000061
 40
2.250000
  0
CIRCLE
  8
0
 10
71.999954
 20
-53.000061
 40
2.250000
  0
CIRCLE
  8
0
 10
87.999954
 20
-27.000061
 40
2.250000
  0
CIRCLE
  8
0
 10
71.999954
 20
-27.000061
 40
2.250000
  0
ARC
  8
0
 10
184.899902
 20
-104.500023
 40
4.899998
 50
107.963707
 51
180.000000
  0
ARC
  8
0
 10
221.099915
 20
-104.500023
 40
4.899994
 50
0.000000
 51
72.036293
  0
ARC
  8
0
 10
221.099915
 20
-104.500023
 40
7.500000
 50
0.000000
 51
90.000000
  0
ARC
  8
0
 10
184.899902
 20
-104.500023
 40
7.500000
 50
90.000000
 51
179.999939
  0
ARC
  8
0
 10
220.999908
 20
-103.500023
 40
1.500000
 50
0.000000
 51
90.000000
  0
ARC
  8
0
 10
184.999908
 20
-103.500023
 40
1.500000
 50
90.000000
 51
180.000000
  0
ARC
  8
0
 10
220.999908
 20
-103.500023
 40
4.000000
 50
0.000000
 51
90.000000
  0
ARC
  8
0
 10
184.999908
 20
-103.500023
 40
4.000000
 50
90.000000
 51
180.000000
  0
TEXT
  8
0
 10
160.213089
 20
165.487701
 40
6.000000
  1
DATE : SEP ,1991
 50
0.000000
 41
1.052631
 51
0.000000
  7
STANDARD
  0
TEXT
  8
0
 10
-247.564621
 20
164.587692
 40
7.000000
  1
MRC M MOUNT
 50
0.000000
 41
1.052632
 51
0.000000
  7
STANDARD
  0
TEXT
  8
0
 10
-116.497223
 20
159.475296
 40
7.000000
  1
MODEL : 6
 50
0.000000
 41
1.052632
 51
0.000000
  7
STANDARD
  0
TEXT
  8
0
 10
45.750000
 20
159.475296
 40
7.000000
  1
MODEL : 10
 50
0.000000
 41
1.052632
 51
0.000000
  7
STANDARD
  0
TEXT
  8
0
 10
-106.497223
 20
-10.300024
 40
7.000000
  1
MODEL : 16
 50
0.000000
 41
1.052632
 51
0.000000
  7
STANDARD
  0
TEXT
  8
0
 10
155.750000
 20
-10.300024
 40
7.000000
  1
MODEL : 20
 50
0.000000
 41
1.052632
 51
0.000000
  7
STANDARD
  0
ENDSEC
  0
EOF
