  0
SECTION
  2
HEADER
  0
ENDSEC
  0
SECTION
  2
TABLES
  0
TABLE
  2
LTYPE
 70
     4
  0
LTYPE
  2
CONTINUOUS
 70
    64
  3
Solid line
 72
    65
 73
     0
 40
0.000000
  0
LTYPE
  2
DASHED
 70
    64
  3
__ __ __ __ __ __ __ __ __ __ __ __ __ __ __
 72
    65
 73
     2
 40
3.500000
 49
2.000000
 49
-1.500000
  0
LTYPE
  2
CENTER
 70
    64
  3
____ _ ____ _ ____ _ ____ _ ____ _ ____ _ ____
 72
    65
 73
     4
 40
17.500000
 49
13.000000
 49
-1.500000
 49
1.500000
 49
-1.500000
  0
LTYPE
  2
PHANTOM
 70
    64
  3
_____ _ _ _____ _ _ _____ _ _ _____ _ _ ____  
 72
    65
 73
     6
 40
15.500000
 49
8.000000
 49
-1.500000
 49
1.500000
 49
-1.500000
 49
1.500000
 49
-1.500000
  0
LTYPE
  2
DASHED1
 70
    64
  3
__ __ __ __ __ __ __ __ __ __ __ __ __ __ __
 72
    65
 73
     2
 40
1.500000
 49
1.000000
 49
-0.500000
  0
LTYPE
  2
DASHED2
 70
    64
  3
__ __ __ __ __ __ __ __ __ __ __ __ __ __ __
 72
    65
 73
     2
 40
3.500000
 49
2.500000
 49
-1.000000
  0
LTYPE
  2
DASHED3
 70
    64
  3
__ __ __ __ __ __ __ __ __ __ __ __ __ __ __
 72
    65
 73
     2
 40
6.000000
 49
4.000000
 49
-2.000000
  0
LTYPE
  2
DASHED4
 70
    64
  3
__ __ __ __ __ __ __ __ __ __ __ __ __ __ __
 72
    65
 73
     2
 40
12.000000
 49
10.000000
 49
-2.000000
  0
LTYPE
  2
DASHED5
 70
    64
  3
__ __ __ __ __ __ __ __ __ __ __ __ __ __ __
 72
    65
 73
     2
 40
17.000000
 49
15.000000
 49
-2.000000
  0
LTYPE
  2
DASHED6
 70
    64
  3
__ __ __ __ __ __ __ __ __ __ __ __ __ __ __
 72
    65
 73
     2
 40
29.000000
 49
27.000000
 49
-2.000000
  0
LTYPE
  2
PHANTOM1
 70
    64
  3
_____ _ _ _____ _ _ _____ _ _ _____ _ _ ____  
 72
    65
 73
     6
 40
31.000000
 49
25.000000
 49
-1.500000
 49
1.000000
 49
-1.000000
 49
1.000000
 49
-1.500000
  0
LTYPE
  2
PHANTOM2
 70
    64
  3
_____ _ _ _____ _ _ _____ _ _ _____ _ _ ____  
 72
    65
 73
     6
 40
36.000000
 49
27.000000
 49
-1.500000
 49
2.500000
 49
-1.000000
 49
2.500000
 49
-1.500000
  0
LTYPE
  2
PHANTOM3
 70
    64
  3
_____ _ _ _____ _ _ _____ _ _ _____ _ _ ____  
 72
    65
 73
     6
 40
78.000000
 49
64.000000
 49
-2.000000
 49
4.000000
 49
-2.000000
 49
4.000000
 49
-2.000000
  0
LTYPE
  2
CENTER1
 70
    64
  3
____ _ ____ _ ____ _ ____ _ ____ _ ____ _ ____
 72
    65
 73
     4
 40
19.000000
 49
14.000000
 49
-1.000000
 49
3.000000
 49
-1.000000
  0
LTYPE
  2
CENTER2
 70
    64
  3
____ _ ____ _ ____ _ ____ _ ____ _ ____ _ ____
 72
    65
 73
     4
 40
28.500000
 49
25.000000
 49
-1.000000
 49
1.500000
 49
-1.000000
  0
LTYPE
  2
CENTER3
 70
    64
  3
____ _ ____ _ ____ _ ____ _ ____ _ ____ _ ____
 72
    65
 73
     4
 40
31.500000
 49
27.000000
 49
-1.000000
 49
2.500000
 49
-1.000000
  0
LTYPE
  2
CENTER4
 70
    64
  3
____ _ ____ _ ____ _ ____ _ ____ _ ____ _ ____
 72
    65
 73
     4
 40
50.000000
 49
45.000000
 49
-1.000000
 49
3.000000
 49
-1.000000
  0
LTYPE
  2
CENTER5
 70
    64
  3
____ _ ____ _ ____ _ ____ _ ____ _ ____ _ ____
 72
    65
 73
     4
 40
100.000000
 49
92.000000
 49
-2.000000
 49
4.000000
 49
-2.000000
  0
LTYPE
  2
SBK1
 70
    64
  3
______ _ _ _ ______ _ _ _ ______ _ _ _ _____  
 72
    65
 73
     8
 40
60.500000
 49
45.000000
 49
-2.000000
 49
2.500000
 49
-2.000000
 49
2.500000
 49
-2.000000
 49
2.500000
 49
-2.000000
  0
LTYPE
  2
SBK2
 70
    64
  3
______ _ _ _ ______ _ _ _ ______ _ _ _ _____  
 72
    65
 73
     8
 40
84.000000
 49
64.000000
 49
-2.000000
 49
4.000000
 49
-2.000000
 49
4.000000
 49
-2.000000
 49
4.000000
 49
-2.000000
  0
LTYPE
  2
STCH
 70
    64
  3
__ __ __ __ __ __ __ __ __ __ __ __ __ __ __
 72
    65
 73
     2
 40
3.000000
 49
1.000000
 49
-2.000000
  0
LTYPE
  2
MTCH
 70
    64
  3
_____ _ _ _____ _ _ _____ _ _ _____ _ _ ____  
 72
    65
 73
     6
 40
80.000000
 49
66.000000
 49
-2.000000
 49
4.000000
 49
-2.000000
 49
4.000000
 49
-2.000000
  0
ENDTAB
  0
TABLE
  2
LAYER
 70
     1
  0
LAYER
  2
0
 70
     0
 62
     7
  6
CONTINUOUS
  0
ENDTAB
  0
TABLE
  2
STYLE
 70
     1
  0
STYLE
  2
STANDARD
 70
     0
 40
0.000000
 41
1.000000
 50
0.000000
 71
     0
 42
0.200000
  3
txt
  4
BIGFONT
  0
ENDTAB
  0
TABLE
  2
VIEW
 70
     0
  0
ENDTAB
  0
ENDSEC
  0
SECTION
  2
BLOCKS
  0
ENDSEC
  0
SECTION
  2
ENTITIES
  0
POINT
  8
0
 10
-105.436783
 20
27.720764
  0
POINT
  8
0
 10
9.563217
 20
27.720764
  0
POINT
  8
0
 10
9.563217
 20
-57.279236
  0
POINT
  8
0
 10
-105.436783
 20
-57.279236
  0
POINT
  8
0
 10
109.563217
 20
-57.279236
  0
POINT
  8
0
 10
118.063217
 20
-57.279236
  0
LINE
  8
0
 62
     3
 10
-185.436783
 20
-127.279236
 11
-185.436783
 21
127.279236
  0
LINE
  8
0
 62
     3
 10
185.436783
 20
127.279236
 11
185.436783
 21
-127.279236
  0
LINE
  8
0
 62
     3
 10
-185.436783
 20
-127.279236
 11
185.436783
 21
-127.279236
  0
LINE
  8
0
 62
     3
 10
-185.436783
 20
127.279236
 11
185.436783
 21
127.279236
  0
LINE
  8
0
 62
     3
 10
-185.436783
 20
112.978195
 11
-109.164589
 21
112.978195
  0
LINE
  8
0
 62
     3
 10
-109.164589
 20
112.978195
 11
-109.164589
 21
127.279236
  0
LINE
  8
0
 62
     3
 10
109.164581
 20
-112.978210
 11
185.436783
 21
-112.978210
  0
LINE
  8
0
 62
     5
 10
129.190811
 20
-116.416870
 11
136.517700
 21
-116.416870
  0
LINE
  8
0
 62
     5
 10
129.190811
 20
-122.914322
 11
135.411774
 21
-122.914322
  0
LINE
  8
0
 62
     5
 10
129.190811
 20
-124.573227
 11
137.623672
 21
-124.573227
  0
LINE
  8
0
 62
     5
 10
129.190811
 20
-118.075790
 11
135.411774
 21
-118.075790
  0
LINE
  8
0
 62
     5
 10
129.190811
 20
-116.416870
 11
129.190811
 21
-118.075790
  0
LINE
  8
0
 62
     5
 10
137.623672
 20
-117.522827
 11
137.623672
 21
-124.573227
  0
LINE
  8
0
 62
     5
 10
135.411774
 20
-118.075790
 11
135.411774
 21
-122.914322
  0
LINE
  8
0
 62
     5
 10
138.867828
 20
-116.416870
 11
138.867828
 21
-118.075790
  0
LINE
  8
0
 62
     5
 10
146.747696
 20
-118.075790
 11
146.747696
 21
-123.467316
  0
LINE
  8
0
 62
     5
 10
144.535812
 20
-118.075790
 11
144.535812
 21
-122.914322
  0
LINE
  8
0
 62
     5
 10
129.190811
 20
-122.914322
 11
129.190811
 21
-124.573227
  0
LINE
  8
0
 62
     5
 10
138.867828
 20
-116.416870
 11
141.053345
 21
-116.416870
  0
LINE
  8
0
 62
     5
 10
138.867828
 20
-124.573227
 11
140.585297
 21
-124.573227
  0
LINE
  8
0
 62
     5
 10
138.867752
 20
-124.573166
 11
140.608795
 21
-118.075737
  0
LINE
  8
0
 62
     5
 10
138.867828
 20
-118.075790
 11
140.608841
 21
-118.075790
  0
LINE
  8
0
 62
     5
 10
140.585434
 20
-124.573364
 11
142.326385
 21
-118.075928
  0
LINE
  8
0
 62
     5
 10
142.876877
 20
-122.914322
 11
144.535812
 21
-122.914322
  0
LINE
  8
0
 62
     5
 10
142.876907
 20
-122.914337
 11
143.321396
 21
-124.573227
  0
LINE
  8
0
 62
     5
 10
143.321426
 20
-124.573227
 11
145.641785
 21
-124.573227
  0
LINE
  8
0
 62
     5
 10
142.326279
 20
-118.075790
 11
144.535812
 21
-118.075790
  0
LINE
  8
0
 62
     5
 10
142.770782
 20
-116.416870
 11
145.088776
 21
-116.416870
  0
LINE
  8
0
 62
     5
 10
141.053421
 20
-116.416908
 11
141.383072
 21
-115.186577
  0
LINE
  8
0
 62
     5
 10
142.770691
 20
-116.416794
 11
143.100342
 21
-115.186401
  0
LINE
  8
0
 62
     5
 10
148.130142
 20
-116.416870
 11
150.756775
 21
-116.416870
  0
LINE
  8
0
 62
     5
 10
148.130142
 20
-118.075790
 11
154.581039
 21
-118.075790
  0
LINE
  8
0
 62
     5
 10
150.756775
 20
-124.573227
 11
152.968643
 21
-124.573227
  0
LINE
  8
0
 62
     5
 10
148.130142
 20
-116.416870
 11
148.130142
 21
-118.075790
  0
LINE
  8
0
 62
     5
 10
156.286499
 20
-121.083908
 11
156.286499
 21
-122.914322
  0
LINE
  8
0
 62
     5
 10
148.130035
 20
-122.914253
 11
150.756714
 21
-121.689400
  0
LINE
  8
0
 62
     5
 10
148.130325
 20
-121.084061
 11
154.581238
 21
-118.075935
  0
LINE
  8
0
 62
     5
 10
148.130142
 20
-121.083908
 11
148.130142
 21
-122.914322
  0
LINE
  8
0
 62
     5
 10
152.968597
 20
-121.367157
 11
156.286514
 21
-122.914276
  0
LINE
  8
0
 62
     5
 10
154.171204
 20
-120.097549
 11
156.286728
 21
-121.084045
  0
LINE
  8
0
 62
     5
 10
156.286499
 20
-117.522827
 11
156.286499
 21
-118.406387
  0
LINE
  8
0
 62
     5
 10
150.756775
 20
-115.186523
 11
150.756775
 21
-116.416870
  0
LINE
  8
0
 62
     5
 10
152.968643
 20
-115.186523
 11
152.968643
 21
-116.416870
  0
LINE
  8
0
 62
     5
 10
152.968643
 20
-116.416870
 11
155.180557
 21
-116.416870
  0
LINE
  8
0
 62
     5
 10
150.756775
 20
-121.689514
 11
150.756775
 21
-124.573227
  0
LINE
  8
0
 62
     5
 10
152.968643
 20
-121.367203
 11
152.968643
 21
-124.573227
  0
LINE
  8
0
 62
     5
 10
154.171204
 20
-120.097557
 11
155.648163
 21
-119.408852
  0
LINE
  8
0
 62
     5
 10
163.751663
 20
-115.684204
 11
165.410553
 21
-115.684204
  0
LINE
  8
0
 62
     5
 10
156.977722
 20
-119.110947
 11
156.977722
 21
-120.896240
  0
LINE
  8
0
 62
     5
 10
165.410553
 20
-115.684204
 11
165.410553
 21
-116.416870
  0
LINE
  8
0
 62
     5
 10
163.751663
 20
-115.684204
 11
163.751663
 21
-116.041687
  0
LINE
  8
0
 62
     5
 10
161.539749
 20
-119.081879
 11
161.539749
 21
-124.573227
  0
LINE
  8
0
 62
     5
 10
156.977844
 20
-119.111031
 11
163.403137
 21
-116.555603
  0
LINE
  8
0
 62
     5
 10
156.977783
 20
-120.896362
 11
161.539810
 21
-119.081955
  0
LINE
  8
0
 62
     5
 10
161.539749
 20
-124.573227
 11
163.751663
 21
-124.573227
  0
LINE
  8
0
 62
     5
 10
163.751663
 20
-118.202194
 11
163.751663
 21
-124.573227
  0
LINE
  8
0
 62
     5
 10
163.751831
 20
-118.202301
 11
164.364929
 21
-117.958435
  0
LINE
  8
0
 62
     5
 10
141.383057
 20
-115.186523
 11
143.100449
 21
-115.186523
  0
LINE
  8
0
 62
     5
 10
145.849136
 20
-115.186523
 11
146.554138
 21
-115.186523
  0
LINE
  8
0
 62
     5
 10
150.756775
 20
-115.186523
 11
152.968643
 21
-115.186523
  0
LINE
  8
0
 62
     5
 10
145.849136
 20
-116.292480
 11
146.554138
 21
-116.292480
  0
LINE
  8
0
 62
     5
 10
145.849136
 20
-115.186523
 11
145.849136
 21
-116.292480
  0
LINE
  8
0
 62
     5
 10
146.554138
 20
-115.186523
 11
146.554138
 21
-116.292480
  0
LINE
  8
0
 62
     5
 10
146.968918
 20
-115.186523
 11
146.968918
 21
-116.292480
  0
LINE
  8
0
 62
     5
 10
147.756912
 20
-115.186523
 11
147.756912
 21
-116.292480
  0
LINE
  8
0
 62
     5
 10
146.968918
 20
-115.186523
 11
147.756912
 21
-115.186523
  0
LINE
  8
0
 62
     5
 10
146.968918
 20
-116.292480
 11
147.756912
 21
-116.292480
  0
LINE
  8
0
 62
     3
 10
109.164581
 20
112.978195
 11
185.436783
 21
112.978195
  0
LINE
  8
0
 62
     3
 10
109.164581
 20
127.279236
 11
109.164581
 21
112.978195
  0
LINE
  8
0
 62
     3
 10
109.164581
 20
-112.978210
 11
109.164581
 21
-127.279236
  0
LINE
  8
0
 10
-105.436783
 20
-67.279236
 11
-105.436783
 21
-53.279236
  0
LINE
  8
0
  6
CENTER
 10
-108.436783
 20
-57.279236
 11
12.563217
 21
-57.279236
  0
LINE
  8
0
 10
-105.436783
 20
-67.279236
 11
-95.436783
 21
-67.279236
  0
LINE
  8
0
 10
-105.436783
 20
-53.279236
 11
-95.436783
 21
-53.279236
  0
LINE
  8
0
 10
9.563217
 20
-67.279236
 11
9.563217
 21
-53.279240
  0
LINE
  8
0
 10
9.563217
 20
-67.279236
 11
-0.436783
 21
-67.279236
  0
LINE
  8
0
 10
9.563217
 20
-53.279236
 11
-0.436783
 21
-53.279236
  0
LINE
  8
0
  6
CENTER
 10
-100.436783
 20
-50.779236
 11
-100.436783
 21
-63.779236
  0
LINE
  8
0
  6
CENTER
 10
4.563217
 20
-50.779240
 11
4.563217
 21
-63.779240
  0
LINE
  8
0
 10
-93.436783
 20
-65.779236
 11
-93.436783
 21
-48.779236
  0
LINE
  8
0
 10
-52.436783
 20
-65.779236
 11
-52.436783
 21
-48.779236
  0
LINE
  8
0
 10
-93.436783
 20
-48.779236
 11
-52.436783
 21
-48.779236
  0
LINE
  8
0
 10
-93.436783
 20
-59.779236
 11
-52.436783
 21
-59.779236
  0
LINE
  8
0
 10
-93.436783
 20
-65.779236
 11
-52.436783
 21
-65.779236
  0
LINE
  8
0
 10
-0.436783
 20
-67.279236
 11
-0.436783
 21
-53.279240
  0
LINE
  8
0
 10
-95.436783
 20
-67.279236
 11
-95.436783
 21
-53.279236
  0
LINE
  8
0
 10
-93.686783
 20
-60.679237
 11
-93.436783
 21
-60.679237
  0
LINE
  8
0
 10
-93.686783
 20
-53.879234
 11
-93.436783
 21
-53.879234
  0
LINE
  8
0
 10
-2.186783
 20
-60.679241
 11
-2.186783
 21
-53.879238
  0
LINE
  8
0
 10
-0.686783
 20
-60.679241
 11
-0.686783
 21
-53.879238
  0
LINE
  8
0
 10
-0.686783
 20
-53.879234
 11
-0.436783
 21
-53.879234
  0
LINE
  8
0
 10
-0.686783
 20
-60.679237
 11
-0.436783
 21
-60.679237
  0
LINE
  8
0
 10
-95.186783
 20
-60.679237
 11
-95.436783
 21
-60.679237
  0
LINE
  8
0
 10
-95.186783
 20
-53.879234
 11
-95.436783
 21
-53.879234
  0
LINE
  8
0
 10
-95.186783
 20
-60.679237
 11
-95.186783
 21
-53.879234
  0
LINE
  8
0
 10
-93.686783
 20
-60.679237
 11
-93.686783
 21
-53.879234
  0
LINE
  8
0
 10
-52.436783
 20
-60.679237
 11
-2.186783
 21
-60.679237
  0
LINE
  8
0
 10
-52.436783
 20
-53.879234
 11
-2.186783
 21
-53.879234
  0
LINE
  8
0
  6
CENTER
 10
-108.436783
 20
27.720764
 11
12.563217
 21
27.720764
  0
LINE
  8
0
 10
-105.436783
 20
20.720764
 11
-105.436783
 21
34.720764
  0
LINE
  8
0
 10
-95.436783
 20
20.720764
 11
-95.436783
 21
34.720764
  0
LINE
  8
0
 10
-93.436783
 20
19.220764
 11
-93.436783
 21
36.220764
  0
LINE
  8
0
 10
-52.436783
 20
19.220760
 11
-52.436783
 21
36.220760
  0
LINE
  8
0
 10
-93.436783
 20
36.220764
 11
-52.436783
 21
36.220764
  0
LINE
  8
0
 10
-93.436783
 20
19.220764
 11
-52.436783
 21
19.220764
  0
LINE
  8
0
 10
-93.686783
 20
24.320763
 11
-93.436783
 21
24.320763
  0
LINE
  8
0
 10
-93.686783
 20
31.120766
 11
-93.436783
 21
31.120766
  0
LINE
  8
0
 10
-2.186783
 20
24.320751
 11
-2.186783
 21
31.120754
  0
LINE
  8
0
 10
-0.686783
 20
24.320751
 11
-0.686783
 21
31.120754
  0
LINE
  8
0
 10
-0.686783
 20
31.120766
 11
-0.436783
 21
31.120766
  0
LINE
  8
0
 10
-0.686783
 20
24.320763
 11
-0.436783
 21
24.320763
  0
LINE
  8
0
 10
-95.186783
 20
24.320763
 11
-95.436783
 21
24.320763
  0
LINE
  8
0
 10
-95.186783
 20
31.120766
 11
-95.436783
 21
31.120766
  0
LINE
  8
0
 10
-95.186783
 20
24.320763
 11
-95.186783
 21
31.120766
  0
LINE
  8
0
 10
-93.686783
 20
24.320763
 11
-93.686783
 21
31.120766
  0
LINE
  8
0
 10
-52.436783
 20
24.320763
 11
-2.186783
 21
24.320763
  0
LINE
  8
0
 10
-52.436783
 20
31.120766
 11
-2.186783
 21
31.120766
  0
LINE
  8
0
 10
-105.436783
 20
20.720764
 11
-95.436783
 21
20.720764
  0
LINE
  8
0
 10
-105.436783
 20
34.720764
 11
-95.436783
 21
34.720764
  0
LINE
  8
0
  6
CENTER
 10
-100.436783
 20
34.720764
 11
-100.436783
 21
28.720764
  0
LINE
  8
0
  6
CENTER
 10
-103.436783
 20
31.720764
 11
-97.436783
 21
31.720764
  0
LINE
  8
0
 10
-0.436783
 20
20.720753
 11
-0.436783
 21
34.720753
  0
LINE
  8
0
 10
9.563217
 20
20.720753
 11
9.563217
 21
34.720753
  0
LINE
  8
0
 10
9.563217
 20
20.720764
 11
-0.436783
 21
20.720764
  0
LINE
  8
0
 10
9.563217
 20
34.720764
 11
-0.436783
 21
34.720764
  0
LINE
  8
0
  6
CENTER
 10
4.563217
 20
34.720753
 11
4.563217
 21
28.720753
  0
LINE
  8
0
  6
CENTER
 10
7.563217
 20
31.720764
 11
1.563217
 21
31.720764
  0
LINE
  8
0
  6
CENTER
 10
-72.936783
 20
16.220760
 11
-72.936783
 21
39.220760
  0
LINE
  8
0
  6
CENTER
 10
-88.436783
 20
32.720764
 11
-82.436783
 21
32.720764
  0
LINE
  8
0
  6
CENTER
 10
-85.436783
 20
35.720760
 11
-85.436783
 21
29.720760
  0
LINE
  8
0
  6
CENTER
 10
-88.436783
 20
22.720764
 11
-82.436783
 21
22.720764
  0
LINE
  8
0
  6
CENTER
 10
-85.436783
 20
19.720760
 11
-85.436783
 21
25.720760
  0
LINE
  8
0
  6
CENTER
 10
-57.436783
 20
32.720764
 11
-63.436783
 21
32.720764
  0
LINE
  8
0
  6
CENTER
 10
-60.436783
 20
35.720760
 11
-60.436783
 21
29.720760
  0
LINE
  8
0
  6
CENTER
 10
-57.436783
 20
22.720764
 11
-63.436783
 21
22.720764
  0
LINE
  8
0
  6
CENTER
 10
-60.436783
 20
19.720760
 11
-60.436783
 21
25.720760
  0
LINE
  8
0
  6
CENTER
 10
98.063217
 20
-57.279236
 11
121.063217
 21
-57.279236
  0
LINE
  8
0
  6
CENTER
 10
109.563217
 20
-70.279236
 11
109.563217
 21
-45.779236
  0
LINE
  8
0
 10
102.563217
 20
-67.279228
 11
102.563217
 21
-53.279228
  0
LINE
  8
0
 10
116.563217
 20
-67.279243
 11
116.563217
 21
-53.279243
  0
LINE
  8
0
 10
102.563217
 20
-53.279236
 11
116.563217
 21
-53.279236
  0
LINE
  8
0
 10
102.563210
 20
-67.279236
 11
116.563210
 21
-67.279236
  0
LINE
  8
0
 10
101.063225
 20
-48.779236
 11
118.063225
 21
-48.779236
  0
LINE
  8
0
 10
101.063217
 20
-59.779236
 11
101.439178
 21
-59.779236
  0
LINE
  8
0
 10
101.063217
 20
-59.779228
 11
101.063217
 21
-48.779228
  0
LINE
  8
0
 10
118.063217
 20
-59.779243
 11
118.063217
 21
-48.779243
  0
LINE
  8
0
 10
117.687256
 20
-59.779236
 11
118.063217
 21
-59.779236
  0
LINE
  8
0
  6
CENTER
 10
105.563217
 20
-59.779232
 11
105.563217
 21
-64.779236
  0
LINE
  8
0
  6
CENTER
 10
103.063210
 20
-62.279236
 11
108.063210
 21
-62.279236
  0
LINE
  8
0
  6
CENTER
 10
116.063210
 20
-62.279236
 11
111.063210
 21
-62.279236
  0
LINE
  8
0
  6
CENTER
 10
113.563217
 20
-59.779240
 11
113.563217
 21
-64.779236
  0
LINE
  8
0
 10
3.313219
 20
-55.114162
 11
2.536762
 21
-52.216385
  0
LINE
  8
0
 10
-9.004505
 20
-33.779236
 11
3.313221
 21
-55.114162
  0
LINE
  8
0
 10
3.313222
 20
-55.114162
 11
1.191902
 21
-52.992840
  0
LINE
  8
0
 10
-38.746799
 20
-33.779236
 11
-9.004505
 21
-33.779236
  0
LINE
  8
0
 10
63.891098
 20
-80.779228
 11
94.882233
 21
-80.779228
  0
LINE
  8
0
 10
104.813217
 20
-63.578274
 11
94.882233
 21
-80.779228
  0
LINE
  8
0
 10
102.691902
 20
-65.699600
 11
104.813225
 21
-63.578278
  0
LINE
  8
0
 10
104.036758
 20
-66.476051
 11
104.813217
 21
-63.578274
  0
LINE
  8
0
 10
-59.686756
 20
34.019783
 11
-49.755779
 21
51.220741
  0
LINE
  8
0
 10
5.413220
 20
33.193001
 11
15.821546
 21
51.220760
  0
LINE
  8
0
 10
-59.686771
 20
34.019791
 11
-57.565449
 21
36.141113
  0
LINE
  8
0
 10
-59.686764
 20
34.019783
 11
-58.910305
 21
36.917561
  0
LINE
  8
0
 10
5.413216
 20
33.192993
 11
7.534536
 21
35.314316
  0
LINE
  8
0
 10
5.413217
 20
33.193001
 11
6.189674
 21
36.090782
  0
LINE
  8
0
 10
-49.755787
 20
51.220745
 11
-19.725103
 21
51.220745
  0
LINE
  8
0
 10
37.085205
 20
51.220760
 11
15.821544
 21
51.220760
  0
ARC
  8
0
 62
     5
 10
136.517700
 20
-117.522827
 40
1.105942
 50
0.000000
 51
90.000000
  0
ARC
  8
0
 62
     5
 10
145.641785
 20
-123.467316
 40
1.105949
 50
270.000000
 51
0.000000
  0
ARC
  8
0
 62
     5
 10
145.088776
 20
-118.075790
 40
1.658920
 50
0.000000
 51
90.000000
  0
ARC
  8
0
 62
     5
 10
155.180557
 20
-117.522827
 40
1.105942
 50
0.000000
 51
90.000000
  0
ARC
  8
0
 62
     5
 10
155.180557
 20
-118.406387
 40
1.105945
 50
294.999969
 51
0.000000
  0
ARC
  8
0
 62
     5
 10
163.751663
 20
-116.416870
 40
1.658920
 50
291.688385
 51
0.000000
  0
ARC
  8
0
 62
     5
 10
163.198654
 20
-116.041687
 40
0.552973
 50
291.688965
 51
0.000000
  0
ARC
  8
0
 10
-1.436783
 20
-60.679241
 40
0.750000
 50
180.000000
 51
0.000000
  0
ARC
  8
0
 10
-94.436783
 20
-60.679237
 40
0.750000
 50
180.000000
 51
0.000000
  0
ARC
  8
0
 10
-1.436783
 20
-53.879238
 40
0.750000
 50
0.000000
 51
180.000000
  0
ARC
  8
0
 10
-94.436783
 20
-53.879234
 40
0.750000
 50
0.000000
 51
180.000000
  0
CIRCLE
  8
0
 10
-100.436783
 20
-57.279236
 40
2.500000
  0
CIRCLE
  8
0
 10
-100.436783
 20
-57.279236
 40
2.067000
  0
CIRCLE
  8
0
 10
4.563217
 20
-57.279240
 40
2.067000
  0
CIRCLE
  8
0
 10
4.563217
 20
-57.279240
 40
2.500000
  0
ARC
  8
0
 10
4.563217
 20
-57.279240
 40
4.250000
 50
109.749939
 51
70.250069
  0
ARC
  8
0
 10
-100.436783
 20
-57.279236
 40
4.250000
 50
109.749939
 51
70.250061
  0
CIRCLE
  8
0
 10
-85.436783
 20
22.720762
 40
1.229500
  0
CIRCLE
  8
0
 10
-60.436783
 20
22.720760
 40
1.229500
  0
CIRCLE
  8
0
 10
-60.436783
 20
32.720760
 40
1.500000
  0
CIRCLE
  8
0
 10
-60.436783
 20
32.720760
 40
1.229500
  0
CIRCLE
  8
0
 10
-60.436783
 20
22.720760
 40
1.500000
  0
ARC
  8
0
 10
-1.436783
 20
31.120754
 40
0.750000
 50
0.000000
 51
180.000000
  0
ARC
  8
0
 10
-1.436783
 20
24.320753
 40
0.750000
 50
180.000000
 51
0.000000
  0
ARC
  8
0
 10
-94.436783
 20
31.120766
 40
0.750000
 50
0.000000
 51
180.000000
  0
ARC
  8
0
 10
-94.436783
 20
24.320761
 40
0.750000
 50
180.000000
 51
0.000000
  0
CIRCLE
  8
0
 10
-100.436783
 20
31.720764
 40
1.700000
  0
CIRCLE
  8
0
 10
4.563217
 20
31.720753
 40
1.700000
  0
CIRCLE
  8
0
 10
-85.436783
 20
32.720764
 40
1.500000
  0
CIRCLE
  8
0
 10
-85.436783
 20
32.720764
 40
1.229500
  0
CIRCLE
  8
0
 10
-85.436783
 20
22.720762
 40
1.500000
  0
CIRCLE
  8
0
 10
113.563210
 20
-62.279240
 40
1.229500
  0
CIRCLE
  8
0
 10
105.563210
 20
-62.279232
 40
1.229500
  0
CIRCLE
  8
0
 10
105.563210
 20
-62.279232
 40
1.500000
  0
CIRCLE
  8
0
 10
113.563210
 20
-62.279240
 40
1.500000
  0
ARC
  8
0
 10
109.563217
 20
-57.279236
 40
8.499999
 50
197.104614
 51
214.560303
  0
ARC
  8
0
  6
DASHED
 10
109.563217
 20
-57.279236
 40
8.499999
 50
214.560303
 51
325.439667
  0
ARC
  8
0
 10
109.563217
 20
-57.279236
 40
8.500001
 50
325.439667
 51
342.895355
  0
TEXT
  8
0
 10
113.360985
 20
117.310349
 40
4.242641
  1
DATE : SEP ,1991
 50
0.000000
 41
1.052631
 51
0.000000
  7
STANDARD
  0
TEXT
  8
0
 10
-183.323395
 20
116.628723
 40
5.000000
  1
RODLESS CYLINDER
 50
0.000000
 41
0.937799
 51
0.000000
  7
STANDARD
  0
TEXT
  8
0
 10
-168.401062
 20
89.478195
 40
5.000000
  1
MODEL : MRC* 6xSt(50)
 50
0.000000
 41
1.052632
 51
0.000000
  7
STANDARD
  0
TEXT
  8
0
 10
-38.004505
 20
-33.429237
 40
3.500000
  1
2-M5x0.8
 50
0.000000
 41
1.052632
 51
0.000000
  7
STANDARD
  0
TEXT
  8
0
 10
65.882233
 20
-80.429230
 40
3.500000
  1
4-M3x0.5
 50
0.000000
 41
1.052632
 51
0.000000
  7
STANDARD
  0
TEXT
  8
0
 10
-49.755791
 20
52.070747
 40
3.500000
  1
4-M3x0.5
 50
0.000000
 41
1.052632
 51
0.000000
  7
STANDARD
  0
TEXT
  8
0
 10
15.821541
 20
52.070755
 40
3.500000
  1
2-ƒÓ3.4
 50
0.000000
 41
1.052632
 51
0.000000
  7
STANDARD
  0
ENDSEC
  0
EOF
