  0
SECTION
  2
HEADER
  0
ENDSEC
  0
SECTION
  2
TABLES
  0
TABLE
  2
LTYPE
 70
     4
  0
LTYPE
  2
CONTINUOUS
 70
    64
  3
Solid line
 72
    65
 73
     0
 40
0.000000
  0
LTYPE
  2
DASHED
 70
    64
  3
__ __ __ __ __ __ __ __ __ __ __ __ __ __ __
 72
    65
 73
     2
 40
3.500000
 49
2.000000
 49
-1.500000
  0
LTYPE
  2
CENTER
 70
    64
  3
____ _ ____ _ ____ _ ____ _ ____ _ ____ _ ____
 72
    65
 73
     4
 40
17.500000
 49
13.000000
 49
-1.500000
 49
1.500000
 49
-1.500000
  0
LTYPE
  2
PHANTOM
 70
    64
  3
_____ _ _ _____ _ _ _____ _ _ _____ _ _ ____  
 72
    65
 73
     6
 40
15.500000
 49
8.000000
 49
-1.500000
 49
1.500000
 49
-1.500000
 49
1.500000
 49
-1.500000
  0
LTYPE
  2
DASHED1
 70
    64
  3
__ __ __ __ __ __ __ __ __ __ __ __ __ __ __
 72
    65
 73
     2
 40
1.500000
 49
1.000000
 49
-0.500000
  0
LTYPE
  2
DASHED2
 70
    64
  3
__ __ __ __ __ __ __ __ __ __ __ __ __ __ __
 72
    65
 73
     2
 40
3.500000
 49
2.500000
 49
-1.000000
  0
LTYPE
  2
DASHED3
 70
    64
  3
__ __ __ __ __ __ __ __ __ __ __ __ __ __ __
 72
    65
 73
     2
 40
6.000000
 49
4.000000
 49
-2.000000
  0
LTYPE
  2
DASHED4
 70
    64
  3
__ __ __ __ __ __ __ __ __ __ __ __ __ __ __
 72
    65
 73
     2
 40
12.000000
 49
10.000000
 49
-2.000000
  0
LTYPE
  2
DASHED5
 70
    64
  3
__ __ __ __ __ __ __ __ __ __ __ __ __ __ __
 72
    65
 73
     2
 40
17.000000
 49
15.000000
 49
-2.000000
  0
LTYPE
  2
DASHED6
 70
    64
  3
__ __ __ __ __ __ __ __ __ __ __ __ __ __ __
 72
    65
 73
     2
 40
29.000000
 49
27.000000
 49
-2.000000
  0
LTYPE
  2
PHANTOM1
 70
    64
  3
_____ _ _ _____ _ _ _____ _ _ _____ _ _ ____  
 72
    65
 73
     6
 40
31.000000
 49
25.000000
 49
-1.500000
 49
1.000000
 49
-1.000000
 49
1.000000
 49
-1.500000
  0
LTYPE
  2
PHANTOM2
 70
    64
  3
_____ _ _ _____ _ _ _____ _ _ _____ _ _ ____  
 72
    65
 73
     6
 40
36.000000
 49
27.000000
 49
-1.500000
 49
2.500000
 49
-1.000000
 49
2.500000
 49
-1.500000
  0
LTYPE
  2
PHANTOM3
 70
    64
  3
_____ _ _ _____ _ _ _____ _ _ _____ _ _ ____  
 72
    65
 73
     6
 40
78.000000
 49
64.000000
 49
-2.000000
 49
4.000000
 49
-2.000000
 49
4.000000
 49
-2.000000
  0
LTYPE
  2
CENTER1
 70
    64
  3
____ _ ____ _ ____ _ ____ _ ____ _ ____ _ ____
 72
    65
 73
     4
 40
19.000000
 49
14.000000
 49
-1.000000
 49
3.000000
 49
-1.000000
  0
LTYPE
  2
CENTER2
 70
    64
  3
____ _ ____ _ ____ _ ____ _ ____ _ ____ _ ____
 72
    65
 73
     4
 40
28.500000
 49
25.000000
 49
-1.000000
 49
1.500000
 49
-1.000000
  0
LTYPE
  2
CENTER3
 70
    64
  3
____ _ ____ _ ____ _ ____ _ ____ _ ____ _ ____
 72
    65
 73
     4
 40
31.500000
 49
27.000000
 49
-1.000000
 49
2.500000
 49
-1.000000
  0
LTYPE
  2
CENTER4
 70
    64
  3
____ _ ____ _ ____ _ ____ _ ____ _ ____ _ ____
 72
    65
 73
     4
 40
50.000000
 49
45.000000
 49
-1.000000
 49
3.000000
 49
-1.000000
  0
LTYPE
  2
CENTER5
 70
    64
  3
____ _ ____ _ ____ _ ____ _ ____ _ ____ _ ____
 72
    65
 73
     4
 40
100.000000
 49
92.000000
 49
-2.000000
 49
4.000000
 49
-2.000000
  0
LTYPE
  2
SBK1
 70
    64
  3
______ _ _ _ ______ _ _ _ ______ _ _ _ _____  
 72
    65
 73
     8
 40
60.500000
 49
45.000000
 49
-2.000000
 49
2.500000
 49
-2.000000
 49
2.500000
 49
-2.000000
 49
2.500000
 49
-2.000000
  0
LTYPE
  2
SBK2
 70
    64
  3
______ _ _ _ ______ _ _ _ ______ _ _ _ _____  
 72
    65
 73
     8
 40
84.000000
 49
64.000000
 49
-2.000000
 49
4.000000
 49
-2.000000
 49
4.000000
 49
-2.000000
 49
4.000000
 49
-2.000000
  0
LTYPE
  2
STCH
 70
    64
  3
__ __ __ __ __ __ __ __ __ __ __ __ __ __ __
 72
    65
 73
     2
 40
3.000000
 49
1.000000
 49
-2.000000
  0
LTYPE
  2
MTCH
 70
    64
  3
_____ _ _ _____ _ _ _____ _ _ _____ _ _ ____  
 72
    65
 73
     6
 40
80.000000
 49
66.000000
 49
-2.000000
 49
4.000000
 49
-2.000000
 49
4.000000
 49
-2.000000
  0
ENDTAB
  0
TABLE
  2
LAYER
 70
     1
  0
LAYER
  2
0
 70
     0
 62
     7
  6
CONTINUOUS
  0
ENDTAB
  0
TABLE
  2
STYLE
 70
     1
  0
STYLE
  2
STANDARD
 70
     0
 40
0.000000
 41
1.000000
 50
0.000000
 71
     0
 42
0.200000
  3
txt
  4
BIGFONT
  0
ENDTAB
  0
TABLE
  2
VIEW
 70
     0
  0
ENDTAB
  0
ENDSEC
  0
SECTION
  2
BLOCKS
  0
ENDSEC
  0
SECTION
  2
ENTITIES
  0
POINT
  8
0
 10
-270.000000
 20
50.000000
  0
POINT
  8
0
 10
58.000000
 20
50.000000
  0
POINT
  8
0
 10
-270.000122
 20
-120.000053
  0
POINT
  8
0
 10
57.999878
 20
-120.000053
  0
POINT
  8
0
 10
230.000000
 20
-120.000000
  0
POINT
  8
0
 10
256.000000
 20
-120.000000
  0
LINE
  8
0
 62
     3
 10
218.329163
 20
-225.956436
 11
370.873566
 21
-225.956436
  0
LINE
  8
0
 62
     3
 10
-218.329163
 20
225.956390
 11
-218.329163
 21
254.558487
  0
LINE
  8
0
 62
     3
 10
-370.873566
 20
225.956390
 11
-218.329163
 21
225.956390
  0
LINE
  8
0
 62
     3
 10
-370.873566
 20
254.558487
 11
370.873566
 21
254.558487
  0
LINE
  8
0
 62
     3
 10
-370.873566
 20
-254.558487
 11
370.873566
 21
-254.558487
  0
LINE
  8
0
 62
     3
 10
370.873566
 20
254.558487
 11
370.873566
 21
-254.558487
  0
LINE
  8
0
 62
     3
 10
-370.873566
 20
-254.558487
 11
-370.873566
 21
254.558487
  0
LINE
  8
0
 62
     3
 10
218.329163
 20
-225.956436
 11
218.329163
 21
-254.558487
  0
LINE
  8
0
 62
     3
 10
218.329163
 20
254.558487
 11
218.329163
 21
225.956390
  0
LINE
  8
0
 62
     3
 10
218.329163
 20
225.956390
 11
370.873566
 21
225.956390
  0
LINE
  8
0
 62
     5
 10
258.381622
 20
-232.833740
 11
258.381622
 21
-236.151566
  0
LINE
  8
0
 62
     5
 10
258.381622
 20
-236.151566
 11
270.823547
 21
-236.151566
  0
LINE
  8
0
 62
     5
 10
258.381622
 20
-249.146469
 11
275.247345
 21
-249.146469
  0
LINE
  8
0
 62
     5
 10
258.381622
 20
-245.828644
 11
270.823547
 21
-245.828644
  0
LINE
  8
0
 62
     5
 10
258.381622
 20
-232.833740
 11
273.035400
 21
-232.833740
  0
LINE
  8
0
 62
     5
 10
270.823547
 20
-236.151566
 11
270.823547
 21
-245.828644
  0
LINE
  8
0
 62
     5
 10
275.247345
 20
-235.045654
 11
275.247345
 21
-249.146469
  0
LINE
  8
0
 62
     5
 10
258.381622
 20
-245.828644
 11
258.381622
 21
-249.146469
  0
LINE
  8
0
 62
     5
 10
293.495392
 20
-236.151566
 11
293.495392
 21
-246.934647
  0
LINE
  8
0
 62
     5
 10
277.735657
 20
-232.833740
 11
277.735657
 21
-236.151566
  0
LINE
  8
0
 62
     5
 10
293.937836
 20
-232.584961
 11
295.513824
 21
-232.584961
  0
LINE
  8
0
 62
     5
 10
293.937836
 20
-230.373016
 11
295.513824
 21
-230.373016
  0
LINE
  8
0
 62
     5
 10
295.513824
 20
-230.373016
 11
295.513824
 21
-232.584961
  0
LINE
  8
0
 62
     5
 10
293.937836
 20
-230.373016
 11
293.937836
 21
-232.584961
  0
LINE
  8
0
 62
     5
 10
293.108276
 20
-230.373016
 11
293.108276
 21
-232.584961
  0
LINE
  8
0
 62
     5
 10
282.766052
 20
-230.373016
 11
286.200897
 21
-230.373016
  0
LINE
  8
0
 62
     5
 10
285.541260
 20
-232.833466
 11
286.200562
 21
-230.372711
  0
LINE
  8
0
 62
     5
 10
282.106689
 20
-232.833710
 11
282.766022
 21
-230.372986
  0
LINE
  8
0
 62
     5
 10
285.541565
 20
-232.833740
 11
290.177551
 21
-232.833740
  0
LINE
  8
0
 62
     5
 10
284.652557
 20
-236.151566
 11
289.071625
 21
-236.151566
  0
LINE
  8
0
 62
     5
 10
286.642853
 20
-249.146469
 11
291.283569
 21
-249.146469
  0
LINE
  8
0
 62
     5
 10
285.753693
 20
-245.828583
 11
286.642731
 21
-249.146347
  0
LINE
  8
0
 62
     5
 10
285.753754
 20
-245.828644
 11
289.071625
 21
-245.828644
  0
LINE
  8
0
 62
     5
 10
281.170746
 20
-249.146637
 11
284.652679
 21
-236.151733
  0
LINE
  8
0
 62
     5
 10
277.735657
 20
-236.151566
 11
281.217682
 21
-236.151566
  0
LINE
  8
0
 62
     5
 10
277.735413
 20
-249.146210
 11
281.217468
 21
-236.151337
  0
LINE
  8
0
 62
     5
 10
277.735657
 20
-249.146469
 11
281.170593
 21
-249.146469
  0
LINE
  8
0
 62
     5
 10
277.735657
 20
-232.833740
 11
282.106689
 21
-232.833740
  0
LINE
  8
0
 62
     5
 10
289.071625
 20
-236.151566
 11
289.071625
 21
-245.828644
  0
LINE
  8
0
 62
     5
 10
291.532288
 20
-230.373016
 11
293.108276
 21
-230.373016
  0
LINE
  8
0
 62
     5
 10
291.532288
 20
-232.584961
 11
293.108276
 21
-232.584961
  0
LINE
  8
0
 62
     5
 10
291.532288
 20
-230.373016
 11
291.532288
 21
-232.584961
  0
LINE
  8
0
 62
     5
 10
301.513550
 20
-230.373016
 11
305.937286
 21
-230.373016
  0
LINE
  8
0
 62
     5
 10
308.342316
 20
-240.195053
 11
311.296204
 21
-238.817642
  0
LINE
  8
0
 62
     5
 10
305.937286
 20
-242.734406
 11
305.937286
 21
-249.146469
  0
LINE
  8
0
 62
     5
 10
301.513550
 20
-243.379044
 11
301.513550
 21
-249.146469
  0
LINE
  8
0
 62
     5
 10
305.937286
 20
-232.833740
 11
310.361115
 21
-232.833740
  0
LINE
  8
0
 62
     5
 10
305.937286
 20
-230.373016
 11
305.937286
 21
-232.833740
  0
LINE
  8
0
 62
     5
 10
301.513550
 20
-230.373016
 11
301.513550
 21
-232.833740
  0
LINE
  8
0
 62
     5
 10
312.572998
 20
-235.045654
 11
312.572998
 21
-236.812775
  0
LINE
  8
0
 62
     5
 10
308.342377
 20
-240.195038
 11
312.573395
 21
-242.168030
  0
LINE
  8
0
 62
     5
 10
305.937256
 20
-242.734329
 11
312.573059
 21
-245.828613
  0
LINE
  8
0
 62
     5
 10
296.260284
 20
-242.167801
 11
296.260284
 21
-245.828644
  0
LINE
  8
0
 62
     5
 10
296.260742
 20
-242.168167
 11
309.162567
 21
-236.151932
  0
LINE
  8
0
 62
     5
 10
296.260254
 20
-245.828598
 11
301.513580
 21
-243.378937
  0
LINE
  8
0
 62
     5
 10
312.572998
 20
-242.167801
 11
312.572998
 21
-245.828644
  0
LINE
  8
0
 62
     5
 10
296.260284
 20
-232.833740
 11
296.260284
 21
-236.151566
  0
LINE
  8
0
 62
     5
 10
301.513550
 20
-249.146469
 11
305.937286
 21
-249.146469
  0
LINE
  8
0
 62
     5
 10
296.260284
 20
-236.151566
 11
309.162079
 21
-236.151566
  0
LINE
  8
0
 62
     5
 10
296.260284
 20
-232.833740
 11
301.513550
 21
-232.833740
  0
LINE
  8
0
 62
     5
 10
327.503998
 20
-236.404739
 11
328.730042
 21
-235.917068
  0
LINE
  8
0
 62
     5
 10
327.503357
 20
-236.404404
 11
327.503357
 21
-249.146469
  0
LINE
  8
0
 62
     5
 10
323.079498
 20
-249.146469
 11
327.503357
 21
-249.146469
  0
LINE
  8
0
 62
     5
 10
313.955292
 20
-241.792511
 11
323.079376
 21
-238.163742
  0
LINE
  8
0
 62
     5
 10
313.955536
 20
-238.221954
 11
326.806152
 21
-233.111084
  0
LINE
  8
0
 62
     5
 10
323.079498
 20
-238.163773
 11
323.079498
 21
-249.146469
  0
LINE
  8
0
 62
     5
 10
327.503357
 20
-231.368408
 11
327.503357
 21
-232.083389
  0
LINE
  8
0
 62
     5
 10
330.821106
 20
-231.368408
 11
330.821106
 21
-232.833755
  0
LINE
  8
0
 62
     5
 10
313.955444
 20
-238.221893
 11
313.955444
 21
-241.792496
  0
LINE
  8
0
 62
     5
 10
327.503357
 20
-231.368408
 11
330.821106
 21
-231.368408
  0
LINE
  8
0
 10
-270.000122
 20
-139.000061
 11
-254.000122
 21
-139.000061
  0
LINE
  8
0
 10
-270.000122
 20
-145.000061
 11
-254.000122
 21
-145.000061
  0
LINE
  8
0
  6
CENTER
 10
-256.500122
 20
-139.500061
 11
-256.500122
 21
-144.500061
  0
LINE
  8
0
  6
CENTER
 10
-267.500122
 20
-139.500061
 11
-267.500122
 21
-144.500061
  0
LINE
  8
0
  6
CENTER
 10
-270.000122
 20
-142.000061
 11
-265.000122
 21
-142.000061
  0
LINE
  8
0
  6
CENTER
 10
-259.000122
 20
-142.000061
 11
-254.000122
 21
-142.000061
  0
LINE
  8
0
  6
CENTER
 10
44.499878
 20
-139.500061
 11
44.499878
 21
-144.500061
  0
LINE
  8
0
  6
CENTER
 10
55.499878
 20
-139.500061
 11
55.499878
 21
-144.500061
  0
LINE
  8
0
  6
CENTER
 10
57.999878
 20
-142.000061
 11
52.999878
 21
-142.000061
  0
LINE
  8
0
  6
CENTER
 10
46.999878
 20
-142.000061
 11
41.999878
 21
-142.000061
  0
LINE
  8
0
  6
CENTER
 10
-275.000122
 20
-120.000053
 11
62.999878
 21
-120.000053
  0
LINE
  8
0
 10
57.999878
 20
-102.000053
 11
41.999878
 21
-102.000053
  0
LINE
  8
0
 10
57.999878
 20
-150.000061
 11
41.999878
 21
-150.000061
  0
LINE
  8
0
 10
57.999878
 20
-139.000061
 11
41.999878
 21
-139.000061
  0
LINE
  8
0
 10
57.999878
 20
-145.000061
 11
41.999878
 21
-145.000061
  0
LINE
  8
0
 10
41.999878
 20
-102.000053
 11
41.999878
 21
-150.000061
  0
LINE
  8
0
  6
CENTER
 10
49.999878
 20
-111.000053
 11
49.999878
 21
-129.000061
  0
LINE
  8
0
 10
-249.500122
 20
-94.000053
 11
-249.500122
 21
-146.000061
  0
LINE
  8
0
 10
-162.500122
 20
-94.000053
 11
-162.500122
 21
-146.000061
  0
LINE
  8
0
 10
-249.500122
 20
-94.000053
 11
-162.500122
 21
-94.000053
  0
LINE
  8
0
 10
-249.500122
 20
-129.000061
 11
-162.500122
 21
-129.000061
  0
LINE
  8
0
 10
-249.500122
 20
-146.000061
 11
-162.500122
 21
-146.000061
  0
LINE
  8
0
 10
-254.000122
 20
-136.800049
 11
-253.000122
 21
-136.800049
  0
LINE
  8
0
 10
-254.000122
 20
-103.200050
 11
-253.000122
 21
-103.200050
  0
LINE
  8
0
 10
-162.500122
 20
-103.200050
 11
37.499878
 21
-103.200050
  0
LINE
  8
0
 10
-162.500122
 20
-136.800049
 11
37.499878
 21
-136.800049
  0
LINE
  8
0
 10
37.499878
 20
-102.700050
 11
37.499878
 21
-137.300049
  0
LINE
  8
0
 10
40.999878
 20
-102.700050
 11
40.999878
 21
-137.300049
  0
LINE
  8
0
 10
40.999878
 20
-136.800049
 11
41.999878
 21
-136.800049
  0
LINE
  8
0
 10
40.999878
 20
-103.200050
 11
41.999878
 21
-103.200050
  0
LINE
  8
0
 10
-253.000122
 20
-102.700050
 11
-253.000122
 21
-137.300049
  0
LINE
  8
0
 10
-254.000122
 20
-102.000053
 11
-254.000122
 21
-150.000061
  0
LINE
  8
0
 10
-270.000122
 20
-102.000053
 11
-254.000122
 21
-102.000053
  0
LINE
  8
0
 10
-270.000122
 20
-102.000053
 11
-270.000122
 21
-150.000061
  0
LINE
  8
0
 10
-270.000122
 20
-150.000061
 11
-254.000122
 21
-150.000061
  0
LINE
  8
0
  6
CENTER
 10
-262.000122
 20
-111.000053
 11
-262.000122
 21
-129.000061
  0
LINE
  8
0
 10
57.999878
 20
-102.000053
 11
57.999878
 21
-150.000061
  0
LINE
  8
0
 10
-270.000000
 20
73.000000
 11
-270.000000
 21
27.000000
  0
LINE
  8
0
  6
CENTER
 10
-275.000000
 20
50.000000
 11
63.000000
 21
50.000000
  0
LINE
  8
0
 10
-254.000000
 20
73.000000
 11
-254.000000
 21
27.000000
  0
LINE
  8
0
  6
CENTER
 10
-262.000000
 20
72.000000
 11
-262.000000
 21
22.000000
  0
LINE
  8
0
 10
-249.500000
 20
76.000000
 11
-249.500000
 21
24.000000
  0
LINE
  8
0
 10
-162.500000
 20
76.000000
 11
-162.500000
 21
24.000004
  0
LINE
  8
0
 10
-249.500000
 20
76.000000
 11
-162.500000
 21
76.000000
  0
LINE
  8
0
 10
-249.500000
 20
24.000000
 11
-162.500000
 21
24.000000
  0
LINE
  8
0
 10
-254.000000
 20
33.199997
 11
-253.000000
 21
33.199997
  0
LINE
  8
0
 10
-254.000000
 20
66.800003
 11
-253.000000
 21
66.800003
  0
LINE
  8
0
 10
-162.500000
 20
66.800003
 11
37.500000
 21
66.800003
  0
LINE
  8
0
 10
-162.500000
 20
33.199997
 11
37.500000
 21
33.199997
  0
LINE
  8
0
 10
-253.000000
 20
67.300003
 11
-253.000000
 21
32.699997
  0
LINE
  8
0
 10
37.500000
 20
67.300018
 11
37.500000
 21
32.700012
  0
LINE
  8
0
 10
41.000000
 20
67.300018
 11
41.000000
 21
32.700012
  0
LINE
  8
0
 10
41.000000
 20
33.199997
 11
42.000000
 21
33.199997
  0
LINE
  8
0
 10
41.000000
 20
66.800003
 11
42.000000
 21
66.800003
  0
LINE
  8
0
 10
-270.000000
 20
27.000000
 11
-254.000000
 21
27.000000
  0
LINE
  8
0
 10
-270.000000
 20
73.000000
 11
-254.000000
 21
73.000000
  0
LINE
  8
0
 10
-270.000000
 20
39.000000
 11
-254.000000
 21
39.000000
  0
LINE
  8
0
 10
-270.000000
 20
61.000000
 11
-254.000000
 21
61.000000
  0
LINE
  8
0
  6
CENTER
 10
-268.000000
 20
66.000000
 11
-256.000000
 21
66.000000
  0
LINE
  8
0
 10
58.000000
 20
73.000015
 11
58.000000
 21
27.000015
  0
LINE
  8
0
  6
CENTER
 10
50.000000
 20
72.000015
 11
50.000000
 21
22.000015
  0
LINE
  8
0
 10
58.000000
 20
27.000000
 11
42.000000
 21
27.000000
  0
LINE
  8
0
 10
58.000000
 20
73.000000
 11
42.000000
 21
73.000000
  0
LINE
  8
0
 10
58.000000
 20
39.000000
 11
42.000000
 21
39.000000
  0
LINE
  8
0
 10
58.000000
 20
61.000000
 11
42.000000
 21
61.000000
  0
LINE
  8
0
  6
CENTER
 10
56.000000
 20
66.000000
 11
44.000000
 21
66.000000
  0
LINE
  8
0
 10
42.000000
 20
73.000015
 11
42.000000
 21
27.000015
  0
LINE
  8
0
  6
CENTER
 10
-206.000000
 20
81.000000
 11
-206.000000
 21
19.000004
  0
LINE
  8
0
  6
CENTER
 10
-239.500000
 20
69.000000
 11
-227.500000
 21
69.000000
  0
LINE
  8
0
  6
CENTER
 10
-233.500000
 20
75.000000
 11
-233.500000
 21
63.000000
  0
LINE
  8
0
  6
CENTER
 10
-239.500000
 20
31.000000
 11
-227.500000
 21
31.000000
  0
LINE
  8
0
  6
CENTER
 10
-233.500000
 20
25.000000
 11
-233.500000
 21
37.000000
  0
LINE
  8
0
  6
CENTER
 10
-172.500000
 20
69.000000
 11
-184.500000
 21
69.000000
  0
LINE
  8
0
  6
CENTER
 10
-178.500000
 20
75.000000
 11
-178.500000
 21
63.000000
  0
LINE
  8
0
  6
CENTER
 10
-172.500000
 20
31.000000
 11
-184.500000
 21
31.000000
  0
LINE
  8
0
  6
CENTER
 10
-178.500000
 20
25.000004
 11
-178.500000
 21
37.000004
  0
LINE
  8
0
  6
CENTER
 10
199.000000
 20
-120.000000
 11
261.000000
 21
-120.000000
  0
LINE
  8
0
  6
CENTER
 10
230.000000
 20
-89.000000
 11
230.000000
 21
-155.000000
  0
LINE
  8
0
 10
256.000000
 20
-94.000008
 11
256.000000
 21
-129.000000
  0
LINE
  8
0
 10
204.000000
 20
-93.999992
 11
204.000000
 21
-129.000000
  0
LINE
  8
0
 10
206.999985
 20
-150.000000
 11
218.999985
 21
-150.000000
  0
LINE
  8
0
 10
204.000015
 20
-94.000000
 11
256.000000
 21
-94.000000
  0
LINE
  8
0
 10
207.000000
 20
-102.000000
 11
219.000000
 21
-102.000000
  0
LINE
  8
0
 10
207.000000
 20
-101.999992
 11
207.000000
 21
-139.000000
  0
LINE
  8
0
 10
253.000000
 20
-102.000008
 11
253.000000
 21
-139.000000
  0
LINE
  8
0
 10
207.000000
 20
-145.000000
 11
209.000000
 21
-145.000000
  0
LINE
  8
0
 10
207.000000
 20
-139.000000
 11
209.000000
 21
-139.000000
  0
LINE
  8
0
 10
207.000000
 20
-145.000000
 11
207.000000
 21
-150.000000
  0
LINE
  8
0
 10
253.000000
 20
-145.000000
 11
253.000000
 21
-150.000000
  0
LINE
  8
0
 10
209.000000
 20
-139.000000
 11
209.000000
 21
-145.000000
  0
LINE
  8
0
 10
251.000000
 20
-139.000000
 11
251.000000
 21
-145.000000
  0
LINE
  8
0
 10
251.000000
 20
-139.000000
 11
253.000000
 21
-139.000000
  0
LINE
  8
0
 10
251.000000
 20
-145.000000
 11
253.000000
 21
-145.000000
  0
LINE
  8
0
 10
218.999985
 20
-149.500000
 11
240.999985
 21
-149.500000
  0
LINE
  8
0
 10
219.000000
 20
-102.500000
 11
241.000000
 21
-102.500000
  0
LINE
  8
0
 10
241.000000
 20
-102.000000
 11
253.000000
 21
-102.000000
  0
LINE
  8
0
 10
240.999985
 20
-150.000000
 11
252.999985
 21
-150.000000
  0
LINE
  8
0
  6
CENTER
 10
208.500000
 20
-132.000000
 11
219.500000
 21
-132.000000
  0
LINE
  8
0
  6
CENTER
 10
240.500000
 20
-108.000000
 11
251.500000
 21
-108.000000
  0
LINE
  8
0
  6
CENTER
 10
214.000000
 20
-126.499992
 11
214.000000
 21
-137.500000
  0
LINE
  8
0
  6
CENTER
 10
246.000000
 20
-102.500008
 11
246.000000
 21
-113.500008
  0
LINE
  8
0
 10
204.000000
 20
-129.000000
 11
205.607376
 21
-129.000000
  0
LINE
  8
0
 10
254.392624
 20
-129.000000
 11
256.000000
 21
-129.000000
  0
LINE
  8
0
 10
219.000000
 20
-102.000000
 11
219.000000
 21
-102.500000
  0
LINE
  8
0
 10
241.000000
 20
-102.000000
 11
241.000000
 21
-102.500000
  0
LINE
  8
0
 10
219.000000
 20
-149.500000
 11
219.000000
 21
-150.000000
  0
LINE
  8
0
 10
241.000000
 20
-149.500000
 11
241.000000
 21
-150.000000
  0
LINE
  8
0
 10
44.000000
 20
-142.866043
 11
24.870110
 21
-175.999969
  0
LINE
  8
0
 10
42.705910
 20
-147.695663
 11
44.000000
 21
-142.866043
  0
LINE
  8
0
 10
40.464466
 20
-146.401581
 11
44.000000
 21
-142.866043
  0
LINE
  8
0
 10
-35.666668
 20
-175.999969
 11
24.870110
 21
-175.999969
  0
LINE
  8
0
 10
47.568001
 20
-115.787659
 11
17.668398
 21
-64.000008
  0
LINE
  8
0
 10
47.568001
 20
-115.787659
 11
46.273907
 21
-110.958031
  0
LINE
  8
0
 10
47.568001
 20
-115.787659
 11
44.032467
 21
-112.252121
  0
LINE
  8
0
 10
-34.158836
 20
-64.000008
 11
17.668398
 21
-64.000008
  0
LINE
  8
0
 10
48.349998
 20
68.857872
 11
26.905996
 21
105.999985
  0
LINE
  8
0
 10
48.349998
 20
68.857872
 11
44.814465
 21
72.393402
  0
LINE
  8
0
 10
48.350002
 20
68.857880
 11
47.055908
 21
73.687508
  0
LINE
  8
0
 10
-17.429302
 20
105.999985
 11
26.905996
 21
105.999985
  0
LINE
  8
0
 10
-176.999939
 20
71.598045
 11
-157.137970
 21
105.999962
  0
LINE
  8
0
 10
-176.999939
 20
71.598045
 11
-175.705841
 21
76.427673
  0
LINE
  8
0
 10
-176.999954
 20
71.598053
 11
-173.464417
 21
75.133583
  0
LINE
  8
0
 10
-157.137970
 20
105.999962
 11
-111.666664
 21
105.999962
  0
LINE
  8
0
 10
247.500031
 20
-105.401939
 11
271.403473
 21
-64.000008
  0
LINE
  8
0
 10
247.500046
 20
-105.401947
 11
251.035583
 21
-101.866417
  0
LINE
  8
0
 10
247.500031
 20
-105.401939
 11
248.794128
 21
-100.572311
  0
LINE
  8
0
 10
271.403473
 20
-64.000008
 11
317.000000
 21
-64.000008
  0
ARC
  8
0
 62
     5
 10
273.035400
 20
-235.045654
 40
2.211884
 50
0.000000
 51
90.000000
  0
ARC
  8
0
 62
     5
 10
291.283569
 20
-246.934647
 40
2.211899
 50
270.000000
 51
0.000000
  0
ARC
  8
0
 62
     5
 10
290.177551
 20
-236.151566
 40
3.317841
 50
0.000000
 51
90.000000
  0
ARC
  8
0
 62
     5
 10
310.361115
 20
-236.812775
 40
2.211890
 50
294.999969
 51
0.000000
  0
ARC
  8
0
 62
     5
 10
310.361115
 20
-235.045654
 40
2.211884
 50
0.000000
 51
90.000000
  0
ARC
  8
0
 62
     5
 10
327.503357
 20
-232.833755
 40
3.317840
 50
291.688385
 51
0.000000
  0
ARC
  8
0
 62
     5
 10
326.397308
 20
-232.083389
 40
1.105946
 50
291.688965
 51
0.000000
  0
ARC
  8
0
 10
39.249878
 20
-102.700050
 40
1.750000
 50
0.000000
 51
180.000000
  0
ARC
  8
0
 10
-251.250122
 20
-102.700050
 40
1.750000
 50
0.000000
 51
180.000000
  0
ARC
  8
0
 10
-251.250122
 20
-137.300049
 40
1.750000
 50
180.000000
 51
0.000000
  0
ARC
  8
0
 10
39.249878
 20
-137.300049
 40
1.750000
 50
180.000000
 51
0.000000
  0
CIRCLE
  8
0
 10
-262.000122
 20
-120.000053
 40
4.864000
  0
CIRCLE
  8
0
 10
-262.000122
 20
-120.000053
 40
4.283000
  0
CIRCLE
  8
0
 10
-267.500122
 20
-142.000061
 40
1.000000
  0
CIRCLE
  8
0
 10
-256.500122
 20
-142.000061
 40
1.000000
  0
CIRCLE
  8
0
 10
-256.500122
 20
-142.000061
 40
0.783500
  0
CIRCLE
  8
0
 10
-267.500122
 20
-142.000061
 40
0.783500
  0
CIRCLE
  8
0
 10
55.499878
 20
-142.000061
 40
0.783500
  0
CIRCLE
  8
0
 10
49.999878
 20
-120.000053
 40
4.864000
  0
CIRCLE
  8
0
 10
49.999878
 20
-120.000053
 40
4.283000
  0
CIRCLE
  8
0
 10
55.499878
 20
-142.000061
 40
1.000000
  0
CIRCLE
  8
0
 10
44.499878
 20
-142.000061
 40
1.000000
  0
CIRCLE
  8
0
 10
44.499878
 20
-142.000061
 40
0.783500
  0
CIRCLE
  8
0
 10
-233.500000
 20
31.000000
 40
2.458500
  0
CIRCLE
  8
0
 10
-178.500000
 20
31.000004
 40
3.000000
  0
CIRCLE
  8
0
 10
-178.500000
 20
69.000000
 40
2.458500
  0
CIRCLE
  8
0
 10
-178.500000
 20
31.000004
 40
2.458500
  0
CIRCLE
  8
0
 10
-178.500000
 20
69.000000
 40
3.000000
  0
ARC
  8
0
 10
-251.250000
 20
67.300003
 40
1.750000
 50
0.000000
 51
180.000000
  0
ARC
  8
0
 10
-251.250000
 20
32.699997
 40
1.750000
 50
180.000000
 51
0.000000
  0
ARC
  8
0
 10
39.250000
 20
67.300018
 40
1.750000
 50
0.000000
 51
180.000000
  0
ARC
  8
0
 10
39.250000
 20
32.700012
 40
1.750000
 50
180.000000
 51
0.000000
  0
CIRCLE
  8
0
 10
-262.000000
 20
66.000000
 40
3.300000
  0
CIRCLE
  8
0
 10
-262.000000
 20
50.000000
 40
3.300000
  0
CIRCLE
  8
0
 10
50.000000
 20
50.000015
 40
3.300000
  0
CIRCLE
  8
0
 10
50.000000
 20
66.000015
 40
3.300000
  0
CIRCLE
  8
0
 10
-233.500000
 20
69.000000
 40
3.000000
  0
CIRCLE
  8
0
 10
-233.500000
 20
69.000000
 40
2.458500
  0
CIRCLE
  8
0
 10
-233.500000
 20
31.000000
 40
3.000000
  0
ARC
  8
0
  6
DASHED
 10
230.000000
 20
-120.000000
 40
26.000002
 50
207.795776
 51
332.204224
  0
CIRCLE
  8
0
 10
214.000000
 20
-132.000000
 40
2.458500
  0
ARC
  8
0
 10
230.000000
 20
-120.000000
 40
26.000002
 50
200.252243
 51
207.795776
  0
ARC
  8
0
 10
230.000000
 20
-120.000000
 40
26.000002
 50
332.204224
 51
339.747742
  0
CIRCLE
  8
0
 10
214.000000
 20
-132.000000
 40
3.000000
  0
CIRCLE
  8
0
 10
246.000000
 20
-108.000008
 40
3.000000
  0
CIRCLE
  8
0
 10
246.000000
 20
-108.000008
 40
2.458500
  0
TEXT
  8
0
 10
226.462494
 20
233.607468
 40
8.500000
  1
DATE : JUN ,1991
 50
0.000000
 41
1.052631
 51
0.000000
  7
STANDARD
  0
TEXT
  8
0
 10
-366.896790
 20
232.257462
 40
10.000000
  1
RODLESS CYLINDER
 50
0.000000
 41
0.937799
 51
0.000000
  7
STANDARD
  0
TEXT
  8
0
 10
-337.052124
 20
177.956390
 40
10.000000
  1
MODEL : MRC* 32xSt(200)
 50
0.000000
 41
1.052632
 51
0.000000
  7
STANDARD
  0
TEXT
  8
0
 10
-34.379910
 20
-176.299973
 40
7.000000
  1
8-M2x0.4
 50
0.000000
 41
1.052632
 51
0.000000
  7
STANDARD
  0
TEXT
  8
0
 10
-33.581604
 20
-64.300011
 40
7.000000
  1
2-Rc1/8
 50
0.000000
 41
1.052632
 51
0.000000
  7
STANDARD
  0
TEXT
  8
0
 10
-17.344000
 20
105.699989
 40
7.000000
  1
4-ƒÓ6.6
 50
0.000000
 41
1.052632
 51
0.000000
  7
STANDARD
  0
TEXT
  8
0
 10
-156.387985
 20
105.699966
 40
7.000000
  1
4-M6x1
 50
0.000000
 41
1.052632
 51
0.000000
  7
STANDARD
  0
TEXT
  8
0
 10
272.153473
 20
-64.300018
 40
7.000000
  1
4-M6x1
 50
0.000000
 41
1.052632
 51
0.000000
  7
STANDARD
  0
ENDSEC
  0
EOF
