  0
SECTION
  2
HEADER
  0
ENDSEC
  0
SECTION
  2
TABLES
  0
TABLE
  2
LTYPE
 70
     4
  0
LTYPE
  2
CONTINUOUS
 70
    64
  3
Solid line
 72
    65
 73
     0
 40
0.000000
  0
LTYPE
  2
DASHED
 70
    64
  3
__ __ __ __ __ __ __ __ __ __ __ __ __ __ __
 72
    65
 73
     2
 40
3.500000
 49
2.000000
 49
-1.500000
  0
LTYPE
  2
CENTER
 70
    64
  3
____ _ ____ _ ____ _ ____ _ ____ _ ____ _ ____
 72
    65
 73
     4
 40
17.500000
 49
13.000000
 49
-1.500000
 49
1.500000
 49
-1.500000
  0
LTYPE
  2
PHANTOM
 70
    64
  3
_____ _ _ _____ _ _ _____ _ _ _____ _ _ ____  
 72
    65
 73
     6
 40
15.500000
 49
8.000000
 49
-1.500000
 49
1.500000
 49
-1.500000
 49
1.500000
 49
-1.500000
  0
LTYPE
  2
DASHED1
 70
    64
  3
__ __ __ __ __ __ __ __ __ __ __ __ __ __ __
 72
    65
 73
     2
 40
1.500000
 49
1.000000
 49
-0.500000
  0
LTYPE
  2
DASHED2
 70
    64
  3
__ __ __ __ __ __ __ __ __ __ __ __ __ __ __
 72
    65
 73
     2
 40
3.500000
 49
2.500000
 49
-1.000000
  0
LTYPE
  2
DASHED3
 70
    64
  3
__ __ __ __ __ __ __ __ __ __ __ __ __ __ __
 72
    65
 73
     2
 40
6.000000
 49
4.000000
 49
-2.000000
  0
LTYPE
  2
DASHED4
 70
    64
  3
__ __ __ __ __ __ __ __ __ __ __ __ __ __ __
 72
    65
 73
     2
 40
12.000000
 49
10.000000
 49
-2.000000
  0
LTYPE
  2
DASHED5
 70
    64
  3
__ __ __ __ __ __ __ __ __ __ __ __ __ __ __
 72
    65
 73
     2
 40
17.000000
 49
15.000000
 49
-2.000000
  0
LTYPE
  2
DASHED6
 70
    64
  3
__ __ __ __ __ __ __ __ __ __ __ __ __ __ __
 72
    65
 73
     2
 40
29.000000
 49
27.000000
 49
-2.000000
  0
LTYPE
  2
PHANTOM1
 70
    64
  3
_____ _ _ _____ _ _ _____ _ _ _____ _ _ ____  
 72
    65
 73
     6
 40
31.000000
 49
25.000000
 49
-1.500000
 49
1.000000
 49
-1.000000
 49
1.000000
 49
-1.500000
  0
LTYPE
  2
PHANTOM2
 70
    64
  3
_____ _ _ _____ _ _ _____ _ _ _____ _ _ ____  
 72
    65
 73
     6
 40
36.000000
 49
27.000000
 49
-1.500000
 49
2.500000
 49
-1.000000
 49
2.500000
 49
-1.500000
  0
LTYPE
  2
PHANTOM3
 70
    64
  3
_____ _ _ _____ _ _ _____ _ _ _____ _ _ ____  
 72
    65
 73
     6
 40
78.000000
 49
64.000000
 49
-2.000000
 49
4.000000
 49
-2.000000
 49
4.000000
 49
-2.000000
  0
LTYPE
  2
CENTER1
 70
    64
  3
____ _ ____ _ ____ _ ____ _ ____ _ ____ _ ____
 72
    65
 73
     4
 40
19.000000
 49
14.000000
 49
-1.000000
 49
3.000000
 49
-1.000000
  0
LTYPE
  2
CENTER2
 70
    64
  3
____ _ ____ _ ____ _ ____ _ ____ _ ____ _ ____
 72
    65
 73
     4
 40
28.500000
 49
25.000000
 49
-1.000000
 49
1.500000
 49
-1.000000
  0
LTYPE
  2
CENTER3
 70
    64
  3
____ _ ____ _ ____ _ ____ _ ____ _ ____ _ ____
 72
    65
 73
     4
 40
31.500000
 49
27.000000
 49
-1.000000
 49
2.500000
 49
-1.000000
  0
LTYPE
  2
CENTER4
 70
    64
  3
____ _ ____ _ ____ _ ____ _ ____ _ ____ _ ____
 72
    65
 73
     4
 40
50.000000
 49
45.000000
 49
-1.000000
 49
3.000000
 49
-1.000000
  0
LTYPE
  2
CENTER5
 70
    64
  3
____ _ ____ _ ____ _ ____ _ ____ _ ____ _ ____
 72
    65
 73
     4
 40
100.000000
 49
92.000000
 49
-2.000000
 49
4.000000
 49
-2.000000
  0
LTYPE
  2
SBK1
 70
    64
  3
______ _ _ _ ______ _ _ _ ______ _ _ _ _____  
 72
    65
 73
     8
 40
60.500000
 49
45.000000
 49
-2.000000
 49
2.500000
 49
-2.000000
 49
2.500000
 49
-2.000000
 49
2.500000
 49
-2.000000
  0
LTYPE
  2
SBK2
 70
    64
  3
______ _ _ _ ______ _ _ _ ______ _ _ _ _____  
 72
    65
 73
     8
 40
84.000000
 49
64.000000
 49
-2.000000
 49
4.000000
 49
-2.000000
 49
4.000000
 49
-2.000000
 49
4.000000
 49
-2.000000
  0
LTYPE
  2
STCH
 70
    64
  3
__ __ __ __ __ __ __ __ __ __ __ __ __ __ __
 72
    65
 73
     2
 40
3.000000
 49
1.000000
 49
-2.000000
  0
LTYPE
  2
MTCH
 70
    64
  3
_____ _ _ _____ _ _ _____ _ _ _____ _ _ ____  
 72
    65
 73
     6
 40
80.000000
 49
66.000000
 49
-2.000000
 49
4.000000
 49
-2.000000
 49
4.000000
 49
-2.000000
  0
ENDTAB
  0
TABLE
  2
LAYER
 70
     1
  0
LAYER
  2
0
 70
     0
 62
     7
  6
CONTINUOUS
  0
ENDTAB
  0
TABLE
  2
STYLE
 70
     1
  0
STYLE
  2
STANDARD
 70
     0
 40
0.000000
 41
1.000000
 50
0.000000
 71
     0
 42
0.200000
  3
txt
  4
BIGFONT
  0
ENDTAB
  0
TABLE
  2
VIEW
 70
     0
  0
ENDTAB
  0
ENDSEC
  0
SECTION
  2
BLOCKS
  0
ENDSEC
  0
SECTION
  2
ENTITIES
  0
POINT
  8
0
 10
-190.000015
 20
35.000000
  0
POINT
  8
0
 10
65.999985
 20
35.000000
  0
POINT
  8
0
 10
66.000015
 20
-89.999992
  0
POINT
  8
0
 10
-189.999985
 20
-89.999992
  0
POINT
  8
0
 10
165.999985
 20
-89.999985
  0
POINT
  8
0
 10
183.999985
 20
-89.999985
  0
LINE
  8
0
 62
     3
 10
-262.247223
 20
-180.000046
 11
-262.247223
 21
180.000046
  0
LINE
  8
0
 62
     3
 10
262.247223
 20
180.000046
 11
262.247223
 21
-180.000046
  0
LINE
  8
0
 62
     3
 10
-262.247223
 20
-180.000046
 11
262.247223
 21
-180.000046
  0
LINE
  8
0
 62
     3
 10
-262.247223
 20
180.000046
 11
262.247223
 21
180.000046
  0
LINE
  8
0
 62
     3
 10
-262.247223
 20
159.775299
 11
-154.382050
 21
159.775299
  0
LINE
  8
0
 62
     3
 10
-154.382050
 20
159.775299
 11
-154.382050
 21
180.000046
  0
LINE
  8
0
 62
     3
 10
154.382034
 20
-159.775345
 11
262.247223
 21
-159.775345
  0
LINE
  8
0
 62
     5
 10
182.703415
 20
-164.638336
 11
193.065201
 21
-164.638336
  0
LINE
  8
0
 62
     5
 10
182.703415
 20
-173.827118
 11
191.501175
 21
-173.827118
  0
LINE
  8
0
 62
     5
 10
182.703415
 20
-176.173172
 11
194.629272
 21
-176.173172
  0
LINE
  8
0
 62
     5
 10
182.703415
 20
-166.984390
 11
191.501175
 21
-166.984390
  0
LINE
  8
0
 62
     5
 10
182.703415
 20
-164.638336
 11
182.703415
 21
-166.984390
  0
LINE
  8
0
 62
     5
 10
194.629272
 20
-166.202393
 11
194.629272
 21
-176.173172
  0
LINE
  8
0
 62
     5
 10
191.501175
 20
-166.984390
 11
191.501175
 21
-173.827118
  0
LINE
  8
0
 62
     5
 10
196.388779
 20
-164.638336
 11
196.388779
 21
-166.984390
  0
LINE
  8
0
 62
     5
 10
207.532593
 20
-166.984390
 11
207.532593
 21
-174.609177
  0
LINE
  8
0
 62
     5
 10
204.404526
 20
-166.984390
 11
204.404526
 21
-173.827118
  0
LINE
  8
0
 62
     5
 10
182.703415
 20
-173.827118
 11
182.703415
 21
-176.173172
  0
LINE
  8
0
 62
     5
 10
196.388779
 20
-164.638336
 11
199.479568
 21
-164.638336
  0
LINE
  8
0
 62
     5
 10
196.388779
 20
-176.173172
 11
198.817642
 21
-176.173172
  0
LINE
  8
0
 62
     5
 10
196.388718
 20
-176.173080
 11
198.850922
 21
-166.984344
  0
LINE
  8
0
 62
     5
 10
196.388779
 20
-166.984390
 11
198.850937
 21
-166.984390
  0
LINE
  8
0
 62
     5
 10
198.817780
 20
-176.173279
 11
201.279861
 21
-166.984528
  0
LINE
  8
0
 62
     5
 10
202.058426
 20
-173.827118
 11
204.404526
 21
-173.827118
  0
LINE
  8
0
 62
     5
 10
202.058365
 20
-173.827072
 11
202.686935
 21
-176.173096
  0
LINE
  8
0
 62
     5
 10
202.687119
 20
-176.173172
 11
205.968597
 21
-176.173172
  0
LINE
  8
0
 62
     5
 10
201.279770
 20
-166.984390
 11
204.404526
 21
-166.984390
  0
LINE
  8
0
 62
     5
 10
201.908386
 20
-164.638336
 11
205.186523
 21
-164.638336
  0
LINE
  8
0
 62
     5
 10
199.479599
 20
-164.638351
 11
199.945786
 21
-162.898392
  0
LINE
  8
0
 62
     5
 10
201.908234
 20
-164.638229
 11
202.374420
 21
-162.898209
  0
LINE
  8
0
 62
     5
 10
209.487671
 20
-164.638336
 11
213.202286
 21
-164.638336
  0
LINE
  8
0
 62
     5
 10
209.487671
 20
-166.984390
 11
218.610596
 21
-166.984390
  0
LINE
  8
0
 62
     5
 10
213.202286
 20
-176.173172
 11
216.330322
 21
-176.173172
  0
LINE
  8
0
 62
     5
 10
209.487671
 20
-164.638336
 11
209.487671
 21
-166.984390
  0
LINE
  8
0
 62
     5
 10
221.022522
 20
-171.238510
 11
221.022522
 21
-173.827118
  0
LINE
  8
0
 62
     5
 10
209.487518
 20
-173.827026
 11
213.202194
 21
-172.094818
  0
LINE
  8
0
 62
     5
 10
209.487885
 20
-171.238678
 11
218.610779
 21
-166.984558
  0
LINE
  8
0
 62
     5
 10
209.487671
 20
-171.238510
 11
209.487671
 21
-173.827118
  0
LINE
  8
0
 62
     5
 10
216.330246
 20
-171.639053
 11
221.022491
 21
-173.827042
  0
LINE
  8
0
 62
     5
 10
218.031052
 20
-169.843643
 11
221.022827
 21
-171.238724
  0
LINE
  8
0
 62
     5
 10
221.022522
 20
-166.202393
 11
221.022522
 21
-167.451935
  0
LINE
  8
0
 62
     5
 10
213.202286
 20
-162.898361
 11
213.202286
 21
-164.638336
  0
LINE
  8
0
 62
     5
 10
216.330322
 20
-162.898361
 11
216.330322
 21
-164.638336
  0
LINE
  8
0
 62
     5
 10
216.330322
 20
-164.638336
 11
219.458466
 21
-164.638336
  0
LINE
  8
0
 62
     5
 10
213.202286
 20
-172.094986
 11
213.202286
 21
-176.173172
  0
LINE
  8
0
 62
     5
 10
216.330322
 20
-171.639160
 11
216.330322
 21
-176.173172
  0
LINE
  8
0
 62
     5
 10
218.030975
 20
-169.843597
 11
220.119705
 21
-168.869614
  0
LINE
  8
0
 62
     5
 10
231.579834
 20
-163.602188
 11
233.925842
 21
-163.602188
  0
LINE
  8
0
 62
     5
 10
222.000061
 20
-168.448334
 11
222.000061
 21
-170.973129
  0
LINE
  8
0
 62
     5
 10
233.925842
 20
-163.602188
 11
233.925842
 21
-164.638336
  0
LINE
  8
0
 62
     5
 10
231.579834
 20
-163.602188
 11
231.579834
 21
-164.107742
  0
LINE
  8
0
 62
     5
 10
228.451721
 20
-168.407227
 11
228.451721
 21
-176.173172
  0
LINE
  8
0
 62
     5
 10
222.000137
 20
-168.448441
 11
231.086914
 21
-164.834534
  0
LINE
  8
0
 62
     5
 10
222.000092
 20
-170.973236
 11
228.451752
 21
-168.407303
  0
LINE
  8
0
 62
     5
 10
228.451721
 20
-176.173172
 11
231.579834
 21
-176.173172
  0
LINE
  8
0
 62
     5
 10
231.579834
 20
-167.163162
 11
231.579834
 21
-176.173172
  0
LINE
  8
0
 62
     5
 10
231.580063
 20
-167.163315
 11
232.447128
 21
-166.818451
  0
LINE
  8
0
 62
     5
 10
199.945801
 20
-162.898361
 11
202.374603
 21
-162.898361
  0
LINE
  8
0
 62
     5
 10
206.261841
 20
-162.898361
 11
207.258865
 21
-162.898361
  0
LINE
  8
0
 62
     5
 10
213.202286
 20
-162.898361
 11
216.330322
 21
-162.898361
  0
LINE
  8
0
 62
     5
 10
206.261841
 20
-164.462418
 11
207.258865
 21
-164.462418
  0
LINE
  8
0
 62
     5
 10
206.261841
 20
-162.898361
 11
206.261841
 21
-164.462418
  0
LINE
  8
0
 62
     5
 10
207.258865
 20
-162.898361
 11
207.258865
 21
-164.462418
  0
LINE
  8
0
 62
     5
 10
207.845444
 20
-162.898361
 11
207.845444
 21
-164.462418
  0
LINE
  8
0
 62
     5
 10
208.959839
 20
-162.898361
 11
208.959839
 21
-164.462418
  0
LINE
  8
0
 62
     5
 10
207.845444
 20
-162.898361
 11
208.959839
 21
-162.898361
  0
LINE
  8
0
 62
     5
 10
207.845444
 20
-164.462418
 11
208.959839
 21
-164.462418
  0
LINE
  8
0
 62
     3
 10
154.382034
 20
159.775299
 11
262.247223
 21
159.775299
  0
LINE
  8
0
 62
     3
 10
154.382034
 20
180.000046
 11
154.382034
 21
159.775299
  0
LINE
  8
0
 62
     3
 10
154.382034
 20
-159.775345
 11
154.382034
 21
-180.000046
  0
LINE
  8
0
  6
CENTER
 10
142.999985
 20
-89.999985
 11
188.999985
 21
-89.999985
  0
LINE
  8
0
  6
CENTER
 10
165.999985
 20
-66.999985
 11
165.999985
 21
-115.999985
  0
LINE
  8
0
 10
183.999985
 20
-71.999985
 11
183.999985
 21
-95.999985
  0
LINE
  8
0
 10
147.999985
 20
-71.999985
 11
147.999985
 21
-95.999985
  0
LINE
  8
0
 10
149.999985
 20
-110.999985
 11
158.499985
 21
-110.999985
  0
LINE
  8
0
 10
149.999985
 20
-77.999985
 11
158.499985
 21
-77.999985
  0
LINE
  8
0
 10
147.999985
 20
-71.999985
 11
183.999985
 21
-71.999985
  0
LINE
  8
0
 10
181.999985
 20
-77.999985
 11
181.999985
 21
-101.999985
  0
LINE
  8
0
 10
149.999985
 20
-77.999985
 11
149.999985
 21
-101.999985
  0
LINE
  8
0
 10
149.999985
 20
-107.999985
 11
150.999985
 21
-107.999985
  0
LINE
  8
0
 10
149.999985
 20
-101.999985
 11
150.999985
 21
-101.999985
  0
LINE
  8
0
 10
150.999985
 20
-101.999985
 11
150.999985
 21
-107.999985
  0
LINE
  8
0
 10
180.999985
 20
-101.999985
 11
180.999985
 21
-107.999985
  0
LINE
  8
0
 10
149.999985
 20
-107.999985
 11
149.999985
 21
-110.999985
  0
LINE
  8
0
 10
181.999985
 20
-107.999985
 11
181.999985
 21
-110.999985
  0
LINE
  8
0
 10
180.999985
 20
-101.999985
 11
181.999985
 21
-101.999985
  0
LINE
  8
0
 10
180.999985
 20
-107.999985
 11
181.999985
 21
-107.999985
  0
LINE
  8
0
 10
158.499985
 20
-77.999985
 11
158.499985
 21
-78.499985
  0
LINE
  8
0
 10
173.499985
 20
-77.999985
 11
173.499985
 21
-78.499985
  0
LINE
  8
0
 10
173.499985
 20
-77.999985
 11
181.999985
 21
-77.999985
  0
LINE
  8
0
  6
CENTER
 10
172.999985
 20
-81.999985
 11
180.999985
 21
-81.999985
  0
LINE
  8
0
  6
CENTER
 10
150.999985
 20
-97.999985
 11
158.999985
 21
-97.999985
  0
LINE
  8
0
  6
CENTER
 10
154.999985
 20
-93.999985
 11
154.999985
 21
-101.999985
  0
LINE
  8
0
  6
CENTER
 10
176.999985
 20
-77.999985
 11
176.999985
 21
-85.999985
  0
LINE
  8
0
 10
147.999985
 20
-95.999985
 11
149.029419
 21
-95.999985
  0
LINE
  8
0
 10
182.970551
 20
-95.999985
 11
183.999985
 21
-95.999985
  0
LINE
  8
0
 10
158.499985
 20
-110.999985
 11
158.499985
 21
-110.499985
  0
LINE
  8
0
 10
173.499985
 20
-110.999985
 11
173.499985
 21
-110.499985
  0
LINE
  8
0
 10
173.499985
 20
-110.999985
 11
181.999985
 21
-110.999985
  0
LINE
  8
0
 10
158.499985
 20
-110.499985
 11
173.499985
 21
-110.499985
  0
LINE
  8
0
 10
158.499985
 20
-78.499985
 11
173.499985
 21
-78.499985
  0
LINE
  8
0
  6
CENTER
 10
-194.999985
 20
-89.999992
 11
71.000015
 21
-89.999992
  0
LINE
  8
0
  6
CENTER
 10
-190.499985
 20
-104.999992
 11
-184.499985
 21
-104.999992
  0
LINE
  8
0
  6
CENTER
 10
-179.499985
 20
-104.999992
 11
-173.499985
 21
-104.999992
  0
LINE
  8
0
  6
CENTER
 10
-187.499985
 20
-101.999992
 11
-187.499985
 21
-107.999992
  0
LINE
  8
0
  6
CENTER
 10
-176.499985
 20
-101.999992
 11
-176.499985
 21
-107.999992
  0
LINE
  8
0
  6
CENTER
 10
66.500015
 20
-104.999992
 11
60.500015
 21
-104.999992
  0
LINE
  8
0
  6
CENTER
 10
55.500015
 20
-104.999992
 11
49.500015
 21
-104.999992
  0
LINE
  8
0
  6
CENTER
 10
63.500015
 20
-101.999992
 11
63.500015
 21
-107.999992
  0
LINE
  8
0
  6
CENTER
 10
52.500015
 20
-101.999992
 11
52.500015
 21
-107.999992
  0
LINE
  8
0
 10
-189.999985
 20
-77.999992
 11
-173.999985
 21
-77.999992
  0
LINE
  8
0
 10
-173.999985
 20
-77.999992
 11
-173.999985
 21
-110.999992
  0
LINE
  8
0
 10
-189.999985
 20
-101.999992
 11
-173.999985
 21
-101.999992
  0
LINE
  8
0
 10
-189.999985
 20
-107.999992
 11
-173.999985
 21
-107.999992
  0
LINE
  8
0
 10
66.000015
 20
-77.999992
 11
66.000015
 21
-110.999992
  0
LINE
  8
0
 10
66.000015
 20
-77.999992
 11
50.000015
 21
-77.999992
  0
LINE
  8
0
 10
50.000015
 20
-77.999992
 11
50.000015
 21
-110.999992
  0
LINE
  8
0
 10
66.000015
 20
-101.999992
 11
50.000015
 21
-101.999992
  0
LINE
  8
0
 10
66.000015
 20
-107.999992
 11
50.000015
 21
-107.999992
  0
LINE
  8
0
 10
-170.999985
 20
-71.999992
 11
-102.999985
 21
-71.999992
  0
LINE
  8
0
 10
-170.999985
 20
-95.999992
 11
-102.999985
 21
-95.999992
  0
LINE
  8
0
 10
-170.999985
 20
-107.999992
 11
-102.999985
 21
-107.999992
  0
LINE
  8
0
 10
-102.999985
 20
-71.999992
 11
-102.999985
 21
-107.999992
  0
LINE
  8
0
 10
-170.999985
 20
-71.999992
 11
-170.999985
 21
-107.999992
  0
LINE
  8
0
 10
-173.999985
 20
-100.699989
 11
-172.999985
 21
-100.699989
  0
LINE
  8
0
 10
-173.999985
 20
-79.299995
 11
-172.999985
 21
-79.299995
  0
LINE
  8
0
 10
-102.999985
 20
-79.299995
 11
47.000015
 21
-79.299995
  0
LINE
  8
0
 10
-102.999985
 20
-100.699989
 11
47.000015
 21
-100.699989
  0
LINE
  8
0
 10
-172.999985
 20
-79.299995
 11
-172.999985
 21
-100.699989
  0
LINE
  8
0
 10
47.000015
 20
-79.299995
 11
47.000015
 21
-100.699989
  0
LINE
  8
0
 10
49.000015
 20
-79.299995
 11
49.000015
 21
-100.699989
  0
LINE
  8
0
 10
49.000015
 20
-79.299995
 11
50.000015
 21
-79.299995
  0
LINE
  8
0
 10
49.000015
 20
-100.699989
 11
50.000015
 21
-100.699989
  0
LINE
  8
0
 10
66.000015
 20
-110.999992
 11
50.000015
 21
-110.999992
  0
LINE
  8
0
 10
-189.999985
 20
-110.999992
 11
-173.999985
 21
-110.999992
  0
LINE
  8
0
 10
-189.999985
 20
-77.999992
 11
-189.999985
 21
-110.999992
  0
LINE
  8
0
  6
CENTER
 10
-181.999985
 20
-82.499992
 11
-181.999985
 21
-97.499992
  0
LINE
  8
0
  6
CENTER
 10
58.000015
 20
-82.499992
 11
58.000015
 21
-97.499992
  0
LINE
  8
0
  6
CENTER
 10
-195.000015
 20
35.000000
 11
70.999985
 21
35.000000
  0
LINE
  8
0
 10
-190.000015
 20
51.000000
 11
-190.000015
 21
19.000000
  0
LINE
  8
0
 10
-174.000015
 20
51.000000
 11
-174.000015
 21
19.000000
  0
LINE
  8
0
 10
-171.000015
 20
53.000000
 11
-103.000015
 21
53.000000
  0
LINE
  8
0
 10
-171.000015
 20
17.000000
 11
-103.000015
 21
17.000000
  0
LINE
  8
0
  6
CENTER
 10
-137.000015
 20
58.000000
 11
-137.000015
 21
12.000000
  0
LINE
  8
0
 10
-103.000015
 20
53.000000
 11
-103.000015
 21
17.000000
  0
LINE
  8
0
 10
-171.000015
 20
53.000000
 11
-171.000015
 21
17.000000
  0
LINE
  8
0
 10
-174.000015
 20
24.300003
 11
-173.000015
 21
24.300003
  0
LINE
  8
0
 10
-174.000015
 20
45.699997
 11
-173.000015
 21
45.699997
  0
LINE
  8
0
 10
-103.000015
 20
45.699997
 11
46.999985
 21
45.699997
  0
LINE
  8
0
 10
-103.000015
 20
24.300003
 11
46.999985
 21
24.300003
  0
LINE
  8
0
 10
-173.000015
 20
45.699997
 11
-173.000015
 21
24.300003
  0
LINE
  8
0
 10
46.999985
 20
45.699997
 11
46.999985
 21
24.300003
  0
LINE
  8
0
 10
48.999985
 20
45.699997
 11
48.999985
 21
24.300003
  0
LINE
  8
0
 10
48.999985
 20
45.699997
 11
49.999985
 21
45.699997
  0
LINE
  8
0
 10
48.999985
 20
24.300003
 11
49.999985
 21
24.300003
  0
LINE
  8
0
 10
-190.000015
 20
51.000000
 11
-174.000015
 21
51.000000
  0
LINE
  8
0
 10
-190.000015
 20
19.000000
 11
-174.000015
 21
19.000000
  0
LINE
  8
0
 10
-190.000015
 20
27.500000
 11
-174.000015
 21
27.500000
  0
LINE
  8
0
 10
-190.000015
 20
42.500000
 11
-174.000015
 21
42.500000
  0
LINE
  8
0
  6
CENTER
 10
-186.500015
 20
46.000000
 11
-177.500015
 21
46.000000
  0
LINE
  8
0
  6
CENTER
 10
-182.000015
 20
50.500000
 11
-182.000015
 21
14.000000
  0
LINE
  8
0
 10
49.999985
 20
51.000000
 11
49.999985
 21
19.000000
  0
LINE
  8
0
 10
65.999985
 20
51.000000
 11
65.999985
 21
19.000000
  0
LINE
  8
0
 10
65.999985
 20
51.000000
 11
49.999985
 21
51.000000
  0
LINE
  8
0
 10
65.999985
 20
19.000000
 11
49.999985
 21
19.000000
  0
LINE
  8
0
 10
65.999985
 20
27.500000
 11
49.999985
 21
27.500000
  0
LINE
  8
0
 10
65.999985
 20
42.500000
 11
49.999985
 21
42.500000
  0
LINE
  8
0
  6
CENTER
 10
62.499985
 20
46.000000
 11
53.499985
 21
46.000000
  0
LINE
  8
0
  6
CENTER
 10
57.999985
 20
50.500000
 11
57.999985
 21
14.000000
  0
LINE
  8
0
  6
CENTER
 10
-161.000015
 20
48.000000
 11
-153.000015
 21
48.000000
  0
LINE
  8
0
  6
CENTER
 10
-157.000015
 20
52.000000
 11
-157.000015
 21
44.000000
  0
LINE
  8
0
  6
CENTER
 10
-117.000015
 20
52.000000
 11
-117.000015
 21
44.000000
  0
LINE
  8
0
  6
CENTER
 10
-113.000015
 20
48.000000
 11
-121.000015
 21
48.000000
  0
LINE
  8
0
  6
CENTER
 10
-157.000015
 20
18.000000
 11
-157.000015
 21
26.000000
  0
LINE
  8
0
  6
CENTER
 10
-161.000015
 20
22.000000
 11
-153.000015
 21
22.000000
  0
LINE
  8
0
  6
CENTER
 10
-117.000015
 20
18.000000
 11
-117.000015
 21
26.000000
  0
LINE
  8
0
  6
CENTER
 10
-113.000015
 20
22.000000
 11
-121.000015
 21
22.000000
  0
LINE
  8
0
 10
-116.000015
 20
49.732056
 11
-102.566261
 21
73.000000
  0
LINE
  8
0
 10
-116.000023
 20
49.732059
 11
-113.171600
 21
52.560486
  0
LINE
  8
0
 10
-116.000031
 20
49.732056
 11
-114.964752
 21
53.595760
  0
LINE
  8
0
 10
-102.566261
 20
73.000000
 11
-59.966667
 21
73.000000
  0
LINE
  8
0
 10
56.875000
 20
47.948551
 11
42.411537
 21
73.000008
  0
LINE
  8
0
 10
56.874996
 20
47.948555
 11
55.839722
 21
51.812256
  0
LINE
  8
0
 10
56.874996
 20
47.948547
 11
54.046566
 21
50.776974
  0
LINE
  8
0
 10
11.711685
 20
73.000008
 11
42.411537
 21
73.000008
  0
LINE
  8
0
 10
55.567989
 20
-85.787636
 11
36.060696
 21
-52.000004
  0
LINE
  8
0
 10
55.567989
 20
-85.787636
 11
54.532715
 21
-81.923935
  0
LINE
  8
0
 10
55.567989
 20
-85.787636
 11
52.739563
 21
-82.959206
  0
LINE
  8
0
 10
0.527132
 20
-52.000004
 11
36.060696
 21
-52.000004
  0
LINE
  8
0
 10
52.000004
 20
-105.866043
 11
39.220955
 21
-128.000000
  0
LINE
  8
0
 10
50.964725
 20
-109.729744
 11
52.000004
 21
-105.866035
  0
LINE
  8
0
 10
49.171581
 20
-108.694481
 11
52.000008
 21
-105.866051
  0
LINE
  8
0
 10
-2.566667
 20
-128.000000
 11
39.220955
 21
-128.000000
  0
LINE
  8
0
 10
177.999878
 20
-80.267891
 11
194.320374
 21
-51.999950
  0
LINE
  8
0
 10
177.999878
 20
-80.267891
 11
179.035141
 21
-76.404182
  0
LINE
  8
0
 10
177.999893
 20
-80.267899
 11
180.828308
 21
-77.439468
  0
LINE
  8
0
 10
194.320374
 20
-51.999950
 11
237.300003
 21
-51.999950
  0
ARC
  8
0
 62
     5
 10
193.065201
 20
-166.202393
 40
1.564041
 50
0.000000
 51
90.000000
  0
ARC
  8
0
 62
     5
 10
205.968597
 20
-174.609177
 40
1.564041
 50
270.000000
 51
0.000000
  0
ARC
  8
0
 62
     5
 10
205.186523
 20
-166.984390
 40
2.346069
 50
0.000000
 51
90.000000
  0
ARC
  8
0
 62
     5
 10
219.458466
 20
-166.202393
 40
1.564041
 50
0.000000
 51
90.000000
  0
ARC
  8
0
 62
     5
 10
219.458466
 20
-167.451935
 40
1.564050
 50
294.999969
 51
0.000000
  0
ARC
  8
0
 62
     5
 10
231.579834
 20
-164.638336
 40
2.346074
 50
291.688202
 51
0.000000
  0
ARC
  8
0
 62
     5
 10
230.797760
 20
-164.107742
 40
0.782030
 50
291.688049
 51
0.000000
  0
ARC
  8
0
  6
DASHED
 10
165.999985
 20
-89.999985
 40
17.999994
 50
207.266022
 51
332.733978
  0
CIRCLE
  8
0
 10
176.999985
 20
-81.999985
 40
1.621000
  0
ARC
  8
0
 10
165.999985
 20
-89.999985
 40
18.000000
 50
199.471191
 51
207.266022
  0
ARC
  8
0
 10
165.999985
 20
-89.999985
 40
17.999998
 50
332.733978
 51
340.528778
  0
CIRCLE
  8
0
 10
176.999985
 20
-81.999985
 40
2.000000
  0
CIRCLE
  8
0
 10
154.999985
 20
-97.999985
 40
2.000000
  0
CIRCLE
  8
0
 10
154.999985
 20
-97.999985
 40
1.621000
  0
ARC
  8
0
 10
-171.999985
 20
-79.299995
 40
1.000000
 50
0.000000
 51
180.000000
  0
ARC
  8
0
 10
48.000015
 20
-79.299995
 40
1.000000
 50
0.000000
 51
180.000000
  0
ARC
  8
0
 10
48.000015
 20
-100.699989
 40
1.000000
 50
180.000000
 51
0.000000
  0
ARC
  8
0
 10
-171.999985
 20
-100.699989
 40
1.000000
 50
180.000000
 51
0.000000
  0
CIRCLE
  8
0
 10
-181.999985
 20
-89.999992
 40
4.864000
  0
CIRCLE
  8
0
 10
-181.999985
 20
-89.999992
 40
4.283000
  0
CIRCLE
  8
0
 10
-187.499985
 20
-104.999992
 40
1.000000
  0
CIRCLE
  8
0
 10
-176.499985
 20
-104.999992
 40
1.000000
  0
CIRCLE
  8
0
 10
-176.499985
 20
-104.999992
 40
0.783500
  0
CIRCLE
  8
0
 10
-187.499985
 20
-104.999992
 40
0.783500
  0
CIRCLE
  8
0
 10
63.500015
 20
-104.999992
 40
0.783500
  0
CIRCLE
  8
0
 10
58.000015
 20
-89.999992
 40
4.864000
  0
CIRCLE
  8
0
 10
58.000015
 20
-89.999992
 40
4.283000
  0
CIRCLE
  8
0
 10
63.500015
 20
-104.999992
 40
1.000000
  0
CIRCLE
  8
0
 10
52.500015
 20
-104.999992
 40
1.000000
  0
CIRCLE
  8
0
 10
52.500015
 20
-104.999992
 40
0.783500
  0
CIRCLE
  8
0
 10
-182.000015
 20
35.000000
 40
2.250000
  0
CIRCLE
  8
0
 10
-182.000015
 20
46.000000
 40
2.250000
  0
ARC
  8
0
 10
47.999985
 20
24.300003
 40
1.000000
 50
180.000000
 51
0.000000
  0
ARC
  8
0
 10
-172.000015
 20
24.300003
 40
1.000000
 50
180.000000
 51
0.000000
  0
ARC
  8
0
 10
-172.000015
 20
45.699997
 40
1.000000
 50
0.000000
 51
180.000000
  0
CIRCLE
  8
0
 10
57.999985
 20
35.000000
 40
2.250000
  0
CIRCLE
  8
0
 10
-117.000015
 20
48.000000
 40
1.621000
  0
CIRCLE
  8
0
 10
57.999985
 20
46.000000
 40
2.250000
  0
CIRCLE
  8
0
 10
-157.000015
 20
48.000000
 40
2.000000
  0
CIRCLE
  8
0
 10
-117.000015
 20
48.000000
 40
2.000000
  0
CIRCLE
  8
0
 10
-157.000015
 20
48.000000
 40
1.621000
  0
CIRCLE
  8
0
 10
-157.000015
 20
22.000000
 40
1.621000
  0
CIRCLE
  8
0
 10
-157.000015
 20
22.000000
 40
2.000000
  0
CIRCLE
  8
0
 10
-117.000015
 20
22.000000
 40
1.621000
  0
CIRCLE
  8
0
 10
-117.000015
 20
22.000000
 40
2.000000
  0
ARC
  8
0
 10
47.999985
 20
45.699997
 40
1.000000
 50
0.000000
 51
180.000000
  0
TEXT
  8
0
 10
160.213089
 20
165.487701
 40
6.000000
  1
DATE : JUN ,1991
 50
0.000000
 41
1.052631
 51
0.000000
  7
STANDARD
  0
TEXT
  8
0
 10
-259.882782
 20
164.587692
 40
7.000000
  1
RODLESS CYLINDER
 50
0.000000
 41
0.956938
 51
0.000000
  7
STANDARD
  0
TEXT
  8
0
 10
-236.497223
 20
124.475296
 40
7.000000
  1
MODEL : MRC* 20xSt(150)
 50
0.000000
 41
1.052632
 51
0.000000
  7
STANDARD
  0
TEXT
  8
0
 10
-101.530548
 20
73.000000
 40
5.000000
  1
4-M4x0.7
 50
0.000000
 41
1.052632
 51
0.000000
  7
STANDARD
  0
TEXT
  8
0
 10
11.447256
 20
73.000008
 40
5.000000
  1
4-ƒÓ4.5
 50
0.000000
 41
1.052632
 51
0.000000
  7
STANDARD
  0
TEXT
  8
0
 10
0.096419
 20
-52.000004
 40
5.000000
  1
2-Rc1/8
 50
0.000000
 41
1.052632
 51
0.000000
  7
STANDARD
  0
TEXT
  8
0
 10
-1.743337
 20
-128.000000
 40
5.000000
  1
8-M2x0.4
 50
0.000000
 41
1.052632
 51
0.000000
  7
STANDARD
  0
TEXT
  8
0
 10
195.356110
 20
-51.999950
 40
5.000000
  1
4-M4x0.7
 50
0.000000
 41
1.052632
 51
0.000000
  7
STANDARD
  0
ENDSEC
  0
EOF
