  0
SECTION
  2
HEADER
  0
ENDSEC
  0
SECTION
  2
TABLES
  0
TABLE
  2
LTYPE
 70
     4
  0
LTYPE
  2
CONTINUOUS
 70
    64
  3
Solid line
 72
    65
 73
     0
 40
0.000000
  0
LTYPE
  2
DASHED
 70
    64
  3
__ __ __ __ __ __ __ __ __ __ __ __ __ __ __
 72
    65
 73
     2
 40
3.500000
 49
2.000000
 49
-1.500000
  0
LTYPE
  2
CENTER
 70
    64
  3
____ _ ____ _ ____ _ ____ _ ____ _ ____ _ ____
 72
    65
 73
     4
 40
17.500000
 49
13.000000
 49
-1.500000
 49
1.500000
 49
-1.500000
  0
LTYPE
  2
PHANTOM
 70
    64
  3
_____ _ _ _____ _ _ _____ _ _ _____ _ _ ____  
 72
    65
 73
     6
 40
15.500000
 49
8.000000
 49
-1.500000
 49
1.500000
 49
-1.500000
 49
1.500000
 49
-1.500000
  0
LTYPE
  2
DASHED1
 70
    64
  3
__ __ __ __ __ __ __ __ __ __ __ __ __ __ __
 72
    65
 73
     2
 40
1.500000
 49
1.000000
 49
-0.500000
  0
LTYPE
  2
DASHED2
 70
    64
  3
__ __ __ __ __ __ __ __ __ __ __ __ __ __ __
 72
    65
 73
     2
 40
3.500000
 49
2.500000
 49
-1.000000
  0
LTYPE
  2
DASHED3
 70
    64
  3
__ __ __ __ __ __ __ __ __ __ __ __ __ __ __
 72
    65
 73
     2
 40
6.000000
 49
4.000000
 49
-2.000000
  0
LTYPE
  2
DASHED4
 70
    64
  3
__ __ __ __ __ __ __ __ __ __ __ __ __ __ __
 72
    65
 73
     2
 40
12.000000
 49
10.000000
 49
-2.000000
  0
LTYPE
  2
DASHED5
 70
    64
  3
__ __ __ __ __ __ __ __ __ __ __ __ __ __ __
 72
    65
 73
     2
 40
17.000000
 49
15.000000
 49
-2.000000
  0
LTYPE
  2
DASHED6
 70
    64
  3
__ __ __ __ __ __ __ __ __ __ __ __ __ __ __
 72
    65
 73
     2
 40
29.000000
 49
27.000000
 49
-2.000000
  0
LTYPE
  2
PHANTOM1
 70
    64
  3
_____ _ _ _____ _ _ _____ _ _ _____ _ _ ____  
 72
    65
 73
     6
 40
31.000000
 49
25.000000
 49
-1.500000
 49
1.000000
 49
-1.000000
 49
1.000000
 49
-1.500000
  0
LTYPE
  2
PHANTOM2
 70
    64
  3
_____ _ _ _____ _ _ _____ _ _ _____ _ _ ____  
 72
    65
 73
     6
 40
36.000000
 49
27.000000
 49
-1.500000
 49
2.500000
 49
-1.000000
 49
2.500000
 49
-1.500000
  0
LTYPE
  2
PHANTOM3
 70
    64
  3
_____ _ _ _____ _ _ _____ _ _ _____ _ _ ____  
 72
    65
 73
     6
 40
78.000000
 49
64.000000
 49
-2.000000
 49
4.000000
 49
-2.000000
 49
4.000000
 49
-2.000000
  0
LTYPE
  2
CENTER1
 70
    64
  3
____ _ ____ _ ____ _ ____ _ ____ _ ____ _ ____
 72
    65
 73
     4
 40
19.000000
 49
14.000000
 49
-1.000000
 49
3.000000
 49
-1.000000
  0
LTYPE
  2
CENTER2
 70
    64
  3
____ _ ____ _ ____ _ ____ _ ____ _ ____ _ ____
 72
    65
 73
     4
 40
28.500000
 49
25.000000
 49
-1.000000
 49
1.500000
 49
-1.000000
  0
LTYPE
  2
CENTER3
 70
    64
  3
____ _ ____ _ ____ _ ____ _ ____ _ ____ _ ____
 72
    65
 73
     4
 40
31.500000
 49
27.000000
 49
-1.000000
 49
2.500000
 49
-1.000000
  0
LTYPE
  2
CENTER4
 70
    64
  3
____ _ ____ _ ____ _ ____ _ ____ _ ____ _ ____
 72
    65
 73
     4
 40
50.000000
 49
45.000000
 49
-1.000000
 49
3.000000
 49
-1.000000
  0
LTYPE
  2
CENTER5
 70
    64
  3
____ _ ____ _ ____ _ ____ _ ____ _ ____ _ ____
 72
    65
 73
     4
 40
100.000000
 49
92.000000
 49
-2.000000
 49
4.000000
 49
-2.000000
  0
LTYPE
  2
SBK1
 70
    64
  3
______ _ _ _ ______ _ _ _ ______ _ _ _ _____  
 72
    65
 73
     8
 40
60.500000
 49
45.000000
 49
-2.000000
 49
2.500000
 49
-2.000000
 49
2.500000
 49
-2.000000
 49
2.500000
 49
-2.000000
  0
LTYPE
  2
SBK2
 70
    64
  3
______ _ _ _ ______ _ _ _ ______ _ _ _ _____  
 72
    65
 73
     8
 40
84.000000
 49
64.000000
 49
-2.000000
 49
4.000000
 49
-2.000000
 49
4.000000
 49
-2.000000
 49
4.000000
 49
-2.000000
  0
LTYPE
  2
STCH
 70
    64
  3
__ __ __ __ __ __ __ __ __ __ __ __ __ __ __
 72
    65
 73
     2
 40
3.000000
 49
1.000000
 49
-2.000000
  0
LTYPE
  2
MTCH
 70
    64
  3
_____ _ _ _____ _ _ _____ _ _ _____ _ _ ____  
 72
    65
 73
     6
 40
80.000000
 49
66.000000
 49
-2.000000
 49
4.000000
 49
-2.000000
 49
4.000000
 49
-2.000000
  0
ENDTAB
  0
TABLE
  2
LAYER
 70
     1
  0
LAYER
  2
0
 70
     0
 62
     7
  6
CONTINUOUS
  0
ENDTAB
  0
TABLE
  2
STYLE
 70
     1
  0
STYLE
  2
STANDARD
 70
     0
 40
0.000000
 41
1.000000
 50
0.000000
 71
     0
 42
0.200000
  3
txt
  4
BIGFONT
  0
ENDTAB
  0
TABLE
  2
VIEW
 70
     0
  0
ENDTAB
  0
ENDSEC
  0
SECTION
  2
BLOCKS
  0
ENDSEC
  0
SECTION
  2
ENTITIES
  0
POINT
  8
0
 10
-135.436783
 20
-57.279228
  0
POINT
  8
0
 10
-135.436768
 20
27.720749
  0
POINT
  8
0
 10
50.563232
 20
27.720749
  0
POINT
  8
0
 10
50.563217
 20
-57.279228
  0
POINT
  8
0
 10
120.563187
 20
-57.279232
  0
POINT
  8
0
 10
135.563171
 20
-57.279232
  0
LINE
  8
0
 62
     3
 10
-185.436783
 20
-127.279236
 11
-185.436783
 21
127.279236
  0
LINE
  8
0
 62
     3
 10
185.436783
 20
127.279236
 11
185.436783
 21
-127.279236
  0
LINE
  8
0
 62
     3
 10
-185.436783
 20
-127.279236
 11
185.436783
 21
-127.279236
  0
LINE
  8
0
 62
     3
 10
-185.436783
 20
127.279236
 11
185.436783
 21
127.279236
  0
LINE
  8
0
 62
     3
 10
-185.436783
 20
112.978195
 11
-109.164589
 21
112.978195
  0
LINE
  8
0
 62
     3
 10
-109.164589
 20
112.978195
 11
-109.164589
 21
127.279236
  0
LINE
  8
0
 62
     3
 10
109.164581
 20
-112.978210
 11
185.436783
 21
-112.978210
  0
LINE
  8
0
 62
     5
 10
129.190811
 20
-116.416870
 11
136.517700
 21
-116.416870
  0
LINE
  8
0
 62
     5
 10
129.190811
 20
-122.914322
 11
135.411774
 21
-122.914322
  0
LINE
  8
0
 62
     5
 10
129.190811
 20
-124.573227
 11
137.623672
 21
-124.573227
  0
LINE
  8
0
 62
     5
 10
129.190811
 20
-118.075790
 11
135.411774
 21
-118.075790
  0
LINE
  8
0
 62
     5
 10
129.190811
 20
-116.416870
 11
129.190811
 21
-118.075790
  0
LINE
  8
0
 62
     5
 10
137.623672
 20
-117.522827
 11
137.623672
 21
-124.573227
  0
LINE
  8
0
 62
     5
 10
135.411774
 20
-118.075790
 11
135.411774
 21
-122.914322
  0
LINE
  8
0
 62
     5
 10
138.867828
 20
-116.416870
 11
138.867828
 21
-118.075790
  0
LINE
  8
0
 62
     5
 10
146.747696
 20
-118.075790
 11
146.747696
 21
-123.467316
  0
LINE
  8
0
 62
     5
 10
144.535812
 20
-118.075790
 11
144.535812
 21
-122.914322
  0
LINE
  8
0
 62
     5
 10
129.190811
 20
-122.914322
 11
129.190811
 21
-124.573227
  0
LINE
  8
0
 62
     5
 10
138.867828
 20
-116.416870
 11
141.053345
 21
-116.416870
  0
LINE
  8
0
 62
     5
 10
138.867828
 20
-124.573227
 11
140.585297
 21
-124.573227
  0
LINE
  8
0
 62
     5
 10
138.867752
 20
-124.573166
 11
140.608795
 21
-118.075737
  0
LINE
  8
0
 62
     5
 10
138.867828
 20
-118.075790
 11
140.608841
 21
-118.075790
  0
LINE
  8
0
 62
     5
 10
140.585434
 20
-124.573364
 11
142.326385
 21
-118.075928
  0
LINE
  8
0
 62
     5
 10
142.876877
 20
-122.914322
 11
144.535812
 21
-122.914322
  0
LINE
  8
0
 62
     5
 10
142.876907
 20
-122.914337
 11
143.321396
 21
-124.573227
  0
LINE
  8
0
 62
     5
 10
143.321426
 20
-124.573227
 11
145.641785
 21
-124.573227
  0
LINE
  8
0
 62
     5
 10
142.326279
 20
-118.075790
 11
144.535812
 21
-118.075790
  0
LINE
  8
0
 62
     5
 10
142.770782
 20
-116.416870
 11
145.088776
 21
-116.416870
  0
LINE
  8
0
 62
     5
 10
141.053421
 20
-116.416908
 11
141.383072
 21
-115.186577
  0
LINE
  8
0
 62
     5
 10
142.770691
 20
-116.416794
 11
143.100342
 21
-115.186401
  0
LINE
  8
0
 62
     5
 10
148.130142
 20
-116.416870
 11
150.756775
 21
-116.416870
  0
LINE
  8
0
 62
     5
 10
148.130142
 20
-118.075790
 11
154.581039
 21
-118.075790
  0
LINE
  8
0
 62
     5
 10
150.756775
 20
-124.573227
 11
152.968643
 21
-124.573227
  0
LINE
  8
0
 62
     5
 10
148.130142
 20
-116.416870
 11
148.130142
 21
-118.075790
  0
LINE
  8
0
 62
     5
 10
156.286499
 20
-121.083908
 11
156.286499
 21
-122.914322
  0
LINE
  8
0
 62
     5
 10
148.130035
 20
-122.914253
 11
150.756714
 21
-121.689400
  0
LINE
  8
0
 62
     5
 10
148.130325
 20
-121.084061
 11
154.581238
 21
-118.075935
  0
LINE
  8
0
 62
     5
 10
148.130142
 20
-121.083908
 11
148.130142
 21
-122.914322
  0
LINE
  8
0
 62
     5
 10
152.968597
 20
-121.367157
 11
156.286514
 21
-122.914276
  0
LINE
  8
0
 62
     5
 10
154.171204
 20
-120.097549
 11
156.286728
 21
-121.084045
  0
LINE
  8
0
 62
     5
 10
156.286499
 20
-117.522827
 11
156.286499
 21
-118.406387
  0
LINE
  8
0
 62
     5
 10
150.756775
 20
-115.186523
 11
150.756775
 21
-116.416870
  0
LINE
  8
0
 62
     5
 10
152.968643
 20
-115.186523
 11
152.968643
 21
-116.416870
  0
LINE
  8
0
 62
     5
 10
152.968643
 20
-116.416870
 11
155.180557
 21
-116.416870
  0
LINE
  8
0
 62
     5
 10
150.756775
 20
-121.689514
 11
150.756775
 21
-124.573227
  0
LINE
  8
0
 62
     5
 10
152.968643
 20
-121.367203
 11
152.968643
 21
-124.573227
  0
LINE
  8
0
 62
     5
 10
154.171204
 20
-120.097557
 11
155.648163
 21
-119.408852
  0
LINE
  8
0
 62
     5
 10
163.751663
 20
-115.684204
 11
165.410553
 21
-115.684204
  0
LINE
  8
0
 62
     5
 10
156.977722
 20
-119.110947
 11
156.977722
 21
-120.896240
  0
LINE
  8
0
 62
     5
 10
165.410553
 20
-115.684204
 11
165.410553
 21
-116.416870
  0
LINE
  8
0
 62
     5
 10
163.751663
 20
-115.684204
 11
163.751663
 21
-116.041687
  0
LINE
  8
0
 62
     5
 10
161.539749
 20
-119.081879
 11
161.539749
 21
-124.573227
  0
LINE
  8
0
 62
     5
 10
156.977844
 20
-119.111031
 11
163.403137
 21
-116.555603
  0
LINE
  8
0
 62
     5
 10
156.977783
 20
-120.896362
 11
161.539810
 21
-119.081955
  0
LINE
  8
0
 62
     5
 10
161.539749
 20
-124.573227
 11
163.751663
 21
-124.573227
  0
LINE
  8
0
 62
     5
 10
163.751663
 20
-118.202194
 11
163.751663
 21
-124.573227
  0
LINE
  8
0
 62
     5
 10
163.751831
 20
-118.202301
 11
164.364929
 21
-117.958435
  0
LINE
  8
0
 62
     5
 10
141.383057
 20
-115.186523
 11
143.100449
 21
-115.186523
  0
LINE
  8
0
 62
     5
 10
145.849136
 20
-115.186523
 11
146.554138
 21
-115.186523
  0
LINE
  8
0
 62
     5
 10
150.756775
 20
-115.186523
 11
152.968643
 21
-115.186523
  0
LINE
  8
0
 62
     5
 10
145.849136
 20
-116.292480
 11
146.554138
 21
-116.292480
  0
LINE
  8
0
 62
     5
 10
145.849136
 20
-115.186523
 11
145.849136
 21
-116.292480
  0
LINE
  8
0
 62
     5
 10
146.554138
 20
-115.186523
 11
146.554138
 21
-116.292480
  0
LINE
  8
0
 62
     5
 10
146.968918
 20
-115.186523
 11
146.968918
 21
-116.292480
  0
LINE
  8
0
 62
     5
 10
147.756912
 20
-115.186523
 11
147.756912
 21
-116.292480
  0
LINE
  8
0
 62
     5
 10
146.968918
 20
-115.186523
 11
147.756912
 21
-115.186523
  0
LINE
  8
0
 62
     5
 10
146.968918
 20
-116.292480
 11
147.756912
 21
-116.292480
  0
LINE
  8
0
 62
     3
 10
109.164581
 20
112.978195
 11
185.436783
 21
112.978195
  0
LINE
  8
0
 62
     3
 10
109.164581
 20
127.279236
 11
109.164581
 21
112.978195
  0
LINE
  8
0
 62
     3
 10
109.164581
 20
-112.978210
 11
109.164581
 21
-127.279236
  0
LINE
  8
0
  6
CENTER
 10
-138.436783
 20
-57.279228
 11
53.563217
 21
-57.279228
  0
LINE
  8
0
 10
-124.436783
 20
-47.279224
 11
-124.436783
 21
-74.279221
  0
LINE
  8
0
 10
-135.436783
 20
-74.279221
 11
-124.436783
 21
-74.279221
  0
LINE
  8
0
 10
-135.436783
 20
-47.279224
 11
-124.436783
 21
-47.279224
  0
LINE
  8
0
  6
CENTER
 10
-129.936783
 20
-53.279228
 11
-129.936783
 21
-61.279228
  0
LINE
  8
0
 10
-135.436783
 20
-73.279221
 11
-124.436783
 21
-73.279221
  0
LINE
  8
0
 10
-135.436783
 20
-67.279221
 11
-124.436783
 21
-67.279221
  0
LINE
  8
0
  6
CENTER
 10
-128.936783
 20
-70.279221
 11
-124.936783
 21
-70.279221
  0
LINE
  8
0
  6
CENTER
 10
-126.936783
 20
-68.279221
 11
-126.936783
 21
-72.279221
  0
LINE
  8
0
  6
CENTER
 10
-132.936783
 20
-68.279221
 11
-132.936783
 21
-72.279221
  0
LINE
  8
0
  6
CENTER
 10
-134.936783
 20
-70.279221
 11
-130.936783
 21
-70.279221
  0
LINE
  8
0
 10
50.563217
 20
-47.279224
 11
50.563217
 21
-74.279221
  0
LINE
  8
0
 10
39.563217
 20
-47.279224
 11
39.563217
 21
-74.279221
  0
LINE
  8
0
 10
50.563217
 20
-74.279221
 11
39.563217
 21
-74.279221
  0
LINE
  8
0
 10
50.563217
 20
-47.279224
 11
39.563217
 21
-47.279224
  0
LINE
  8
0
  6
CENTER
 10
45.063217
 20
-53.279228
 11
45.063217
 21
-61.279228
  0
LINE
  8
0
 10
50.563217
 20
-73.279221
 11
39.563217
 21
-73.279221
  0
LINE
  8
0
 10
50.563217
 20
-67.279221
 11
39.563217
 21
-67.279221
  0
LINE
  8
0
  6
CENTER
 10
44.063217
 20
-70.279221
 11
40.063217
 21
-70.279221
  0
LINE
  8
0
  6
CENTER
 10
42.063217
 20
-68.279221
 11
42.063217
 21
-72.279221
  0
LINE
  8
0
  6
CENTER
 10
48.063217
 20
-68.279221
 11
48.063217
 21
-72.279221
  0
LINE
  8
0
  6
CENTER
 10
50.063217
 20
-70.279221
 11
46.063217
 21
-70.279221
  0
LINE
  8
0
 10
-121.936783
 20
-62.279224
 11
-62.936783
 21
-62.279224
  0
LINE
  8
0
 10
-62.936783
 20
-42.279224
 11
-62.936783
 21
-72.279221
  0
LINE
  8
0
 10
-121.936783
 20
-42.279224
 11
-121.936783
 21
-72.279221
  0
LINE
  8
0
 10
-121.936783
 20
-42.279224
 11
-62.936783
 21
-42.279224
  0
LINE
  8
0
 10
-121.936783
 20
-72.279221
 11
-62.936783
 21
-72.279221
  0
LINE
  8
0
 10
38.563217
 20
-48.579227
 11
38.563217
 21
-65.979233
  0
LINE
  8
0
 10
36.563217
 20
-48.579227
 11
36.563217
 21
-65.979233
  0
LINE
  8
0
 10
-62.936783
 20
-65.979233
 11
36.563217
 21
-65.979233
  0
LINE
  8
0
 10
-62.936783
 20
-48.579227
 11
36.563217
 21
-48.579227
  0
LINE
  8
0
 10
38.563217
 20
-65.979233
 11
39.563217
 21
-65.979233
  0
LINE
  8
0
 10
38.563217
 20
-48.579227
 11
39.563217
 21
-48.579227
  0
LINE
  8
0
 10
-123.436783
 20
-48.579227
 11
-124.436783
 21
-48.579227
  0
LINE
  8
0
 10
-123.436783
 20
-48.579227
 11
-123.436783
 21
-65.979233
  0
LINE
  8
0
 10
-123.436783
 20
-65.979233
 11
-124.436783
 21
-65.979233
  0
LINE
  8
0
 10
-135.436783
 20
-47.279224
 11
-135.436783
 21
-74.279221
  0
LINE
  8
0
  6
CENTER
 10
-138.436768
 20
27.720749
 11
53.563232
 21
27.720749
  0
LINE
  8
0
 10
-135.436768
 20
41.220749
 11
-135.436768
 21
14.220749
  0
LINE
  8
0
 10
-62.936768
 20
42.720753
 11
-62.936768
 21
12.720753
  0
LINE
  8
0
 10
-121.936768
 20
42.720753
 11
-121.936768
 21
12.720753
  0
LINE
  8
0
 10
-121.936768
 20
42.720753
 11
-62.936768
 21
42.720753
  0
LINE
  8
0
 10
-121.936768
 20
12.720753
 11
-62.936768
 21
12.720753
  0
LINE
  8
0
 10
38.563232
 20
36.420750
 11
38.563232
 21
19.020748
  0
LINE
  8
0
 10
36.563232
 20
36.420750
 11
36.563232
 21
19.020748
  0
LINE
  8
0
 10
-62.936768
 20
19.020748
 11
36.563232
 21
19.020748
  0
LINE
  8
0
 10
-62.936768
 20
36.420750
 11
36.563232
 21
36.420750
  0
LINE
  8
0
 10
38.563232
 20
19.020748
 11
39.563232
 21
19.020748
  0
LINE
  8
0
 10
38.563232
 20
36.420750
 11
39.563232
 21
36.420750
  0
LINE
  8
0
 10
-123.436768
 20
36.420750
 11
-124.436768
 21
36.420750
  0
LINE
  8
0
 10
-123.436768
 20
36.420750
 11
-123.436768
 21
19.020748
  0
LINE
  8
0
 10
-123.436768
 20
19.020748
 11
-124.436768
 21
19.020748
  0
LINE
  8
0
 10
-135.436768
 20
14.220749
 11
-124.436768
 21
14.220749
  0
LINE
  8
0
 10
-135.436768
 20
41.220749
 11
-124.436768
 21
41.220749
  0
LINE
  8
0
 10
-124.436768
 20
41.220749
 11
-124.436768
 21
14.220749
  0
LINE
  8
0
  6
CENTER
 10
-133.936768
 20
35.720749
 11
-125.936768
 21
35.720749
  0
LINE
  8
0
  6
CENTER
 10
-129.936768
 20
39.720749
 11
-129.936768
 21
11.220749
  0
LINE
  8
0
  6
CENTER
 10
45.063232
 20
39.720749
 11
45.063232
 21
11.220749
  0
LINE
  8
0
  6
CENTER
 10
49.063232
 20
35.720749
 11
41.063232
 21
35.720749
  0
LINE
  8
0
 10
50.563232
 20
14.220749
 11
39.563232
 21
14.220749
  0
LINE
  8
0
 10
50.563232
 20
41.220749
 11
50.563232
 21
14.220749
  0
LINE
  8
0
 10
50.563232
 20
41.220749
 11
39.563232
 21
41.220749
  0
LINE
  8
0
 10
39.563232
 20
41.220749
 11
39.563232
 21
14.220749
  0
LINE
  8
0
  6
CENTER
 10
-92.436768
 20
45.720753
 11
-92.436768
 21
9.720753
  0
LINE
  8
0
  6
CENTER
 10
-109.936768
 20
41.720749
 11
-109.936768
 21
33.720749
  0
LINE
  8
0
  6
CENTER
 10
-113.936768
 20
37.720749
 11
-105.936768
 21
37.720749
  0
LINE
  8
0
  6
CENTER
 10
-113.936768
 20
17.720749
 11
-105.936768
 21
17.720749
  0
LINE
  8
0
  6
CENTER
 10
-109.936768
 20
13.720749
 11
-109.936768
 21
21.720749
  0
LINE
  8
0
  6
CENTER
 10
-70.936768
 20
37.720749
 11
-78.936768
 21
37.720749
  0
LINE
  8
0
  6
CENTER
 10
-74.936768
 20
41.720749
 11
-74.936768
 21
33.720749
  0
LINE
  8
0
  6
CENTER
 10
-70.936768
 20
17.720749
 11
-78.936768
 21
17.720749
  0
LINE
  8
0
  6
CENTER
 10
-74.936768
 20
13.720749
 11
-74.936768
 21
21.720749
  0
LINE
  8
0
  6
CENTER
 10
102.563187
 20
-57.279232
 11
138.563171
 21
-57.279232
  0
LINE
  8
0
  6
CENTER
 10
120.563187
 20
-39.279228
 11
120.563187
 21
-77.279228
  0
LINE
  8
0
 10
105.563187
 20
-42.279228
 11
135.563171
 21
-42.279228
  0
LINE
  8
0
 10
105.563187
 20
-62.279228
 11
106.421051
 21
-62.279228
  0
LINE
  8
0
 10
135.563171
 20
-42.279228
 11
135.563171
 21
-62.279228
  0
LINE
  8
0
 10
105.563187
 20
-42.279228
 11
105.563187
 21
-62.279228
  0
LINE
  8
0
 10
134.705322
 20
-62.279228
 11
135.563171
 21
-62.279228
  0
LINE
  8
0
 10
107.063187
 20
-47.279228
 11
107.063187
 21
-67.279228
  0
LINE
  8
0
 10
134.063171
 20
-47.279228
 11
134.063171
 21
-67.279228
  0
LINE
  8
0
 10
107.063187
 20
-47.279228
 11
134.063171
 21
-47.279228
  0
LINE
  8
0
 10
107.063187
 20
-74.279228
 11
134.063171
 21
-74.279228
  0
LINE
  8
0
 10
107.063187
 20
-67.279228
 11
108.063187
 21
-67.279228
  0
LINE
  8
0
 10
107.063187
 20
-73.279228
 11
108.063187
 21
-73.279228
  0
LINE
  8
0
 10
107.063187
 20
-73.279228
 11
107.063187
 21
-74.279228
  0
LINE
  8
0
 10
108.063187
 20
-67.279228
 11
108.063187
 21
-73.279228
  0
LINE
  8
0
 10
133.063171
 20
-67.279228
 11
133.063171
 21
-73.279228
  0
LINE
  8
0
 10
134.063171
 20
-67.279228
 11
133.063171
 21
-67.279228
  0
LINE
  8
0
 10
134.063171
 20
-73.279228
 11
133.063171
 21
-73.279228
  0
LINE
  8
0
 10
134.063171
 20
-73.279228
 11
134.063171
 21
-74.279228
  0
LINE
  8
0
  6
CENTER
 10
132.563171
 20
-51.279255
 11
124.563187
 21
-51.279255
  0
LINE
  8
0
  6
CENTER
 10
128.563171
 20
-55.279236
 11
128.563171
 21
-47.279236
  0
LINE
  8
0
  6
CENTER
 10
112.563187
 20
-59.279228
 11
112.563187
 21
-67.279228
  0
LINE
  8
0
  6
CENTER
 10
108.563187
 20
-63.279228
 11
116.563187
 21
-63.279228
  0
LINE
  8
0
 10
-73.936806
 20
39.452816
 11
-60.503040
 21
62.720772
  0
LINE
  8
0
 10
-73.936813
 20
39.452820
 11
-71.815491
 21
41.574139
  0
LINE
  8
0
 10
-73.936806
 20
39.452816
 11
-73.160347
 21
42.350594
  0
LINE
  8
0
 10
-60.503040
 20
62.720772
 11
-30.616667
 21
62.720772
  0
LINE
  8
0
 10
46.188267
 20
37.669315
 11
60.651714
 21
62.720753
  0
LINE
  8
0
 10
46.188263
 20
37.669319
 11
46.964722
 21
40.567101
  0
LINE
  8
0
 10
46.188267
 20
37.669315
 11
48.309589
 21
39.790638
  0
LINE
  8
0
 10
85.616669
 20
62.720764
 11
60.651718
 21
62.720764
  0
LINE
  8
0
 10
43.813206
 20
-55.114178
 11
24.855953
 21
-22.279236
  0
LINE
  8
0
 10
43.813210
 20
-55.114178
 11
43.036751
 21
-52.216400
  0
LINE
  8
0
 10
43.813206
 20
-55.114178
 11
41.691887
 21
-52.992859
  0
LINE
  8
0
 10
-4.950000
 20
-22.279236
 11
24.855953
 21
-22.279236
  0
LINE
  8
0
 10
41.563217
 20
-71.145271
 11
29.361509
 21
-92.279243
  0
LINE
  8
0
 10
40.786758
 20
-74.043045
 11
41.563217
 21
-71.145271
  0
LINE
  8
0
 10
39.441898
 20
-73.266594
 11
41.563217
 21
-71.145271
  0
LINE
  8
0
 10
-0.183333
 20
-92.279243
 11
29.361509
 21
-92.279243
  0
LINE
  8
0
 10
129.563217
 20
-49.547195
 11
145.306381
 21
-22.279242
  0
LINE
  8
0
 10
129.563217
 20
-49.547195
 11
130.339676
 21
-46.649418
  0
LINE
  8
0
 10
129.563217
 20
-49.547195
 11
131.684540
 21
-47.425873
  0
LINE
  8
0
 10
145.306381
 20
-22.279242
 11
175.816666
 21
-22.279242
  0
ARC
  8
0
 62
     5
 10
136.517700
 20
-117.522827
 40
1.105942
 50
0.000000
 51
90.000000
  0
ARC
  8
0
 62
     5
 10
145.641785
 20
-123.467316
 40
1.105949
 50
270.000000
 51
0.000000
  0
ARC
  8
0
 62
     5
 10
145.088776
 20
-118.075790
 40
1.658920
 50
0.000000
 51
90.000000
  0
ARC
  8
0
 62
     5
 10
155.180557
 20
-117.522827
 40
1.105942
 50
0.000000
 51
90.000000
  0
ARC
  8
0
 62
     5
 10
155.180557
 20
-118.406387
 40
1.105945
 50
294.999969
 51
0.000000
  0
ARC
  8
0
 62
     5
 10
163.751663
 20
-116.416870
 40
1.658920
 50
291.688385
 51
0.000000
  0
ARC
  8
0
 62
     5
 10
163.198654
 20
-116.041687
 40
0.552973
 50
291.688965
 51
0.000000
  0
ARC
  8
0
 10
-122.436783
 20
-65.979233
 40
1.000000
 50
180.000000
 51
299.999939
  0
ARC
  8
0
 10
37.563217
 20
-48.579227
 40
1.000000
 50
0.000000
 51
180.000000
  0
ARC
  8
0
 10
37.563217
 20
-65.979233
 40
1.000000
 50
180.000000
 51
0.000000
  0
ARC
  8
0
 10
-122.436783
 20
-48.579227
 40
0.999999
 50
59.999962
 51
180.000000
  0
CIRCLE
  8
0
 10
-129.936783
 20
-57.279228
 40
2.500000
  0
CIRCLE
  8
0
 10
-129.936783
 20
-57.279228
 40
2.067000
  0
CIRCLE
  8
0
 10
-126.936783
 20
-70.279221
 40
1.000000
  0
CIRCLE
  8
0
 10
-126.936783
 20
-70.279221
 40
0.783500
  0
CIRCLE
  8
0
 10
-132.936783
 20
-70.279221
 40
0.783500
  0
CIRCLE
  8
0
 10
-132.936783
 20
-70.279221
 40
1.000000
  0
CIRCLE
  8
0
 10
48.063217
 20
-70.279221
 40
1.000000
  0
CIRCLE
  8
0
 10
45.063217
 20
-57.279228
 40
2.500000
  0
CIRCLE
  8
0
 10
45.063217
 20
-57.279228
 40
2.067000
  0
CIRCLE
  8
0
 10
42.063217
 20
-70.279221
 40
1.000000
  0
CIRCLE
  8
0
 10
42.063217
 20
-70.279221
 40
0.783500
  0
CIRCLE
  8
0
 10
48.063217
 20
-70.279221
 40
0.783500
  0
CIRCLE
  8
0
 10
-74.936768
 20
17.720749
 40
2.000000
  0
CIRCLE
  8
0
 10
-109.936768
 20
17.720749
 40
1.621000
  0
CIRCLE
  8
0
 10
-74.936768
 20
17.720749
 40
1.621000
  0
CIRCLE
  8
0
 10
-74.936768
 20
37.720749
 40
2.000000
  0
CIRCLE
  8
0
 10
-74.936768
 20
37.720749
 40
1.621000
  0
ARC
  8
0
 10
37.563232
 20
36.420750
 40
1.000000
 50
0.000000
 51
180.000000
  0
ARC
  8
0
 10
37.563232
 20
19.020748
 40
1.000000
 50
180.000000
 51
0.000000
  0
ARC
  8
0
 10
-122.436768
 20
19.020748
 40
1.000000
 50
180.000000
 51
300.000000
  0
ARC
  8
0
 10
-122.436768
 20
36.420750
 40
0.999999
 50
59.999962
 51
180.000000
  0
CIRCLE
  8
0
 10
-129.936768
 20
35.720749
 40
2.250000
  0
CIRCLE
  8
0
 10
-129.936768
 20
27.720749
 40
2.250000
  0
CIRCLE
  8
0
 10
45.063232
 20
35.720749
 40
2.250000
  0
CIRCLE
  8
0
 10
45.063232
 20
27.720749
 40
2.250000
  0
CIRCLE
  8
0
 10
-109.936768
 20
37.720749
 40
2.000000
  0
CIRCLE
  8
0
 10
-109.936768
 20
37.720749
 40
1.621000
  0
CIRCLE
  8
0
 10
-109.936768
 20
17.720749
 40
2.000000
  0
CIRCLE
  8
0
 10
112.563187
 20
-63.279228
 40
2.000000
  0
CIRCLE
  8
0
 10
128.563202
 20
-51.279236
 40
2.000000
  0
CIRCLE
  8
0
 10
128.563202
 20
-51.279236
 40
1.621000
  0
CIRCLE
  8
0
 10
112.563187
 20
-63.279228
 40
1.621000
  0
ARC
  8
0
 10
120.563187
 20
-57.279232
 40
14.999997
 50
199.471191
 51
205.841919
  0
ARC
  8
0
  6
DASHED
 10
120.563187
 20
-57.279232
 40
14.999999
 50
205.841919
 51
334.158020
  0
ARC
  8
0
 10
120.563187
 20
-57.279232
 40
15.000007
 50
334.158020
 51
340.528778
  0
TEXT
  8
0
 10
113.360985
 20
117.310349
 40
4.242641
  1
DATE : SEP ,1991
 50
0.000000
 41
1.052631
 51
0.000000
  7
STANDARD
  0
TEXT
  8
0
 10
-183.323395
 20
116.628723
 40
5.000000
  1
RODLESS CYLINDER
 50
0.000000
 41
0.937799
 51
0.000000
  7
STANDARD
  0
TEXT
  8
0
 10
-168.401062
 20
89.478195
 40
5.000000
  1
MODEL : MRC* 16xSt(100)
 50
0.000000
 41
1.052632
 51
0.000000
  7
STANDARD
  0
TEXT
  8
0
 10
-60.503040
 20
63.070770
 40
3.500000
  1
4-M4x0.7
 50
0.000000
 41
1.052632
 51
0.000000
  7
STANDARD
  0
TEXT
  8
0
 10
62.651711
 20
63.070763
 40
3.500000
  1
4-ƒÓ4.5
 50
0.000000
 41
1.052632
 51
0.000000
  7
STANDARD
  0
TEXT
  8
0
 10
-4.144046
 20
-21.929235
 40
3.500000
  1
2-M5x0.8
 50
0.000000
 41
1.052632
 51
0.000000
  7
STANDARD
  0
TEXT
  8
0
 10
0.361506
 20
-91.929253
 40
3.500000
  1
8-M2x0.4
 50
0.000000
 41
1.052632
 51
0.000000
  7
STANDARD
  0
TEXT
  8
0
 10
146.306381
 20
-21.929239
 40
3.500000
  1
4-M4x0.7
 50
0.000000
 41
1.052632
 51
0.000000
  7
STANDARD
  0
ENDSEC
  0
EOF
