  0
SECTION
  2
HEADER
  9
$ACADVER
  1
AC1003
  9
$EXTMIN
 10
-3.99250000E+02
 20
-2.76750000E+02
  9
$EXTMAX
 10
3.99799805E+02
 20
2.76250000E+02
  9
$LIMMIN
 10
-3.99251000E+02
 20
-2.76751000E+02
  9
$LIMMAX
 10
3.99800805E+02
 20
2.76251000E+02
  9
$SNAPUNIT
 10
1
 20
1
  9
$SNAPBASE
 10
0
 20
0
  9
$GRIDMODE
 70
0
  9
$GRIDUNIT
 10
0
 20
0
  9
$LTSCALE
 40
1.33174967E+01
  9
$TEXTSIZE
 40
3.2
  9
$DIMTAD
 70
0
  9
$LUNITS
 70
2
  9
$LUPREC
 70
4
  9
$FILLETRAD
 40
0
  9
$AUNITS
 70
0
  9
$AUPREC
 70
0
  0
ENDSEC
  0
SECTION
  2
TABLES
  0
TABLE
  2
LTYPE
 70
2
  0
LTYPE
  2
CONTINUOUS
 70
64
  3
Solid-Line
 72
65
 73
0
 40
0
  0
LTYPE
  2
DASHED
 70
64
  3
DASHED
 72
65
 73
2
 40
.75
 49
.5
 49
-.25
  0
LTYPE
  2
HIDDEN
 70
64
  3
HIDDEN
 72
65
 73
2
 40
.375
 49
.25
 49
-.125
  0
LTYPE
  2
CENTER
 70
64
  3
CENTER
 72
65
 73
4
 40
2
 49
1.25
 49
-.25
 49
.25
 49
-.25
  0
LTYPE
  2
PHANTOM
 70
64
  3
PHANTOM
 72
65
 73
6
 40
2.5
 49
1.25
 49
-.25
 49
.25
 49
-.25
 49
.25
 49
-.25
  0
ENDTAB
  0
TABLE
  2
LAYER
 70
1
  0
LAYER
  2
0
 70
0
 62
3
  6
CONTINUOUS
 0
ENDTAB
  0
TABLE
  2
STYLE
 70
2
  0
STYLE
  2
MONOTXT
 70
0
 40
0
 41
1
 50
0
 71
0
 42
.2
  3
monotxt
  0
STYLE
  2
BIGFONT
 70
0
 40
0
 41
1
 50
0
 71
0
 42
.2
  3
txt
  4
bigfont
  0
ENDTAB
  0
ENDSEC
  0
SECTION
  2
ENTITIES
  0
LINE
  8
0
  6
CENTER
 62
2
 10
-1.76590227E+02
 20
9.99303023E+01
 11
-1.76590227E+02
 21
-2.73549698E+02
  0
LINE
  8
0
 62
7
 10
-2.31590227E+02
 20
-1.04969772E+00
 11
-1.21590227E+02
 21
-1.04969772E+00
  0
LINE
  8
0
 62
7
 10
-2.36590227E+02
 20
1.39303023E+01
 11
-1.16590227E+02
 21
1.39303023E+01
  0
LINE
  8
0
 62
7
 10
-1.21590227E+02
 20
1.24303023E+01
 11
-1.21590227E+02
 21
-1.10496977E+01
  0
LINE
  8
0
 62
7
 10
-2.31590227E+02
 20
1.24303023E+01
 11
-2.31590227E+02
 21
-1.10496977E+01
  0
LINE
  8
0
 62
7
 10
-2.14090227E+02
 20
1.19503023E+01
 11
-2.14090227E+02
 21
5.85030228E+00
  0
LINE
  8
0
 62
7
 10
-1.39090227E+02
 20
1.19503023E+01
 11
-1.39090227E+02
 21
5.85030228E+00
  0
LINE
  8
0
 62
7
 10
-2.29590227E+02
 20
5.35030228E+00
 11
-2.14590227E+02
 21
5.35030228E+00
  0
LINE
  8
0
 62
7
 10
-1.38590227E+02
 20
5.35030228E+00
 11
-1.23590227E+02
 21
5.35030228E+00
  0
LINE
  8
0
  6
CENTER
 62
2
 10
-1.31590227E+02
 20
1.79303023E+01
 11
-1.31590227E+02
 21
1.35030228E+00
  0
LINE
  8
0
  6
CENTER
 62
2
 10
-2.21590227E+02
 20
1.79303023E+01
 11
-2.21590227E+02
 21
1.35030228E+00
  0
LINE
  8
0
 62
7
 10
-2.31590227E+02
 20
-1.10496977E+01
 11
-1.21590227E+02
 21
-1.10496977E+01
  0
LINE
  8
0
 62
7
 10
-2.21590227E+02
 20
-1.86349698E+02
 11
-1.31590227E+02
 21
-1.86349698E+02
  0
LINE
  8
0
 62
7
 10
-2.27510227E+02
 20
-1.29696977E+01
 11
-2.24490227E+02
 21
-1.84689698E+02
  0
LINE
  8
0
 62
7
 10
-1.25650227E+02
 20
-1.29696977E+01
 11
-1.28670227E+02
 21
-1.84689698E+02
  0
LINE
  8
0
 62
7
 10
-2.23010227E+02
 20
-1.87169698E+02
 11
-2.13030227E+02
 21
-1.92929698E+02
  0
LINE
  8
0
 62
7
 10
-1.30170227E+02
 20
-1.87169698E+02
 11
-1.40150227E+02
 21
-1.92929698E+02
  0
LINE
  8
0
 62
7
 10
-2.09090227E+02
 20
-1.93769698E+02
 11
-1.44090227E+02
 21
-1.93769698E+02
  0
LINE
  8
0
  6
CENTER
 62
2
 10
-2.00590227E+02
 20
-2.16349698E+02
 11
-1.52590227E+02
 21
-2.16349698E+02
  0
LINE
  8
0
  6
CENTER
 62
2
 10
-2.58810227E+02
 20
3.89303023E+01
 11
-9.43702269E+01
 21
3.89303023E+01
  0
LINE
  8
0
 62
7
 10
-1.18090227E+02
 20
6.39303023E+01
 11
-1.18090227E+02
 21
1.39303023E+01
  0
LINE
  8
0
 62
7
 10
-2.35090227E+02
 20
6.39303023E+01
 11
-1.18090227E+02
 21
6.39303023E+01
  0
LINE
  8
0
 62
7
 10
-1.16590227E+02
 20
6.24303023E+01
 11
-1.16590227E+02
 21
1.39303023E+01
  0
LINE
  8
0
 62
7
 10
-2.36590227E+02
 20
6.24303023E+01
 11
-2.36590227E+02
 21
1.39303023E+01
  0
LINE
  8
0
 62
7
 10
-2.36590227E+02
 20
6.24303023E+01
 11
-2.35090227E+02
 21
6.39303023E+01
  0
LINE
  8
0
 62
7
 10
-1.18090227E+02
 20
6.39303023E+01
 11
-1.16590227E+02
 21
6.24303023E+01
  0
LINE
  8
0
 62
7
 10
-2.36590227E+02
 20
6.24303023E+01
 11
-1.16590227E+02
 21
6.24303023E+01
  0
LINE
  8
0
 62
7
 10
-2.10810227E+02
 20
6.09303023E+01
 11
-1.42370227E+02
 21
6.09303023E+01
  0
LINE
  8
0
 62
7
 10
-1.23590227E+02
 20
5.39303023E+01
 11
-1.23590227E+02
 21
2.39303023E+01
  0
LINE
  8
0
 62
7
 10
-1.37590227E+02
 20
5.39303023E+01
 11
-1.37590227E+02
 21
2.39303023E+01
  0
LINE
  8
0
 62
7
 10
-2.13990227E+02
 20
1.39303023E+01
 11
-2.12410227E+02
 21
5.94303023E+01
  0
LINE
  8
0
 62
7
 10
-1.39170227E+02
 20
1.39303023E+01
 11
-1.40750227E+02
 21
5.94303023E+01
  0
LINE
  8
0
 62
7
 10
-2.12410227E+02
 20
5.94303023E+01
 11
-2.10810227E+02
 21
6.09303023E+01
  0
LINE
  8
0
 62
7
 10
-1.40750227E+02
 20
5.94303023E+01
 11
-1.42370227E+02
 21
6.09303023E+01
  0
LINE
  8
0
 62
7
 10
-2.12410227E+02
 20
5.94303023E+01
 11
-1.40750227E+02
 21
5.94303023E+01
  0
LINE
  8
0
 62
7
 10
-1.37590227E+02
 20
5.39303023E+01
 11
-1.23590227E+02
 21
5.39303023E+01
  0
LINE
  8
0
 62
7
 10
-1.37590227E+02
 20
2.39303023E+01
 11
-1.23590227E+02
 21
2.39303023E+01
  0
LINE
  8
0
 62
7
 10
-1.36710227E+02
 20
5.31103023E+01
 11
-1.36710227E+02
 21
2.47703023E+01
  0
LINE
  8
0
 62
7
 10
-1.24470227E+02
 20
5.31103023E+01
 11
-1.24470227E+02
 21
2.47703023E+01
  0
LINE
  8
0
 62
7
 10
-1.36710227E+02
 20
5.31103023E+01
 11
-1.24470227E+02
 21
5.31103023E+01
  0
LINE
  8
0
 62
7
 10
-1.36710227E+02
 20
2.47703023E+01
 11
-1.24470227E+02
 21
2.47703023E+01
  0
LINE
  8
0
 62
7
 10
-1.37590227E+02
 20
2.39303023E+01
 11
-1.36710227E+02
 21
2.47703023E+01
  0
LINE
  8
0
 62
7
 10
-1.24470227E+02
 20
2.47703023E+01
 11
-1.23590227E+02
 21
2.39303023E+01
  0
LINE
  8
0
 62
7
 10
-1.23590227E+02
 20
5.39303023E+01
 11
-1.24470227E+02
 21
5.31103023E+01
  0
LINE
  8
0
 62
7
 10
-1.37590227E+02
 20
5.39303023E+01
 11
-1.36710227E+02
 21
5.31103023E+01
  0
LINE
  8
0
 62
7
 10
-2.29590227E+02
 20
5.39303023E+01
 11
-2.29590227E+02
 21
2.39303023E+01
  0
LINE
  8
0
 62
7
 10
-2.15590227E+02
 20
5.39303023E+01
 11
-2.15590227E+02
 21
2.39303023E+01
  0
LINE
  8
0
 62
7
 10
-2.15590227E+02
 20
5.39303023E+01
 11
-2.29590227E+02
 21
5.39303023E+01
  0
LINE
  8
0
 62
7
 10
-2.15590227E+02
 20
2.39303023E+01
 11
-2.29590227E+02
 21
2.39303023E+01
  0
LINE
  8
0
 62
7
 10
-2.16470227E+02
 20
5.31103023E+01
 11
-2.16470227E+02
 21
2.47703023E+01
  0
LINE
  8
0
 62
7
 10
-2.28710227E+02
 20
5.31103023E+01
 11
-2.28710227E+02
 21
2.47703023E+01
  0
LINE
  8
0
 62
7
 10
-2.16470227E+02
 20
5.31103023E+01
 11
-2.28710227E+02
 21
5.31103023E+01
  0
LINE
  8
0
 62
7
 10
-2.16470227E+02
 20
2.47703023E+01
 11
-2.28710227E+02
 21
2.47703023E+01
  0
LINE
  8
0
 62
7
 10
-2.15590227E+02
 20
2.39303023E+01
 11
-2.16470227E+02
 21
2.47703023E+01
  0
LINE
  8
0
 62
7
 10
-2.28710227E+02
 20
2.47703023E+01
 11
-2.29590227E+02
 21
2.39303023E+01
  0
LINE
  8
0
 62
7
 10
-2.29590227E+02
 20
5.39303023E+01
 11
-2.28710227E+02
 21
5.31103023E+01
  0
LINE
  8
0
 62
7
 10
-2.15590227E+02
 20
5.39303023E+01
 11
-2.16470227E+02
 21
5.31103023E+01
  0
LINE
  8
0
 62
7
 10
-2.35090227E+02
 20
6.39303023E+01
 11
-2.35090227E+02
 21
1.39303023E+01
  0
LINE
  8
0
  6
CENTER
 62
2
 10
-2.11590227E+02
 20
6.96103023E+01
 11
-2.11590227E+02
 21
5.99303023E+01
  0
LINE
  8
0
  6
CENTER
 62
2
 10
-1.41590227E+02
 20
6.96103023E+01
 11
-1.41590227E+02
 21
5.99303023E+01
  0
LINE
  8
0
 62
4
 10
-2.16950227E+02
 20
6.56103023E+01
 11
-2.06210227E+02
 21
6.56103023E+01
  0
LINE
  8
0
 62
6
 10
-2.05870227E+02
 20
6.54103023E+01
 11
-2.05870227E+02
 21
6.39303023E+01
  0
LINE
  8
0
 62
6
 10
-2.17310227E+02
 20
6.54103023E+01
 11
-2.17310227E+02
 21
6.39303023E+01
  0
LINE
  8
0
 62
4
 10
-2.18170227E+02
 20
6.49103023E+01
 11
-2.05010227E+02
 21
6.49103023E+01
  0
LINE
  8
0
 62
4
 10
-2.18170227E+02
 20
6.49103023E+01
 11
-2.16950227E+02
 21
6.56103023E+01
  0
LINE
  8
0
 62
4
 10
-2.06210227E+02
 20
6.56103023E+01
 11
-2.05010227E+02
 21
6.49103023E+01
  0
LINE
  8
0
 62
4
 10
-2.18170227E+02
 20
6.49103023E+01
 11
-2.18130227E+02
 21
6.39303023E+01
  0
LINE
  8
0
 62
4
 10
-2.05010227E+02
 20
6.49103023E+01
 11
-2.05030227E+02
 21
6.39303023E+01
  0
LINE
  8
0
  6
PHANTOM
 62
6
 10
-2.25590227E+02
 20
9.39303023E+01
 11
-1.27590227E+02
 21
9.39303023E+01
  0
LINE
  8
0
  6
PHANTOM
 62
6
 10
-2.30590227E+02
 20
8.89303023E+01
 11
-2.30590227E+02
 21
6.39303023E+01
  0
LINE
  8
0
  6
PHANTOM
 62
6
 10
-1.22590227E+02
 20
8.89303023E+01
 11
-1.22590227E+02
 21
6.39303023E+01
  0
LINE
  8
0
  6
PHANTOM
 62
6
 10
-2.25590227E+02
 20
9.39303023E+01
 11
-2.30590227E+02
 21
8.89303023E+01
  0
LINE
  8
0
  6
PHANTOM
 62
6
 10
-1.27590227E+02
 20
9.39303023E+01
 11
-1.22590227E+02
 21
8.89303023E+01
  0
LINE
  8
0
  6
CENTER
 62
6
 10
-2.27330227E+02
 20
8.39303023E+01
 11
-2.05830227E+02
 21
8.39303023E+01
  0
LINE
  8
0
  6
CENTER
 62
6
 10
-2.16590227E+02
 20
9.21903023E+01
 11
-2.16590227E+02
 21
7.56903023E+01
  0
LINE
  8
0
  6
CENTER
 62
6
 10
-2.14090227E+02
 20
9.21903023E+01
 11
-2.14090227E+02
 21
7.56903023E+01
  0
LINE
  8
0
  6
CENTER
 62
6
 10
-2.19090227E+02
 20
9.21903023E+01
 11
-2.19090227E+02
 21
7.56903023E+01
  0
LINE
  8
0
  6
PHANTOM
 62
6
 10
-2.19090227E+02
 20
8.81903023E+01
 11
-2.14090227E+02
 21
8.81903023E+01
  0
LINE
  8
0
  6
PHANTOM
 62
6
 10
-2.19090227E+02
 20
7.96903023E+01
 11
-2.14090227E+02
 21
7.96903023E+01
  0
LINE
  8
0
  6
CENTER
 62
6
 10
-1.39090227E+02
 20
9.21903023E+01
 11
-1.39090227E+02
 21
7.56903023E+01
  0
LINE
  8
0
  6
CENTER
 62
6
 10
-1.36590227E+02
 20
9.21903023E+01
 11
-1.36590227E+02
 21
7.56903023E+01
  0
LINE
  8
0
  6
PHANTOM
 62
6
 10
-1.34090227E+02
 20
8.81903023E+01
 11
-1.39090227E+02
 21
8.81903023E+01
  0
LINE
  8
0
  6
CENTER
 62
6
 10
-1.34090227E+02
 20
9.21903023E+01
 11
-1.34090227E+02
 21
7.56903023E+01
  0
LINE
  8
0
  6
CENTER
 62
6
 10
-1.25830227E+02
 20
8.39303023E+01
 11
-1.47330227E+02
 21
8.39303023E+01
  0
LINE
  8
0
  6
PHANTOM
 62
6
 10
-1.34090227E+02
 20
7.96903023E+01
 11
-1.39090227E+02
 21
7.96903023E+01
  0
LINE
  8
0
 62
7
 10
-1.91970227E+02
 20
-2.46349698E+02
 11
-1.61190227E+02
 21
-2.46349698E+02
  0
LINE
  8
0
 62
7
 10
-2.07590227E+02
 20
-2.36349698E+02
 11
-1.45590227E+02
 21
-2.36349698E+02
  0
LINE
  8
0
 62
7
 10
-2.11530227E+02
 20
-1.95429698E+02
 11
-2.10150227E+02
 21
-2.34689698E+02
  0
LINE
  8
0
 62
7
 10
-1.41650227E+02
 20
-1.95429698E+02
 11
-1.43010227E+02
 21
-2.34689698E+02
  0
LINE
  8
0
 62
7
 10
-2.08650227E+02
 20
-2.37169698E+02
 11
-1.93470227E+02
 21
-2.45949698E+02
  0
LINE
  8
0
 62
7
 10
-1.44510227E+02
 20
-2.37169698E+02
 11
-1.59690227E+02
 21
-2.45949698E+02
  0
LINE
  8
0
 62
4
 10
-1.84150227E+02
 20
-2.52849698E+02
 11
-1.69010227E+02
 21
-2.52849698E+02
  0
LINE
  8
0
 62
4
 10
-1.68510227E+02
 20
-2.46349698E+02
 11
-1.68510227E+02
 21
-2.52349698E+02
  0
LINE
  8
0
 62
4
 10
-1.84650227E+02
 20
-2.46349698E+02
 11
-1.84650227E+02
 21
-2.52349698E+02
  0
LINE
  8
0
 62
4
 10
-1.83330227E+02
 20
-2.67549698E+02
 11
-1.69830227E+02
 21
-2.67549698E+02
  0
LINE
  8
0
 62
4
 10
-1.84330227E+02
 20
-2.54549698E+02
 11
-1.84330227E+02
 21
-2.66549698E+02
  0
LINE
  8
0
 62
4
 10
-1.68830227E+02
 20
-2.54549698E+02
 11
-1.68830227E+02
 21
-2.66549698E+02
  0
LINE
  8
0
 62
4
 10
-1.84330227E+02
 20
-2.66549698E+02
 11
-1.83330227E+02
 21
-2.67549698E+02
  0
LINE
  8
0
 62
4
 10
-1.69830227E+02
 20
-2.67549698E+02
 11
-1.68830227E+02
 21
-2.66549698E+02
  0
LINE
  8
0
 62
4
 10
-1.84190227E+02
 20
-2.57049698E+02
 11
-1.83030227E+02
 21
-2.57049698E+02
  0
LINE
  8
0
 62
4
 10
-1.83830227E+02
 20
-2.54049698E+02
 11
-1.69330227E+02
 21
-2.54049698E+02
  0
LINE
  8
0
 62
4
 10
-1.84330227E+02
 20
-2.54549698E+02
 11
-1.83830227E+02
 21
-2.54049698E+02
  0
LINE
  8
0
 62
4
 10
-1.69330227E+02
 20
-2.54049698E+02
 11
-1.68830227E+02
 21
-2.54549698E+02
  0
LINE
  8
0
 62
4
 10
-1.82590227E+02
 20
-2.52849698E+02
 11
-1.82590227E+02
 21
-2.54049698E+02
  0
LINE
  8
0
 62
4
 10
-1.70590227E+02
 20
-2.52849698E+02
 11
-1.70590227E+02
 21
-2.54049698E+02
  0
LINE
  8
0
 62
4
 10
-1.84650227E+02
 20
-2.52349698E+02
 11
-1.84150227E+02
 21
-2.52849698E+02
  0
LINE
  8
0
 62
4
 10
-1.68510227E+02
 20
-2.52349698E+02
 11
-1.69010227E+02
 21
-2.52849698E+02
  0
LINE
  8
0
 62
4
 10
-1.84650227E+02
 20
-2.52349698E+02
 11
-1.68510227E+02
 21
-2.52349698E+02
  0
LINE
  8
0
 62
4
 10
-1.84330227E+02
 20
-2.54549698E+02
 11
-1.68830227E+02
 21
-2.54549698E+02
  0
LINE
  8
0
 62
4
 10
-1.84190227E+02
 20
-2.57329698E+02
 11
-1.83590227E+02
 21
-2.57329698E+02
  0
LINE
  8
0
 62
4
 10
-1.84330227E+02
 20
-2.66549698E+02
 11
-1.84190227E+02
 21
-2.66549698E+02
  0
LINE
  8
0
 62
4
 10
-1.78090227E+02
 20
-2.57049698E+02
 11
-1.78090227E+02
 21
-2.66549698E+02
  0
LINE
  8
0
 62
4
 10
-1.75090227E+02
 20
-2.57049698E+02
 11
-1.75090227E+02
 21
-2.66549698E+02
  0
LINE
  8
0
 62
4
 10
-1.75090227E+02
 20
-2.57049698E+02
 11
-1.72270227E+02
 21
-2.57049698E+02
  0
LINE
  8
0
 62
4
 10
-1.74750227E+02
 20
-2.57329698E+02
 11
-1.72930227E+02
 21
-2.57329698E+02
  0
LINE
  8
0
 62
4
 10
-1.78090227E+02
 20
-2.66549698E+02
 11
-1.75090227E+02
 21
-2.66549698E+02
  0
LINE
  8
0
 62
4
 10
-1.72270227E+02
 20
-2.66549698E+02
 11
-1.70150227E+02
 21
-2.66549698E+02
  0
LINE
  8
0
 62
4
 10
-1.83830227E+02
 20
-2.67049698E+02
 11
-1.83590227E+02
 21
-2.67049698E+02
  0
LINE
  8
0
 62
4
 10
-1.74750227E+02
 20
-2.57329698E+02
 11
-1.74750227E+02
 21
-2.67049698E+02
  0
LINE
  8
0
 62
4
 10
-1.78430227E+02
 20
-2.57329698E+02
 11
-1.78430227E+02
 21
-2.67049698E+02
  0
LINE
  8
0
 62
4
 10
-1.78430227E+02
 20
-2.67049698E+02
 11
-1.74750227E+02
 21
-2.67049698E+02
  0
LINE
  8
0
 62
4
 10
-1.72930227E+02
 20
-2.67049698E+02
 11
-1.70150227E+02
 21
-2.67049698E+02
  0
LINE
  8
0
 62
4
 10
-1.72930227E+02
 20
-2.57329698E+02
 11
-1.72930227E+02
 21
-2.67049698E+02
  0
LINE
  8
0
 62
4
 10
-1.80230227E+02
 20
-2.57329698E+02
 11
-1.80230227E+02
 21
-2.67049698E+02
  0
LINE
  8
0
 62
4
 10
-1.80890227E+02
 20
-2.57049698E+02
 11
-1.80890227E+02
 21
-2.66549698E+02
  0
LINE
  8
0
 62
4
 10
-1.72270227E+02
 20
-2.57049698E+02
 11
-1.72270227E+02
 21
-2.66549698E+02
  0
LINE
  8
0
 62
4
 10
-1.70150227E+02
 20
-2.57049698E+02
 11
-1.68970227E+02
 21
-2.57049698E+02
  0
LINE
  8
0
 62
4
 10
-1.69570227E+02
 20
-2.57329698E+02
 11
-1.68970227E+02
 21
-2.57329698E+02
  0
LINE
  8
0
 62
4
 10
-1.80890227E+02
 20
-2.57049698E+02
 11
-1.78090227E+02
 21
-2.57049698E+02
  0
LINE
  8
0
 62
4
 10
-1.80230227E+02
 20
-2.57329698E+02
 11
-1.78430227E+02
 21
-2.57329698E+02
  0
LINE
  8
0
 62
4
 10
-1.83030227E+02
 20
-2.66549698E+02
 11
-1.80890227E+02
 21
-2.66549698E+02
  0
LINE
  8
0
 62
4
 10
-1.83030227E+02
 20
-2.67049698E+02
 11
-1.80230227E+02
 21
-2.67049698E+02
  0
LINE
  8
0
 62
4
 10
-1.68970227E+02
 20
-2.66549698E+02
 11
-1.68830227E+02
 21
-2.66549698E+02
  0
LINE
  8
0
 62
4
 10
-1.69570227E+02
 20
-2.67049698E+02
 11
-1.69330227E+02
 21
-2.67049698E+02
  0
LINE
  8
0
 62
4
 10
-1.83030227E+02
 20
-2.57049698E+02
 11
-1.83030227E+02
 21
-2.67049698E+02
  0
LINE
  8
0
 62
4
 10
-1.70150227E+02
 20
-2.57049698E+02
 11
-1.70150227E+02
 21
-2.67049698E+02
  0
LINE
  8
0
 62
4
 10
-1.83590227E+02
 20
-2.57329698E+02
 11
-1.83590227E+02
 21
-2.67049698E+02
  0
LINE
  8
0
 62
4
 10
-1.69570227E+02
 20
-2.57329698E+02
 11
-1.69570227E+02
 21
-2.67049698E+02
  0
LINE
  8
0
 62
4
 10
-1.84190227E+02
 20
-2.57049698E+02
 11
-1.84190227E+02
 21
-2.66549698E+02
  0
LINE
  8
0
 62
4
 10
-1.68970227E+02
 20
-2.57049698E+02
 11
-1.68970227E+02
 21
-2.66549698E+02
  0
LINE
  8
0
 62
4
 10
-1.78430227E+02
 20
-2.57329698E+02
 11
-1.78090227E+02
 21
-2.57049698E+02
  0
LINE
  8
0
 62
4
 10
-1.75090227E+02
 20
-2.57049698E+02
 11
-1.74750227E+02
 21
-2.57329698E+02
  0
LINE
  8
0
 62
4
 10
-1.75090227E+02
 20
-2.66549698E+02
 11
-1.74750227E+02
 21
-2.67049698E+02
  0
LINE
  8
0
 62
4
 10
-1.78090227E+02
 20
-2.66549698E+02
 11
-1.78430227E+02
 21
-2.67049698E+02
  0
LINE
  8
0
 62
4
 10
-1.80890227E+02
 20
-2.57049698E+02
 11
-1.80230227E+02
 21
-2.57329698E+02
  0
LINE
  8
0
 62
4
 10
-1.72930227E+02
 20
-2.57329698E+02
 11
-1.72270227E+02
 21
-2.57049698E+02
  0
LINE
  8
0
 62
4
 10
-1.72270227E+02
 20
-2.66549698E+02
 11
-1.72930227E+02
 21
-2.67049698E+02
  0
LINE
  8
0
 62
4
 10
-1.80890227E+02
 20
-2.66549698E+02
 11
-1.80230227E+02
 21
-2.67049698E+02
  0
LINE
  8
0
 62
4
 10
-1.83590227E+02
 20
-2.57329698E+02
 11
-1.83030227E+02
 21
-2.57109698E+02
  0
LINE
  8
0
 62
4
 10
-1.70150227E+02
 20
-2.57109698E+02
 11
-1.69570227E+02
 21
-2.57329698E+02
  0
LINE
  8
0
 62
4
 10
-1.84190227E+02
 20
-2.66549698E+02
 11
-1.83590227E+02
 21
-2.67049698E+02
  0
LINE
  8
0
 62
4
 10
-1.68970227E+02
 20
-2.66549698E+02
 11
-1.69570227E+02
 21
-2.67049698E+02
  0
LINE
  8
0
 62
4
 10
-1.46950227E+02
 20
6.56103023E+01
 11
-1.36210227E+02
 21
6.56103023E+01
  0
LINE
  8
0
 62
4
 10
-1.48170227E+02
 20
6.49103023E+01
 11
-1.46950227E+02
 21
6.56103023E+01
  0
LINE
  8
0
 62
6
 10
-1.47310227E+02
 20
6.54103023E+01
 11
-1.47310227E+02
 21
6.39303023E+01
  0
LINE
  8
0
 62
4
 10
-1.48170227E+02
 20
6.49103023E+01
 11
-1.35010227E+02
 21
6.49103023E+01
  0
LINE
  8
0
 62
4
 10
-1.48170227E+02
 20
6.49103023E+01
 11
-1.48130227E+02
 21
6.39303023E+01
  0
LINE
  8
0
 62
4
 10
-1.36210227E+02
 20
6.56103023E+01
 11
-1.35010227E+02
 21
6.49103023E+01
  0
LINE
  8
0
 62
6
 10
-1.35870227E+02
 20
6.54103023E+01
 11
-1.35870227E+02
 21
6.39303023E+01
  0
LINE
  8
0
 62
4
 10
-1.35010227E+02
 20
6.49103023E+01
 11
-1.35030227E+02
 21
6.39303023E+01
  0
ARC
  8
0
 62
7
 10
-2.33083581E+02
 20
1.24369478E+01
 40
1.49336926E+00
 50
3.59745032E+02
 51
9.02549681E+01
  0
ARC
  8
0
 62
7
 10
-1.20099082E+02
 20
1.24391577E+01
 40
1.49117089E+00
 50
8.96597440E+01
 51
1.80340257E+02
  0
ARC
  8
0
 62
7
 10
-2.14589105E+02
 20
5.84918056E+00
 40
4.98879546E-01
 50
2.69871172E+02
 51
1.28827849E-01
  0
ARC
  8
0
 62
7
 10
-1.38593557E+02
 20
5.84697226E+00
 40
4.96681148E-01
 50
1.79615856E+02
 51
2.70384144E+02
  0
ARC
  8
0
 62
7
 10
-2.12099125E+02
 20
1.19391893E+01
 40
1.99113286E+00
 50
8.97439505E+01
 51
1.79680217E+02
  0
ARC
  8
0
 62
7
 10
-1.41083514E+02
 20
1.19369822E+01
 40
1.99333134E+00
 50
3.82870296E-01
 51
9.01929621E+01
  0
ARC
  8
0
 62
7
 10
-2.29589091E+02
 20
3.34916669E+00
 40
2.00113591E+00
 50
9.00325138E+01
 51
1.79967486E+02
  0
ARC
  8
0
 62
7
 10
-1.23593559E+02
 20
3.34697066E+00
 40
2.00333439E+00
 50
9.52850574E-02
 51
8.99047150E+01
  0
ARC
  8
0
 62
7
 10
-2.29518120E+02
 20
-1.30595863E+01
 40
2.00990408E+00
 50
2.56328385E+00
 51
8.97749951E+01
  0
ARC
  8
0
 62
7
 10
-1.23654016E+02
 20
-1.30474176E+01
 40
1.99772348E+00
 50
8.98913319E+01
 51
1.77770390E+02
  0
ARC
  8
0
 62
7
 10
-2.21507260E+02
 20
-1.84591153E+02
 40
2.98459451E+00
 50
1.81892128E+02
 51
2.39763196E+02
  0
ARC
  8
0
 62
7
 10
-1.31665788E+02
 20
-1.84571496E+02
 40
2.99789186E+00
 50
2.99925320E+02
 51
3.57740334E+02
  0
ARC
  8
0
 62
7
 10
-2.14538176E+02
 20
-1.95534467E+02
 40
3.00977309E+00
 50
1.99485424E+00
 51
5.99326591E+01
  0
ARC
  8
0
 62
7
 10
-1.38645482E+02
 20
-1.95532545E+02
 40
3.00650478E+00
 50
1.20032854E+02
 51
1.78039633E+02
  0
ARC
  8
0
  6
PHANTOM
 62
6
 10
-2.19090227E+02
 20
8.39403023E+01
 40
4.25000057E+00
 50
9.00000002E+01
 51
2.70000000E+02
  0
ARC
  8
0
  6
PHANTOM
 62
6
 10
-2.14090227E+02
 20
8.39403023E+01
 40
4.25000057E+00
 50
2.70000000E+02
 51
9.00000002E+01
  0
ARC
  8
0
  6
PHANTOM
 62
6
 10
-1.39090227E+02
 20
8.39403023E+01
 40
4.25000057E+00
 50
9.00000002E+01
 51
2.70000000E+02
  0
ARC
  8
0
  6
PHANTOM
 62
6
 10
-1.34090227E+02
 20
8.39403023E+01
 40
4.25000057E+00
 50
2.70000000E+02
 51
9.00000002E+01
  0
CIRCLE
  8
0
 62
7
 10
-1.76592425E+02
 20
-2.16354144E+02
 40
1.55000000E+01
  0
CIRCLE
  8
0
 62
7
 10
-1.76592425E+02
 20
-2.16354144E+02
 40
1.99999981E+01
  0
CIRCLE
  8
0
 62
7
 10
-1.76592425E+02
 20
-2.16354144E+02
 40
1.90000000E+01
  0
CIRCLE
  8
0
 62
7
 10
-1.76592425E+02
 20
-2.16354144E+02
 40
1.50000000E+01
  0
ARC
  8
0
 62
7
 10
-2.07169684E+02
 20
-2.34580579E+02
 40
2.98253922E+00
 50
1.82096677E+02
 51
2.40237668E+02
  0
ARC
  8
0
 62
7
 10
-1.91975176E+02
 20
-2.43355757E+02
 40
2.99394517E+00
 50
2.40042455E+02
 51
2.70094711E+02
  0
ARC
  8
0
 62
7
 10
-1.61186908E+02
 20
-2.43349642E+02
 40
3.00005719E+00
 50
2.69936621E+02
 51
2.99926213E+02
  0
ARC
  8
0
 62
7
 10
-1.46008677E+02
 20
-2.34569748E+02
 40
3.00084862E+00
 50
2.99956490E+02
 51
3.57709165E+02
  0
CIRCLE
  8
0
 62
7
 10
-1.81428424E+02
 20
-2.28573473E+02
 40
1.00000000E+00
  0
CIRCLE
  8
0
 62
7
 10
-1.71756427E+02
 20
-2.28573473E+02
 40
1.00000000E+00
  0
LINE
  8
0
 62
7
 10
-1.25092425E+02
 20
1.28458382E+01
 11
-1.25962425E+02
 21
1.33458382E+01
  0
LINE
  8
0
 62
7
 10
-1.25092425E+02
 20
1.28458382E+01
 11
-1.25092425E+02
 21
5.34583817E+00
  0
LINE
  8
0
 62
7
 10
-1.38092425E+02
 20
1.28458382E+01
 11
-1.25092425E+02
 21
1.28458382E+01
  0
LINE
  8
0
 62
7
 10
-1.37222425E+02
 20
1.33458382E+01
 11
-1.25962425E+02
 21
1.33458382E+01
  0
LINE
  8
0
 62
7
 10
-1.38092425E+02
 20
1.28458382E+01
 11
-1.37222425E+02
 21
1.33458382E+01
  0
LINE
  8
0
 62
7
 10
-1.38092425E+02
 20
1.28458382E+01
 11
-1.38092425E+02
 21
5.34583817E+00
  0
LINE
  8
0
 62
7
 10
-2.15092425E+02
 20
1.28458382E+01
 11
-2.15962425E+02
 21
1.33458382E+01
  0
LINE
  8
0
 62
7
 10
-2.15092425E+02
 20
1.28458382E+01
 11
-2.15092425E+02
 21
5.34583817E+00
  0
LINE
  8
0
 62
7
 10
-2.28092425E+02
 20
1.28458382E+01
 11
-2.15092425E+02
 21
1.28458382E+01
  0
LINE
  8
0
 62
7
 10
-2.27222425E+02
 20
1.33458382E+01
 11
-2.15962425E+02
 21
1.33458382E+01
  0
LINE
  8
0
 62
7
 10
-2.28092425E+02
 20
1.28458382E+01
 11
-2.27222425E+02
 21
1.33458382E+01
  0
LINE
  8
0
 62
7
 10
-2.28092425E+02
 20
1.28458382E+01
 11
-2.28092425E+02
 21
5.34583817E+00
  0
ARC
  8
0
 62
7
 10
-1.71762766E+02
 20
-2.28577314E+02
 40
1.51004724E+00
 50
4.74913752E+01
 51
1.94842970E+02
  0
ARC
  8
0
 62
7
 10
-1.76592425E+02
 20
-2.17104144E+02
 40
1.34437532E+01
 50
3.09052512E+02
 51
2.30947488E+02
  0
ARC
  8
0
 62
7
 10
-1.83798522E+02
 20
-2.25994475E+02
 40
1.99973131E+00
 50
2.30799466E+02
 51
3.12698427E+02
  0
ARC
  8
0
 62
7
 10
-1.81422085E+02
 20
-2.28577314E+02
 40
1.51004724E+00
 50
3.45157030E+02
 51
1.32508625E+02
  0
ARC
  8
0
 62
7
 10
-1.69386329E+02
 20
-2.25994475E+02
 40
1.99973131E+00
 50
2.27301573E+02
 51
3.09200534E+02
  0
ARC
  8
0
 62
7
 10
-1.76592425E+02
 20
-2.16354144E+02
 40
1.49908239E+01
 50
2.54999647E+02
 51
2.85000353E+02
  0
LINE
  8
0
 62
7
 10
-1.79962425E+02
 20
-2.28964144E+02
 11
-1.80472425E+02
 21
-2.30834144E+02
  0
LINE
  8
0
 62
7
 10
-1.73222425E+02
 20
-2.28964144E+02
 11
-1.72712425E+02
 21
-2.30834144E+02
  0
LINE
  8
0
  6
CENTER
 62
2
 10
5.57097731E+01
 20
6.89303023E+01
 11
5.57097731E+01
 21
-2.73549698E+02
  0
LINE
  8
0
 62
7
 10
3.22097731E+01
 20
6.39303023E+01
 11
7.92097731E+01
 21
6.39303023E+01
  0
LINE
  8
0
 62
7
 10
7.09773071E-01
 20
-1.04969772E+00
 11
1.10709773E+02
 21
-1.04969772E+00
  0
LINE
  8
0
 62
7
 10
7.09773071E-01
 20
1.19503023E+01
 11
7.09773071E-01
 21
-1.10496977E+01
  0
LINE
  8
0
 62
7
 10
1.10709773E+02
 20
1.19503023E+01
 11
1.10709773E+02
 21
-1.10496977E+01
  0
LINE
  8
0
 62
7
 10
3.07097731E+01
 20
6.24303023E+01
 11
3.07097731E+01
 21
1.54303023E+01
  0
LINE
  8
0
 62
7
 10
8.07097731E+01
 20
6.24303023E+01
 11
8.07097731E+01
 21
1.54303023E+01
  0
LINE
  8
0
 62
7
 10
3.22097731E+01
 20
6.39303023E+01
 11
3.07097731E+01
 21
6.24303023E+01
  0
LINE
  8
0
 62
7
 10
7.92097731E+01
 20
6.39303023E+01
 11
8.07097731E+01
 21
6.24303023E+01
  0
LINE
  8
0
 62
7
 10
3.07097731E+01
 20
6.24303023E+01
 11
8.07097731E+01
 21
6.24303023E+01
  0
LINE
  8
0
 62
7
 10
1.39097731E+01
 20
6.09303023E+01
 11
3.07097731E+01
 21
6.09303023E+01
  0
LINE
  8
0
 62
7
 10
8.07097731E+01
 20
6.09303023E+01
 11
9.75697731E+01
 21
6.09303023E+01
  0
LINE
  8
0
 62
7
 10
1.07897731E+01
 20
1.58703023E+01
 11
1.23097731E+01
 21
5.94303023E+01
  0
LINE
  8
0
 62
7
 10
1.00649773E+02
 20
1.58703023E+01
 11
9.91297731E+01
 21
5.93903023E+01
  0
LINE
  8
0
 62
7
 10
1.23097731E+01
 20
5.94303023E+01
 11
1.39097731E+01
 21
6.09303023E+01
  0
LINE
  8
0
 62
7
 10
9.75697731E+01
 20
6.09303023E+01
 11
9.91297731E+01
 21
5.93903023E+01
  0
LINE
  8
0
 62
7
 10
1.23097731E+01
 20
5.94303023E+01
 11
3.07097731E+01
 21
5.94303023E+01
  0
LINE
  8
0
 62
7
 10
9.91297731E+01
 20
5.93903023E+01
 11
8.07097731E+01
 21
5.93903023E+01
  0
LINE
  8
0
 62
7
 10
1.82097731E+01
 20
1.19503023E+01
 11
1.82097731E+01
 21
5.85030228E+00
  0
LINE
  8
0
 62
7
 10
9.32097731E+01
 20
1.19503023E+01
 11
9.32097731E+01
 21
5.85030228E+00
  0
LINE
  8
0
 62
7
 10
2.70977307E+00
 20
5.35030228E+00
 11
1.77097731E+01
 21
5.35030228E+00
  0
LINE
  8
0
 62
7
 10
9.37097731E+01
 20
5.35030228E+00
 11
1.08709773E+02
 21
5.35030228E+00
  0
LINE
  8
0
  6
CENTER
 62
2
 10
3.17097731E+01
 20
3.89303023E+01
 11
7.97097731E+01
 21
3.89303023E+01
  0
LINE
  8
0
  6
CENTER
 62
2
 10
1.07097731E+01
 20
1.79303023E+01
 11
1.07097731E+01
 21
1.35030228E+00
  0
LINE
  8
0
  6
CENTER
 62
2
 10
1.00709773E+02
 20
1.79303023E+01
 11
1.00709773E+02
 21
1.35030228E+00
  0
LINE
  8
0
 62
7
 10
3.22097731E+01
 20
6.39303023E+01
 11
3.22097731E+01
 21
1.39303023E+01
  0
LINE
  8
0
 62
7
 10
7.92097731E+01
 20
6.39303023E+01
 11
7.92097731E+01
 21
1.39303023E+01
  0
LINE
  8
0
 62
7
 10
2.70977307E+00
 20
1.39303023E+01
 11
1.08709773E+02
 21
1.39303023E+01
  0
LINE
  8
0
 62
7
 10
1.10709773E+02
 20
-1.10496977E+01
 11
7.09773071E-01
 21
-1.10496977E+01
  0
LINE
  8
0
 62
7
 10
7.11097731E+01
 20
-2.46349698E+02
 11
4.03297731E+01
 21
-2.46349698E+02
  0
LINE
  8
0
 62
7
 10
1.00709773E+02
 20
-1.86349698E+02
 11
1.07097731E+01
 21
-1.86349698E+02
  0
LINE
  8
0
 62
7
 10
1.06649773E+02
 20
-1.29696977E+01
 11
1.03629773E+02
 21
-1.84689698E+02
  0
LINE
  8
0
 62
7
 10
4.78977307E+00
 20
-1.29696977E+01
 11
7.80977307E+00
 21
-1.84689698E+02
  0
LINE
  8
0
 62
7
 10
1.02129773E+02
 20
-1.87169698E+02
 11
9.21497731E+01
 21
-1.92929698E+02
  0
LINE
  8
0
 62
7
 10
9.28977307E+00
 20
-1.87169698E+02
 11
1.92697731E+01
 21
-1.92929698E+02
  0
LINE
  8
0
 62
7
 10
8.82097731E+01
 20
-1.93769698E+02
 11
2.32097731E+01
 21
-1.93769698E+02
  0
LINE
  8
0
 62
7
 10
8.67097731E+01
 20
-2.36349698E+02
 11
2.47097731E+01
 21
-2.36349698E+02
  0
LINE
  8
0
 62
7
 10
9.06497731E+01
 20
-1.95429698E+02
 11
8.92897731E+01
 21
-2.34689698E+02
  0
LINE
  8
0
 62
7
 10
8.77897731E+01
 20
-2.37169698E+02
 11
7.26097731E+01
 21
-2.45949698E+02
  0
LINE
  8
0
 62
7
 10
2.36497731E+01
 20
-2.37169698E+02
 11
3.88297731E+01
 21
-2.45949698E+02
  0
LINE
  8
0
 62
7
 10
7.70977307E+00
 20
-1.97349698E+02
 11
7.70977307E+00
 21
-2.35349698E+02
  0
LINE
  8
0
 62
7
 10
8.70977307E+00
 20
-2.36349698E+02
 11
2.24697731E+01
 21
-2.36349698E+02
  0
LINE
  8
0
 62
7
 10
8.70977307E+00
 20
-1.96349698E+02
 11
1.39897731E+01
 21
-1.96349698E+02
  0
LINE
  8
0
  6
CENTER
 62
2
 10
3.70977307E+00
 20
-2.16349698E+02
 11
2.55097731E+01
 21
-2.16349698E+02
  0
LINE
  8
0
 62
7
 10
7.70977307E+00
 20
-1.97349698E+02
 11
8.70977307E+00
 21
-1.96349698E+02
  0
LINE
  8
0
 62
7
 10
8.70977307E+00
 20
-2.36349698E+02
 11
7.70977307E+00
 21
-2.35349698E+02
  0
LINE
  8
0
 62
7
 10
8.70977307E+00
 20
-2.36349698E+02
 11
8.70977307E+00
 21
-1.96349698E+02
  0
LINE
  8
0
 62
7
 10
2.07697731E+01
 20
-1.95429698E+02
 11
2.21497731E+01
 21
-2.34689698E+02
  0
LINE
  8
0
 62
4
 10
6.21497731E+01
 20
-2.57109698E+02
 11
6.27297731E+01
 21
-2.57329698E+02
  0
LINE
  8
0
 62
4
 10
6.33097731E+01
 20
-2.66549698E+02
 11
6.27297731E+01
 21
-2.67049698E+02
  0
LINE
  8
0
 62
4
 10
4.81097731E+01
 20
-2.66549698E+02
 11
4.87097731E+01
 21
-2.67049698E+02
  0
LINE
  8
0
 62
4
 10
4.81497731E+01
 20
-2.52849698E+02
 11
6.32897731E+01
 21
-2.52849698E+02
  0
LINE
  8
0
 62
4
 10
6.37897731E+01
 20
-2.46349698E+02
 11
6.37897731E+01
 21
-2.52349698E+02
  0
LINE
  8
0
 62
4
 10
4.76497731E+01
 20
-2.46349698E+02
 11
4.76497731E+01
 21
-2.52349698E+02
  0
LINE
  8
0
 62
4
 10
4.89697731E+01
 20
-2.67549698E+02
 11
6.24697731E+01
 21
-2.67549698E+02
  0
LINE
  8
0
 62
4
 10
4.79697731E+01
 20
-2.54549698E+02
 11
4.79697731E+01
 21
-2.66549698E+02
  0
LINE
  8
0
 62
4
 10
6.34697731E+01
 20
-2.54549698E+02
 11
6.34697731E+01
 21
-2.66549698E+02
  0
LINE
  8
0
 62
4
 10
4.79697731E+01
 20
-2.66549698E+02
 11
4.89697731E+01
 21
-2.67549698E+02
  0
LINE
  8
0
 62
4
 10
6.24697731E+01
 20
-2.67549698E+02
 11
6.34697731E+01
 21
-2.66549698E+02
  0
LINE
  8
0
 62
4
 10
4.81097731E+01
 20
-2.57049698E+02
 11
4.92697731E+01
 21
-2.57049698E+02
  0
LINE
  8
0
 62
4
 10
4.84697731E+01
 20
-2.54049698E+02
 11
6.29697731E+01
 21
-2.54049698E+02
  0
LINE
  8
0
 62
4
 10
4.79697731E+01
 20
-2.54549698E+02
 11
4.84697731E+01
 21
-2.54049698E+02
  0
LINE
  8
0
 62
4
 10
6.29697731E+01
 20
-2.54049698E+02
 11
6.34697731E+01
 21
-2.54549698E+02
  0
LINE
  8
0
 62
4
 10
4.97097731E+01
 20
-2.52849698E+02
 11
4.97097731E+01
 21
-2.54049698E+02
  0
LINE
  8
0
 62
4
 10
6.17097731E+01
 20
-2.52849698E+02
 11
6.17097731E+01
 21
-2.54049698E+02
  0
LINE
  8
0
 62
4
 10
4.76497731E+01
 20
-2.52349698E+02
 11
4.81497731E+01
 21
-2.52849698E+02
  0
LINE
  8
0
 62
4
 10
6.37897731E+01
 20
-2.52349698E+02
 11
6.32897731E+01
 21
-2.52849698E+02
  0
LINE
  8
0
 62
4
 10
4.76497731E+01
 20
-2.52349698E+02
 11
6.37897731E+01
 21
-2.52349698E+02
  0
LINE
  8
0
 62
4
 10
4.79697731E+01
 20
-2.54549698E+02
 11
6.34697731E+01
 21
-2.54549698E+02
  0
LINE
  8
0
 62
4
 10
4.81097731E+01
 20
-2.57329698E+02
 11
4.87097731E+01
 21
-2.57329698E+02
  0
LINE
  8
0
 62
4
 10
4.79697731E+01
 20
-2.66549698E+02
 11
4.81097731E+01
 21
-2.66549698E+02
  0
LINE
  8
0
 62
4
 10
5.42097731E+01
 20
-2.57049698E+02
 11
5.42097731E+01
 21
-2.66549698E+02
  0
LINE
  8
0
 62
4
 10
5.72097731E+01
 20
-2.57049698E+02
 11
5.72097731E+01
 21
-2.66549698E+02
  0
LINE
  8
0
 62
4
 10
5.72097731E+01
 20
-2.57049698E+02
 11
6.00297731E+01
 21
-2.57049698E+02
  0
LINE
  8
0
 62
4
 10
5.75497731E+01
 20
-2.57329698E+02
 11
5.93697731E+01
 21
-2.57329698E+02
  0
LINE
  8
0
 62
4
 10
5.42097731E+01
 20
-2.66549698E+02
 11
5.72097731E+01
 21
-2.66549698E+02
  0
LINE
  8
0
 62
4
 10
6.00297731E+01
 20
-2.66549698E+02
 11
6.21497731E+01
 21
-2.66549698E+02
  0
LINE
  8
0
 62
4
 10
4.84697731E+01
 20
-2.67049698E+02
 11
4.87097731E+01
 21
-2.67049698E+02
  0
LINE
  8
0
 62
4
 10
5.75497731E+01
 20
-2.57329698E+02
 11
5.75497731E+01
 21
-2.67049698E+02
  0
LINE
  8
0
 62
4
 10
5.38697731E+01
 20
-2.57329698E+02
 11
5.38697731E+01
 21
-2.67049698E+02
  0
LINE
  8
0
 62
4
 10
5.38697731E+01
 20
-2.67049698E+02
 11
5.75497731E+01
 21
-2.67049698E+02
  0
LINE
  8
0
 62
4
 10
5.93697731E+01
 20
-2.67049698E+02
 11
6.21497731E+01
 21
-2.67049698E+02
  0
LINE
  8
0
 62
4
 10
5.93697731E+01
 20
-2.57329698E+02
 11
5.93697731E+01
 21
-2.67049698E+02
  0
LINE
  8
0
 62
4
 10
5.20497731E+01
 20
-2.57329698E+02
 11
5.20497731E+01
 21
-2.67049698E+02
  0
LINE
  8
0
 62
4
 10
5.13897731E+01
 20
-2.57049698E+02
 11
5.13897731E+01
 21
-2.66549698E+02
  0
LINE
  8
0
 62
4
 10
6.00297731E+01
 20
-2.57049698E+02
 11
6.00297731E+01
 21
-2.66549698E+02
  0
LINE
  8
0
 62
4
 10
6.21497731E+01
 20
-2.57049698E+02
 11
6.33097731E+01
 21
-2.57049698E+02
  0
LINE
  8
0
 62
4
 10
6.27297731E+01
 20
-2.57329698E+02
 11
6.33097731E+01
 21
-2.57329698E+02
  0
LINE
  8
0
 62
4
 10
5.13897731E+01
 20
-2.57049698E+02
 11
5.42097731E+01
 21
-2.57049698E+02
  0
LINE
  8
0
 62
4
 10
5.20497731E+01
 20
-2.57329698E+02
 11
5.38697731E+01
 21
-2.57329698E+02
  0
LINE
  8
0
 62
4
 10
4.92697731E+01
 20
-2.66549698E+02
 11
5.13897731E+01
 21
-2.66549698E+02
  0
LINE
  8
0
 62
4
 10
4.92697731E+01
 20
-2.67049698E+02
 11
5.20497731E+01
 21
-2.67049698E+02
  0
LINE
  8
0
 62
4
 10
6.33097731E+01
 20
-2.66549698E+02
 11
6.34697731E+01
 21
-2.66549698E+02
  0
LINE
  8
0
 62
4
 10
6.27297731E+01
 20
-2.67049698E+02
 11
6.29697731E+01
 21
-2.67049698E+02
  0
LINE
  8
0
 62
4
 10
4.92697731E+01
 20
-2.57049698E+02
 11
4.92697731E+01
 21
-2.67049698E+02
  0
LINE
  8
0
 62
4
 10
6.21497731E+01
 20
-2.57049698E+02
 11
6.21497731E+01
 21
-2.67049698E+02
  0
LINE
  8
0
 62
4
 10
4.87097731E+01
 20
-2.57329698E+02
 11
4.87097731E+01
 21
-2.67049698E+02
  0
LINE
  8
0
 62
4
 10
6.27297731E+01
 20
-2.57329698E+02
 11
6.27297731E+01
 21
-2.67049698E+02
  0
LINE
  8
0
 62
4
 10
4.81097731E+01
 20
-2.57049698E+02
 11
4.81097731E+01
 21
-2.66549698E+02
  0
LINE
  8
0
 62
4
 10
6.33097731E+01
 20
-2.57049698E+02
 11
6.33097731E+01
 21
-2.66549698E+02
  0
LINE
  8
0
 62
4
 10
5.38697731E+01
 20
-2.57329698E+02
 11
5.42097731E+01
 21
-2.57049698E+02
  0
LINE
  8
0
 62
4
 10
5.72097731E+01
 20
-2.57049698E+02
 11
5.75497731E+01
 21
-2.57329698E+02
  0
LINE
  8
0
 62
4
 10
5.72097731E+01
 20
-2.66549698E+02
 11
5.75497731E+01
 21
-2.67049698E+02
  0
LINE
  8
0
 62
4
 10
5.42097731E+01
 20
-2.66549698E+02
 11
5.38697731E+01
 21
-2.67049698E+02
  0
LINE
  8
0
 62
4
 10
5.13897731E+01
 20
-2.57049698E+02
 11
5.20497731E+01
 21
-2.57329698E+02
  0
LINE
  8
0
 62
4
 10
5.93697731E+01
 20
-2.57329698E+02
 11
6.00297731E+01
 21
-2.57049698E+02
  0
LINE
  8
0
 62
4
 10
6.00297731E+01
 20
-2.66549698E+02
 11
5.93697731E+01
 21
-2.67049698E+02
  0
LINE
  8
0
 62
4
 10
5.13897731E+01
 20
-2.66549698E+02
 11
5.20497731E+01
 21
-2.67049698E+02
  0
LINE
  8
0
 62
4
 10
4.87097731E+01
 20
-2.57329698E+02
 11
4.92697731E+01
 21
-2.57109698E+02
  0
LINE
  8
0
  6
PHANTOM
 62
6
 10
8.27097731E+01
 20
1.71303023E+01
 11
1.27709773E+02
 21
1.71303023E+01
  0
LINE
  8
0
  6
PHANTOM
 62
6
 10
1.32709773E+02
 20
9.39303023E+01
 11
1.32709773E+02
 21
1.89303023E+01
  0
LINE
  8
0
  6
PHANTOM
 62
6
 10
1.29509773E+02
 20
9.39303023E+01
 11
1.29509773E+02
 21
1.89303023E+01
  0
LINE
  8
0
  6
PHANTOM
 62
6
 10
1.29509773E+02
 20
9.39303023E+01
 11
1.32709773E+02
 21
9.39303023E+01
  0
LINE
  8
0
  6
PHANTOM
 62
6
 10
1.29509773E+02
 20
8.89303023E+01
 11
1.32709773E+02
 21
8.89303023E+01
  0
LINE
  8
0
  6
PHANTOM
 62
6
 10
1.07209773E+02
 20
2.46303023E+01
 11
1.07209773E+02
 21
1.71303023E+01
  0
LINE
  8
0
  6
PHANTOM
 62
6
 10
1.07209773E+02
 20
2.46303023E+01
 11
1.06349773E+02
 21
2.51303023E+01
  0
LINE
  8
0
  6
PHANTOM
 62
6
 10
1.06349773E+02
 20
2.51303023E+01
 11
9.50897731E+01
 21
2.51303023E+01
  0
LINE
  8
0
  6
PHANTOM
 62
6
 10
1.07209773E+02
 20
2.46303023E+01
 11
9.42097731E+01
 21
2.46303023E+01
  0
LINE
  8
0
  6
PHANTOM
 62
6
 10
9.42097731E+01
 20
2.46303023E+01
 11
9.50897731E+01
 21
2.51303023E+01
  0
LINE
  8
0
  6
PHANTOM
 62
6
 10
9.42097731E+01
 20
2.46303023E+01
 11
9.42097731E+01
 21
1.71303023E+01
  0
LINE
  8
0
  6
PHANTOM
 62
6
 10
8.27097731E+01
 20
1.71303023E+01
 11
8.27097731E+01
 21
1.39303023E+01
  0
LINE
  8
0
  6
PHANTOM
 62
6
 10
8.57097731E+01
 20
1.71303023E+01
 11
8.57097731E+01
 21
1.39303023E+01
  0
LINE
  8
0
  6
PHANTOM
 62
6
 10
1.08709773E+02
 20
1.39303023E+01
 11
1.27709773E+02
 21
1.39303023E+01
  0
LINE
  8
0
 62
4
 10
5.03497731E+01
 20
6.56103023E+01
 11
6.10897731E+01
 21
6.56103023E+01
  0
LINE
  8
0
 62
4
 10
4.91297731E+01
 20
6.49103023E+01
 11
5.03497731E+01
 21
6.56103023E+01
  0
LINE
  8
0
 62
6
 10
4.99897731E+01
 20
6.54103023E+01
 11
4.99897731E+01
 21
6.39303023E+01
  0
LINE
  8
0
 62
4
 10
4.91297731E+01
 20
6.49103023E+01
 11
6.22897731E+01
 21
6.49103023E+01
  0
LINE
  8
0
 62
4
 10
4.91297731E+01
 20
6.49103023E+01
 11
4.91697731E+01
 21
6.39303023E+01
  0
LINE
  8
0
 62
4
 10
6.10897731E+01
 20
6.56103023E+01
 11
6.22897731E+01
 21
6.49103023E+01
  0
LINE
  8
0
 62
6
 10
6.14297731E+01
 20
6.54103023E+01
 11
6.14297731E+01
 21
6.39303023E+01
  0
LINE
  8
0
 62
4
 10
6.22897731E+01
 20
6.49103023E+01
 11
6.22697731E+01
 21
6.39303023E+01
  0
ARC
  8
0
 62
7
 10
8.78394620E+00
 20
1.59372372E+01
 40
2.00694338E+00
 50
2.70166350E+02
 51
3.58088736E+02
  0
ARC
  8
0
 62
7
 10
1.77192213E+01
 20
5.84085409E+00
 40
4.90642787E-01
 50
2.68896601E+02
 51
1.10339950E+00
  0
ARC
  8
0
 62
7
 10
9.37148564E+01
 20
5.85538563E+00
 40
5.05108928E-01
 50
1.80576627E+02
 51
2.69423374E+02
  0
ARC
  8
0
 62
7
 10
2.70914665E+00
 20
1.19308340E+01
 40
1.99946836E+00
 50
9.00000002E+01
 51
1.79442118E+02
  0
ARC
  8
0
 62
7
 10
1.08724747E+02
 20
1.19453269E+01
 40
1.98503187E+00
 50
1.43609180E-01
 51
9.04322229E+01
  0
ARC
  8
0
 62
7
 10
2.71922202E+00
 20
3.34085333E+00
 40
2.00947116E+00
 50
9.02694175E+01
 51
1.79730582E+02
  0
ARC
  8
0
 62
7
 10
2.02091771E+01
 20
1.19308033E+01
 40
1.99949910E+00
 50
9.00000002E+01
 51
1.79441246E+02
  0
ARC
  8
0
 62
7
 10
9.12247474E+01
 20
1.19453269E+01
 40
1.98503187E+00
 50
1.43609180E-01
 51
9.04322229E+01
  0
ARC
  8
0
 62
7
 10
1.08714745E+02
 20
3.35527381E+00
 40
1.99503466E+00
 50
3.59857221E+02
 51
9.01427784E+01
  0
CIRCLE
  8
0
 62
7
 10
5.57097731E+01
 20
3.89303023E+01
 40
2.10000000E+01
  0
ARC
  8
0
 62
7
 10
8.22247701E+01
 20
1.54452993E+01
 40
1.51507127E+00
 50
1.80567156E+02
 51
2.69432844E+02
  0
ARC
  8
0
 62
7
 10
2.92091531E+01
 20
1.54309223E+01
 40
1.50062015E+00
 50
2.70000000E+02
 51
3.59976327E+02
  0
ARC
  8
0
 62
7
 10
4.03259318E+01
 20
-2.43351603E+02
 40
2.99809767E+00
 50
2.40063756E+02
 51
2.70073410E+02
  0
ARC
  8
0
 62
7
 10
2.51425330E+01
 20
-2.34573190E+02
 40
2.99502689E+00
 50
1.82229396E+02
 51
2.40104949E+02
  0
ARC
  8
0
 62
7
 10
7.11142094E+01
 20
-2.43353834E+02
 40
2.99586705E+00
 50
2.69915155E+02
 51
2.99947679E+02
  0
ARC
  8
0
 62
7
 10
1.08653958E+02
 20
-1.30557242E+01
 40
2.00603083E+00
 50
9.01195427E+01
 51
1.77542179E+02
  0
ARC
  8
0
 62
7
 10
2.78984181E+00
 20
-1.30512928E+01
 40
2.00159507E+00
 50
2.33631109E+00
 51
9.00000002E+01
  0
ARC
  8
0
 62
7
 10
1.00646456E+02
 20
-1.84578901E+02
 40
2.98537335E+00
 50
2.99792565E+02
 51
3.57873090E+02
  0
ARC
  8
0
 62
7
 10
1.08049957E+01
 20
-1.84583839E+02
 40
2.99709265E+00
 50
1.82024133E+02
 51
2.39631191E+02
  0
ARC
  8
0
 62
7
 10
9.36667198E+01
 20
-1.95539866E+02
 40
3.01895751E+00
 50
1.20163793E+02
 51
1.77908694E+02
  0
ARC
  8
0
 62
7
 10
8.63035263E+01
 20
-2.34577129E+02
 40
2.98836765E+00
 50
2.99824436E+02
 51
3.57841219E+02
  0
ARC
  8
0
 62
7
 10
1.39926228E+01
 20
-1.93349568E+02
 40
3.00013090E+00
 50
2.69945578E+02
 51
6.00642640E+01
  0
ARC
  8
0
 62
7
 10
1.77740344E+01
 20
-1.95527141E+02
 40
2.99732303E+00
 50
1.86301847E+00
 51
6.00644944E+01
  0
ARC
  8
0
 62
7
 10
2.24671319E+01
 20
-2.36846385E+02
 40
4.96694024E-01
 50
3.96123246E+01
 51
8.96953236E+01
  0
ARC
  8
0
  6
PHANTOM
 62
6
 10
1.27709206E+02
 20
1.89308698E+01
 40
5.00056757E+00
 50
2.70000000E+02
 51
3.59993497E+02
  0
ARC
  8
0
  6
PHANTOM
 62
6
 10
1.27709166E+02
 20
1.89309098E+01
 40
1.80060762E+00
 50
2.70000000E+02
 51
3.59980669E+02
  0
CIRCLE
  8
0
 62
2
 10
5.57097731E+01
 20
3.89303023E+01
 40
1.04774990E+01
  0
CIRCLE
  8
0
 62
7
 10
5.57097731E+01
 20
3.89303023E+01
 40
9.31550026E+00
  0
ARC
  8
0
 62
7
 10
1.02659902E+02
 20
1.59416719E+01
 40
2.01139513E+00
 50
1.82033433E+02
 51
2.69711481E+02
  0
LINE
  8
0
 62
7
 10
1.07224255E+02
 20
1.28458382E+01
 11
1.06354255E+02
 21
1.33458382E+01
  0
LINE
  8
0
 62
7
 10
1.07224255E+02
 20
1.28458382E+01
 11
1.07224255E+02
 21
5.34583817E+00
  0
LINE
  8
0
 62
7
 10
9.42242555E+01
 20
1.28458382E+01
 11
1.07224255E+02
 21
1.28458382E+01
  0
LINE
  8
0
 62
7
 10
9.50942555E+01
 20
1.33458382E+01
 11
1.06354255E+02
 21
1.33458382E+01
  0
LINE
  8
0
 62
7
 10
9.42242555E+01
 20
1.28458382E+01
 11
9.50942555E+01
 21
1.33458382E+01
  0
LINE
  8
0
 62
7
 10
9.42242555E+01
 20
1.28458382E+01
 11
9.42242555E+01
 21
5.34583817E+00
  0
LINE
  8
0
 62
7
 10
1.72241945E+01
 20
1.28458382E+01
 11
1.63541945E+01
 21
1.33458382E+01
  0
LINE
  8
0
 62
7
 10
1.72241945E+01
 20
1.28458382E+01
 11
1.72241945E+01
 21
5.34583817E+00
  0
LINE
  8
0
 62
7
 10
4.22419446E+00
 20
1.28458382E+01
 11
1.72241945E+01
 21
1.28458382E+01
  0
LINE
  8
0
 62
7
 10
5.09419446E+00
 20
1.33458382E+01
 11
1.63541945E+01
 21
1.33458382E+01
  0
LINE
  8
0
 62
7
 10
4.22419446E+00
 20
1.28458382E+01
 11
5.09419446E+00
 21
1.33458382E+01
  0
LINE
  8
0
 62
7
 10
4.22419446E+00
 20
1.28458382E+01
 11
4.22419446E+00
 21
5.34583817E+00
  0
LINE
  8
0
  6
CENTER
 62
2
 10
-1.76590227E+02
 20
1.17490302E+02
 11
-1.76590227E+02
 21
2.60490302E+02
  0
LINE
  8
0
  6
CENTER
 62
2
 10
-2.41590227E+02
 20
1.77490302E+02
 11
-1.11590227E+02
 21
1.77490302E+02
  0
LINE
  8
0
 62
7
 10
-1.16590227E+02
 20
2.00990302E+02
 11
-1.16590227E+02
 21
1.53990302E+02
  0
LINE
  8
0
 62
7
 10
-2.36590227E+02
 20
2.00990302E+02
 11
-2.36590227E+02
 21
1.53990302E+02
  0
LINE
  8
0
 62
7
 10
-2.35090227E+02
 20
2.02490302E+02
 11
-1.18090227E+02
 21
2.02490302E+02
  0
LINE
  8
0
 62
7
 10
-2.35090227E+02
 20
1.52490302E+02
 11
-1.18090227E+02
 21
1.52490302E+02
  0
LINE
  8
0
 62
7
 10
-2.36590227E+02
 20
2.00990302E+02
 11
-2.35090227E+02
 21
2.02490302E+02
  0
LINE
  8
0
 62
7
 10
-1.16590227E+02
 20
2.00990302E+02
 11
-1.18090227E+02
 21
2.02490302E+02
  0
LINE
  8
0
 62
7
 10
-1.18090227E+02
 20
1.52490302E+02
 11
-1.16590227E+02
 21
1.53990302E+02
  0
LINE
  8
0
 62
7
 10
-2.36590227E+02
 20
1.53990302E+02
 11
-2.35090227E+02
 21
1.52490302E+02
  0
LINE
  8
0
 62
7
 10
-2.36590227E+02
 20
2.00990302E+02
 11
-1.16590227E+02
 21
2.00990302E+02
  0
LINE
  8
0
 62
7
 10
-2.36590227E+02
 20
1.53990302E+02
 11
-1.16590227E+02
 21
1.53990302E+02
  0
LINE
  8
0
 62
7
 10
-1.18090227E+02
 20
1.52490302E+02
 11
-1.18090227E+02
 21
2.02490302E+02
  0
LINE
  8
0
 62
7
 10
-2.35090227E+02
 20
1.52490302E+02
 11
-2.35090227E+02
 21
2.02490302E+02
  0
LINE
  8
0
 62
7
 10
-2.21590227E+02
 20
1.22490302E+02
 11
-1.31590227E+02
 21
1.22490302E+02
  0
LINE
  8
0
 62
7
 10
-2.21590227E+02
 20
2.32490302E+02
 11
-1.31590227E+02
 21
2.32490302E+02
  0
LINE
  8
0
 62
7
 10
-1.21590227E+02
 20
2.22490302E+02
 11
-1.21590227E+02
 21
2.02490302E+02
  0
LINE
  8
0
 62
7
 10
-2.31590227E+02
 20
2.22490302E+02
 11
-2.31590227E+02
 21
2.02490302E+02
  0
LINE
  8
0
 62
7
 10
-2.31590227E+02
 20
1.52490302E+02
 11
-2.31590227E+02
 21
1.32490302E+02
  0
LINE
  8
0
 62
7
 10
-1.21590227E+02
 20
1.52490302E+02
 11
-1.21590227E+02
 21
1.32490302E+02
  0
LINE
  8
0
  6
CENTER
 62
2
 10
-1.42590227E+02
 20
1.32490302E+02
 11
-1.20590227E+02
 21
1.32490302E+02
  0
LINE
  8
0
  6
CENTER
 62
2
 10
-1.42590227E+02
 20
2.22490302E+02
 11
-1.20590227E+02
 21
2.22490302E+02
  0
LINE
  8
0
  6
CENTER
 62
2
 10
-2.32590227E+02
 20
2.22490302E+02
 11
-2.10590227E+02
 21
2.22490302E+02
  0
LINE
  8
0
  6
CENTER
 62
2
 10
-2.32590227E+02
 20
1.32490302E+02
 11
-2.10590227E+02
 21
1.32490302E+02
  0
LINE
  8
0
  6
CENTER
 62
2
 10
-2.21590227E+02
 20
1.43490302E+02
 11
-2.21590227E+02
 21
1.21490302E+02
  0
LINE
  8
0
  6
CENTER
 62
2
 10
-2.21590227E+02
 20
2.33490302E+02
 11
-2.21590227E+02
 21
2.11490302E+02
  0
LINE
  8
0
  6
CENTER
 62
2
 10
-1.31590227E+02
 20
2.33490302E+02
 11
-1.31590227E+02
 21
2.11490302E+02
  0
LINE
  8
0
  6
CENTER
 62
2
 10
-1.31590227E+02
 20
1.43490302E+02
 11
-1.31590227E+02
 21
1.21490302E+02
  0
LINE
  8
0
 62
7
 10
-1.31590227E+02
 20
1.39990302E+02
 11
-1.23590227E+02
 21
1.39990302E+02
  0
LINE
  8
0
 62
7
 10
-2.21590227E+02
 20
1.39990302E+02
 11
-2.29590227E+02
 21
1.39990302E+02
  0
LINE
  8
0
 62
7
 10
-2.21590227E+02
 20
2.14990302E+02
 11
-2.29590227E+02
 21
2.14990302E+02
  0
LINE
  8
0
 62
7
 10
-1.31590227E+02
 20
2.14990302E+02
 11
-1.23590227E+02
 21
2.14990302E+02
  0
LINE
  8
0
 62
7
 10
-2.14090227E+02
 20
2.22490302E+02
 11
-2.14090227E+02
 21
2.30490302E+02
  0
LINE
  8
0
 62
7
 10
-1.39090227E+02
 20
2.22490302E+02
 11
-1.39090227E+02
 21
2.30490302E+02
  0
LINE
  8
0
 62
7
 10
-1.39090227E+02
 20
1.32490302E+02
 11
-1.39090227E+02
 21
1.24490302E+02
  0
LINE
  8
0
 62
7
 10
-2.14090227E+02
 20
1.32490302E+02
 11
-2.14090227E+02
 21
1.24490302E+02
  0
LINE
  8
0
 62
7
 10
-2.27590227E+02
 20
1.80490302E+02
 11
-2.27590227E+02
 21
1.74490302E+02
  0
LINE
  8
0
 62
7
 10
-2.27590227E+02
 20
1.80490302E+02
 11
-2.19350227E+02
 21
1.77490302E+02
  0
LINE
  8
0
 62
7
 10
-2.27590227E+02
 20
1.74490302E+02
 11
-2.19350227E+02
 21
1.77490302E+02
  0
LINE
  8
0
  6
CENTER
 62
2
 10
-2.11590227E+02
 20
1.87490302E+02
 11
-2.11590227E+02
 21
1.67490302E+02
  0
LINE
  8
0
  6
CENTER
 62
2
 10
-1.41590227E+02
 20
1.87490302E+02
 11
-1.41590227E+02
 21
1.67490302E+02
  0
LINE
  8
0
  6
PHANTOM
 62
6
 10
-2.30590227E+02
 20
2.54490302E+02
 11
-1.22590227E+02
 21
2.54490302E+02
  0
LINE
  8
0
  6
PHANTOM
 62
6
 10
-1.22590227E+02
 20
2.07490302E+02
 11
-1.22590227E+02
 21
2.54490302E+02
  0
LINE
  8
0
  6
PHANTOM
 62
6
 10
-2.30590227E+02
 20
2.07490302E+02
 11
-2.30590227E+02
 21
2.54490302E+02
  0
LINE
  8
0
  6
PHANTOM
 62
6
 10
-2.27590227E+02
 20
2.04490302E+02
 11
-2.15050227E+02
 21
2.04490302E+02
  0
LINE
  8
0
  6
PHANTOM
 62
6
 10
-2.30590227E+02
 20
2.07490302E+02
 11
-2.27590227E+02
 21
2.04490302E+02
  0
LINE
  8
0
  6
PHANTOM
 62
6
 10
-1.25590227E+02
 20
2.04490302E+02
 11
-1.22590227E+02
 21
2.07490302E+02
  0
LINE
  8
0
  6
PHANTOM
 62
6
 10
-2.30590227E+02
 20
2.51290302E+02
 11
-1.22590227E+02
 21
2.51290302E+02
  0
LINE
  8
0
  6
PHANTOM
 62
6
 10
-2.25590227E+02
 20
2.51290302E+02
 11
-2.25590227E+02
 21
2.54490302E+02
  0
LINE
  8
0
  6
PHANTOM
 62
6
 10
-1.27590227E+02
 20
2.51290302E+02
 11
-1.27590227E+02
 21
2.54490302E+02
  0
LINE
  8
0
  6
PHANTOM
 62
6
 10
-1.38110227E+02
 20
2.04490302E+02
 11
-1.25590227E+02
 21
2.04490302E+02
  0
ARC
  8
0
 62
7
 10
-2.21596882E+02
 20
2.22496958E+02
 40
9.99334672E+00
 50
8.99618412E+01
 51
1.80038159E+02
  0
ARC
  8
0
 62
7
 10
-1.31585771E+02
 20
2.22494758E+02
 40
9.99554520E+00
 50
3.59974459E+02
 51
9.00255409E+01
  0
ARC
  8
0
 62
7
 10
-1.31596884E+02
 20
1.32496960E+02
 40
1.00066597E+01
 50
2.70038119E+02
 51
3.59961881E+02
  0
ARC
  8
0
 62
7
 10
-2.21585767E+02
 20
1.32494763E+02
 40
1.00044612E+01
 50
1.80025544E+02
 51
2.69974456E+02
  0
ARC
  8
0
 62
7
 10
-1.76580227E+02
 20
1.77501416E+02
 40
4.49883601E+01
 50
3.37418712E+01
 51
1.46258129E+02
  0
ARC
  8
0
 62
7
 10
-1.76580227E+02
 20
1.77501418E+02
 40
4.50007110E+01
 50
2.13765406E+02
 51
3.26234594E+02
  0
ARC
  8
0
 62
7
 10
-1.76590227E+02
 20
1.77501417E+02
 40
4.23727837E+01
 50
3.61384931E+01
 51
1.43861507E+02
  0
ARC
  8
0
 62
7
 10
-1.76580227E+02
 20
1.77501416E+02
 40
4.36833303E+01
 50
3.48930425E+01
 51
1.45106958E+02
  0
ARC
  8
0
 62
7
 10
-1.76590227E+02
 20
1.77501417E+02
 40
4.23858968E+01
 50
2.16162760E+02
 51
3.23837240E+02
  0
ARC
  8
0
 62
7
 10
-1.76580227E+02
 20
1.77501418E+02
 40
4.36960501E+01
 50
2.14916950E+02
 51
3.25083050E+02
  0
ARC
  8
0
 62
7
 10
-2.21596885E+02
 20
2.22496960E+02
 40
7.50666077E+00
 50
2.70050817E+02
 51
3.59949183E+02
  0
ARC
  8
0
 62
7
 10
-1.31585766E+02
 20
2.22494763E+02
 40
7.50446229E+00
 50
1.80034059E+02
 51
2.69965941E+02
  0
ARC
  8
0
 62
7
 10
-1.31596882E+02
 20
1.32496957E+02
 40
7.49334779E+00
 50
8.99491129E+01
 51
1.80050887E+02
  0
ARC
  8
0
 62
7
 10
-2.21585772E+02
 20
1.32494757E+02
 40
7.49554627E+00
 50
3.59965946E+02
 51
9.00340545E+01
  0
ARC
  8
0
 62
7
 10
-2.12085758E+02
 20
1.24494771E+02
 40
2.00447407E+00
 50
1.80127744E+02
 51
2.69872256E+02
  0
ARC
  8
0
 62
7
 10
-1.41096888E+02
 20
1.24496964E+02
 40
2.00667252E+00
 50
2.70190202E+02
 51
3.59809798E+02
  0
ARC
  8
0
 62
7
 10
-1.23596888E+02
 20
1.41996964E+02
 40
2.00667252E+00
 50
2.70190202E+02
 51
3.59809798E+02
  0
ARC
  8
0
 62
7
 10
-1.23585810E+02
 20
2.12994719E+02
 40
1.99558837E+00
 50
3.59873197E+02
 51
9.01268038E+01
  0
ARC
  8
0
 62
7
 10
-1.41085780E+02
 20
2.30494749E+02
 40
1.99555802E+00
 50
3.59872321E+02
 51
9.01276787E+01
  0
ARC
  8
0
 62
7
 10
-2.12096878E+02
 20
2.30496954E+02
 40
1.99335957E+00
 50
8.98088128E+01
 51
1.80191187E+02
  0
ARC
  8
0
 62
7
 10
-2.29596848E+02
 20
2.12996923E+02
 40
1.99338992E+00
 50
8.98096905E+01
 51
1.80190309E+02
  0
ARC
  8
0
 62
7
 10
-2.29585758E+02
 20
1.41994771E+02
 40
2.00447407E+00
 50
1.80127744E+02
 51
2.69872256E+02
  0
CIRCLE
  8
0
 62
6
 10
-2.11592425E+02
 20
1.77501417E+02
 40
5.72250366E+00
  0
CIRCLE
  8
0
 62
4
 10
-2.11592425E+02
 20
1.77501417E+02
 40
6.57850647E+00
  0
CIRCLE
  8
0
 62
4
 10
-1.41592425E+02
 20
1.77501417E+02
 40
6.57850647E+00
  0
CIRCLE
  8
0
 62
6
 10
-1.41592425E+02
 20
1.77501417E+02
 40
5.72250366E+00
  0
ARC
  8
0
  6
PHANTOM
 62
6
 10
-2.11580227E+02
 20
2.51301406E+02
 40
7.99978532E+00
 50
1.86395501E+02
 51
3.53604499E+02
  0
ARC
  8
0
  6
PHANTOM
 62
6
 10
-2.02647613E+02
 20
2.50301877E+02
 40
9.88577831E-01
 50
8.89922906E+01
 51
1.73703264E+02
  0
ARC
  8
0
  6
PHANTOM
 62
6
 10
-2.20523565E+02
 20
2.50289691E+02
 40
1.00063318E+00
 50
6.92296149E+00
 51
9.03814841E+01
  0
ARC
  8
0
  6
PHANTOM
 62
6
 10
-1.32647613E+02
 20
2.50301877E+02
 40
9.88577831E-01
 50
8.89922906E+01
 51
1.73703264E+02
  0
ARC
  8
0
  6
PHANTOM
 62
6
 10
-1.41580227E+02
 20
2.51301406E+02
 40
7.99978532E+00
 50
1.86395501E+02
 51
3.53604499E+02
  0
ARC
  8
0
  6
PHANTOM
 62
6
 10
-1.50523565E+02
 20
2.50289691E+02
 40
1.00063318E+00
 50
6.92296149E+00
 51
9.03814841E+01
  0
ARC
  8
0
  6
PHANTOM
 62
6
 10
-1.76580227E+02
 20
1.77501416E+02
 40
4.69929877E+01
 50
3.50518372E+01
 51
1.44948163E+02
  0
CIRCLE
  8
0
 62
7
 10
-2.21592425E+02
 20
1.32501417E+02
 40
3.46410084E+00
  0
CIRCLE
  8
0
 62
7
 10
-2.21592425E+02
 20
1.32501417E+02
 40
5.63397503E+00
  0
CIRCLE
  8
0
 62
7
 10
-2.21592425E+02
 20
1.32501417E+02
 40
6.50000000E+00
  0
LINE
  8
0
 62
7
 10
-2.18592425E+02
 20
1.34231417E+02
 11
-2.18592425E+02
 21
1.30771417E+02
  0
LINE
  8
0
 62
7
 10
-2.21592425E+02
 20
1.29041417E+02
 11
-2.18592425E+02
 21
1.30771417E+02
  0
LINE
  8
0
 62
7
 10
-2.24592425E+02
 20
1.30771417E+02
 11
-2.21592425E+02
 21
1.29041417E+02
  0
LINE
  8
0
 62
7
 10
-2.24592425E+02
 20
1.34231417E+02
 11
-2.24592425E+02
 21
1.30771417E+02
  0
LINE
  8
0
 62
7
 10
-2.24592425E+02
 20
1.34231417E+02
 11
-2.21592425E+02
 21
1.35961417E+02
  0
LINE
  8
0
 62
7
 10
-2.21592425E+02
 20
1.35961417E+02
 11
-2.18592425E+02
 21
1.34231417E+02
  0
CIRCLE
  8
0
 62
7
 10
-1.31592425E+02
 20
1.32501417E+02
 40
3.46410084E+00
  0
CIRCLE
  8
0
 62
7
 10
-1.31592425E+02
 20
1.32501417E+02
 40
5.63397503E+00
  0
CIRCLE
  8
0
 62
7
 10
-1.31592425E+02
 20
1.32501417E+02
 40
6.50000000E+00
  0
LINE
  8
0
 62
7
 10
-1.28592425E+02
 20
1.34231417E+02
 11
-1.28592425E+02
 21
1.30771417E+02
  0
LINE
  8
0
 62
7
 10
-1.31592425E+02
 20
1.29041417E+02
 11
-1.28592425E+02
 21
1.30771417E+02
  0
LINE
  8
0
 62
7
 10
-1.34592425E+02
 20
1.30771417E+02
 11
-1.31592425E+02
 21
1.29041417E+02
  0
LINE
  8
0
 62
7
 10
-1.34592425E+02
 20
1.34231417E+02
 11
-1.34592425E+02
 21
1.30771417E+02
  0
LINE
  8
0
 62
7
 10
-1.34592425E+02
 20
1.34231417E+02
 11
-1.31592425E+02
 21
1.35961417E+02
  0
LINE
  8
0
 62
7
 10
-1.31592425E+02
 20
1.35961417E+02
 11
-1.28592425E+02
 21
1.34231417E+02
  0
CIRCLE
  8
0
 62
7
 10
-1.31592425E+02
 20
2.22501417E+02
 40
3.46410084E+00
  0
CIRCLE
  8
0
 62
7
 10
-1.31592425E+02
 20
2.22501417E+02
 40
5.63397503E+00
  0
CIRCLE
  8
0
 62
7
 10
-1.31592425E+02
 20
2.22501417E+02
 40
6.50000000E+00
  0
LINE
  8
0
 62
7
 10
-1.28592425E+02
 20
2.24231417E+02
 11
-1.28592425E+02
 21
2.20771417E+02
  0
LINE
  8
0
 62
7
 10
-1.31592425E+02
 20
2.19041417E+02
 11
-1.28592425E+02
 21
2.20771417E+02
  0
LINE
  8
0
 62
7
 10
-1.34592425E+02
 20
2.20771417E+02
 11
-1.31592425E+02
 21
2.19041417E+02
  0
LINE
  8
0
 62
7
 10
-1.34592425E+02
 20
2.24231417E+02
 11
-1.34592425E+02
 21
2.20771417E+02
  0
LINE
  8
0
 62
7
 10
-1.34592425E+02
 20
2.24231417E+02
 11
-1.31592425E+02
 21
2.25961417E+02
  0
LINE
  8
0
 62
7
 10
-1.31592425E+02
 20
2.25961417E+02
 11
-1.28592425E+02
 21
2.24231417E+02
  0
CIRCLE
  8
0
 62
7
 10
-2.21592425E+02
 20
2.22501417E+02
 40
3.46410084E+00
  0
CIRCLE
  8
0
 62
7
 10
-2.21592425E+02
 20
2.22501417E+02
 40
5.63397503E+00
  0
CIRCLE
  8
0
 62
7
 10
-2.21592425E+02
 20
2.22501417E+02
 40
6.50000000E+00
  0
LINE
  8
0
 62
7
 10
-2.18592425E+02
 20
2.24231417E+02
 11
-2.18592425E+02
 21
2.20771417E+02
  0
LINE
  8
0
 62
7
 10
-2.21592425E+02
 20
2.19041417E+02
 11
-2.18592425E+02
 21
2.20771417E+02
  0
LINE
  8
0
 62
7
 10
-2.24592425E+02
 20
2.20771417E+02
 11
-2.21592425E+02
 21
2.19041417E+02
  0
LINE
  8
0
 62
7
 10
-2.24592425E+02
 20
2.24231417E+02
 11
-2.24592425E+02
 21
2.20771417E+02
  0
LINE
  8
0
 62
7
 10
-2.24592425E+02
 20
2.24231417E+02
 11
-2.21592425E+02
 21
2.25961417E+02
  0
LINE
  8
0
 62
7
 10
-2.21592425E+02
 20
2.25961417E+02
 11
-2.18592425E+02
 21
2.24231417E+02
  0
LINE
  8
0
 62
7
 10
-2.27592425E+02
 20
1.74501417E+02
 11
-2.19352425E+02
 21
1.77501417E+02
  0
LINE
  8
0
 62
7
 10
-2.27592425E+02
 20
1.80501417E+02
 11
-2.19352425E+02
 21
1.77501417E+02
  0
LINE
  8
0
 62
7
 10
-2.27592425E+02
 20
1.80501417E+02
 11
-2.27592425E+02
 21
1.74501417E+02
  0
LINE
  8
0
  6
CENTER
 62
6
 10
3.06389773E+02
 20
5.93903023E+01
 11
3.06389773E+02
 21
3.33903023E+01
  0
LINE
  8
0
 62
4
 10
2.29729773E+02
 20
4.03903023E+01
 11
2.29809773E+02
 21
3.73903023E+01
  0
LINE
  8
0
 62
6
 10
2.30669773E+02
 20
4.03903023E+01
 11
2.30669773E+02
 21
3.73903023E+01
  0
LINE
  8
0
 62
6
 10
2.42109773E+02
 20
4.03903023E+01
 11
2.42109773E+02
 21
3.73903023E+01
  0
LINE
  8
0
 62
4
 10
2.43069773E+02
 20
4.03903023E+01
 11
2.42969773E+02
 21
3.73903023E+01
  0
LINE
  8
0
  6
CENTER
 62
6
 10
2.36389773E+02
 20
9.23903023E+01
 11
2.36389773E+02
 21
3.33903023E+01
  0
LINE
  8
0
  6
CENTER
 62
6
 10
2.08889773E+02
 20
6.53903023E+01
 11
2.63889773E+02
 21
6.53903023E+01
  0
LINE
  8
0
 62
4
 10
2.23889773E+02
 20
6.04103023E+01
 11
2.34929773E+02
 21
6.44303023E+01
  0
LINE
  8
0
 62
4
 10
2.23869773E+02
 20
6.04303023E+01
 11
2.34669773E+02
 21
6.50503023E+01
  0
LINE
  8
0
 62
4
 10
2.43389773E+02
 20
6.87903023E+01
 11
2.43869773E+02
 21
6.76903023E+01
  0
LINE
  8
0
 62
4
 10
2.37809773E+02
 20
6.64103023E+01
 11
2.43389773E+02
 21
6.87903023E+01
  0
LINE
  8
0
 62
4
 10
2.38129773E+02
 20
6.55903023E+01
 11
2.43869773E+02
 21
6.76903023E+01
  0
LINE
  8
0
 62
4
 10
2.99809773E+02
 20
3.83903023E+01
 11
2.99809773E+02
 21
3.73903023E+01
  0
LINE
  8
0
 62
4
 10
3.12969773E+02
 20
3.83903023E+01
 11
3.12969773E+02
 21
3.73903023E+01
  0
LINE
  8
0
 62
4
 10
3.13389773E+02
 20
4.33903023E+01
 11
2.99389773E+02
 21
4.33903023E+01
  0
LINE
  8
0
 62
4
 10
2.99389773E+02
 20
4.33903023E+01
 11
2.98309773E+02
 21
4.27503023E+01
  0
LINE
  8
0
 62
4
 10
2.98309773E+02
 20
4.27503023E+01
 11
2.98309773E+02
 21
3.83903023E+01
  0
LINE
  8
0
 62
4
 10
3.14469773E+02
 20
3.83903023E+01
 11
2.98309773E+02
 21
3.83903023E+01
  0
LINE
  8
0
 62
4
 10
3.02349773E+02
 20
4.27503023E+01
 11
3.02349773E+02
 21
3.83903023E+01
  0
LINE
  8
0
 62
4
 10
3.10429773E+02
 20
4.27503023E+01
 11
3.10429773E+02
 21
3.83903023E+01
  0
LINE
  8
0
 62
4
 10
3.13389773E+02
 20
4.33903023E+01
 11
3.14469773E+02
 21
4.27503023E+01
  0
LINE
  8
0
 62
4
 10
3.14469773E+02
 20
4.27503023E+01
 11
3.14469773E+02
 21
3.83903023E+01
  0
LINE
  8
0
 62
4
 10
3.09889773E+02
 20
4.73903023E+01
 11
3.09889773E+02
 21
4.33903023E+01
  0
LINE
  8
0
 62
4
 10
3.02889773E+02
 20
4.73903023E+01
 11
3.02889773E+02
 21
4.33903023E+01
  0
LINE
  8
0
 62
4
 10
3.11269773E+02
 20
5.63903023E+01
 11
3.01509773E+02
 21
5.63903023E+01
  0
LINE
  8
0
 62
4
 10
3.00649773E+02
 20
5.58903023E+01
 11
3.00649773E+02
 21
4.78903023E+01
  0
LINE
  8
0
 62
4
 10
3.12149773E+02
 20
5.58903023E+01
 11
3.12149773E+02
 21
4.78903023E+01
  0
LINE
  8
0
 62
4
 10
3.09149773E+02
 20
5.58903023E+01
 11
3.09149773E+02
 21
4.78903023E+01
  0
LINE
  8
0
 62
4
 10
3.03649773E+02
 20
5.58903023E+01
 11
3.03649773E+02
 21
4.78903023E+01
  0
LINE
  8
0
 62
4
 10
3.00649773E+02
 20
5.58903023E+01
 11
3.01509773E+02
 21
5.63903023E+01
  0
LINE
  8
0
 62
4
 10
3.12149773E+02
 20
5.58903023E+01
 11
3.11269773E+02
 21
5.63903023E+01
  0
LINE
  8
0
 62
4
 10
3.00649773E+02
 20
4.78903023E+01
 11
3.01509773E+02
 21
4.73903023E+01
  0
LINE
  8
0
 62
4
 10
3.11269773E+02
 20
4.73903023E+01
 11
3.01509773E+02
 21
4.73903023E+01
  0
LINE
  8
0
 62
4
 10
3.12149773E+02
 20
4.78903023E+01
 11
3.11269773E+02
 21
4.73903023E+01
  0
LINE
  8
0
 62
4
 10
3.03649773E+02
 20
6.76303023E+01
 11
3.03649773E+02
 21
5.63903023E+01
  0
LINE
  8
0
 62
4
 10
3.09149773E+02
 20
6.76303023E+01
 11
3.09149773E+02
 21
5.63903023E+01
  0
LINE
  8
0
 62
4
 10
2.54329773E+02
 20
7.81303023E+01
 11
2.98649773E+02
 21
7.81303023E+01
  0
LINE
  8
0
 62
4
 10
2.57169773E+02
 20
7.26303023E+01
 11
2.98649773E+02
 21
7.26303023E+01
  0
LINE
  8
0
 62
4
 10
2.44889773E+02
 20
4.50903023E+01
 11
2.44889773E+02
 21
4.23903023E+01
  0
LINE
  8
0
 62
4
 10
2.27889773E+02
 20
4.50903023E+01
 11
2.27889773E+02
 21
4.23903023E+01
  0
LINE
  8
0
 62
4
 10
2.27889773E+02
 20
4.23903023E+01
 11
2.44889773E+02
 21
4.23903023E+01
  0
LINE
  8
0
 62
4
 10
2.43149773E+02
 20
4.23903023E+01
 11
2.43149773E+02
 21
4.03903023E+01
  0
LINE
  8
0
 62
4
 10
2.29649773E+02
 20
4.23903023E+01
 11
2.29649773E+02
 21
4.03903023E+01
  0
LINE
  8
0
 62
4
 10
2.29649773E+02
 20
4.03903023E+01
 11
2.43149773E+02
 21
4.03903023E+01
  0
CIRCLE
  8
0
 62
4
 10
2.36401166E+02
 20
6.53903023E+01
 40
2.20000000E+01
  0
CIRCLE
  8
0
 62
4
 10
2.36401166E+02
 20
6.53903023E+01
 40
2.05000000E+01
  0
CIRCLE
  8
0
 62
4
 10
2.36401166E+02
 20
6.53903023E+01
 40
1.45000000E+01
  0
CIRCLE
  8
0
 62
4
 10
2.36401166E+02
 20
6.53903023E+01
 40
1.50000000E+00
  0
CIRCLE
  8
0
 62
4
 10
2.36401166E+02
 20
6.53903023E+01
 40
1.75000012E+00
  0
ARC
  8
0
 62
4
 10
2.23891509E+02
 20
6.04320386E+01
 40
2.18055625E-02
 50
1.84567156E+02
 51
2.65432843E+02
  0
ARC
  8
0
 62
4
 10
3.00327739E+02
 20
3.98130147E+01
 40
3.56598922E+00
 50
5.54564085E+01
 51
1.15549288E+02
  0
ARC
  8
0
 62
4
 10
3.06389773E+02
 20
3.00155113E+01
 40
1.33602583E+01
 50
7.23988295E+01
 51
1.07601170E+02
  0
ARC
  8
0
 62
4
 10
3.12460540E+02
 20
3.98119300E+01
 40
3.57184051E+00
 50
6.42951511E+01
 51
1.24649109E+02
  0
ARC
  8
0
 62
4
 10
3.06399773E+02
 20
4.85778327E+01
 40
7.81247154E+00
 50
6.93902287E+01
 51
1.10609772E+02
  0
ARC
  8
0
 62
4
 10
3.02167944E+02
 20
5.38883886E+01
 40
2.49067771E+00
 50
5.34909248E+01
 51
1.13625875E+02
  0
ARC
  8
0
 62
4
 10
3.10631638E+02
 20
5.38880678E+01
 40
2.49095711E+00
 50
6.63778453E+01
 51
1.26505355E+02
  0
ARC
  8
0
 62
4
 10
3.02149721E+02
 20
4.98900668E+01
 40
2.49984293E+00
 50
2.46920763E+02
 51
3.06874092E+02
  0
ARC
  8
0
 62
4
 10
3.06399773E+02
 20
5.52027414E+01
 40
7.81244297E+00
 50
2.49390150E+02
 51
2.90609851E+02
  0
ARC
  8
0
 62
4
 10
3.10649865E+02
 20
4.98903916E+01
 40
2.50012629E+00
 50
2.33129654E+02
 51
2.93075491E+02
  0
ARC
  8
0
 62
4
 10
2.98655437E+02
 20
6.76359663E+01
 40
4.99433920E+00
 50
3.59935022E+02
 51
9.00649782E+01
  0
ARC
  8
0
 62
4
 10
2.98655438E+02
 20
6.76359673E+01
 40
1.04943365E+01
 50
3.59969071E+02
 51
9.00309290E+01
  0
LINE
  8
0
 62
4
 10
2.63809773E+02
 20
-1.33729698E+02
 11
2.78969773E+02
 21
-1.33729698E+02
  0
LINE
  8
0
 62
4
 10
2.79469773E+02
 20
-1.28329698E+02
 11
2.79469773E+02
 21
-1.33229698E+02
  0
LINE
  8
0
 62
4
 10
2.63309773E+02
 20
-1.28329698E+02
 11
2.63309773E+02
 21
-1.33229698E+02
  0
LINE
  8
0
 62
4
 10
2.64649773E+02
 20
-1.48429698E+02
 11
2.78149773E+02
 21
-1.48429698E+02
  0
LINE
  8
0
 62
4
 10
2.63649773E+02
 20
-1.35429698E+02
 11
2.63649773E+02
 21
-1.47429698E+02
  0
LINE
  8
0
 62
4
 10
2.79149773E+02
 20
-1.35429698E+02
 11
2.79149773E+02
 21
-1.47429698E+02
  0
LINE
  8
0
 62
4
 10
2.63649773E+02
 20
-1.47429698E+02
 11
2.64649773E+02
 21
-1.48429698E+02
  0
LINE
  8
0
 62
4
 10
2.78149773E+02
 20
-1.48429698E+02
 11
2.79149773E+02
 21
-1.47429698E+02
  0
LINE
  8
0
 62
4
 10
2.63789773E+02
 20
-1.37929698E+02
 11
2.64949773E+02
 21
-1.37929698E+02
  0
LINE
  8
0
 62
4
 10
2.64149773E+02
 20
-1.34929698E+02
 11
2.78649773E+02
 21
-1.34929698E+02
  0
LINE
  8
0
 62
4
 10
2.63649773E+02
 20
-1.35429698E+02
 11
2.64149773E+02
 21
-1.34929698E+02
  0
LINE
  8
0
 62
4
 10
2.78649773E+02
 20
-1.34929698E+02
 11
2.79149773E+02
 21
-1.35429698E+02
  0
LINE
  8
0
 62
4
 10
2.65389773E+02
 20
-1.33729698E+02
 11
2.65389773E+02
 21
-1.34929698E+02
  0
LINE
  8
0
 62
4
 10
2.77389773E+02
 20
-1.33729698E+02
 11
2.77389773E+02
 21
-1.34929698E+02
  0
LINE
  8
0
 62
4
 10
2.63309773E+02
 20
-1.33229698E+02
 11
2.63809773E+02
 21
-1.33729698E+02
  0
LINE
  8
0
 62
4
 10
2.79469773E+02
 20
-1.33229698E+02
 11
2.78969773E+02
 21
-1.33729698E+02
  0
LINE
  8
0
 62
4
 10
2.63309773E+02
 20
-1.33229698E+02
 11
2.79469773E+02
 21
-1.33229698E+02
  0
LINE
  8
0
 62
4
 10
2.63649773E+02
 20
-1.35429698E+02
 11
2.79149773E+02
 21
-1.35429698E+02
  0
LINE
  8
0
 62
4
 10
2.65389773E+02
 20
-1.49829698E+02
 11
2.77389773E+02
 21
-1.49829698E+02
  0
LINE
  8
0
 62
4
 10
2.64889773E+02
 20
-1.48429698E+02
 11
2.64889773E+02
 21
-1.49329698E+02
  0
LINE
  8
0
 62
4
 10
2.77889773E+02
 20
-1.48429698E+02
 11
2.77889773E+02
 21
-1.49329698E+02
  0
LINE
  8
0
 62
4
 10
2.64889773E+02
 20
-1.49329698E+02
 11
2.65389773E+02
 21
-1.49829698E+02
  0
LINE
  8
0
 62
4
 10
2.77889773E+02
 20
-1.49329698E+02
 11
2.77389773E+02
 21
-1.49829698E+02
  0
LINE
  8
0
 62
4
 10
2.64889773E+02
 20
-1.49329698E+02
 11
2.77889773E+02
 21
-1.49329698E+02
  0
LINE
  8
0
 62
4
 10
2.63789773E+02
 20
-1.38229698E+02
 11
2.64389773E+02
 21
-1.38229698E+02
  0
LINE
  8
0
 62
4
 10
2.63649773E+02
 20
-1.47429698E+02
 11
2.63789773E+02
 21
-1.47429698E+02
  0
LINE
  8
0
 62
4
 10
2.69889773E+02
 20
-1.37929698E+02
 11
2.69889773E+02
 21
-1.47429698E+02
  0
LINE
  8
0
 62
4
 10
2.72889773E+02
 20
-1.37929698E+02
 11
2.72889773E+02
 21
-1.47429698E+02
  0
LINE
  8
0
 62
4
 10
2.72889773E+02
 20
-1.37929698E+02
 11
2.75709773E+02
 21
-1.37929698E+02
  0
LINE
  8
0
 62
4
 10
2.73229773E+02
 20
-1.38229698E+02
 11
2.75049773E+02
 21
-1.38229698E+02
  0
LINE
  8
0
 62
4
 10
2.69889773E+02
 20
-1.47429698E+02
 11
2.72889773E+02
 21
-1.47429698E+02
  0
LINE
  8
0
 62
4
 10
2.75709773E+02
 20
-1.47429698E+02
 11
2.77829773E+02
 21
-1.47429698E+02
  0
LINE
  8
0
 62
4
 10
2.64149773E+02
 20
-1.47929698E+02
 11
2.64389773E+02
 21
-1.47929698E+02
  0
LINE
  8
0
 62
4
 10
2.73229773E+02
 20
-1.38229698E+02
 11
2.73229773E+02
 21
-1.47929698E+02
  0
LINE
  8
0
 62
4
 10
2.69549773E+02
 20
-1.38229698E+02
 11
2.69549773E+02
 21
-1.47929698E+02
  0
LINE
  8
0
 62
4
 10
2.69549773E+02
 20
-1.47929698E+02
 11
2.73229773E+02
 21
-1.47929698E+02
  0
LINE
  8
0
 62
4
 10
2.75049773E+02
 20
-1.47929698E+02
 11
2.77829773E+02
 21
-1.47929698E+02
  0
LINE
  8
0
 62
4
 10
2.75049773E+02
 20
-1.38229698E+02
 11
2.75049773E+02
 21
-1.47929698E+02
  0
LINE
  8
0
 62
4
 10
2.67729773E+02
 20
-1.38229698E+02
 11
2.67729773E+02
 21
-1.47929698E+02
  0
LINE
  8
0
 62
4
 10
2.67069773E+02
 20
-1.37929698E+02
 11
2.67069773E+02
 21
-1.47429698E+02
  0
LINE
  8
0
 62
4
 10
2.75709773E+02
 20
-1.37929698E+02
 11
2.75709773E+02
 21
-1.47429698E+02
  0
LINE
  8
0
 62
4
 10
2.77829773E+02
 20
-1.37929698E+02
 11
2.78989773E+02
 21
-1.37929698E+02
  0
LINE
  8
0
 62
4
 10
2.78409773E+02
 20
-1.38229698E+02
 11
2.78989773E+02
 21
-1.38229698E+02
  0
LINE
  8
0
 62
4
 10
2.67069773E+02
 20
-1.37929698E+02
 11
2.69889773E+02
 21
-1.37929698E+02
  0
LINE
  8
0
 62
4
 10
2.67729773E+02
 20
-1.38229698E+02
 11
2.69549773E+02
 21
-1.38229698E+02
  0
LINE
  8
0
 62
4
 10
2.64949773E+02
 20
-1.47429698E+02
 11
2.67069773E+02
 21
-1.47429698E+02
  0
LINE
  8
0
 62
4
 10
2.64949773E+02
 20
-1.47929698E+02
 11
2.67729773E+02
 21
-1.47929698E+02
  0
LINE
  8
0
 62
4
 10
2.78989773E+02
 20
-1.47429698E+02
 11
2.79149773E+02
 21
-1.47429698E+02
  0
LINE
  8
0
 62
4
 10
2.78409773E+02
 20
-1.47929698E+02
 11
2.78649773E+02
 21
-1.47929698E+02
  0
LINE
  8
0
 62
4
 10
2.64949773E+02
 20
-1.37929698E+02
 11
2.64949773E+02
 21
-1.47929698E+02
  0
LINE
  8
0
 62
4
 10
2.77829773E+02
 20
-1.37929698E+02
 11
2.77829773E+02
 21
-1.47929698E+02
  0
LINE
  8
0
 62
4
 10
2.64389773E+02
 20
-1.38229698E+02
 11
2.64389773E+02
 21
-1.47929698E+02
  0
LINE
  8
0
 62
4
 10
2.78409773E+02
 20
-1.38229698E+02
 11
2.78409773E+02
 21
-1.47929698E+02
  0
LINE
  8
0
 62
4
 10
2.63789773E+02
 20
-1.37929698E+02
 11
2.63789773E+02
 21
-1.47429698E+02
  0
LINE
  8
0
 62
4
 10
2.78989773E+02
 20
-1.37929698E+02
 11
2.78989773E+02
 21
-1.47429698E+02
  0
LINE
  8
0
 62
4
 10
2.69549773E+02
 20
-1.38229698E+02
 11
2.69889773E+02
 21
-1.37929698E+02
  0
LINE
  8
0
 62
4
 10
2.72889773E+02
 20
-1.37929698E+02
 11
2.73229773E+02
 21
-1.38229698E+02
  0
LINE
  8
0
 62
4
 10
2.72889773E+02
 20
-1.47429698E+02
 11
2.73229773E+02
 21
-1.47929698E+02
  0
LINE
  8
0
 62
4
 10
2.69889773E+02
 20
-1.47429698E+02
 11
2.69549773E+02
 21
-1.47929698E+02
  0
LINE
  8
0
 62
4
 10
2.67069773E+02
 20
-1.37929698E+02
 11
2.67729773E+02
 21
-1.38229698E+02
  0
LINE
  8
0
 62
4
 10
2.75049773E+02
 20
-1.38229698E+02
 11
2.75709773E+02
 21
-1.37929698E+02
  0
LINE
  8
0
 62
4
 10
2.75709773E+02
 20
-1.47429698E+02
 11
2.75049773E+02
 21
-1.47929698E+02
  0
LINE
  8
0
 62
4
 10
2.67069773E+02
 20
-1.47429698E+02
 11
2.67729773E+02
 21
-1.47929698E+02
  0
LINE
  8
0
 62
4
 10
2.64389773E+02
 20
-1.38229698E+02
 11
2.64949773E+02
 21
-1.38009698E+02
  0
LINE
  8
0
 62
4
 10
2.77829773E+02
 20
-1.38009698E+02
 11
2.78409773E+02
 21
-1.38229698E+02
  0
LINE
  8
0
 62
4
 10
2.63789773E+02
 20
-1.47429698E+02
 11
2.64389773E+02
 21
-1.47929698E+02
  0
LINE
  8
0
 62
4
 10
2.78989773E+02
 20
-1.47429698E+02
 11
2.78409773E+02
 21
-1.47929698E+02
  0
LINE
  8
0
 62
4
 10
2.68549773E+02
 20
-1.49829698E+02
 11
2.68549773E+02
 21
-1.51729698E+02
  0
LINE
  8
0
 62
4
 10
2.68149773E+02
 20
-1.51729698E+02
 11
2.74649773E+02
 21
-1.51729698E+02
  0
LINE
  8
0
 62
4
 10
2.68149773E+02
 20
-1.51729698E+02
 11
2.68609773E+02
 21
-1.54329698E+02
  0
LINE
  8
0
 62
4
 10
2.68149773E+02
 20
-1.54329698E+02
 11
2.74649773E+02
 21
-1.54329698E+02
  0
LINE
  8
0
 62
4
 10
2.68149773E+02
 20
-1.54329698E+02
 11
2.68609773E+02
 21
-1.56929698E+02
  0
LINE
  8
0
 62
4
 10
2.68609773E+02
 20
-1.56929698E+02
 11
2.74189773E+02
 21
-1.56929698E+02
  0
LINE
  8
0
 62
4
 10
2.74649773E+02
 20
-1.54329698E+02
 11
2.74189773E+02
 21
-1.56929698E+02
  0
LINE
  8
0
 62
4
 10
2.74649773E+02
 20
-1.51729698E+02
 11
2.74189773E+02
 21
-1.54329698E+02
  0
LINE
  8
0
 62
4
 10
2.74249773E+02
 20
-1.49829698E+02
 11
2.74249773E+02
 21
-1.51729698E+02
  0
TEXT
  8
0
 62
7
 10
2.85264096E+02
 20
-1.59654602E+02
 40
6.30000019E+00
  1
-F1,-A
 41
1.00000000E+00
  7
MONOTXT
  0
TEXT
  8
0
 62
7
 10
2.67361713E+02
 20
9.26021456E+01
 40
6.30000019E+00
  1
-DU
 41
1.00000000E+00
  7
MONOTXT
  0
LINE
  8
0
 62
7
 10
-2.49250000E+02
 20
2.56250000E+02
 11
-2.49250000E+02
 21
2.76250000E+02
  0
TEXT
  8
0
 62
7
 10
-3.95800283E+02
 20
2.68100000E+02
 40
6.30000019E+00
  1
F.R.L.LARGE FLOW SERIES
 41
1.05504587E+00
  7
MONOTXT
  0
LINE
  8
0
 62
7
 10
-3.99250000E+02
 20
2.56250000E+02
 11
-2.49250000E+02
 21
2.56250000E+02
  0
TEXT
  8
0
 62
7
 10
-3.76900283E+02
 20
2.58100000E+02
 40
6.30000019E+00
  1
MICRO MIST FILTER
 41
1.07594937E+00
  7
MONOTXT
  0
LINE
  8
0
 62
7
 10
2.12889773E+02
 20
3.73903023E+01
 11
3.29889773E+02
 21
3.73903023E+01
  0
LINE
  8
0
 62
7
 10
3.31389773E+02
 20
3.58903023E+01
 11
3.31389773E+02
 21
-2.60969772E+00
  0
LINE
  8
0
 62
7
 10
2.11389773E+02
 20
3.58903023E+01
 11
2.11389773E+02
 21
-2.60969772E+00
  0
LINE
  8
0
 62
7
 10
2.11389773E+02
 20
3.58903023E+01
 11
2.12889773E+02
 21
3.73903023E+01
  0
LINE
  8
0
 62
7
 10
3.29889773E+02
 20
3.73903023E+01
 11
3.31389773E+02
 21
3.58903023E+01
  0
LINE
  8
0
 62
7
 10
2.11389773E+02
 20
3.58903023E+01
 11
3.31389773E+02
 21
3.58903023E+01
  0
LINE
  8
0
 62
7
 10
2.37169773E+02
 20
3.43903023E+01
 11
3.05609773E+02
 21
3.43903023E+01
  0
LINE
  8
0
 62
7
 10
3.24389773E+02
 20
2.73903023E+01
 11
3.24389773E+02
 21
-2.60969772E+00
  0
LINE
  8
0
 62
7
 10
3.10389773E+02
 20
2.73903023E+01
 11
3.10389773E+02
 21
-2.60969772E+00
  0
LINE
  8
0
 62
7
 10
2.34329773E+02
 20
-2.60969772E+00
 11
2.35569773E+02
 21
3.28903023E+01
  0
LINE
  8
0
 62
7
 10
3.08469773E+02
 20
-2.60969772E+00
 11
3.07229773E+02
 21
3.28903023E+01
  0
LINE
  8
0
 62
7
 10
2.35569773E+02
 20
3.28903023E+01
 11
2.37169773E+02
 21
3.43903023E+01
  0
LINE
  8
0
 62
7
 10
3.07229773E+02
 20
3.28903023E+01
 11
3.05609773E+02
 21
3.43903023E+01
  0
LINE
  8
0
 62
7
 10
2.35569773E+02
 20
3.28903023E+01
 11
3.07229773E+02
 21
3.28903023E+01
  0
LINE
  8
0
 62
7
 10
3.10389773E+02
 20
2.73903023E+01
 11
3.24389773E+02
 21
2.73903023E+01
  0
LINE
  8
0
 62
7
 10
3.10389773E+02
 20
-2.60969772E+00
 11
3.24389773E+02
 21
-2.60969772E+00
  0
LINE
  8
0
 62
7
 10
3.11269773E+02
 20
2.65503023E+01
 11
3.11269773E+02
 21
-1.76969772E+00
  0
LINE
  8
0
 62
7
 10
3.23509773E+02
 20
2.65503023E+01
 11
3.23509773E+02
 21
-1.76969772E+00
  0
LINE
  8
0
 62
7
 10
3.11269773E+02
 20
2.65503023E+01
 11
3.23509773E+02
 21
2.65503023E+01
  0
LINE
  8
0
 62
7
 10
3.11269773E+02
 20
-1.76969772E+00
 11
3.23509773E+02
 21
-1.76969772E+00
  0
LINE
  8
0
 62
7
 10
3.10389773E+02
 20
-2.60969772E+00
 11
3.11269773E+02
 21
-1.76969772E+00
  0
LINE
  8
0
 62
7
 10
3.23509773E+02
 20
-1.76969772E+00
 11
3.24389773E+02
 21
-2.60969772E+00
  0
LINE
  8
0
 62
7
 10
3.24389773E+02
 20
2.73903023E+01
 11
3.23509773E+02
 21
2.65503023E+01
  0
LINE
  8
0
 62
7
 10
3.10389773E+02
 20
2.73903023E+01
 11
3.11269773E+02
 21
2.65503023E+01
  0
LINE
  8
0
 62
7
 10
2.18389773E+02
 20
2.73903023E+01
 11
2.18389773E+02
 21
-2.60969772E+00
  0
LINE
  8
0
 62
7
 10
2.32389773E+02
 20
2.73903023E+01
 11
2.32389773E+02
 21
-2.60969772E+00
  0
LINE
  8
0
 62
7
 10
2.32389773E+02
 20
2.73903023E+01
 11
2.18389773E+02
 21
2.73903023E+01
  0
LINE
  8
0
 62
7
 10
2.32389773E+02
 20
-2.60969772E+00
 11
2.18389773E+02
 21
-2.60969772E+00
  0
LINE
  8
0
 62
7
 10
2.31509773E+02
 20
2.65503023E+01
 11
2.31509773E+02
 21
-1.76969772E+00
  0
LINE
  8
0
 62
7
 10
2.19269773E+02
 20
2.65503023E+01
 11
2.19269773E+02
 21
-1.76969772E+00
  0
LINE
  8
0
 62
7
 10
2.31509773E+02
 20
2.65503023E+01
 11
2.19269773E+02
 21
2.65503023E+01
  0
LINE
  8
0
 62
7
 10
2.31509773E+02
 20
-1.76969772E+00
 11
2.19269773E+02
 21
-1.76969772E+00
  0
LINE
  8
0
 62
7
 10
2.32389773E+02
 20
-2.60969772E+00
 11
2.31509773E+02
 21
-1.76969772E+00
  0
LINE
  8
0
 62
7
 10
2.19269773E+02
 20
-1.76969772E+00
 11
2.18389773E+02
 21
-2.60969772E+00
  0
LINE
  8
0
 62
7
 10
2.18389773E+02
 20
2.73903023E+01
 11
2.19269773E+02
 21
2.65503023E+01
  0
LINE
  8
0
 62
7
 10
2.32389773E+02
 20
2.73903023E+01
 11
2.31509773E+02
 21
2.65503023E+01
  0
LINE
  8
0
 62
7
 10
2.56009773E+02
 20
-1.28329698E+02
 11
2.86789773E+02
 21
-1.28329698E+02
  0
LINE
  8
0
 62
7
 10
2.40389773E+02
 20
-1.18329698E+02
 11
3.02389773E+02
 21
-1.18329698E+02
  0
LINE
  8
0
 62
7
 10
2.37009773E+02
 20
-9.31496977E+01
 11
2.37829773E+02
 21
-1.16669698E+02
  0
LINE
  8
0
 62
7
 10
3.05789773E+02
 20
-9.31496977E+01
 11
3.04969773E+02
 21
-1.16669698E+02
  0
LINE
  8
0
 62
7
 10
2.39329773E+02
 20
-1.19169698E+02
 11
2.54509773E+02
 21
-1.27929698E+02
  0
LINE
  8
0
 62
7
 10
3.03469773E+02
 20
-1.19169698E+02
 11
2.88289773E+02
 21
-1.27929698E+02
  0
LINE
  8
0
 62
7
 10
2.12889773E+02
 20
3.73903023E+01
 11
2.12889773E+02
 21
-2.60969772E+00
  0
LINE
  8
0
 62
7
 10
3.29889773E+02
 20
3.73903023E+01
 11
3.29889773E+02
 21
-2.60969772E+00
  0
LINE
  8
0
  6
CENTER
 62
2
 10
2.71389773E+02
 20
4.23903023E+01
 11
2.71389773E+02
 21
-2.60969772E+00
  0
LINE
  8
0
  6
CENTER
 62
2
 10
2.07389773E+02
 20
1.23903023E+01
 11
3.35389773E+02
 21
1.23903023E+01
  0
LINE
  8
0
  6
CENTER
 62
2
 10
2.71389773E+02
 20
-9.30496977E+01
 11
2.71389773E+02
 21
-1.61049698E+02
  0
ARC
  8
0
 62
7
 10
2.40825203E+02
 20
-1.16572440E+02
 40
2.99700864E+00
 50
1.81859673E+02
 51
2.40067840E+02
  0
ARC
  8
0
 62
7
 10
2.56003307E+02
 20
-1.25341444E+02
 40
2.98826106E+00
 50
2.40013197E+02
 51
2.70123969E+02
  0
ARC
  8
0
 62
7
 10
2.86796425E+02
 20
-1.25342144E+02
 40
2.98756125E+00
 50
2.69872421E+02
 51
2.99990413E+02
  0
ARC
  8
0
 62
7
 10
3.01976393E+02
 20
-1.16573670E+02
 40
2.99491999E+00
 50
2.99909914E+02
 51
3.58162573E+02
  0
TEXT
  8
0
 62
7
 10
-2.75326020E+02
 20
4.69069587E+01
 40
6.30000019E+00
  1
IN
 41
1.00000000E+00
  7
MONOTXT
  0
TEXT
  8
0
 62
7
 10
-9.18093939E+01
 20
4.69069587E+01
 40
6.30000019E+00
  1
OUT
 41
1.00000000E+00
  7
MONOTXT
  0
LINE
  8
0
 62
7
 10
2.79799927E+02
 20
-2.56750000E+02
 11
3.99799805E+02
 21
-2.56750000E+02
  0
LINE
  8
0
 62
7
 10
2.79799927E+02
 20
-2.56750000E+02
 11
2.79799927E+02
 21
-2.76750000E+02
  0
TEXT
  8
0
 62
7
 10
2.87585240E+02
 20
-2.71250000E+02
 40
9.00000000E+00
  1
KOGANEI CORP.
 41
1.04838710E+00
  7
MONOTXT
  0
TEXT
  8
0
 62
7
 10
3.15499645E+02
 20
2.63100000E+02
 40
6.30000019E+00
  1
Ver. 1.0
 41
1.08108108E+00
  7
MONOTXT
  0
LINE
  8
0
 62
7
 10
2.79799927E+02
 20
2.56250000E+02
 11
3.99799805E+02
 21
2.56250000E+02
  0
LINE
  8
0
 62
7
 10
2.79799927E+02
 20
2.76250000E+02
 11
2.79799927E+02
 21
2.56250000E+02
  0
TEXT
  8
0
 62
7
 10
-3.85600562E+02
 20
2.38100000E+02
 40
6.30000019E+00
  1
MODEL:MMF800-04
 41
1.00000000E+00
  7
MONOTXT
  0
LINE
  8
0
 62
7
 10
-3.99250000E+02
 20
-2.76750000E+02
 11
3.99799805E+02
 21
-2.76750000E+02
  0
LINE
  8
0
 62
7
 10
-3.99250000E+02
 20
2.76250000E+02
 11
3.99799805E+02
 21
2.76250000E+02
  0
LINE
  8
0
 62
7
 10
-3.99250000E+02
 20
2.76250000E+02
 11
-3.99250000E+02
 21
-2.76750000E+02
  0
LINE
  8
0
 62
7
 10
3.99799805E+02
 20
2.76250000E+02
 11
3.99799805E+02
 21
-2.76750000E+02
  0
ENDSEC
  0
EOF
