  0
SECTION
  2
HEADER
  9
$ACADVER
  1
AC1012
  9
$DWGCODEPAGE
  3
dos932
  9
$INSBASE
 10
0.0
 20
0.0
 30
0.0
  9
$EXTMIN
 10
-194.25
 20
-133.5
 30
0.0
  9
$EXTMAX
 10
196.25000429153442
 20
132.60000610351562
 30
0.0
  9
$LIMMIN
 10
-194.25
 20
-133.5
  9
$LIMMAX
 10
196.25000429153442
 20
132.60000610351562
  9
$ORTHOMODE
 70
               0
  9
$REGENMODE
 70
               1
  9
$FILLMODE
 70
               1
  9
$QTEXTMODE
 70
               0
  9
$MIRRTEXT
 70
               1
  9
$DRAGMODE
 70
               2
  9
$LTSCALE
 40
1.0
  9
$OSMODE
 70
               0
  9
$ATTMODE
 70
               1
  9
$TEXTSIZE
 40
3.2000000476837158
  9
$TRACEWID
 40
0.05
  9
$TEXTSTYLE
  7
MX_NOTE_STANDARD
  9
$CLAYER
  8
0
  9
$CELTYPE
  6
CONTINUOUS
  9
$CECOLOR
 62
             256
  9
$CELTSCALE
 40
1.0
  9
$DELOBJ
 70
               1
  9
$DISPSILH
 70
               0
  9
$DIMSCALE
 40
1.0
  9
$DIMASZ
 40
2.5
  9
$DIMEXO
 40
1.5
  9
$DIMDLI
 40
3.75
  9
$DIMRND
 40
0.0
  9
$DIMDLE
 40
0.0
  9
$DIMEXE
 40
1.5
  9
$DIMTP
 40
0.0
  9
$DIMTM
 40
0.0
  9
$DIMTXT
 40
3.2000000476837158
  9
$DIMCEN
 40
2.5
  9
$DIMTSZ
 40
0.0
  9
$DIMTOL
 70
               0
  9
$DIMLIM
 70
               0
  9
$DIMTIH
 70
               0
  9
$DIMTOH
 70
               0
  9
$DIMSE1
 70
               0
  9
$DIMSE2
 70
               0
  9
$DIMTAD
 70
               1
  9
$DIMZIN
 70
               8
  9
$DIMBLK
  1

  9
$DIMASO
 70
               1
  9
$DIMSHO
 70
               1
  9
$DIMPOST
  1

  9
$DIMAPOST
  1

  9
$DIMALT
 70
               0
  9
$DIMALTD
 70
               4
  9
$DIMALTF
 40
0.03937007874016
  9
$DIMLFAC
 40
1.0
  9
$DIMTOFL
 70
               1
  9
$DIMTVP
 40
0.0
  9
$DIMTIX
 70
               0
  9
$DIMSOXD
 70
               0
  9
$DIMSAH
 70
               0
  9
$DIMBLK1
  1

  9
$DIMBLK2
  1

  9
$DIMSTYLE
  2
MXDIMSTYLE
  9
$DIMCLRD
 70
               0
  9
$DIMCLRE
 70
               0
  9
$DIMCLRT
 70
               0
  9
$DIMTFAC
 40
1.0
  9
$DIMGAP
 40
1.0
  9
$DIMJUST
 70
               0
  9
$DIMSD1
 70
               0
  9
$DIMSD2
 70
               0
  9
$DIMTOLJ
 70
               1
  9
$DIMTZIN
 70
               0
  9
$DIMALTZ
 70
               0
  9
$DIMALTTZ
 70
               0
  9
$DIMFIT
 70
               3
  9
$DIMUPT
 70
               1
  9
$DIMUNIT
 70
               2
  9
$DIMDEC
 70
               4
  9
$DIMTDEC
 70
               4
  9
$DIMALTU
 70
               2
  9
$DIMALTTD
 70
               4
  9
$DIMTXSTY
  7
MX_NOTE_STANDARD
  9
$DIMAUNIT
 70
               0
  9
$LUNITS
 70
               2
  9
$LUPREC
 70
               4
  9
$SKETCHINC
 40
0.1
  9
$FILLETRAD
 40
0.0
  9
$AUNITS
 70
               0
  9
$AUPREC
 70
               0
  9
$MENU
  1
acad
  9
$ELEVATION
 40
0.0
  9
$PELEVATION
 40
0.0
  9
$THICKNESS
 40
0.0
  9
$LIMCHECK
 70
               0
  9
$BLIPMODE
 70
               1
  9
$CHAMFERA
 40
0.0
  9
$CHAMFERB
 40
0.0
  9
$CHAMFERC
 40
0.0
  9
$CHAMFERD
 40
0.0
  9
$SKPOLY
 70
               0
  9
$TDCREATE
 40
2453655.719502315
  9
$TDUPDATE
 40
2453655.719502315
  9
$TDINDWG
 40
0.0000000000
  9
$TDUSRTIMER
 40
0.0000000000
  9
$USRTIMER
 70
               1
  9
$ANGBASE
 50
0.0
  9
$ANGDIR
 70
               0
  9
$PDMODE
 70
               0
  9
$PDSIZE
 40
0.0
  9
$PLINEWID
 40
0.0
  9
$COORDS
 70
               1
  9
$SPLFRAME
 70
               0
  9
$SPLINETYPE
 70
               6
  9
$SPLINESEGS
 70
               8
  9
$ATTDIA
 70
               0
  9
$ATTREQ
 70
               1
  9
$HANDLING
 70
               1
  9
$HANDSEED
  5
33C
  9
$SURFTAB1
 70
               6
  9
$SURFTAB2
 70
               6
  9
$SURFTYPE
 70
               6
  9
$SURFU
 70
               6
  9
$SURFV
 70
               6
  9
$UCSNAME
  2

  9
$UCSORG
 10
0.0
 20
0.0
 30
0.0
  9
$UCSXDIR
 10
1.0
 20
0.0
 30
0.0
  9
$UCSYDIR
 10
0.0
 20
1.0
 30
0.0
  9
$PUCSNAME
  2

  9
$PUCSORG
 10
0.0
 20
0.0
 30
0.0
  9
$PUCSXDIR
 10
1.0
 20
0.0
 30
0.0
  9
$PUCSYDIR
 10
0.0
 20
1.0
 30
0.0
  9
$USERI1
 70
               0
  9
$USERI2
 70
               0
  9
$USERI3
 70
               0
  9
$USERI4
 70
               0
  9
$USERI5
 70
               0
  9
$USERR1
 40
0.0
  9
$USERR2
 40
0.0
  9
$USERR3
 40
0.0
  9
$USERR4
 40
0.0
  9
$USERR5
 40
0.0
  9
$WORLDVIEW
 70
               1
  9
$SHADEDGE
 70
               3
  9
$SHADEDIF
 70
              70
  9
$TILEMODE
 70
               1
  9
$MAXACTVP
 70
              16
  9
$PINSBASE
 10
0.0
 20
0.0
 30
0.0
  9
$PLIMCHECK
 70
               0
  9
$PEXTMIN
 10
1.0000000000000000E+20
 20
1.0000000000000000E+20
 30
1.0000000000000000E+20
  9
$PEXTMAX
 10
-1.0000000000000000E+20
 20
-1.0000000000000000E+20
 30
-1.0000000000000000E+20
  9
$PLIMMIN
 10
0.0
 20
0.0
  9
$PLIMMAX
 10
12.0
 20
9.0
  9
$UNITMODE
 70
               0
  9
$VISRETAIN
 70
               0
  9
$PLINEGEN
 70
               1
  9
$PSLTSCALE
 70
               0
  9
$TREEDEPTH
 70
            3020
  9
$PICKSTYLE
 70
               1
  9
$CMLSTYLE
  2
Standard
  9
$CMLJUST
 70
               0
  9
$CMLSCALE
 40
1.0
  9
$SAVEIMAGES
 70
               0
  0
ENDSEC
  0
SECTION
  2
CLASSES
  0
CLASS
  1
LWPOLYLINE
  2
AcDbPolyline
  3
"AutoCAD"
 90
        0
280
               0
281
               1
  0
CLASS
  1
IMAGE
  2
AcDbRasterImage
  3
ISM
 90
      127
280
               0
281
               1
  0
CLASS
  1
OLE2FRAME
  2
AcDbOle2Frame
  3
""
 90
        0
280
               0
281
               1
  0
CLASS
  1
HATCH
  2
AcDbHatch
  3
"ACAD_SEDONA"
 90
        0
280
               0
281
               1
  0
CLASS
  1
DICTIONARYVAR
  2
AcDbDictionaryVar
  3
"AutoCAD"
 90
        0
280
               0
281
               0
  0
CLASS
  1
RASTERVARIABLES
  2
AcDbRasterVariables
  3
ISM
 90
        0
280
               0
281
               0
  0
CLASS
  1
IMAGEDEF
  2
AcDbRasterImageDef
  3
ISM
 90
        0
280
               0
281
               0
  0
CLASS
  1
IMAGEDEF_REACTOR
  2
AcDbRasterImageDefReactor
  3
ISM
 90
        1
280
               0
281
               0
  0
CLASS
  1
IDBUFFER
  2
AcDbIdBuffer
  3
"Acad"
 90
        0
280
               0
281
               0
  0
CLASS
  1
SPATIAL_FILTER
  2
AcDbSpatialFilter
  3
"Acad"
 90
        0
280
               0
281
               0
  0
CLASS
  1
XRECORD
  2
AcDbXrecord
  3
"<Built In>"
 90
        0
280
               0
281
               0
  0
CLASS
  1
SORTENTSTABLE
  2
AcDbSortentsTable
  3
"AutoCAD"
 90
        0
280
               0
281
               0
  0
CLASS
  1
LAYER_INDEX
  2
AcDbLayerIndex
  3
"Acad"
 90
        0
280
               0
281
               0
  0
CLASS
  1
SPATIAL_INDEX
  2
AcDbSpatialIndex
  3
"Acad"
 90
        0
280
               0
281
               0
  0
CLASS
  1
OBJECT_PTR
  2
CAseDLPNTableRecord
  3
"ASE-LPNTableRecord"
 90
        1
280
               0
281
               0
  0
CLASS
  1
LAYOUT
  2
AcDbLayout
  3
"AutoCAD 2000"
 90
        1
280
               0
281
               0
  0
CLASS
  1
PLOTSETTINGS
  2
AcDbPlotSettings
  3
"AutoCAD 2000"
 90
        1
280
               0
281
               0
  0
CLASS
  1
ACDBDICTIONARYWDFLT
  2
AcDbDictionaryWithDefault
  3
"AutoCAD 2000"
 90
        1
280
               0
281
               0
  0
CLASS
  1
ACDBPLACEHOLDER
  2
AcDbPlaceHolder
  3
"AutoCAD 2000"
 90
        1
280
               0
281
               0
  0
ENDSEC
  0
SECTION
  2
TABLES
  0
TABLE
  2
VPORT
  5
7
100
AcDbSymbolTable
 70
               1
  0
VPORT
  5
15
100
AcDbSymbolTableRecord
100
AcDbViewportTableRecord
  2
*ACTIVE
 70
               0
 10
0.0
 20
0.0
 11
1.0
 21
1.0
 12
1.0000021457672119
 22
-0.4499969482421875
 13
0.0
 23
0.0
 14
1.0
 24
1.0
 15
0.0
 25
0.0
 16
0.0
 26
0.0
 36
1.0
 17
0.0
 27
0.0
 37
0.0
 40
268.76100616455079
 41
1.7320508075688772
 42
50.0
 43
0.0
 44
0.0
 50
0.0
 51
0.0
 71
               0
 72
             100
 73
               1
 74
               1
 75
               0
 76
               0
 77
               0
 78
               0
  0
ENDTAB
  0
TABLE
  2
LTYPE
  5
4
100
AcDbSymbolTable
 70
               5
  0
LTYPE
  5
11
100
AcDbSymbolTableRecord
100
AcDbLinetypeTableRecord
  2
BYBLOCK
 70
              64
  3

 72
              65
 73
               0
 40
0.0
  0
LTYPE
  5
12
100
AcDbSymbolTableRecord
100
AcDbLinetypeTableRecord
  2
BYLAYER
 70
              64
  3

 72
              65
 73
               0
 40
0.0
  0
LTYPE
  5
13
100
AcDbSymbolTableRecord
100
AcDbLinetypeTableRecord
  2
CONTINUOUS
 70
              64
  3
Solid line
 72
              65
 73
               0
 40
0.0
  0
LTYPE
  5
8A
100
AcDbSymbolTableRecord
100
AcDbLinetypeTableRecord
  2
CENTER
 70
              64
  3
Center ____ _ ____ _ ____ _ ____ _ ____ _ ____
 72
              65
 73
               4
 40
26.0
 49
20.0
 74
               0
 49
-2.0
 74
               0
 49
2.0
 74
               0
 49
-2.0
 74
               0
  0
LTYPE
  5
B0
100
AcDbSymbolTableRecord
100
AcDbLinetypeTableRecord
  2
PHANTOM
 70
              64
  3
Phantom ______  __  __  ______  __  __  ______
 72
              65
 73
               6
 40
30.0
 49
20.0
 74
               0
 49
-2.0
 74
               0
 49
2.0
 74
               0
 49
-2.0
 74
               0
 49
2.0
 74
               0
 49
-2.0
 74
               0
  0
ENDTAB
  0
TABLE
  2
LAYER
  5
2
100
AcDbSymbolTable
 70
               2
  0
LAYER
  5
14
100
AcDbSymbolTableRecord
100
AcDbLayerTableRecord
  2
0
 70
               0
 62
               7
  6
CONTINUOUS
  0
LAYER
  5
1D
100
AcDbSymbolTableRecord
100
AcDbLayerTableRecord
  2
DEFPOINTS
 70
               0
 62
               7
  6
CONTINUOUS
  0
ENDTAB
  0
TABLE
  2
STYLE
  5
3
100
AcDbSymbolTable
 70
               1
  0
STYLE
  5
17
100
AcDbSymbolTableRecord
100
AcDbTextStyleTableRecord
  2
MX_NOTE_STANDARD
 70
               0
 40
0.0
 41
1.0
 50
0.0
 71
               0
 42
3.2000000476837158
  3
txt.shx
  4
extfont.shx
  0
ENDTAB
  0
TABLE
  2
VIEW
  5
5
100
AcDbSymbolTable
 70
               0
  0
ENDTAB
  0
TABLE
  2
UCS
  5
6
100
AcDbSymbolTable
 70
               0
  0
ENDTAB
  0
TABLE
  2
APPID
  5
8
100
AcDbSymbolTable
 70
               1
  0
APPID
  5
16
100
AcDbSymbolTableRecord
100
AcDbRegAppTableRecord
  2
ACAD
 70
               0
  0
ENDTAB
  0
TABLE
  2
DIMSTYLE
  5
9
100
AcDbSymbolTable
 70
               1
  0
DIMSTYLE
105
18
100
AcDbSymbolTableRecord
100
AcDbDimStyleTableRecord
  2
MXDIMSTYLE
 70
               0
  3

  4

  5

  6

  7

 40
1.0
 41
2.5
 42
1.5
 43
3.75
 44
1.5
 45
0.0
 46
0.0
 47
0.0
 48
0.0
 71
               0
 72
               0
 73
               0
 74
               0
 75
               0
 76
               0
 77
               1
 78
               8
140
3.2000000476837158
141
2.5
142
0.0
143
0.03937007874016
144
1.0
145
0.0
146
1.0
147
1.0
170
               0
171
               4
172
               1
173
               0
174
               0
175
               0
176
               0
177
               0
178
               0
270
               2
271
               4
272
               4
273
               2
274
               4
275
               0
280
               0
281
               0
282
               0
283
               1
284
               0
285
               0
286
               0
287
               3
288
               1
340
17
  0
ENDTAB
  0
TABLE
  2
BLOCK_RECORD
  5
1
100
AcDbSymbolTable
 70
               6
  0
BLOCK_RECORD
  5
A
100
AcDbSymbolTableRecord
100
AcDbBlockTableRecord
  2
*MODEL_SPACE
  0
BLOCK_RECORD
  5
B
100
AcDbSymbolTableRecord
100
AcDbBlockTableRecord
  2
*PAPER_SPACE
  0
BLOCK_RECORD
  5
1E
100
AcDbSymbolTableRecord
100
AcDbBlockTableRecord
  2
MGAPG6-1
  0
BLOCK_RECORD
  5
1F
100
AcDbSymbolTableRecord
100
AcDbBlockTableRecord
  2
MGAPG6-2
  0
BLOCK_RECORD
  5
20
100
AcDbSymbolTableRecord
100
AcDbBlockTableRecord
  2
MGAPG6-3
  0
BLOCK_RECORD
  5
21
100
AcDbSymbolTableRecord
100
AcDbBlockTableRecord
  2
MGAPG6-4
  0
BLOCK_RECORD
  5
22
100
AcDbSymbolTableRecord
100
AcDbBlockTableRecord
  2
MGAPG6-5
  0
BLOCK_RECORD
  5
23
100
AcDbSymbolTableRecord
100
AcDbBlockTableRecord
  2
MGAPG6-6
  0
ENDTAB
  0
ENDSEC
  0
SECTION
  2
BLOCKS
  0
BLOCK
  5
D
100
AcDbEntity
  8
0
100
AcDbBlockBegin
  2
*MODEL_SPACE
 70
               0
 10
0.0
 20
0.0
 30
0.0
  3
*MODEL_SPACE
  1

  0
ENDBLK
  5
E
100
AcDbEntity
  8
0
100
AcDbBlockEnd
  0
BLOCK
  5
F
100
AcDbEntity
 67
               1
  8
0
100
AcDbBlockBegin
  2
*PAPER_SPACE
 70
               0
 10
0.0
 20
0.0
 30
0.0
  3
*PAPER_SPACE
  1

  0
ENDBLK
  5
10
100
AcDbEntity
 67
               1
  8
0
100
AcDbBlockEnd
  0
BLOCK
  5
24
100
AcDbEntity
  8
0
100
AcDbBlockBegin
  2
MGAPG6-1
 70
               0
 10
0.0
 20
0.0
 30
0.0
  3
MGAPG6-1
  1

  0
LINE
  5
25
100
AcDbEntity
  8
0
  6
CONTINUOUS
 62
               7
100
AcDbLine
 10
0.0
 20
-4.3999999999999986
 30
0.0
 11
3.2999999999999972
 21
-4.3999999999999986
 31
0.0
  0
LINE
  5
26
100
AcDbEntity
  8
0
  6
CONTINUOUS
 62
               7
100
AcDbLine
 10
3.2999999999999972
 20
-8.6000000000000014
 30
0.0
 11
3.2999999999999972
 21
-4.3999999999999986
 31
0.0
  0
LINE
  5
27
100
AcDbEntity
  8
0
  6
CONTINUOUS
 62
               7
100
AcDbLine
 10
0.0
 20
-8.6000000000000014
 30
0.0
 11
3.2999999999999972
 21
-8.6000000000000014
 31
0.0
  0
LINE
  5
28
100
AcDbEntity
  8
0
  6
CONTINUOUS
 62
               7
100
AcDbLine
 10
1.6000000000000085
 20
-8.3999999999999986
 30
0.0
 11
1.6000000000000085
 21
-4.6000000000000014
 31
0.0
  0
LINE
  5
29
100
AcDbEntity
  8
0
  6
CONTINUOUS
 62
               7
100
AcDbLine
 10
1.2999999999999972
 20
-8.1000000000000014
 30
0.0
 11
1.2999999999999972
 21
-4.8999999999999986
 31
0.0
  0
LINE
  5
2A
100
AcDbEntity
  8
0
  6
CONTINUOUS
 62
               7
100
AcDbLine
 10
1.2999999999999972
 20
-8.1000000000000014
 30
0.0
 11
1.6000000000000085
 21
-8.3999999999999986
 31
0.0
  0
LINE
  5
2B
100
AcDbEntity
  8
0
  6
CONTINUOUS
 62
               7
100
AcDbLine
 10
1.2999999999999972
 20
-4.8999999999999986
 30
0.0
 11
1.6000000000000085
 21
-4.6000000000000014
 31
0.0
  0
LINE
  5
2C
100
AcDbEntity
  8
0
  6
CONTINUOUS
 62
               7
100
AcDbLine
 10
1.6000000000000085
 20
-8.3999999999999986
 30
0.0
 11
3.2999999999999972
 21
-8.3999999999999986
 31
0.0
  0
LINE
  5
2D
100
AcDbEntity
  8
0
  6
CONTINUOUS
 62
               7
100
AcDbLine
 10
1.6000000000000085
 20
-4.6000000000000014
 30
0.0
 11
3.2999999999999972
 21
-4.6000000000000014
 31
0.0
  0
LINE
  5
2E
100
AcDbEntity
  8
0
  6
CONTINUOUS
 62
               2
100
AcDbLine
 10
-1.9999999974627087
 20
-6.5
 30
0.0
 11
2.0000000025372913
 21
-6.5
 31
0.0
  0
LINE
  5
2F
100
AcDbEntity
  8
0
  6
CONTINUOUS
 62
               7
100
AcDbLine
 10
0.0
 20
4.3999999999999986
 30
0.0
 11
3.2999999999999972
 21
4.3999999999999986
 31
0.0
  0
LINE
  5
30
100
AcDbEntity
  8
0
  6
CONTINUOUS
 62
               7
100
AcDbLine
 10
0.0
 20
8.5999999999999943
 30
0.0
 11
3.2999999999999972
 21
8.5999999999999943
 31
0.0
  0
LINE
  5
31
100
AcDbEntity
  8
0
  6
CONTINUOUS
 62
               7
100
AcDbLine
 10
1.6000000000000085
 20
4.6000000000000014
 30
0.0
 11
3.2999999999999972
 21
4.6000000000000014
 31
0.0
  0
LINE
  5
32
100
AcDbEntity
  8
0
  6
CONTINUOUS
 62
               7
100
AcDbLine
 10
1.6000000000000085
 20
8.4000000000000057
 30
0.0
 11
3.2999999999999972
 21
8.4000000000000057
 31
0.0
  0
LINE
  5
33
100
AcDbEntity
  8
0
  6
CONTINUOUS
 62
               7
100
AcDbLine
 10
1.2999999999999972
 20
4.8999999999999986
 30
0.0
 11
1.6000000000000085
 21
4.6000000000000014
 31
0.0
  0
LINE
  5
34
100
AcDbEntity
  8
0
  6
CONTINUOUS
 62
               7
100
AcDbLine
 10
1.2999999999999972
 20
8.0999999999999943
 30
0.0
 11
1.6000000000000085
 21
8.4000000000000057
 31
0.0
  0
LINE
  5
35
100
AcDbEntity
  8
0
  6
CONTINUOUS
 62
               7
100
AcDbLine
 10
3.2999999999999972
 20
8.5999999999999943
 30
0.0
 11
3.2999999999999972
 21
4.3999999999999986
 31
0.0
  0
LINE
  5
36
100
AcDbEntity
  8
0
  6
CONTINUOUS
 62
               7
100
AcDbLine
 10
1.2999999999999972
 20
8.0999999999999943
 30
0.0
 11
1.2999999999999972
 21
4.8999999999999986
 31
0.0
  0
LINE
  5
37
100
AcDbEntity
  8
0
  6
CONTINUOUS
 62
               7
100
AcDbLine
 10
1.6000000000000085
 20
8.4000000000000057
 30
0.0
 11
1.6000000000000085
 21
4.6000000000000014
 31
0.0
  0
LINE
  5
38
100
AcDbEntity
  8
0
  6
CONTINUOUS
 62
               2
100
AcDbLine
 10
-1.9999999974627087
 20
6.5
 30
0.0
 11
2.0000000025372913
 21
6.5
 31
0.0
  0
LINE
  5
39
100
AcDbEntity
  8
0
  6
CONTINUOUS
 62
               7
100
AcDbLine
 10
0.0
 20
-10.0
 30
0.0
 11
0.0
 21
10.0
 31
0.0
  0
LINE
  5
3A
100
AcDbEntity
  8
0
  6
CONTINUOUS
 62
               7
100
AcDbLine
 10
82.700000000000003
 20
1.5
 30
0.0
 11
82.700000000000003
 21
-1.5
 31
0.0
  0
LINE
  5
3B
100
AcDbEntity
  8
0
  6
CONTINUOUS
 62
               7
100
AcDbLine
 10
80.899999999999991
 20
-1.5
 30
0.0
 11
82.700000000000003
 21
-1.5
 31
0.0
  0
LINE
  5
3C
100
AcDbEntity
  8
0
  6
CONTINUOUS
 62
               7
100
AcDbLine
 10
80.899999999999991
 20
1.5
 30
0.0
 11
82.700000000000003
 21
1.5
 31
0.0
  0
LINE
  5
3D
100
AcDbEntity
  8
0
  6
CONTINUOUS
 62
               2
100
AcDbLine
 10
80.899999999999991
 20
-1.2294998168945739
 30
0.0
 11
82.970500199327901
 21
-1.2294998168945739
 31
0.0
  0
LINE
  5
3E
100
AcDbEntity
  8
0
  6
CONTINUOUS
 62
               2
100
AcDbLine
 10
80.899999999999991
 20
1.2294998168945739
 30
0.0
 11
82.970500199327901
 21
1.2294998168945739
 31
0.0
  0
LINE
  5
3F
100
AcDbEntity
  8
0
  6
CONTINUOUS
 62
               2
100
AcDbLine
 10
70.0
 20
-1.2294998168945739
 30
0.0
 11
69.531479939404718
 21
-1.5
 31
0.0
  0
LINE
  5
40
100
AcDbEntity
  8
0
  6
CONTINUOUS
 62
               2
100
AcDbLine
 10
70.0
 20
-1.2294998168944886
 30
0.0
 11
71.0
 21
-1.2294998168944886
 31
0.0
  0
LINE
  5
41
100
AcDbEntity
  8
0
  6
CONTINUOUS
 62
               2
100
AcDbLine
 10
70.0
 20
1.2294998168945739
 30
0.0
 11
69.531479939404718
 21
1.5
 31
0.0
  0
LINE
  5
42
100
AcDbEntity
  8
0
  6
CONTINUOUS
 62
               2
100
AcDbLine
 10
70.0
 20
1.2294998168945739
 30
0.0
 11
71.0
 21
1.2294998168945739
 31
0.0
  0
LINE
  5
43
100
AcDbEntity
  8
0
  6
CONTINUOUS
 62
               7
100
AcDbLine
 10
70.0
 20
1.5
 30
0.0
 11
70.0
 21
-1.5
 31
0.0
  0
LINE
  5
44
100
AcDbEntity
  8
0
  6
CONTINUOUS
 62
               7
100
AcDbLine
 10
28.5
 20
8.8734993995195168
 30
0.0
 11
28.5
 21
7.0
 31
0.0
  0
LINE
  5
45
100
AcDbEntity
  8
0
  6
CONTINUOUS
 62
               7
100
AcDbLine
 10
54.5
 20
-2.6000000000000014
 30
0.0
 11
61.0
 21
-2.6000000000000014
 31
0.0
  0
LINE
  5
46
100
AcDbEntity
  8
0
  6
CONTINUOUS
 62
               7
100
AcDbLine
 10
54.0
 20
-9.0
 30
0.0
 11
61.0
 21
-9.0
 31
0.0
  0
LINE
  5
47
100
AcDbEntity
  8
0
  6
CONTINUOUS
 62
               7
100
AcDbLine
 10
54.5
 20
2.6000000000000014
 30
0.0
 11
61.0
 21
2.6000000000000014
 31
0.0
  0
LINE
  5
48
100
AcDbEntity
  8
0
  6
CONTINUOUS
 62
               7
100
AcDbLine
 10
61.0
 20
9.0
 30
0.0
 11
61.0
 21
-9.0
 31
0.0
  0
LINE
  5
49
100
AcDbEntity
  8
0
  6
CONTINUOUS
 62
               7
100
AcDbLine
 10
54.0
 20
9.0
 30
0.0
 11
61.0
 21
9.0
 31
0.0
  0
LINE
  5
4A
100
AcDbEntity
  8
0
  6
CONTINUOUS
 62
               7
100
AcDbLine
 10
61.0
 20
1.5
 30
0.0
 11
71.0
 21
1.5
 31
0.0
  0
LINE
  5
4B
100
AcDbEntity
  8
0
  6
CONTINUOUS
 62
               7
100
AcDbLine
 10
61.0
 20
-1.5
 30
0.0
 11
71.0
 21
-1.5
 31
0.0
  0
LINE
  5
4C
100
AcDbEntity
  8
0
  6
CONTINUOUS
 62
               7
100
AcDbLine
 10
71.0
 20
-2.9000000000000057
 30
0.0
 11
74.500000000000014
 21
-2.9000000000000057
 31
0.0
  0
LINE
  5
4D
100
AcDbEntity
  8
0
  6
CONTINUOUS
 62
               7
100
AcDbLine
 10
71.0
 20
2.9000000000000057
 30
0.0
 11
74.500000000000014
 21
2.9000000000000057
 31
0.0
  0
LINE
  5
4E
100
AcDbEntity
  8
0
  6
CONTINUOUS
 62
               7
100
AcDbLine
 10
80.899999999999991
 20
-2.7499999355027711
 30
0.0
 11
80.899999999999991
 21
2.7499999355027711
 31
0.0
  0
LINE
  5
4F
100
AcDbEntity
  8
0
  6
CONTINUOUS
 62
               7
100
AcDbLine
 10
78.500000000000014
 20
-2.7499999355027711
 30
0.0
 11
80.899999999999991
 21
-2.7499999355027711
 31
0.0
  0
LINE
  5
50
100
AcDbEntity
  8
0
  6
CONTINUOUS
 62
               7
100
AcDbLine
 10
78.499999994920458
 20
2.7499999267047457
 30
0.0
 11
80.900000005079548
 21
2.7499999267047457
 31
0.0
  0
LINE
  5
51
100
AcDbEntity
  8
0
  6
CONTINUOUS
 62
               7
100
AcDbLine
 10
82.700000000000003
 20
-1.5
 30
0.0
 11
83.000000000000014
 21
-1.2000000000000028
 31
0.0
  0
LINE
  5
52
100
AcDbEntity
  8
0
  6
CONTINUOUS
 62
               7
100
AcDbLine
 10
74.500000000000014
 20
-3.0
 30
0.0
 11
78.500000000000014
 21
-3.0
 31
0.0
  0
LINE
  5
53
100
AcDbEntity
  8
0
  6
CONTINUOUS
 62
               7
100
AcDbLine
 10
74.500000000000014
 20
3.0
 30
0.0
 11
78.500000000000014
 21
3.0
 31
0.0
  0
LINE
  5
54
100
AcDbEntity
  8
0
  6
CONTINUOUS
 62
               7
100
AcDbLine
 10
82.700000000000003
 20
1.5
 30
0.0
 11
83.000000000000014
 21
1.2000000000000028
 31
0.0
  0
LINE
  5
55
100
AcDbEntity
  8
0
  6
CONTINUOUS
 62
               7
100
AcDbLine
 10
83.000000000000014
 20
1.2000000000000028
 30
0.0
 11
83.000000000000014
 21
-1.2000000000000028
 31
0.0
  0
LINE
  5
56
100
AcDbEntity
  8
0
  6
CONTINUOUS
 62
               7
100
AcDbLine
 10
78.500000000000014
 20
3.0
 30
0.0
 11
78.500000000000014
 21
-3.0
 31
0.0
  0
LINE
  5
57
100
AcDbEntity
  8
0
  6
CONTINUOUS
 62
               7
100
AcDbLine
 10
74.500000000000014
 20
3.0
 30
0.0
 11
74.500000000000014
 21
-3.0
 31
0.0
  0
LINE
  5
58
100
AcDbEntity
  8
0
  6
CONTINUOUS
 62
               7
100
AcDbLine
 10
71.0
 20
2.9000000000000057
 30
0.0
 11
71.0
 21
-2.9000000000000057
 31
0.0
  0
LINE
  5
59
100
AcDbEntity
  8
0
  6
CONTINUOUS
 62
               7
100
AcDbLine
 10
78.745620126413073
 20
0.0
 30
0.0
 11
80.654379873586933
 21
0.0
 31
0.0
  0
LINE
  5
5A
100
AcDbEntity
  8
0
  6
CONTINUOUS
 62
               7
100
AcDbLine
 10
78.035898334623326
 20
0.0
 30
0.0
 11
74.500000000000014
 21
0.0
 31
0.0
  0
LINE
  5
5B
100
AcDbEntity
  8
0
  6
CONTINUOUS
 62
               7
100
AcDbLine
 10
61.899999982139235
 20
-3.25
 30
0.0
 11
61.0
 21
-3.25
 31
0.0
  0
LINE
  5
5C
100
AcDbEntity
  8
0
  6
CONTINUOUS
 62
               7
100
AcDbLine
 10
61.899999982139235
 20
-7.75
 30
0.0
 11
61.0
 21
-7.75
 31
0.0
  0
LINE
  5
5D
100
AcDbEntity
  8
0
  6
CONTINUOUS
 62
               7
100
AcDbLine
 10
62.200000000000003
 20
-7.4500000029695741
 30
0.0
 11
62.200000000000003
 21
-3.550000026811432
 31
0.0
  0
LINE
  5
5E
100
AcDbEntity
  8
0
  6
CONTINUOUS
 62
               7
100
AcDbLine
 10
61.899999982139235
 20
-3.25
 30
0.0
 11
62.200000000000017
 21
-3.550000017860782
 31
0.0
  0
LINE
  5
5F
100
AcDbEntity
  8
0
  6
CONTINUOUS
 62
               7
100
AcDbLine
 10
62.200000000000003
 20
-7.4500000029695741
 30
0.0
 11
61.900000002969549
 21
-7.75
 31
0.0
  0
LINE
  5
60
100
AcDbEntity
  8
0
  6
CONTINUOUS
 62
               7
100
AcDbLine
 10
61.899999982139235
 20
-3.25
 30
0.0
 11
61.899999982139235
 21
-7.75
 31
0.0
  0
LINE
  5
61
100
AcDbEntity
  8
0
  6
CONTINUOUS
 62
               7
100
AcDbLine
 10
61.899999982139235
 20
3.25
 30
0.0
 11
61.0
 21
3.25
 31
0.0
  0
LINE
  5
62
100
AcDbEntity
  8
0
  6
CONTINUOUS
 62
               7
100
AcDbLine
 10
61.899999982139235
 20
7.75
 30
0.0
 11
61.0
 21
7.75
 31
0.0
  0
LINE
  5
63
100
AcDbEntity
  8
0
  6
CONTINUOUS
 62
               7
100
AcDbLine
 10
62.200000000000003
 20
7.4500000029695741
 30
0.0
 11
62.200000000000003
 21
3.550000026811432
 31
0.0
  0
LINE
  5
64
100
AcDbEntity
  8
0
  6
CONTINUOUS
 62
               7
100
AcDbLine
 10
61.899999982139235
 20
3.25
 30
0.0
 11
62.200000000000017
 21
3.550000017860782
 31
0.0
  0
LINE
  5
65
100
AcDbEntity
  8
0
  6
CONTINUOUS
 62
               7
100
AcDbLine
 10
62.200000000000003
 20
7.4500000029695741
 30
0.0
 11
61.900000002969549
 21
7.75
 31
0.0
  0
LINE
  5
66
100
AcDbEntity
  8
0
  6
CONTINUOUS
 62
               7
100
AcDbLine
 10
61.899999982139235
 20
3.25
 30
0.0
 11
61.899999982139235
 21
7.75
 31
0.0
  0
SPLINE
  5
67
100
AcDbEntity
  8
0
  6
CONTINUOUS
 62
               7
100
AcDbSpline
210
0.0
220
0.0
230
1.0
 70
               0
 71
               3
 72
               0
 73
               0
 74
               5
 44
0.000001
 12
0.336438950205106
 22
-0.9417052791531362
 32
0.0
 13
-0.3364389502051063
 23
-0.9417052791531361
 33
0.0
 11
80.654379873586933
 21
2.7499999267047457
 31
0.0
 11
80.835930732166318
 21
2.0736858991905955
 31
0.0
 11
80.900000002539755
 21
1.3749999633523728
 31
0.0
 11
80.835930732166318
 21
0.6763140275141504
 31
0.0
 11
80.654379873586933
 21
0.0000000000000004
 31
0.0
  0
SPLINE
  5
68
100
AcDbEntity
  8
0
  6
CONTINUOUS
 62
               7
100
AcDbSpline
210
0.0
220
0.0
230
1.0
 70
               0
 71
               3
 72
               0
 73
               0
 74
               5
 44
0.000001
 12
0.3364389461655017
 22
-0.9417052805963481
 32
0.0
 13
-0.3364389461655019
 23
-0.9417052805963481
 33
0.0
 11
80.654379873586933
 21
0.0
 31
0.0
 11
80.835930730354463
 21
-0.6763140299525796
 31
0.0
 11
80.899999999999991
 21
-1.3749999677513856
 31
0.0
 11
80.835930730354463
 21
-2.0736859055501915
 31
0.0
 11
80.654379873586933
 21
-2.7499999355027711
 31
0.0
  0
SPLINE
  5
69
100
AcDbEntity
  8
0
  6
CONTINUOUS
 62
               7
100
AcDbSpline
210
0.0
220
0.0
230
1.0
 70
               0
 71
               3
 72
               0
 73
               0
 74
               5
 44
0.000001
 12
-0.3364389461654975
 22
0.9417052805963496
 32
0.0
 13
0.3364389461654974
 23
0.9417052805963496
 33
0.0
 11
78.745620126413073
 21
-2.7499999355027711
 31
0.0
 11
78.564069269645543
 21
-2.0736859055501915
 31
0.0
 11
78.500000000000014
 21
-1.3749999677513856
 31
0.0
 11
78.564069269645543
 21
-0.6763140299525798
 31
0.0
 11
78.745620126413073
 21
0.0000000000000004
 31
0.0
  0
SPLINE
  5
6A
100
AcDbEntity
  8
0
  6
CONTINUOUS
 62
               7
100
AcDbSpline
210
0.0
220
0.0
230
1.0
 70
               0
 71
               3
 72
               0
 73
               0
 74
               5
 44
0.000001
 12
-0.3364389502051061
 22
0.9417052791531362
 32
0.0
 13
0.3364389502051062
 23
0.9417052791531362
 33
0.0
 11
78.745620126413073
 21
0.0
 31
0.0
 11
78.564069267833673
 21
0.6763140275141502
 31
0.0
 11
78.499999997460222
 21
1.3749999633523728
 31
0.0
 11
78.564069267833673
 21
2.0736858991905951
 31
0.0
 11
78.745620126413073
 21
2.7499999267047452
 31
0.0
  0
SPLINE
  5
6B
100
AcDbEntity
  8
0
  6
CONTINUOUS
 62
               7
100
AcDbSpline
210
0.0
220
0.0
230
1.0
 70
               0
 71
               3
 72
               0
 73
               0
 74
               5
 44
0.000001
 12
0.5262037277974933
 22
-0.8503585342971644
 32
0.0
 13
-0.5262037277974935
 23
-0.8503585342971642
 33
0.0
 11
78.035898334623326
 21
3.0
 31
0.0
 11
78.371226910332268
 21
2.2809008094174223
 31
0.0
 11
78.499999981082723
 21
1.5
 31
0.0
 11
78.371226910332268
 21
0.7190991905825779
 31
0.0
 11
78.035898334623326
 21
0.0
 31
0.0
  0
SPLINE
  5
6C
100
AcDbEntity
  8
0
  6
CONTINUOUS
 62
               7
100
AcDbSpline
210
0.0
220
0.0
230
1.0
 70
               0
 71
               3
 72
               0
 73
               0
 74
               5
 44
0.000001
 12
0.5262037277974933
 22
0.8503585342971644
 32
0.0
 13
-0.5262037277974935
 23
0.8503585342971642
 33
0.0
 11
78.035898334623326
 21
-3.0
 31
0.0
 11
78.371226910332268
 21
-2.2809008094174223
 31
0.0
 11
78.499999981082723
 21
-1.5
 31
0.0
 11
78.371226910332268
 21
-0.7190991905825779
 31
0.0
 11
78.035898334623326
 21
0.0
 31
0.0
  0
ARC
  5
6D
100
AcDbEntity
  8
0
  6
CONTINUOUS
 62
               7
100
AcDbCircle
 10
54.700000000000003
 20
-4.7999999999999972
 30
0.0
 40
0.3
100
AcDbArc
 50
0.0
 51
90.0
  0
ARC
  5
6E
100
AcDbEntity
  8
0
  6
CONTINUOUS
 62
               7
100
AcDbCircle
 10
54.700000000000003
 20
-6.2000000000000028
 30
0.0
 40
0.3
100
AcDbArc
 50
270.0
 51
0.0
  0
LINE
  5
6F
100
AcDbEntity
  8
0
  6
CONTINUOUS
 62
               7
100
AcDbLine
 10
54.5
 20
-4.5
 30
0.0
 11
54.700000000000003
 21
-4.5
 31
0.0
  0
LINE
  5
70
100
AcDbEntity
  8
0
  6
CONTINUOUS
 62
               7
100
AcDbLine
 10
54.5
 20
-6.5
 30
0.0
 11
54.700000000000003
 21
-6.5
 31
0.0
  0
LINE
  5
71
100
AcDbEntity
  8
0
  6
CONTINUOUS
 62
               7
100
AcDbLine
 10
55.0
 20
-4.7999999999999972
 30
0.0
 11
55.0
 21
-6.2000000000000028
 31
0.0
  0
LINE
  5
72
100
AcDbEntity
  8
0
  6
CONTINUOUS
 62
               7
100
AcDbLine
 10
54.0
 20
-7.3000000000000114
 30
0.0
 11
54.5
 21
-7.3000000000000114
 31
0.0
  0
LINE
  5
73
100
AcDbEntity
  8
0
  6
CONTINUOUS
 62
               7
100
AcDbLine
 10
55.0
 20
4.7999999999999972
 30
0.0
 11
55.0
 21
6.2000000000000028
 31
0.0
  0
ARC
  5
74
100
AcDbEntity
  8
0
  6
CONTINUOUS
 62
               7
100
AcDbCircle
 10
54.700000000000003
 20
6.2000000000000028
 30
0.0
 40
0.3
100
AcDbArc
 50
0.0
 51
90.0
  0
ARC
  5
75
100
AcDbEntity
  8
0
  6
CONTINUOUS
 62
               7
100
AcDbCircle
 10
54.700000000000003
 20
4.7999999999999972
 30
0.0
 40
0.3
100
AcDbArc
 50
270.0
 51
0.0
  0
LINE
  5
76
100
AcDbEntity
  8
0
  6
CONTINUOUS
 62
               7
100
AcDbLine
 10
54.5
 20
4.5
 30
0.0
 11
54.700000000000003
 21
4.5
 31
0.0
  0
LINE
  5
77
100
AcDbEntity
  8
0
  6
CONTINUOUS
 62
               7
100
AcDbLine
 10
54.5
 20
6.5
 30
0.0
 11
54.700000000000003
 21
6.5
 31
0.0
  0
LINE
  5
78
100
AcDbEntity
  8
0
  6
CONTINUOUS
 62
               7
100
AcDbLine
 10
54.0
 20
7.3000000000000114
 30
0.0
 11
54.5
 21
7.3000000000000114
 31
0.0
  0
LINE
  5
79
100
AcDbEntity
  8
0
  6
CONTINUOUS
 62
               7
100
AcDbLine
 10
54.5
 20
7.3000000000000114
 30
0.0
 11
54.5
 21
-7.3000000000000114
 31
0.0
  0
ARC
  5
7A
100
AcDbEntity
  8
0
  6
CONTINUOUS
 62
               7
100
AcDbCircle
 10
42.0
 20
7.0
 30
0.0
 40
2.5
100
AcDbArc
 50
287.33751801753067
 51
0.0
  0
CIRCLE
  5
7B
100
AcDbEntity
  8
0
  6
CONTINUOUS
 62
               7
100
AcDbCircle
 10
42.0
 20
7.0
 30
0.0
 40
1.3
  0
LINE
  5
7C
100
AcDbEntity
  8
0
  6
CONTINUOUS
 62
               7
100
AcDbLine
 10
44.5
 20
7.0
 30
0.0
 11
44.5
 21
8.8734993995195168
 31
0.0
  0
LINE
  5
7D
100
AcDbEntity
  8
0
  6
CONTINUOUS
 62
               2
100
AcDbLine
 10
42.0
 20
10.599999999999994
 30
0.0
 11
42.0
 21
3.5999999999999943
 31
0.0
  0
LINE
  5
7E
100
AcDbEntity
  8
0
  6
CONTINUOUS
 62
               2
100
AcDbLine
 10
43.0
 20
10.400000000000006
 30
0.0
 11
43.0
 21
3.5999999999999943
 31
0.0
  0
CIRCLE
  5
7F
100
AcDbEntity
  8
0
  6
CONTINUOUS
 62
               7
100
AcDbCircle
 10
43.0
 20
7.0
 30
0.0
 40
2.3999999999999999
  0
LINE
  5
80
100
AcDbEntity
  8
0
  6
CONTINUOUS
 62
               2
100
AcDbLine
 10
35.5
 20
7.0
 30
0.0
 11
46.400000000000006
 21
7.0
 31
0.0
  0
CIRCLE
  5
81
100
AcDbEntity
  8
0
  6
CONTINUOUS
 62
               7
100
AcDbCircle
 10
26.0
 20
-7.0
 30
0.0
 40
1.3
  0
LINE
  5
82
100
AcDbEntity
  8
0
  6
CONTINUOUS
 62
               7
100
AcDbLine
 10
28.5
 20
-7.0
 30
0.0
 11
28.5
 21
-8.8734993995195168
 31
0.0
  0
ARC
  5
83
100
AcDbEntity
  8
0
  6
CONTINUOUS
 62
               7
100
AcDbCircle
 10
26.0
 20
-7.0
 30
0.0
 40
2.5
100
AcDbArc
 50
0.0
 51
72.662481982469401
  0
LINE
  5
84
100
AcDbEntity
  8
0
  6
CONTINUOUS
 62
               2
100
AcDbLine
 10
26.0
 20
-10.399999999999999
 30
0.0
 11
26.0
 21
-3.5999999999999943
 31
0.0
  0
CIRCLE
  5
85
100
AcDbEntity
  8
0
  6
CONTINUOUS
 62
               7
100
AcDbCircle
 10
26.0
 20
7.0
 30
0.0
 40
1.3
  0
ARC
  5
86
100
AcDbEntity
  8
0
  6
CONTINUOUS
 62
               7
100
AcDbCircle
 10
26.0
 20
7.0
 30
0.0
 40
2.5
100
AcDbArc
 50
287.33751801753067
 51
0.0
  0
LINE
  5
87
100
AcDbEntity
  8
0
  6
CONTINUOUS
 62
               2
100
AcDbLine
 10
26.0
 20
10.0
 30
0.0
 11
26.0
 21
3.5999999999999943
 31
0.0
  0
LINE
  5
88
100
AcDbEntity
  8
0
  6
CONTINUOUS
 62
               7
100
AcDbLine
 10
0.0000000273479799
 20
-9.5
 30
0.0
 11
54.0
 21
-9.5
 31
0.0
  0
LINE
  5
89
100
AcDbEntity
  8
0
  6
CONTINUOUS
 62
               7
100
AcDbLine
 10
0.0000000273479799
 20
9.5
 30
0.0
 11
54.0
 21
9.5
 31
0.0
  0
LINE
  5
8B
100
AcDbEntity
  8
0
  6
CENTER
 62
               2
100
AcDbLine
 10
-4.0
 20
0.0
 30
0.0
 11
85.000000002537277
 21
0.0
 31
0.0
  0
LINE
  5
8C
100
AcDbEntity
  8
0
  6
CONTINUOUS
 62
               7
100
AcDbLine
 10
15.0
 20
-10.0
 30
0.0
 11
15.0
 21
10.0
 31
0.0
  0
LINE
  5
8D
100
AcDbEntity
  8
0
  6
CONTINUOUS
 62
               7
100
AcDbLine
 10
54.0
 20
-10.0
 30
0.0
 11
54.0
 21
10.0
 31
0.0
  0
LINE
  5
8E
100
AcDbEntity
  8
0
  6
CONTINUOUS
 62
               2
100
AcDbLine
 10
27.0
 20
-10.399999999999999
 30
0.0
 11
27.0
 21
-3.5999999999999943
 31
0.0
  0
CIRCLE
  5
8F
100
AcDbEntity
  8
0
  6
CONTINUOUS
 62
               7
100
AcDbCircle
 10
27.0
 20
-7.0
 30
0.0
 40
2.3999999999999999
  0
LINE
  5
90
100
AcDbEntity
  8
0
  6
CONTINUOUS
 62
               2
100
AcDbLine
 10
22.0
 20
-2.5
 30
0.0
 11
22.0
 21
2.5
 31
0.0
  0
CIRCLE
  5
91
100
AcDbEntity
  8
0
  6
CONTINUOUS
 62
               7
100
AcDbCircle
 10
22.0
 20
0.0
 30
0.0
 40
1.5
  0
LINE
  5
92
100
AcDbEntity
  8
0
  6
CONTINUOUS
 62
               7
100
AcDbLine
 10
37.5
 20
-1.5
 30
0.0
 11
38.5
 21
-1.5
 31
0.0
  0
LINE
  5
93
100
AcDbEntity
  8
0
  6
CONTINUOUS
 62
               7
100
AcDbLine
 10
37.5
 20
1.5
 30
0.0
 11
38.5
 21
1.5
 31
0.0
  0
ARC
  5
94
100
AcDbEntity
  8
0
  6
CONTINUOUS
 62
               7
100
AcDbCircle
 10
38.5
 20
0.0
 30
0.0
 40
1.5
100
AcDbArc
 50
270.0
 51
90.0
  0
ARC
  5
95
100
AcDbEntity
  8
0
  6
CONTINUOUS
 62
               7
100
AcDbCircle
 10
37.5
 20
0.0
 30
0.0
 40
1.5
100
AcDbArc
 50
90.0
 51
270.0
  0
LINE
  5
96
100
AcDbEntity
  8
0
  6
CONTINUOUS
 62
               2
100
AcDbLine
 10
38.0
 20
-2.5
 30
0.0
 11
38.0
 21
2.5
 31
0.0
  0
CIRCLE
  5
97
100
AcDbEntity
  8
0
  6
CONTINUOUS
 62
               7
100
AcDbCircle
 10
22.0
 20
-7.0
 30
0.0
 40
1.25
  0
CIRCLE
  5
98
100
AcDbEntity
  8
0
  6
CONTINUOUS
 62
               2
100
AcDbCircle
 10
22.0
 20
-7.0
 30
0.0
 40
1.5
  0
LINE
  5
99
100
AcDbEntity
  8
0
  6
CONTINUOUS
 62
               2
100
AcDbLine
 10
22.0
 20
-4.5
 30
0.0
 11
22.0
 21
-9.5
 31
0.0
  0
LINE
  5
9A
100
AcDbEntity
  8
0
  6
CONTINUOUS
 62
               2
100
AcDbLine
 10
22.0
 20
4.5
 30
0.0
 11
22.0
 21
9.5
 31
0.0
  0
CIRCLE
  5
9B
100
AcDbEntity
  8
0
  6
CONTINUOUS
 62
               7
100
AcDbCircle
 10
22.0
 20
7.0
 30
0.0
 40
1.25
  0
CIRCLE
  5
9C
100
AcDbEntity
  8
0
  6
CONTINUOUS
 62
               2
100
AcDbCircle
 10
22.0
 20
7.0
 30
0.0
 40
1.5
  0
LINE
  5
9D
100
AcDbEntity
  8
0
  6
CONTINUOUS
 62
               2
100
AcDbLine
 10
27.0
 20
10.400000000000006
 30
0.0
 11
27.0
 21
3.5999999999999943
 31
0.0
  0
CIRCLE
  5
9E
100
AcDbEntity
  8
0
  6
CONTINUOUS
 62
               7
100
AcDbCircle
 10
27.0
 20
7.0
 30
0.0
 40
2.3999999999999999
  0
CIRCLE
  5
9F
100
AcDbEntity
  8
0
  6
CONTINUOUS
 62
               7
100
AcDbCircle
 10
38.0
 20
7.0
 30
0.0
 40
1.25
  0
CIRCLE
  5
A0
100
AcDbEntity
  8
0
  6
CONTINUOUS
 62
               2
100
AcDbCircle
 10
38.0
 20
7.0
 30
0.0
 40
1.5
  0
LINE
  5
A1
100
AcDbEntity
  8
0
  6
CONTINUOUS
 62
               2
100
AcDbLine
 10
38.0
 20
4.5
 30
0.0
 11
38.0
 21
9.5
 31
0.0
  0
LINE
  5
A2
100
AcDbEntity
  8
0
  6
CONTINUOUS
 62
               7
100
AcDbLine
 10
0.0000000273479799
 20
10.0
 30
0.0
 11
54.0
 21
10.0
 31
0.0
  0
LINE
  5
A3
100
AcDbEntity
  8
0
  6
CONTINUOUS
 62
               2
100
AcDbLine
 10
19.5
 20
7.0
 30
0.0
 11
30.400000000000006
 21
7.0
 31
0.0
  0
LINE
  5
A4
100
AcDbEntity
  8
0
  6
CONTINUOUS
 62
               2
100
AcDbLine
 10
19.5
 20
-7.0
 30
0.0
 11
30.400000000000006
 21
-7.0
 31
0.0
  0
LINE
  5
A5
100
AcDbEntity
  8
0
  6
CONTINUOUS
 62
               2
100
AcDbLine
 10
42.0
 20
-10.599999999999994
 30
0.0
 11
42.0
 21
-3.5999999999999943
 31
0.0
  0
LINE
  5
A6
100
AcDbEntity
  8
0
  6
CONTINUOUS
 62
               2
100
AcDbLine
 10
43.0
 20
-10.400000000000006
 30
0.0
 11
43.0
 21
-3.5999999999999943
 31
0.0
  0
CIRCLE
  5
A7
100
AcDbEntity
  8
0
  6
CONTINUOUS
 62
               7
100
AcDbCircle
 10
43.0
 20
-7.0
 30
0.0
 40
2.3999999999999999
  0
LINE
  5
A8
100
AcDbEntity
  8
0
  6
CONTINUOUS
 62
               2
100
AcDbLine
 10
35.5
 20
-7.0
 30
0.0
 11
46.400000000000006
 21
-7.0
 31
0.0
  0
LINE
  5
A9
100
AcDbEntity
  8
0
  6
CONTINUOUS
 62
               2
100
AcDbLine
 10
38.0
 20
-4.5
 30
0.0
 11
38.0
 21
-9.5
 31
0.0
  0
CIRCLE
  5
AA
100
AcDbEntity
  8
0
  6
CONTINUOUS
 62
               2
100
AcDbCircle
 10
38.0
 20
-7.0
 30
0.0
 40
1.5
  0
CIRCLE
  5
AB
100
AcDbEntity
  8
0
  6
CONTINUOUS
 62
               7
100
AcDbCircle
 10
38.0
 20
-7.0
 30
0.0
 40
1.25
  0
LINE
  5
AC
100
AcDbEntity
  8
0
  6
CONTINUOUS
 62
               7
100
AcDbLine
 10
44.5
 20
-7.0
 30
0.0
 11
44.5
 21
-8.8734993995195168
 31
0.0
  0
CIRCLE
  5
AD
100
AcDbEntity
  8
0
  6
CONTINUOUS
 62
               7
100
AcDbCircle
 10
42.0
 20
-7.0
 30
0.0
 40
1.3
  0
ARC
  5
AE
100
AcDbEntity
  8
0
  6
CONTINUOUS
 62
               7
100
AcDbCircle
 10
42.0
 20
-7.0
 30
0.0
 40
2.5
100
AcDbArc
 50
0.0
 51
72.662481982469345
  0
LINE
  5
AF
100
AcDbEntity
  8
0
  6
CONTINUOUS
 62
               7
100
AcDbLine
 10
0.0000000273479799
 20
-10.0
 30
0.0
 11
54.0
 21
-10.0
 31
0.0
  0
LINE
  5
B1
100
AcDbEntity
  8
0
  6
PHANTOM
 62
               3
100
AcDbLine
 10
32.62843416433148
 20
25.0
 30
0.0
 11
32.62843416433148
 21
-20.0
 31
0.0
  0
LINE
  5
B2
100
AcDbEntity
  8
0
  6
PHANTOM
 62
               3
100
AcDbLine
 10
66.000000005074781
 20
-14.130543549814774
 30
0.0
 11
66.000000005074781
 21
15.869456450185226
 31
0.0
  0
ENDBLK
  5
B3
100
AcDbEntity
  8
0
100
AcDbBlockEnd
  0
BLOCK
  5
B4
100
AcDbEntity
  8
0
100
AcDbBlockBegin
  2
MGAPG6-2
 70
               0
 10
0.0
 20
0.0
 30
0.0
  3
MGAPG6-2
  1

  0
CIRCLE
  5
B5
100
AcDbEntity
  8
0
  6
CONTINUOUS
 62
               2
100
AcDbCircle
 10
5.0
 20
-7.0
 30
0.0
 40
1.5
  0
LINE
  5
B6
100
AcDbEntity
  8
0
  6
CONTINUOUS
 62
               2
100
AcDbLine
 10
2.5
 20
-7.0
 30
0.0
 11
7.4999999999999716
 21
-7.0
 31
0.0
  0
CIRCLE
  5
B7
100
AcDbEntity
  8
0
  6
CONTINUOUS
 62
               2
100
AcDbCircle
 10
5.0
 20
7.0
 30
0.0
 40
1.5
  0
LINE
  5
B8
100
AcDbEntity
  8
0
  6
CONTINUOUS
 62
               2
100
AcDbLine
 10
2.5
 20
7.0
 30
0.0
 11
7.4999999999999716
 21
7.0
 31
0.0
  0
LINE
  5
B9
100
AcDbEntity
  8
0
  6
CENTER
 62
               2
100
AcDbLine
 10
-3.0
 20
0.0
 30
0.0
 11
15.0
 21
0.0
 31
0.0
  0
LINE
  5
BA
100
AcDbEntity
  8
0
  6
CONTINUOUS
 62
               7
100
AcDbLine
 10
11.5
 20
-10.0
 30
0.0
 11
0.8000000000000114
 21
-10.0
 31
0.0
  0
LINE
  5
BB
100
AcDbEntity
  8
0
  6
CONTINUOUS
 62
               7
100
AcDbLine
 10
11.500000000000014
 20
10.0
 30
0.0
 11
0.8000000000000114
 21
10.0
 31
0.0
  0
CIRCLE
  5
BC
100
AcDbEntity
  8
0
  6
CONTINUOUS
 62
               7
100
AcDbCircle
 10
4.5
 20
0.0
 30
0.0
 40
3.7000000000000002
  0
ARC
  5
BD
100
AcDbEntity
  8
0
  6
CONTINUOUS
 62
               7
100
AcDbCircle
 10
4.5
 20
0.0
 30
0.0
 40
4.2000000000000028
100
AcDbArc
 50
270.0
 51
90.0
  0
LINE
  5
BE
100
AcDbEntity
  8
0
  6
CONTINUOUS
 62
               7
100
AcDbLine
 10
12.0
 20
-9.5000000000000142
 30
0.0
 11
12.0
 21
9.5
 31
0.0
  0
CIRCLE
  5
BF
100
AcDbEntity
  8
0
  6
CONTINUOUS
 62
               7
100
AcDbCircle
 10
9.9000000000000057
 20
-6.5
 30
0.0
 40
1.6000000000000174
  0
CIRCLE
  5
C0
100
AcDbEntity
  8
0
  6
CONTINUOUS
 62
               7
100
AcDbCircle
 10
9.9000000000000057
 20
-6.5
 30
0.0
 40
1.9000000000000148
  0
LINE
  5
C1
100
AcDbEntity
  8
0
  6
CONTINUOUS
 62
               7
100
AcDbLine
 10
10.333012863593041
 20
-5.7499999933676023
 30
0.0
 11
9.4669872641336212
 21
-5.7500000120764554
 31
0.0
  0
LINE
  5
C2
100
AcDbEntity
  8
0
  6
CONTINUOUS
 62
               7
100
AcDbLine
 10
9.4669871364069422
 20
-7.2500000066323977
 30
0.0
 11
10.33301273586639
 21
-7.2499999879235446
 31
0.0
  0
LINE
  5
C3
100
AcDbEntity
  8
0
  6
CONTINUOUS
 62
               7
100
AcDbLine
 10
10.333012626785631
 20
-7.2500001433532191
 30
0.0
 11
10.766025410313006
 21
-6.4999999645392847
 31
0.0
  0
LINE
  5
C4
100
AcDbEntity
  8
0
  6
CONTINUOUS
 62
               7
100
AcDbLine
 10
9.0339745096213164
 20
-6.4999998632791787
 30
0.0
 11
9.4669873255533616
 21
-7.2500000233842599
 31
0.0
  0
LINE
  5
C5
100
AcDbEntity
  8
0
  6
CONTINUOUS
 62
               7
100
AcDbLine
 10
9.4669873732143515
 20
-5.7499998566467809
 30
0.0
 11
9.0339745896869772
 21
-6.5000000354607153
 31
0.0
  0
LINE
  5
C6
100
AcDbEntity
  8
0
  6
CONTINUOUS
 62
               7
100
AcDbLine
 10
10.766025490378667
 20
-6.5000001367208213
 30
0.0
 11
10.333012674446621
 21
-5.7499999766157401
 31
0.0
  0
CIRCLE
  5
C7
100
AcDbEntity
  8
0
  6
CONTINUOUS
 62
               7
100
AcDbCircle
 10
9.9000000000000057
 20
6.5
 30
0.0
 40
1.6000000000000174
  0
CIRCLE
  5
C8
100
AcDbEntity
  8
0
  6
CONTINUOUS
 62
               7
100
AcDbCircle
 10
9.9000000000000057
 20
6.5
 30
0.0
 40
1.9000000000000148
  0
LINE
  5
C9
100
AcDbEntity
  8
0
  6
CONTINUOUS
 62
               7
100
AcDbLine
 10
10.333012863593041
 20
7.2500000066324048
 30
0.0
 11
9.4669872641336212
 21
7.2499999879235446
 31
0.0
  0
LINE
  5
CA
100
AcDbEntity
  8
0
  6
CONTINUOUS
 62
               7
100
AcDbLine
 10
9.4669871364069422
 20
5.7499999933676094
 30
0.0
 11
10.33301273586639
 21
5.7500000120764554
 31
0.0
  0
LINE
  5
CB
100
AcDbEntity
  8
0
  6
CONTINUOUS
 62
               7
100
AcDbLine
 10
10.333012626785631
 20
5.7499998566467809
 30
0.0
 11
10.766025410313006
 21
6.5000000354607153
 31
0.0
  0
LINE
  5
CC
100
AcDbEntity
  8
0
  6
CONTINUOUS
 62
               7
100
AcDbLine
 10
9.0339745096213164
 20
6.5000001367208284
 30
0.0
 11
9.4669873255533616
 21
5.7499999766157401
 31
0.0
  0
LINE
  5
CD
100
AcDbEntity
  8
0
  6
CONTINUOUS
 62
               7
100
AcDbLine
 10
9.4669873732143515
 20
7.2500001433532191
 30
0.0
 11
9.0339745896869772
 21
6.4999999645392847
 31
0.0
  0
LINE
  5
CE
100
AcDbEntity
  8
0
  6
CONTINUOUS
 62
               7
100
AcDbLine
 10
10.766025490378667
 20
6.4999998632791716
 30
0.0
 11
10.333012674446621
 21
7.2500000233842599
 31
0.0
  0
LINE
  5
CF
100
AcDbEntity
  8
0
  6
CONTINUOUS
 62
               7
100
AcDbLine
 10
11.800000000000011
 20
-9.5
 30
0.0
 11
11.800000000000011
 21
9.5000000000000142
 31
0.0
  0
LINE
  5
D0
100
AcDbEntity
  8
0
  6
CONTINUOUS
 62
               7
100
AcDbLine
 10
11.300000000000011
 20
10.0
 30
0.0
 11
11.800000000000011
 21
9.5000000000000142
 31
0.0
  0
LINE
  5
D1
100
AcDbEntity
  8
0
  6
CONTINUOUS
 62
               7
100
AcDbLine
 10
12.0
 20
9.5
 30
0.0
 11
11.500000000000014
 21
10.0
 31
0.0
  0
LINE
  5
D2
100
AcDbEntity
  8
0
  6
CONTINUOUS
 62
               7
100
AcDbLine
 10
11.800000000000011
 20
-9.5
 30
0.0
 11
11.300000000000026
 21
-10.0
 31
0.0
  0
LINE
  5
D3
100
AcDbEntity
  8
0
  6
CONTINUOUS
 62
               7
100
AcDbLine
 10
11.5
 20
-10.0
 30
0.0
 11
12.0
 21
-9.5000000000000142
 31
0.0
  0
ARC
  5
D4
100
AcDbEntity
  8
0
  6
CONTINUOUS
 62
               7
100
AcDbCircle
 10
9.9000000000000057
 20
6.5
 30
0.0
 40
2.1000000000000001
100
AcDbArc
 50
90.0
 51
270.0
  0
LINE
  5
D5
100
AcDbEntity
  8
0
  6
CONTINUOUS
 62
               7
100
AcDbLine
 10
9.9000000000000057
 20
8.5999999999999943
 30
0.0
 11
11.800000000000011
 21
8.5999999999999943
 31
0.0
  0
LINE
  5
D6
100
AcDbEntity
  8
0
  6
CONTINUOUS
 62
               7
100
AcDbLine
 10
9.9000000000000057
 20
4.3999999999999986
 30
0.0
 11
11.800000000000011
 21
4.3999999999999986
 31
0.0
  0
LINE
  5
D7
100
AcDbEntity
  8
0
  6
CONTINUOUS
 62
               7
100
AcDbLine
 10
9.9000000000000057
 20
-8.6000000000000014
 30
0.0
 11
11.800000000000011
 21
-8.6000000000000014
 31
0.0
  0
ARC
  5
D8
100
AcDbEntity
  8
0
  6
CONTINUOUS
 62
               7
100
AcDbCircle
 10
9.9000000000000057
 20
-6.5
 30
0.0
 40
2.1000000000000001
100
AcDbArc
 50
90.0
 51
270.0
  0
LINE
  5
D9
100
AcDbEntity
  8
0
  6
CONTINUOUS
 62
               7
100
AcDbLine
 10
9.9000000000000057
 20
-4.3999999999999986
 30
0.0
 11
11.800000000000011
 21
-4.3999999999999986
 31
0.0
  0
LINE
  5
DA
100
AcDbEntity
  8
0
  6
CONTINUOUS
 62
               7
100
AcDbLine
 10
1.772363660602835
 20
-2.5
 30
0.0
 11
0.8000000000000114
 21
-2.5
 31
0.0
  0
LINE
  5
DB
100
AcDbEntity
  8
0
  6
CONTINUOUS
 62
               7
100
AcDbLine
 10
4.5
 20
-4.2000000000000028
 30
0.0
 11
0.8000000000000114
 21
-4.2000000000000028
 31
0.0
  0
LINE
  5
DC
100
AcDbEntity
  8
0
  6
CONTINUOUS
 62
               7
100
AcDbLine
 10
1.772363660602835
 20
2.5
 30
0.0
 11
0.8000000000000114
 21
2.5
 31
0.0
  0
LINE
  5
DD
100
AcDbEntity
  8
0
  6
CONTINUOUS
 62
               7
100
AcDbLine
 10
4.5
 20
4.2000000000000028
 30
0.0
 11
0.8000000000000114
 21
4.2000000000000028
 31
0.0
  0
CIRCLE
  5
DE
100
AcDbEntity
  8
0
  6
CONTINUOUS
 62
               7
100
AcDbCircle
 10
4.5
 20
0.0
 30
0.0
 40
1.2
  0
LINE
  5
DF
100
AcDbEntity
  8
0
  6
CONTINUOUS
 62
               7
100
AcDbLine
 10
0.8000000000000114
 20
9.5
 30
0.0
 11
0.0
 21
9.5
 31
0.0
  0
LINE
  5
E0
100
AcDbEntity
  8
0
  6
CONTINUOUS
 62
               7
100
AcDbLine
 10
0.8000000000000114
 20
-9.5
 30
0.0
 11
0.0
 21
-9.5
 31
0.0
  0
LINE
  5
E1
100
AcDbEntity
  8
0
  6
CONTINUOUS
 62
               7
100
AcDbLine
 10
0.0
 20
9.499999992019184
 30
0.0
 11
0.0
 21
2.7000000000000171
 31
0.0
  0
LINE
  5
E2
100
AcDbEntity
  8
0
  6
CONTINUOUS
 62
               7
100
AcDbLine
 10
0.8000000000000114
 20
-10.0
 30
0.0
 11
0.8000000000000114
 21
-2.5
 31
0.0
  0
LINE
  5
E3
100
AcDbEntity
  8
0
  6
CONTINUOUS
 62
               2
100
AcDbLine
 10
4.5
 20
-5.0
 30
0.0
 11
4.5
 21
5.0
 31
0.0
  0
CIRCLE
  5
E4
100
AcDbEntity
  8
0
  6
CONTINUOUS
 62
               7
100
AcDbCircle
 10
4.5
 20
2.5
 30
0.0
 40
0.5
  0
CIRCLE
  5
E5
100
AcDbEntity
  8
0
  6
CONTINUOUS
 62
               7
100
AcDbCircle
 10
5.0
 20
7.0
 30
0.0
 40
1.25
  0
LINE
  5
E6
100
AcDbEntity
  8
0
  6
CONTINUOUS
 62
               2
100
AcDbLine
 10
5.0
 20
9.5
 30
0.0
 11
5.0
 21
4.5
 31
0.0
  0
CIRCLE
  5
E7
100
AcDbEntity
  8
0
  6
CONTINUOUS
 62
               7
100
AcDbCircle
 10
5.0
 20
-7.0
 30
0.0
 40
1.25
  0
LINE
  5
E8
100
AcDbEntity
  8
0
  6
CONTINUOUS
 62
               2
100
AcDbLine
 10
5.0
 20
-4.5
 30
0.0
 11
5.0
 21
-9.5
 31
0.0
  0
LINE
  5
E9
100
AcDbEntity
  8
0
  6
CONTINUOUS
 62
               7
100
AcDbLine
 10
0.8000000000000114
 20
2.5
 30
0.0
 11
0.8000000000000114
 21
10.0
 31
0.0
  0
CIRCLE
  5
EA
100
AcDbEntity
  8
0
  6
CONTINUOUS
 62
               7
100
AcDbCircle
 10
4.5
 20
-2.5
 30
0.0
 40
0.5
  0
LINE
  5
EB
100
AcDbEntity
  8
0
  6
CONTINUOUS
 62
               7
100
AcDbLine
 10
0.0
 20
-2.7000000000000171
 30
0.0
 11
0.0
 21
-9.5
 31
0.0
  0
LINE
  5
EC
100
AcDbEntity
  8
0
  6
CONTINUOUS
 62
               7
100
AcDbLine
 10
0.2999999999999972
 20
2.4000000000000057
 30
0.0
 11
0.0
 21
2.7000000000000171
 31
0.0
  0
LINE
  5
ED
100
AcDbEntity
  8
0
  6
CONTINUOUS
 62
               7
100
AcDbLine
 10
0.2999999999999972
 20
-2.4000000000000057
 30
0.0
 11
0.0
 21
-2.7000000000000171
 31
0.0
  0
LINE
  5
EE
100
AcDbEntity
  8
0
  6
CONTINUOUS
 62
               7
100
AcDbLine
 10
0.2999999999999972
 20
2.4000000000000057
 30
0.0
 11
0.2999999999999972
 21
-2.4000000000000057
 31
0.0
  0
LINE
  5
EF
100
AcDbEntity
  8
0
  6
CONTINUOUS
 62
               2
100
AcDbLine
 10
-2.0
 20
7.0
 30
0.0
 11
2.0
 21
7.0
 31
0.0
  0
LINE
  5
F0
100
AcDbEntity
  8
0
  6
CONTINUOUS
 62
               2
100
AcDbLine
 10
-2.0
 20
-7.0
 30
0.0
 11
2.0
 21
-7.0
 31
0.0
  0
ENDBLK
  5
F1
100
AcDbEntity
  8
0
100
AcDbBlockEnd
  0
BLOCK
  5
F2
100
AcDbEntity
  8
0
100
AcDbBlockBegin
  2
MGAPG6-3
 70
               0
 10
0.0
 20
0.0
 30
0.0
  3
MGAPG6-3
  1

  0
CIRCLE
  5
F3
100
AcDbEntity
  8
0
  6
CONTINUOUS
 62
               7
100
AcDbCircle
 10
-3.0
 20
5.5
 30
0.0
 40
2.25
  0
LINE
  5
F4
100
AcDbEntity
  8
0
  6
CONTINUOUS
 62
               7
100
AcDbLine
 10
-3.577350214134384
 20
4.4999999505413797
 30
0.0
 11
-4.1547005325662383
 21
5.5000000697506692
 31
0.0
  0
LINE
  5
F5
100
AcDbEntity
  8
0
  6
CONTINUOUS
 62
               7
100
AcDbLine
 10
-2.4226496604503325
 20
4.5000000229499335
 30
0.0
 11
-3.5773503266889577
 21
4.5000000399095512
 31
0.0
  0
LINE
  5
F6
100
AcDbEntity
  8
0
  6
CONTINUOUS
 62
               7
100
AcDbLine
 10
-1.8452994463159484
 20
5.5000000724085538
 30
0.0
 11
-2.4226497941227478
 21
4.499999970158882
 31
0.0
  0
LINE
  5
F7
100
AcDbEntity
  8
0
  6
CONTINUOUS
 62
               7
100
AcDbLine
 10
-2.422649785865616
 20
6.5000000494586203
 30
0.0
 11
-1.8452994674337617
 21
5.4999999302493308
 31
0.0
  0
LINE
  5
F8
100
AcDbEntity
  8
0
  6
CONTINUOUS
 62
               7
100
AcDbLine
 10
-3.5773503395496675
 20
6.4999999770500665
 30
0.0
 11
-2.4226496733110423
 21
6.4999999600904488
 31
0.0
  0
LINE
  5
F9
100
AcDbEntity
  8
0
  6
CONTINUOUS
 62
               7
100
AcDbLine
 10
-4.1547005536840516
 20
5.4999999275914462
 30
0.0
 11
-3.5773502058772522
 21
6.500000029841118
 31
0.0
  0
CIRCLE
  5
FA
100
AcDbEntity
  8
0
  6
CONTINUOUS
 62
               7
100
AcDbCircle
 10
-3.0
 20
5.5
 30
0.0
 40
1.95
  0
CIRCLE
  5
FB
100
AcDbEntity
  8
0
  6
CONTINUOUS
 62
               7
100
AcDbCircle
 10
-3.0
 20
-5.5
 30
0.0
 40
2.25
  0
LINE
  5
FC
100
AcDbEntity
  8
0
  6
CONTINUOUS
 62
               7
100
AcDbLine
 10
-3.577350214134384
 20
-6.5000000494586203
 30
0.0
 11
-4.1547005325662383
 21
-5.4999999302493308
 31
0.0
  0
LINE
  5
FD
100
AcDbEntity
  8
0
  6
CONTINUOUS
 62
               7
100
AcDbLine
 10
-2.4226496604503325
 20
-6.4999999770500665
 30
0.0
 11
-3.5773503266889577
 21
-6.4999999600904488
 31
0.0
  0
LINE
  5
FE
100
AcDbEntity
  8
0
  6
CONTINUOUS
 62
               7
100
AcDbLine
 10
-1.8452994463159484
 20
-5.4999999275914462
 30
0.0
 11
-2.4226497941227478
 21
-6.500000029841118
 31
0.0
  0
LINE
  5
FF
100
AcDbEntity
  8
0
  6
CONTINUOUS
 62
               7
100
AcDbLine
 10
-2.422649785865616
 20
-4.4999999505413797
 30
0.0
 11
-1.8452994674337617
 21
-5.5000000697506692
 31
0.0
  0
LINE
  5
100
100
AcDbEntity
  8
0
  6
CONTINUOUS
 62
               7
100
AcDbLine
 10
-3.5773503395496675
 20
-4.5000000229499335
 30
0.0
 11
-2.4226496733110423
 21
-4.5000000399095512
 31
0.0
  0
LINE
  5
101
100
AcDbEntity
  8
0
  6
CONTINUOUS
 62
               7
100
AcDbLine
 10
-4.1547005536840516
 20
-5.5000000724085538
 30
0.0
 11
-3.5773502058772522
 21
-4.499999970158882
 31
0.0
  0
CIRCLE
  5
102
100
AcDbEntity
  8
0
  6
CONTINUOUS
 62
               7
100
AcDbCircle
 10
-3.0
 20
-5.5
 30
0.0
 40
1.95
  0
CIRCLE
  5
103
100
AcDbEntity
  8
0
  6
CONTINUOUS
 62
               7
100
AcDbCircle
 10
-3.0
 20
-5.5
 30
0.0
 40
2.3999999999999999
  0
CIRCLE
  5
104
100
AcDbEntity
  8
0
  6
CONTINUOUS
 62
               7
100
AcDbCircle
 10
-3.0
 20
5.5
 30
0.0
 40
2.3999999999999999
  0
LINE
  5
105
100
AcDbEntity
  8
0
  6
CONTINUOUS
 62
               7
100
AcDbLine
 10
-0.1999999999999886
 20
-9.0
 30
0.0
 11
-7.5
 21
-9.0
 31
0.0
  0
ARC
  5
106
100
AcDbEntity
  8
0
  6
CONTINUOUS
 62
               7
100
AcDbCircle
 10
-8.5
 20
-3.6000000000000014
 30
0.0
 40
1.0
100
AcDbArc
 50
0.0
 51
90.0
  0
LINE
  5
107
100
AcDbEntity
  8
0
  6
CONTINUOUS
 62
               7
100
AcDbLine
 10
-8.5
 20
-2.6000000000000014
 30
0.0
 11
-9.0
 21
-2.6000000000000014
 31
0.0
  0
LINE
  5
108
100
AcDbEntity
  8
0
  6
CONTINUOUS
 62
               7
100
AcDbLine
 10
-9.0
 20
-2.6000000000000014
 30
0.0
 11
-9.0
 21
2.6000000000000014
 31
0.0
  0
LINE
  5
109
100
AcDbEntity
  8
0
  6
CONTINUOUS
 62
               7
100
AcDbLine
 10
-8.5
 20
2.6000000000000014
 30
0.0
 11
-9.0
 21
2.6000000000000014
 31
0.0
  0
ARC
  5
10A
100
AcDbEntity
  8
0
  6
CONTINUOUS
 62
               7
100
AcDbCircle
 10
-8.5
 20
3.6000000000000014
 30
0.0
 40
1.0
100
AcDbArc
 50
270.0
 51
0.0
  0
LINE
  5
10B
100
AcDbEntity
  8
0
  6
CONTINUOUS
 62
               7
100
AcDbLine
 10
-0.1999999999999886
 20
9.0
 30
0.0
 11
-7.5
 21
9.0
 31
0.0
  0
LINE
  5
10C
100
AcDbEntity
  8
0
  6
CONTINUOUS
 62
               7
100
AcDbLine
 10
-0.1999999999999886
 20
9.0
 30
0.0
 11
-0.1999999999999886
 21
-9.0
 31
0.0
  0
LINE
  5
10D
100
AcDbEntity
  8
0
  6
CONTINUOUS
 62
               2
100
AcDbLine
 10
-4.5
 20
-4.2256049280440351
 30
0.0
 11
-4.5
 21
4.2179977347735189
 31
0.0
  0
ARC
  5
10E
100
AcDbEntity
  8
0
  6
CONTINUOUS
 62
               7
100
AcDbCircle
 10
-4.5
 20
0.0
 30
0.0
 40
3.0
100
AcDbArc
 50
6.4435356908987282
 51
53.556464309101131
  0
ARC
  5
10F
100
AcDbEntity
  8
0
  6
CONTINUOUS
 62
               7
100
AcDbCircle
 10
-4.5
 20
0.0
 30
0.0
 40
3.0
100
AcDbArc
 50
306.44353569089873
 51
353.5564643091011
  0
ARC
  5
110
100
AcDbEntity
  8
0
  6
CONTINUOUS
 62
               7
100
AcDbCircle
 10
-4.5
 20
0.0
 30
0.0
 40
3.0
100
AcDbArc
 50
246.4435356908987
 51
293.5564643091011
  0
LINE
  5
111
100
AcDbEntity
  8
0
  6
CONTINUOUS
 62
               7
100
AcDbLine
 10
-6.2320508075688679
 20
3.0
 30
0.0
 11
-2.7679491924311321
 21
3.0
 31
0.0
  0
LINE
  5
112
100
AcDbEntity
  8
0
  6
CONTINUOUS
 62
               7
100
AcDbLine
 10
-2.7679491924311321
 20
-3.0
 30
0.0
 11
-6.2320508075688679
 21
-3.0
 31
0.0
  0
ARC
  5
113
100
AcDbEntity
  8
0
  6
CONTINUOUS
 62
               7
100
AcDbCircle
 10
-4.5
 20
0.0
 30
0.0
 40
3.0
100
AcDbArc
 50
66.443535690898813
 51
113.55646430910122
  0
CIRCLE
  5
114
100
AcDbEntity
  8
0
  6
CONTINUOUS
 62
               2
100
AcDbCircle
 10
-4.5
 20
0.0
 30
0.0
 40
1.2294998168945739
  0
CIRCLE
  5
115
100
AcDbEntity
  8
0
  6
CONTINUOUS
 62
               7
100
AcDbCircle
 10
-4.5
 20
0.0
 30
0.0
 40
1.5
  0
LINE
  5
116
100
AcDbEntity
  8
0
  6
CONTINUOUS
 62
               7
100
AcDbLine
 10
-6.0877132402714551
 20
2.75
 30
0.0
 11
-2.9122867597285165
 21
2.75
 31
0.0
  0
LINE
  5
117
100
AcDbEntity
  8
0
  6
CONTINUOUS
 62
               7
100
AcDbLine
 10
-2.9122867597285449
 20
-2.75
 30
0.0
 11
-6.0877132402714835
 21
-2.75
 31
0.0
  0
CIRCLE
  5
118
100
AcDbEntity
  8
0
  6
CONTINUOUS
 62
               7
100
AcDbCircle
 10
-4.5
 20
0.0
 30
0.0
 40
2.75
  0
LINE
  5
119
100
AcDbEntity
  8
0
  6
CONTINUOUS
 62
               7
100
AcDbLine
 10
-6.0877132402714835
 20
-2.75
 30
0.0
 11
-7.6754264805429386
 21
0.0
 31
0.0
  0
LINE
  5
11A
100
AcDbEntity
  8
0
  6
CONTINUOUS
 62
               7
100
AcDbLine
 10
-1.3245735194570614
 20
0.0
 30
0.0
 11
-2.9122867597285449
 21
-2.75
 31
0.0
  0
LINE
  5
11B
100
AcDbEntity
  8
0
  6
CONTINUOUS
 62
               7
100
AcDbLine
 10
-2.9122867597285165
 20
2.75
 30
0.0
 11
-1.3245735194570614
 21
0.0
 31
0.0
  0
LINE
  5
11C
100
AcDbEntity
  8
0
  6
CONTINUOUS
 62
               7
100
AcDbLine
 10
-7.6754264805429386
 20
0.0
 30
0.0
 11
-6.0877132402714551
 21
2.75
 31
0.0
  0
LINE
  5
11D
100
AcDbEntity
  8
0
  6
CONTINUOUS
 62
               7
100
AcDbLine
 10
-7.9641016151377642
 20
0.0
 30
0.0
 11
-6.2320508075688679
 21
3.0
 31
0.0
  0
LINE
  5
11E
100
AcDbEntity
  8
0
  6
CONTINUOUS
 62
               7
100
AcDbLine
 10
-6.2320508075688963
 20
-3.0
 30
0.0
 11
-7.9641016151377642
 21
0.0
 31
0.0
  0
LINE
  5
11F
100
AcDbEntity
  8
0
  6
CONTINUOUS
 62
               7
100
AcDbLine
 10
-1.0358983848622358
 20
0.0
 30
0.0
 11
-2.7679491924311321
 21
-3.0
 31
0.0
  0
LINE
  5
120
100
AcDbEntity
  8
0
  6
CONTINUOUS
 62
               7
100
AcDbLine
 10
-2.7679491924311321
 20
3.0
 30
0.0
 11
-1.0358983848622358
 21
0.0
 31
0.0
  0
ARC
  5
121
100
AcDbEntity
  8
0
  6
CONTINUOUS
 62
               7
100
AcDbCircle
 10
-4.5
 20
0.0
 30
0.0
 40
3.0
100
AcDbArc
 50
126.4435356908988
 51
173.55646430910119
  0
ARC
  5
122
100
AcDbEntity
  8
0
  6
CONTINUOUS
 62
               7
100
AcDbCircle
 10
-4.5
 20
0.0
 30
0.0
 40
3.0
100
AcDbArc
 50
186.44353569089878
 51
233.55646430910116
  0
LINE
  5
123
100
AcDbEntity
  8
0
  6
CONTINUOUS
 62
               7
100
AcDbLine
 10
-0.8000000000000114
 20
9.5
 30
0.0
 11
-0.8000000000000114
 21
10.0
 31
0.0
  0
LINE
  5
124
100
AcDbEntity
  8
0
  6
CONTINUOUS
 62
               7
100
AcDbLine
 10
-0.8000000000000114
 20
-10.0
 30
0.0
 11
-0.8000000000000114
 21
-9.5
 31
0.0
  0
LINE
  5
125
100
AcDbEntity
  8
0
  6
CONTINUOUS
 62
               7
100
AcDbLine
 10
-8.1999999999999886
 20
-3.3999999999999986
 30
0.0
 11
-8.0
 21
-3.3999999999999986
 31
0.0
  0
LINE
  5
126
100
AcDbEntity
  8
0
  6
CONTINUOUS
 62
               7
100
AcDbLine
 10
-8.1999999999999886
 20
3.3999999999999986
 30
0.0
 11
-8.0
 21
3.3999999999999986
 31
0.0
  0
LINE
  5
127
100
AcDbEntity
  8
0
  6
CONTINUOUS
 62
               7
100
AcDbLine
 10
-10.19999999999996
 20
3.0999999999999943
 30
0.0
 11
-10.19999999999996
 21
-3.0999999999999943
 31
0.0
  0
LINE
  5
128
100
AcDbEntity
  8
0
  6
CONTINUOUS
 62
               7
100
AcDbLine
 10
-8.1999999999999886
 20
7.3000000000000114
 30
0.0
 11
-11.699999999999989
 21
7.3000000000000114
 31
0.0
  0
LINE
  5
129
100
AcDbEntity
  8
0
  6
CONTINUOUS
 62
               7
100
AcDbLine
 10
-8.1999999999999886
 20
7.3000000000000114
 30
0.0
 11
-8.1999999999999886
 21
3.0999999999999943
 31
0.0
  0
LINE
  5
12A
100
AcDbEntity
  8
0
  6
CONTINUOUS
 62
               7
100
AcDbLine
 10
-8.1999999999999886
 20
3.0999999999999943
 30
0.0
 11
-10.19999999999996
 21
3.0999999999999943
 31
0.0
  0
LINE
  5
12B
100
AcDbEntity
  8
0
  6
CONTINUOUS
 62
               7
100
AcDbLine
 10
-8.1999999999999886
 20
-3.0999999999999943
 30
0.0
 11
-10.19999999999996
 21
-3.0999999999999943
 31
0.0
  0
LINE
  5
12C
100
AcDbEntity
  8
0
  6
CONTINUOUS
 62
               7
100
AcDbLine
 10
-8.1999999999999886
 20
-7.3000000000000114
 30
0.0
 11
-8.1999999999999886
 21
-3.0999999999999943
 31
0.0
  0
LINE
  5
12D
100
AcDbEntity
  8
0
  6
CONTINUOUS
 62
               7
100
AcDbLine
 10
-8.1999999999999886
 20
-7.3000000000000114
 30
0.0
 11
-11.699999999999989
 21
-7.3000000000000114
 31
0.0
  0
LINE
  5
12E
100
AcDbEntity
  8
0
  6
CONTINUOUS
 62
               7
100
AcDbLine
 10
-11.699999999999989
 20
-7.3000000000000114
 30
0.0
 11
-11.699999999999989
 21
7.3000000000000114
 31
0.0
  0
ARC
  5
12F
100
AcDbEntity
  8
0
  6
CONTINUOUS
 62
               7
100
AcDbCircle
 10
-9.0
 20
3.1999999999999886
 30
0.0
 40
0.5
100
AcDbArc
 50
191.53695903281493
 51
348.46304096718501
  0
LINE
  5
130
100
AcDbEntity
  8
0
  6
CONTINUOUS
 62
               7
100
AcDbLine
 10
-8.5341828670152324
 20
3.0
 30
0.0
 11
-7.7000000000000171
 21
3.0
 31
0.0
  0
LINE
  5
131
100
AcDbEntity
  8
0
  6
CONTINUOUS
 62
               7
100
AcDbLine
 10
-8.0
 20
10.0
 30
0.0
 11
-8.0
 21
3.3999999999999986
 31
0.0
  0
LINE
  5
132
100
AcDbEntity
  8
0
  6
CONTINUOUS
 62
               7
100
AcDbLine
 10
-7.5
 20
9.5
 30
0.0
 11
-7.5
 21
3.6000000000000014
 31
0.0
  0
LINE
  5
133
100
AcDbEntity
  8
0
  6
CONTINUOUS
 62
               7
100
AcDbLine
 10
-9.7999999999999829
 20
3.0
 30
0.0
 11
-9.4658171329847676
 21
3.0
 31
0.0
  0
LINE
  5
134
100
AcDbEntity
  8
0
  6
CONTINUOUS
 62
               7
100
AcDbLine
 10
-11.499999999999943
 20
10.0
 30
0.0
 11
-0.8000000000000114
 21
10.0
 31
0.0
  0
LINE
  5
135
100
AcDbEntity
  8
0
  6
CONTINUOUS
 62
               7
100
AcDbLine
 10
-7.5
 20
9.5
 30
0.0
 11
0.0
 21
9.5
 31
0.0
  0
LINE
  5
136
100
AcDbEntity
  8
0
  6
CONTINUOUS
 62
               7
100
AcDbLine
 10
-11.500000000000085
 20
-10.0
 30
0.0
 11
-0.8000000000000114
 21
-10.0
 31
0.0
  0
LINE
  5
137
100
AcDbEntity
  8
0
  6
CONTINUOUS
 62
               7
100
AcDbLine
 10
-7.5
 20
-9.5
 30
0.0
 11
0.0
 21
-9.5
 31
0.0
  0
LINE
  5
138
100
AcDbEntity
  8
0
  6
CONTINUOUS
 62
               7
100
AcDbLine
 10
-8.0
 20
-10.0
 30
0.0
 11
-8.0
 21
-3.3999999999999986
 31
0.0
  0
LINE
  5
139
100
AcDbEntity
  8
0
  6
CONTINUOUS
 62
               7
100
AcDbLine
 10
-12.0
 20
-9.5
 30
0.0
 11
-12.0
 21
9.5
 31
0.0
  0
LINE
  5
13A
100
AcDbEntity
  8
0
  6
CONTINUOUS
 62
               7
100
AcDbLine
 10
-7.5
 20
-9.5
 30
0.0
 11
-7.5
 21
-3.6000000000000014
 31
0.0
  0
LINE
  5
13B
100
AcDbEntity
  8
0
  6
CENTER
 62
               2
100
AcDbLine
 10
3.0
 20
0.0
 30
0.0
 11
-15.0
 21
0.0
 31
0.0
  0
LINE
  5
13C
100
AcDbEntity
  8
0
  6
CONTINUOUS
 62
               7
100
AcDbLine
 10
0.0
 20
9.499999992019184
 30
0.0
 11
0.0
 21
2.7000000000000171
 31
0.0
  0
LINE
  5
13D
100
AcDbEntity
  8
0
  6
CONTINUOUS
 62
               7
100
AcDbLine
 10
-12.0
 20
9.5
 30
0.0
 11
-11.499999999999943
 21
10.0
 31
0.0
  0
LINE
  5
13E
100
AcDbEntity
  8
0
  6
CONTINUOUS
 62
               7
100
AcDbLine
 10
-12.0
 20
-9.5
 30
0.0
 11
-11.500000000000085
 21
-10.0
 31
0.0
  0
LINE
  5
13F
100
AcDbEntity
  8
0
  6
CONTINUOUS
 62
               7
100
AcDbLine
 10
0.0
 20
-2.7000000000000171
 30
0.0
 11
0.0
 21
-9.5
 31
0.0
  0
LINE
  5
140
100
AcDbEntity
  8
0
  6
CONTINUOUS
 62
               7
100
AcDbLine
 10
-9.7999999999999829
 20
3.0
 30
0.0
 11
-9.7999999999999829
 21
-3.0
 31
0.0
  0
CIRCLE
  5
141
100
AcDbEntity
  8
0
  6
CONTINUOUS
 62
               7
100
AcDbCircle
 10
-9.5
 20
5.5
 30
0.0
 40
1.0
  0
LINE
  5
142
100
AcDbEntity
  8
0
  6
CONTINUOUS
 62
               7
100
AcDbLine
 10
-8.9343145750507347
 20
6.0656854249492369
 30
0.0
 11
-10.065685424949237
 21
4.9343145750507631
 31
0.0
  0
LINE
  5
143
100
AcDbEntity
  8
0
  6
CONTINUOUS
 62
               7
100
AcDbLine
 10
-8.9343145750507347
 20
4.9343145750507631
 30
0.0
 11
-10.065685424949237
 21
6.0656854249492369
 31
0.0
  0
LINE
  5
144
100
AcDbEntity
  8
0
  6
CONTINUOUS
 62
               7
100
AcDbLine
 10
-8.5341828670152324
 20
-3.0
 30
0.0
 11
-7.7000000000000171
 21
-3.0
 31
0.0
  0
LINE
  5
145
100
AcDbEntity
  8
0
  6
CONTINUOUS
 62
               7
100
AcDbLine
 10
-9.7999999999999829
 20
-3.0
 30
0.0
 11
-9.4658171329847676
 21
-3.0
 31
0.0
  0
ARC
  5
146
100
AcDbEntity
  8
0
  6
CONTINUOUS
 62
               7
100
AcDbCircle
 10
-9.0
 20
-3.1999999999999886
 30
0.0
 40
0.5
100
AcDbArc
 50
11.536959032814943
 51
168.46304096718507
  0
CIRCLE
  5
147
100
AcDbEntity
  8
0
  6
CONTINUOUS
 62
               7
100
AcDbCircle
 10
-9.5
 20
-5.5
 30
0.0
 40
1.0
  0
LINE
  5
148
100
AcDbEntity
  8
0
  6
CONTINUOUS
 62
               7
100
AcDbLine
 10
-8.9343145750507631
 20
-4.9343145750507631
 30
0.0
 11
-10.065685424949237
 21
-6.0656854249492369
 31
0.0
  0
LINE
  5
149
100
AcDbEntity
  8
0
  6
CONTINUOUS
 62
               7
100
AcDbLine
 10
-8.9343145750507631
 20
-6.0656854249492369
 30
0.0
 11
-10.065685424949237
 21
-4.9343145750507631
 31
0.0
  0
LINE
  5
14A
100
AcDbEntity
  8
0
  6
CONTINUOUS
 62
               7
100
AcDbLine
 10
-0.2000000000000171
 20
-2.5
 30
0.0
 11
0.0
 21
-2.7000000000000171
 31
0.0
  0
LINE
  5
14B
100
AcDbEntity
  8
0
  6
CONTINUOUS
 62
               7
100
AcDbLine
 10
-0.1999999999999886
 20
2.5000000000000213
 30
0.0
 11
0.0
 21
2.7000000000000171
 31
0.0
  0
LINE
  5
14C
100
AcDbEntity
  8
0
  6
CONTINUOUS
 62
               2
100
AcDbLine
 10
-2.0
 20
7.0
 30
0.0
 11
2.0
 21
7.0
 31
0.0
  0
LINE
  5
14D
100
AcDbEntity
  8
0
  6
CONTINUOUS
 62
               2
100
AcDbLine
 10
-2.0
 20
-7.0
 30
0.0
 11
2.0
 21
-7.0
 31
0.0
  0
ENDBLK
  5
14E
100
AcDbEntity
  8
0
100
AcDbBlockEnd
  0
BLOCK
  5
14F
100
AcDbEntity
  8
0
100
AcDbBlockBegin
  2
MGAPG6-4
 70
               0
 10
0.0
 20
0.0
 30
0.0
  3
MGAPG6-4
  1

  0
LINE
  5
150
100
AcDbEntity
  8
0
  6
CONTINUOUS
 62
               2
100
AcDbLine
 10
-2.0
 20
-4.5
 30
0.0
 11
2.0
 21
-4.5
 31
0.0
  0
LINE
  5
151
100
AcDbEntity
  8
0
  6
CONTINUOUS
 62
               7
100
AcDbLine
 10
0.0
 20
-11.299999999999997
 30
0.0
 11
15.0
 21
-11.299999999999997
 31
0.0
  0
LINE
  5
152
100
AcDbEntity
  8
0
  6
CONTINUOUS
 62
               7
100
AcDbLine
 10
0.0
 20
-11.799999999999997
 30
0.0
 11
14.99999997585607
 21
-11.799999999999997
 31
0.0
  0
LINE
  5
153
100
AcDbEntity
  8
0
  6
CONTINUOUS
 62
               7
100
AcDbLine
 10
11.300000000000097
 20
-6.5
 30
0.0
 11
15.500000000000099
 21
-6.5
 31
0.0
  0
LINE
  5
154
100
AcDbEntity
  8
0
  6
CONTINUOUS
 62
               7
100
AcDbLine
 10
11.300000000000097
 20
-2.5
 30
0.0
 11
15.500000000000099
 21
-2.5
 31
0.0
  0
LINE
  5
155
100
AcDbEntity
  8
0
  6
PHANTOM
 62
               2
100
AcDbLine
 10
9.9500000000000597
 20
-1.5
 30
0.0
 11
16.650000000000063
 21
-1.5
 31
0.0
  0
LINE
  5
156
100
AcDbEntity
  8
0
  6
PHANTOM
 62
               2
100
AcDbLine
 10
9.9500000000000597
 20
-1.7999999999999972
 30
0.0
 11
16.650000000000063
 21
-1.7999999999999972
 31
0.0
  0
LINE
  5
157
100
AcDbEntity
  8
0
  6
CONTINUOUS
 62
               7
100
AcDbLine
 10
9.0
 20
-7.0
 30
0.0
 11
16.800000000000068
 21
-7.0
 31
0.0
  0
LINE
  5
158
100
AcDbEntity
  8
0
  6
CONTINUOUS
 62
               7
100
AcDbLine
 10
0.0
 20
-0.7999999999999972
 30
0.0
 11
9.8000000000000682
 21
-0.7999999999999972
 31
0.0
  0
LINE
  5
159
100
AcDbEntity
  8
0
  6
CONTINUOUS
 62
               7
100
AcDbLine
 10
9.0
 20
-7.0
 30
0.0
 11
9.0
 21
-0.7999999999999972
 31
0.0
  0
LINE
  5
15A
100
AcDbEntity
  8
0
  6
CONTINUOUS
 62
               7
100
AcDbLine
 10
0.0
 20
-11.799999999999997
 30
0.0
 11
0.0
 21
-0.7999999999999972
 31
0.0
  0
LINE
  5
15B
100
AcDbEntity
  8
0
  6
CONTINUOUS
 62
               7
100
AcDbLine
 10
11.300000000000097
 20
-7.0
 30
0.0
 11
11.300000000000097
 21
-2.0
 31
0.0
  0
LINE
  5
15C
100
AcDbEntity
  8
0
  6
CONTINUOUS
 62
               7
100
AcDbLine
 10
9.8000000000000682
 20
-0.7999999999999972
 30
0.0
 11
9.8000000000000682
 21
-7.0
 31
0.0
  0
LINE
  5
15D
100
AcDbEntity
  8
0
  6
CONTINUOUS
 62
               7
100
AcDbLine
 10
11.300000000000097
 20
-2.0
 30
0.0
 11
9.8000000000000682
 21
-2.0
 31
0.0
  0
CIRCLE
  5
15E
100
AcDbEntity
  8
0
  6
CONTINUOUS
 62
               7
100
AcDbCircle
 10
9.9500000000000597
 20
-1.6500000000000057
 30
0.0
 40
0.15
  0
LINE
  5
15F
100
AcDbEntity
  8
0
  6
CONTINUOUS
 62
               2
100
AcDbLine
 10
17.500000000000057
 20
-3.2000000000000028
 30
0.0
 11
17.84641016151383
 21
-3.0
 31
0.0
  0
LINE
  5
160
100
AcDbEntity
  8
0
  6
CONTINUOUS
 62
               2
100
AcDbLine
 10
17.5
 20
-5.7999999999999972
 30
0.0
 11
17.846410161513774
 21
-6.0
 31
0.0
  0
LINE
  5
161
100
AcDbEntity
  8
0
  6
CONTINUOUS
 62
               2
100
AcDbLine
 10
16.800000000000068
 20
-5.7000000000000028
 30
0.0
 11
17.300000000000054
 21
-3.2999999999999972
 31
0.0
  0
LINE
  5
162
100
AcDbEntity
  8
0
  6
CONTINUOUS
 62
               2
100
AcDbLine
 10
17.300000000000054
 20
-5.7000000000000028
 30
0.0
 11
16.800000000000068
 21
-3.2999999999999972
 31
0.0
  0
LINE
  5
163
100
AcDbEntity
  8
0
  6
CONTINUOUS
 62
               7
100
AcDbLine
 10
16.800000000000068
 20
-3.2999999999999972
 30
0.0
 11
17.300000000000054
 21
-3.2999999999999972
 31
0.0
  0
LINE
  5
164
100
AcDbEntity
  8
0
  6
CONTINUOUS
 62
               7
100
AcDbLine
 10
16.800000000000068
 20
-5.7000000000000028
 30
0.0
 11
17.300000000000054
 21
-5.7000000000000028
 31
0.0
  0
LINE
  5
165
100
AcDbEntity
  8
0
  6
CONTINUOUS
 62
               7
100
AcDbLine
 10
17.300000000000054
 20
-1.2999999999999972
 30
0.0
 11
17.500000000000057
 21
-1.2999999999999972
 31
0.0
  0
LINE
  5
166
100
AcDbEntity
  8
0
  6
CONTINUOUS
 62
               7
100
AcDbLine
 10
17.300000000000054
 20
-7.7000000000000028
 30
0.0
 11
17.500000000000057
 21
-7.7000000000000028
 31
0.0
  0
LINE
  5
167
100
AcDbEntity
  8
0
  6
CONTINUOUS
 62
               7
100
AcDbLine
 10
17.300000000000054
 20
-0.7999999999999972
 30
0.0
 11
17.300000000000054
 21
-8.0
 31
0.0
  0
LINE
  5
168
100
AcDbEntity
  8
0
  6
CONTINUOUS
 62
               7
100
AcDbLine
 10
16.800000000000068
 20
-0.7999999999999972
 30
0.0
 11
17.300000000000054
 21
-0.7999999999999972
 31
0.0
  0
LINE
  5
169
100
AcDbEntity
  8
0
  6
CONTINUOUS
 62
               7
100
AcDbLine
 10
16.800000000000068
 20
-8.0
 30
0.0
 11
16.800000000000068
 21
-0.7999999999999972
 31
0.0
  0
LINE
  5
16A
100
AcDbEntity
  8
0
  6
CONTINUOUS
 62
               7
100
AcDbLine
 10
15.500000000000099
 20
-7.0
 30
0.0
 11
15.500000000000099
 21
-2.0
 31
0.0
  0
LINE
  5
16B
100
AcDbEntity
  8
0
  6
CONTINUOUS
 62
               7
100
AcDbLine
 10
15.500000000000099
 20
-2.0
 30
0.0
 11
16.800000000000068
 21
-2.0
 31
0.0
  0
LINE
  5
16C
100
AcDbEntity
  8
0
  6
CONTINUOUS
 62
               7
100
AcDbLine
 10
17.500000000000057
 20
-1.2999999999999972
 30
0.0
 11
17.500000000000057
 21
-7.7000000000000028
 31
0.0
  0
CIRCLE
  5
16D
100
AcDbEntity
  8
0
  6
CONTINUOUS
 62
               7
100
AcDbCircle
 10
16.650000000000077
 20
-7.3499999999999943
 30
0.0
 40
0.15
  0
CIRCLE
  5
16E
100
AcDbEntity
  8
0
  6
CONTINUOUS
 62
               7
100
AcDbCircle
 10
16.650000000000077
 20
-1.6500000000000057
 30
0.0
 40
0.15
  0
LINE
  5
16F
100
AcDbEntity
  8
0
  6
CONTINUOUS
 62
               7
100
AcDbLine
 10
15.99999997585607
 20
-7.0
 30
0.0
 11
15.99999997585607
 21
-8.0
 31
0.0
  0
LINE
  5
170
100
AcDbEntity
  8
0
  6
PHANTOM
 62
               2
100
AcDbLine
 10
15.99999997585607
 20
-7.2000000000000028
 30
0.0
 11
16.650000000000063
 21
-7.2000000000000028
 31
0.0
  0
LINE
  5
171
100
AcDbEntity
  8
0
  6
PHANTOM
 62
               2
100
AcDbLine
 10
15.99999997585607
 20
-7.5
 30
0.0
 11
16.650000000000063
 21
-7.5
 31
0.0
  0
LINE
  5
172
100
AcDbEntity
  8
0
  6
CONTINUOUS
 62
               7
100
AcDbLine
 10
17.5
 20
-6.0
 30
0.0
 11
19.0
 21
-6.0
 31
0.0
  0
LINE
  5
173
100
AcDbEntity
  8
0
  6
CONTINUOUS
 62
               7
100
AcDbLine
 10
17.5
 20
-3.0
 30
0.0
 11
19.0
 21
-3.0
 31
0.0
  0
LINE
  5
174
100
AcDbEntity
  8
0
  6
CONTINUOUS
 62
               7
100
AcDbLine
 10
82.699999999999974
 20
-3.0000000000000142
 30
0.0
 11
82.699999999999974
 21
-6.0000000000000142
 31
0.0
  0
LINE
  5
175
100
AcDbEntity
  8
0
  6
CONTINUOUS
 62
               7
100
AcDbLine
 10
80.899999999999991
 20
-6.0000000000000142
 30
0.0
 11
82.699999999999974
 21
-6.0000000000000142
 31
0.0
  0
LINE
  5
176
100
AcDbEntity
  8
0
  6
CONTINUOUS
 62
               7
100
AcDbLine
 10
80.899999999999991
 20
-3.0000000000000142
 30
0.0
 11
82.699999999999974
 21
-3.0000000000000142
 31
0.0
  0
LINE
  5
177
100
AcDbEntity
  8
0
  6
CONTINUOUS
 62
               2
100
AcDbLine
 10
80.899999999999991
 20
-5.7294998168945881
 30
0.0
 11
82.970500199327873
 21
-5.7294998168945881
 31
0.0
  0
LINE
  5
178
100
AcDbEntity
  8
0
  6
CONTINUOUS
 62
               2
100
AcDbLine
 10
80.899999999999991
 20
-3.2705001831054403
 30
0.0
 11
82.970500199327873
 21
-3.2705001831054403
 31
0.0
  0
LINE
  5
179
100
AcDbEntity
  8
0
  6
CONTINUOUS
 62
               2
100
AcDbLine
 10
70.0
 20
-5.7294998168945881
 30
0.0
 11
69.531479939404718
 21
-6.0000000000000142
 31
0.0
  0
LINE
  5
17A
100
AcDbEntity
  8
0
  6
CONTINUOUS
 62
               2
100
AcDbLine
 10
70.0
 20
-5.7294998168945028
 30
0.0
 11
71.0
 21
-5.7294998168945028
 31
0.0
  0
LINE
  5
17B
100
AcDbEntity
  8
0
  6
CONTINUOUS
 62
               2
100
AcDbLine
 10
70.0
 20
-3.2705001831054403
 30
0.0
 11
69.531479939404718
 21
-3.0000000000000142
 31
0.0
  0
LINE
  5
17C
100
AcDbEntity
  8
0
  6
CONTINUOUS
 62
               2
100
AcDbLine
 10
70.0
 20
-3.2705001831054403
 30
0.0
 11
71.0
 21
-3.2705001831054403
 31
0.0
  0
LINE
  5
17D
100
AcDbEntity
  8
0
  6
CONTINUOUS
 62
               7
100
AcDbLine
 10
70.0
 20
-3.0000000000000142
 30
0.0
 11
70.0
 21
-6.0000000000000142
 31
0.0
  0
LINE
  5
17E
100
AcDbEntity
  8
0
  6
CONTINUOUS
 62
               7
100
AcDbLine
 10
53.99999997585607
 20
-0.2000000000000028
 30
0.0
 11
61.0
 21
-0.2000000000000028
 31
0.0
  0
LINE
  5
17F
100
AcDbEntity
  8
0
  6
CONTINUOUS
 62
               7
100
AcDbLine
 10
55.0
 20
-9.0
 30
0.0
 11
61.0
 21
-9.0
 31
0.0
  0
LINE
  5
180
100
AcDbEntity
  8
0
  6
CONTINUOUS
 62
               7
100
AcDbLine
 10
54.0
 20
-7.5
 30
0.0
 11
61.0
 21
-7.5
 31
0.0
  0
LINE
  5
181
100
AcDbEntity
  8
0
  6
CONTINUOUS
 62
               7
100
AcDbLine
 10
61.0
 20
-9.0
 30
0.0
 11
61.0
 21
-0.2000000000000028
 31
0.0
  0
SPLINE
  5
182
100
AcDbEntity
  8
0
  6
CONTINUOUS
 62
               7
100
AcDbSpline
210
0.0
220
0.0
230
1.0
 70
               0
 71
               3
 72
               0
 73
               0
 74
               5
 44
0.000001
 12
0.4723474904831554
 22
-0.8814124166553733
 32
0.0
 13
-0.4723474904831553
 23
-0.8814124166553734
 33
0.0
 11
78.035898384862222
 21
-2.7679491924311463
 31
0.0
 11
78.373822986007937
 21
-3.6055598524105079
 31
0.0
 11
78.499999999999986
 21
-4.5000000000000142
 31
0.0
 11
78.373822986007937
 21
-5.3944401475895205
 31
0.0
 11
78.035898384862222
 21
-6.2320508075688821
 31
0.0
  0
LINE
  5
183
100
AcDbEntity
  8
0
  6
CONTINUOUS
 62
               7
100
AcDbLine
 10
74.499999975856085
 20
-7.9641016151377784
 30
0.0
 11
78.035898384862222
 21
-7.9641016151377784
 31
0.0
  0
LINE
  5
184
100
AcDbEntity
  8
0
  6
CONTINUOUS
 62
               7
100
AcDbLine
 10
74.499999975856085
 20
-6.2320508075688821
 30
0.0
 11
78.035898384862222
 21
-6.2320508075688821
 31
0.0
  0
SPLINE
  5
185
100
AcDbEntity
  8
0
  6
CONTINUOUS
 62
               7
100
AcDbSpline
210
0.0
220
0.0
230
1.0
 70
               0
 71
               3
 72
               0
 73
               0
 74
               5
 44
0.000001
 12
0.7311721974753298
 22
0.6821929475149222
 32
0.0
 13
-0.7311721974753295
 23
0.6821929475149225
 33
0.0
 11
78.035898384862222
 21
-7.9641016151377784
 31
0.0
 11
78.35775018762773
 21
-7.5677904727136172
 31
0.0
 11
78.499999999999986
 21
-7.0980762113533302
 31
0.0
 11
78.35775018762773
 21
-6.6283619499930433
 31
0.0
 11
78.035898384862222
 21
-6.2320508075688821
 31
0.0
  0
LINE
  5
186
100
AcDbEntity
  8
0
  6
CONTINUOUS
 62
               7
100
AcDbLine
 10
78.499999999999986
 20
-7.5000000000000142
 30
0.0
 11
78.035898384862222
 21
-7.9641016151377784
 31
0.0
  0
SPLINE
  5
187
100
AcDbEntity
  8
0
  6
CONTINUOUS
 62
               7
100
AcDbSpline
210
0.0
220
0.0
230
1.0
 70
               0
 71
               3
 72
               0
 73
               0
 74
               5
 44
0.000001
 12
0.7311721974753298
 22
-0.6821929475149222
 32
0.0
 13
-0.7311721974753295
 23
-0.6821929475149225
 33
0.0
 11
78.035898384862222
 21
-1.0358983848622501
 31
0.0
 11
78.35775018762773
 21
-1.4322095272864115
 31
0.0
 11
78.499999999999986
 21
-1.9019237886466982
 31
0.0
 11
78.35775018762773
 21
-2.3716380500069847
 31
0.0
 11
78.035898384862222
 21
-2.7679491924311463
 31
0.0
  0
LINE
  5
188
100
AcDbEntity
  8
0
  6
CONTINUOUS
 62
               7
100
AcDbLine
 10
78.499999999999986
 20
-1.5000000000000142
 30
0.0
 11
78.035898384862222
 21
-1.0358983848622501
 31
0.0
  0
LINE
  5
189
100
AcDbEntity
  8
0
  6
CONTINUOUS
 62
               7
100
AcDbLine
 10
71.0
 20
-7.4000000000000199
 30
0.0
 11
71.0
 21
-1.6000000000000085
 31
0.0
  0
LINE
  5
18A
100
AcDbEntity
  8
0
  6
CONTINUOUS
 62
               7
100
AcDbLine
 10
74.499999999999986
 20
-7.9641016151377642
 30
0.0
 11
74.499999999999986
 21
-1.0358983848622501
 31
0.0
  0
LINE
  5
18B
100
AcDbEntity
  8
0
  6
CONTINUOUS
 62
               7
100
AcDbLine
 10
78.499999999999986
 20
-7.5000000000000142
 30
0.0
 11
78.499999999999986
 21
-1.5000000000000142
 31
0.0
  0
LINE
  5
18C
100
AcDbEntity
  8
0
  6
CONTINUOUS
 62
               7
100
AcDbLine
 10
82.999999999999986
 20
-5.7000000000000171
 30
0.0
 11
82.999999999999986
 21
-3.3000000000000114
 31
0.0
  0
LINE
  5
18D
100
AcDbEntity
  8
0
  6
CONTINUOUS
 62
               7
100
AcDbLine
 10
82.699999999999974
 20
-6.0000000000000142
 30
0.0
 11
82.999999999999986
 21
-5.7000000000000171
 31
0.0
  0
LINE
  5
18E
100
AcDbEntity
  8
0
  6
CONTINUOUS
 62
               7
100
AcDbLine
 10
82.699999999999974
 20
-3.0000000000000142
 30
0.0
 11
82.999999999999986
 21
-3.3000000000000114
 31
0.0
  0
LINE
  5
18F
100
AcDbEntity
  8
0
  6
CONTINUOUS
 62
               7
100
AcDbLine
 10
80.899999999999991
 20
-1.7500000644972431
 30
0.0
 11
80.899999999999991
 21
-7.2499999355027853
 31
0.0
  0
LINE
  5
190
100
AcDbEntity
  8
0
  6
CONTINUOUS
 62
               7
100
AcDbLine
 10
71.0
 20
-7.4000000000000199
 30
0.0
 11
74.499999999999986
 21
-7.4000000000000199
 31
0.0
  0
LINE
  5
191
100
AcDbEntity
  8
0
  6
CONTINUOUS
 62
               7
100
AcDbLine
 10
71.0
 20
-1.6000000000000085
 30
0.0
 11
74.499999999999986
 21
-1.6000000000000085
 31
0.0
  0
LINE
  5
192
100
AcDbEntity
  8
0
  6
CONTINUOUS
 62
               7
100
AcDbLine
 10
62.200000000000003
 20
-3.0
 30
0.0
 11
71.0
 21
-3.0000000000000142
 31
0.0
  0
LINE
  5
193
100
AcDbEntity
  8
0
  6
CONTINUOUS
 62
               7
100
AcDbLine
 10
61.0
 20
-6.0
 30
0.0
 11
71.0
 21
-6.0000000000000142
 31
0.0
  0
LINE
  5
194
100
AcDbEntity
  8
0
  6
CONTINUOUS
 62
               7
100
AcDbLine
 10
74.499999975856085
 20
-1.0358983848622501
 30
0.0
 11
78.035898384862222
 21
-1.0358983848622501
 31
0.0
  0
LINE
  5
195
100
AcDbEntity
  8
0
  6
CONTINUOUS
 62
               7
100
AcDbLine
 10
74.499999975856085
 20
-2.7679491924311463
 30
0.0
 11
78.035898384862222
 21
-2.7679491924311463
 31
0.0
  0
LINE
  5
196
100
AcDbEntity
  8
0
  6
CONTINUOUS
 62
               7
100
AcDbLine
 10
80.654379869700634
 20
-7.6754264805429528
 30
0.0
 11
78.716160837589555
 21
-7.6754264805429528
 31
0.0
  0
LINE
  5
197
100
AcDbEntity
  8
0
  6
CONTINUOUS
 62
               7
100
AcDbLine
 10
80.899999999999991
 20
-7.2499999355027853
 30
0.0
 11
80.654379869700634
 21
-7.6754264805429528
 31
0.0
  0
LINE
  5
198
100
AcDbEntity
  8
0
  6
CONTINUOUS
 62
               7
100
AcDbLine
 10
80.654379869700634
 20
-6.0877132402714835
 30
0.0
 11
78.745620130299343
 21
-6.0877132402714835
 31
0.0
  0
LINE
  5
199
100
AcDbEntity
  8
0
  6
CONTINUOUS
 62
               7
100
AcDbLine
 10
80.654379869700634
 20
-1.3245735194570756
 30
0.0
 11
78.716160837589555
 21
-1.3245735194570756
 31
0.0
  0
LINE
  5
19A
100
AcDbEntity
  8
0
  6
CONTINUOUS
 62
               7
100
AcDbLine
 10
80.899999999999991
 20
-1.7500000644972431
 30
0.0
 11
80.654379869700634
 21
-1.3245735194570756
 31
0.0
  0
LINE
  5
19B
100
AcDbEntity
  8
0
  6
CONTINUOUS
 62
               7
100
AcDbLine
 10
80.654379869700634
 20
-2.9122867597285449
 30
0.0
 11
78.745620130299343
 21
-2.9122867597285449
 31
0.0
  0
LINE
  5
19C
100
AcDbEntity
  8
0
  6
CONTINUOUS
 62
               7
100
AcDbLine
 10
78.499999999999986
 20
-7.2499999355027853
 30
0.0
 11
78.745620130299343
 21
-7.6754264805429528
 31
0.0
  0
LINE
  5
19D
100
AcDbEntity
  8
0
  6
CONTINUOUS
 62
               7
100
AcDbLine
 10
78.499999999999986
 20
-1.7500000644972431
 30
0.0
 11
78.745620130299343
 21
-1.3245735194570756
 31
0.0
  0
LINE
  5
19E
100
AcDbEntity
  8
0
  6
CONTINUOUS
 62
               7
100
AcDbLine
 10
61.899999982139235
 20
-5.25
 30
0.0
 11
61.0
 21
-5.25
 31
0.0
  0
LINE
  5
19F
100
AcDbEntity
  8
0
  6
CONTINUOUS
 62
               7
100
AcDbLine
 10
61.899999982139235
 20
-0.75
 30
0.0
 11
61.0
 21
-0.75
 31
0.0
  0
LINE
  5
1A0
100
AcDbEntity
  8
0
  6
CONTINUOUS
 62
               7
100
AcDbLine
 10
62.200000000000003
 20
-1.0499999970304259
 30
0.0
 11
62.200000000000003
 21
-4.949999973188568
 31
0.0
  0
LINE
  5
1A1
100
AcDbEntity
  8
0
  6
CONTINUOUS
 62
               7
100
AcDbLine
 10
61.899999982139235
 20
-5.25
 30
0.0
 11
62.200000000000017
 21
-4.949999982139218
 31
0.0
  0
LINE
  5
1A2
100
AcDbEntity
  8
0
  6
CONTINUOUS
 62
               7
100
AcDbLine
 10
62.200000000000003
 20
-1.0499999970304259
 30
0.0
 11
61.900000002969549
 21
-0.75
 31
0.0
  0
LINE
  5
1A3
100
AcDbEntity
  8
0
  6
CONTINUOUS
 62
               7
100
AcDbLine
 10
61.899999982139235
 20
-5.25
 30
0.0
 11
61.899999982139235
 21
-0.75
 31
0.0
  0
LINE
  5
1A4
100
AcDbEntity
  8
0
  6
CONTINUOUS
 62
               2
100
AcDbLine
 10
58.11780965045935
 20
-4.5000000000000142
 30
0.0
 11
84.999999999999986
 21
-4.5000000000000142
 31
0.0
  0
SPLINE
  5
1A5
100
AcDbEntity
  8
0
  6
CONTINUOUS
 62
               7
100
AcDbSpline
210
0.0
220
0.0
230
1.0
 70
               0
 71
               3
 72
               0
 73
               0
 74
               5
 44
0.000001
 12
0.5262037598043649
 22
0.8503585144912411
 32
0.0
 13
-0.5262037598043637
 23
0.8503585144912418
 33
0.0
 11
80.654379869700634
 21
-7.6754264805429528
 31
0.0
 11
80.831848423588909
 21
-7.2948520473364011
 31
0.0
 11
80.899999999999991
 21
-6.8815698604072253
 31
0.0
 11
80.831848423588909
 21
-6.4682876734780423
 31
0.0
 11
80.654379869700634
 21
-6.0877132402714835
 31
0.0
  0
SPLINE
  5
1A6
100
AcDbEntity
  8
0
  6
CONTINUOUS
 62
               7
100
AcDbSpline
210
0.0
220
0.0
230
1.0
 70
               0
 71
               3
 72
               0
 73
               0
 74
               5
 44
0.000001
 12
0.5262037598043643
 22
-0.8503585144912415
 32
0.0
 13
-0.5262037598043634
 23
-0.850358514491242
 33
0.0
 11
80.654379869700634
 21
-1.3245735194570756
 31
0.0
 11
80.831848423588909
 21
-1.7051479526636342
 31
0.0
 11
80.899999999999991
 21
-2.1184301395928173
 31
0.0
 11
80.831848423588909
 21
-2.5317123265219936
 31
0.0
 11
80.654379869700634
 21
-2.9122867597285453
 31
0.0
  0
SPLINE
  5
1A7
100
AcDbEntity
  8
0
  6
CONTINUOUS
 62
               7
100
AcDbSpline
210
0.0
220
0.0
230
1.0
 70
               0
 71
               3
 72
               0
 73
               0
 74
               5
 44
0.000001
 12
0.2955767691118969
 22
0.9553189904745809
 32
0.0
 13
-0.2955767691118964
 23
0.955318990474581
 33
0.0
 11
80.654379869700634
 21
-6.0877132402714835
 31
0.0
 11
80.836549128258667
 21
-5.3037750028273365
 31
0.0
 11
80.899999999999991
 21
-4.5000000000000142
 31
0.0
 11
80.836549128258667
 21
-3.6962249971726919
 31
0.0
 11
80.654379869700634
 21
-2.9122867597285449
 31
0.0
  0
SPLINE
  5
1A8
100
AcDbEntity
  8
0
  6
CONTINUOUS
 62
               7
100
AcDbSpline
210
0.0
220
0.0
230
1.0
 70
               0
 71
               3
 72
               0
 73
               0
 74
               5
 44
0.000001
 12
-0.5262037598043642
 22
0.8503585144912416
 32
0.0
 13
0.5262037598043635
 23
0.8503585144912419
 33
0.0
 11
78.745620130299343
 21
-7.6754264805429528
 31
0.0
 11
78.568151576411069
 21
-7.2948520473364011
 31
0.0
 11
78.499999999999986
 21
-6.8815698604072253
 31
0.0
 11
78.568151576411069
 21
-6.4682876734780415
 31
0.0
 11
78.745620130299343
 21
-6.0877132402714835
 31
0.0
  0
SPLINE
  5
1A9
100
AcDbEntity
  8
0
  6
CONTINUOUS
 62
               7
100
AcDbSpline
210
0.0
220
0.0
230
1.0
 70
               0
 71
               3
 72
               0
 73
               0
 74
               5
 44
0.000001
 12
-0.2955767691118962
 22
0.9553189904745811
 32
0.0
 13
0.2955767691118969
 23
0.9553189904745809
 33
0.0
 11
78.745620130299343
 21
-6.0877132402714835
 31
0.0
 11
78.56345087174131
 21
-5.3037750028273365
 31
0.0
 11
78.499999999999986
 21
-4.5000000000000142
 31
0.0
 11
78.56345087174131
 21
-3.6962249971726919
 31
0.0
 11
78.745620130299343
 21
-2.9122867597285449
 31
0.0
  0
SPLINE
  5
1AA
100
AcDbEntity
  8
0
  6
CONTINUOUS
 62
               7
100
AcDbSpline
210
0.0
220
0.0
230
1.0
 70
               0
 71
               3
 72
               0
 73
               0
 74
               5
 44
0.000001
 12
-0.5262037598043649
 22
-0.8503585144912411
 32
0.0
 13
0.5262037598043636
 23
-0.8503585144912418
 33
0.0
 11
78.745620130299343
 21
-1.3245735194570756
 31
0.0
 11
78.568151576411069
 21
-1.7051479526636268
 31
0.0
 11
78.499999999999986
 21
-2.1184301395928031
 31
0.0
 11
78.568151576411069
 21
-2.5317123265219865
 31
0.0
 11
78.745620130299343
 21
-2.9122867597285449
 31
0.0
  0
LINE
  5
1AB
100
AcDbEntity
  8
0
  6
CONTINUOUS
 62
               7
100
AcDbLine
 10
54.5
 20
-11.699999999999989
 30
0.0
 11
54.5
 21
-8.1999999999999886
 31
0.0
  0
ARC
  5
1AC
100
AcDbEntity
  8
0
  6
CONTINUOUS
 62
               7
100
AcDbCircle
 10
54.700000000000003
 20
-8.7999999999999972
 30
0.0
 40
0.3
100
AcDbArc
 50
0.0
 51
90.0
  0
ARC
  5
1AD
100
AcDbEntity
  8
0
  6
CONTINUOUS
 62
               7
100
AcDbCircle
 10
54.700000000000003
 20
-10.200000000000003
 30
0.0
 40
0.3
100
AcDbArc
 50
270.0
 51
0.0
  0
LINE
  5
1AE
100
AcDbEntity
  8
0
  6
CONTINUOUS
 62
               7
100
AcDbLine
 10
54.5
 20
-8.5
 30
0.0
 11
54.700000000000003
 21
-8.5
 31
0.0
  0
LINE
  5
1AF
100
AcDbEntity
  8
0
  6
CONTINUOUS
 62
               7
100
AcDbLine
 10
54.5
 20
-10.5
 30
0.0
 11
54.700000000000003
 21
-10.5
 31
0.0
  0
LINE
  5
1B0
100
AcDbEntity
  8
0
  6
CONTINUOUS
 62
               7
100
AcDbLine
 10
55.0
 20
-8.7999999999999972
 30
0.0
 11
55.0
 21
-10.200000000000003
 31
0.0
  0
LINE
  5
1B1
100
AcDbEntity
  8
0
  6
CONTINUOUS
 62
               7
100
AcDbLine
 10
54.000000001754415
 20
-8.1999999999999886
 30
0.0
 11
54.500000001754415
 21
-8.1999999999999886
 31
0.0
  0
LINE
  5
1B2
100
AcDbEntity
  8
0
  6
CONTINUOUS
 62
               7
100
AcDbLine
 10
54.000000001754415
 20
-11.699999999999989
 30
0.0
 11
54.500000001754415
 21
-11.699999999999989
 31
0.0
  0
LINE
  5
1B3
100
AcDbEntity
  8
0
  6
CONTINUOUS
 62
               7
100
AcDbLine
 10
19.0
 20
0.0
 30
0.0
 11
54.0
 21
0.0
 31
0.0
  0
LINE
  5
1B4
100
AcDbEntity
  8
0
  6
CONTINUOUS
 62
               7
100
AcDbLine
 10
15.0
 20
-12.0
 30
0.0
 11
54.0
 21
-12.0
 31
0.0
  0
LINE
  5
1B5
100
AcDbEntity
  8
0
  6
CONTINUOUS
 62
               7
100
AcDbLine
 10
54.0
 20
0.0
 30
0.0
 11
54.0
 21
-12.0
 31
0.0
  0
LINE
  5
1B6
100
AcDbEntity
  8
0
  6
CONTINUOUS
 62
               7
100
AcDbLine
 10
19.0
 20
0.0
 30
0.0
 11
19.0
 21
-8.0
 31
0.0
  0
LINE
  5
1B7
100
AcDbEntity
  8
0
  6
CONTINUOUS
 62
               7
100
AcDbLine
 10
14.99999997585607
 20
-8.0
 30
0.0
 11
54.0
 21
-8.0
 31
0.0
  0
LINE
  5
1B8
100
AcDbEntity
  8
0
  6
CONTINUOUS
 62
               7
100
AcDbLine
 10
14.99999997585607
 20
-8.0
 30
0.0
 11
14.99999997585607
 21
-11.99999998630939
 31
0.0
  0
CIRCLE
  5
1B9
100
AcDbEntity
  8
0
  6
CONTINUOUS
 62
               7
100
AcDbCircle
 10
51.0
 20
-3.1999999999999886
 30
0.0
 40
0.8
  0
CIRCLE
  5
1BA
100
AcDbEntity
  8
0
  6
CONTINUOUS
 62
               2
100
AcDbCircle
 10
51.0
 20
-3.1999999999999886
 30
0.0
 40
1.0
  0
LINE
  5
1BB
100
AcDbEntity
  8
0
  6
CONTINUOUS
 62
               2
100
AcDbLine
 10
49.0
 20
-3.1999999999999886
 30
0.0
 11
53.0
 21
-3.1999999999999886
 31
0.0
  0
LINE
  5
1BC
100
AcDbEntity
  8
0
  6
CONTINUOUS
 62
               2
100
AcDbLine
 10
51.0
 20
-1.1999999999999886
 30
0.0
 11
51.0
 21
-5.1999999999999886
 31
0.0
  0
CIRCLE
  5
1BD
100
AcDbEntity
  8
0
  6
CONTINUOUS
 62
               7
100
AcDbCircle
 10
49.0
 20
-9.9000000000000057
 30
0.0
 40
0.8
  0
CIRCLE
  5
1BE
100
AcDbEntity
  8
0
  6
CONTINUOUS
 62
               2
100
AcDbCircle
 10
49.0
 20
-9.9000000000000057
 30
0.0
 40
1.0
  0
LINE
  5
1BF
100
AcDbEntity
  8
0
  6
CONTINUOUS
 62
               2
100
AcDbLine
 10
47.0
 20
-9.9000000000000057
 30
0.0
 11
51.0
 21
-9.9000000000000057
 31
0.0
  0
LINE
  5
1C0
100
AcDbEntity
  8
0
  6
CONTINUOUS
 62
               2
100
AcDbLine
 10
49.0
 20
-7.9000000000000057
 30
0.0
 11
49.0
 21
-11.900000000000006
 31
0.0
  0
CIRCLE
  5
1C1
100
AcDbEntity
  8
0
  6
CONTINUOUS
 62
               7
100
AcDbCircle
 10
35.0
 20
-9.9000000000000057
 30
0.0
 40
0.8
  0
CIRCLE
  5
1C2
100
AcDbEntity
  8
0
  6
CONTINUOUS
 62
               2
100
AcDbCircle
 10
35.0
 20
-9.9000000000000057
 30
0.0
 40
1.0
  0
LINE
  5
1C3
100
AcDbEntity
  8
0
  6
CONTINUOUS
 62
               2
100
AcDbLine
 10
33.0
 20
-9.9000000000000057
 30
0.0
 11
37.0
 21
-9.9000000000000057
 31
0.0
  0
LINE
  5
1C4
100
AcDbEntity
  8
0
  6
CONTINUOUS
 62
               2
100
AcDbLine
 10
35.0
 20
-7.9000000000000057
 30
0.0
 11
35.0
 21
-11.900000000000006
 31
0.0
  0
CIRCLE
  5
1C5
100
AcDbEntity
  8
0
  6
CONTINUOUS
 62
               7
100
AcDbCircle
 10
22.0
 20
-3.1999999999999886
 30
0.0
 40
0.8
  0
CIRCLE
  5
1C6
100
AcDbEntity
  8
0
  6
CONTINUOUS
 62
               2
100
AcDbCircle
 10
22.0
 20
-3.1999999999999886
 30
0.0
 40
1.0
  0
LINE
  5
1C7
100
AcDbEntity
  8
0
  6
CONTINUOUS
 62
               2
100
AcDbLine
 10
20.0
 20
-3.1999999999999886
 30
0.0
 11
24.0
 21
-3.1999999999999886
 31
0.0
  0
LINE
  5
1C8
100
AcDbEntity
  8
0
  6
CONTINUOUS
 62
               2
100
AcDbLine
 10
22.0
 20
-1.1999999999999886
 30
0.0
 11
22.0
 21
-5.1999999999999886
 31
0.0
  0
CIRCLE
  5
1C9
100
AcDbEntity
  8
0
  6
CONTINUOUS
 62
               7
100
AcDbCircle
 10
31.0
 20
-4.5
 30
0.0
 40
1.2
  0
LINE
  5
1CA
100
AcDbEntity
  8
0
  6
CONTINUOUS
 62
               2
100
AcDbLine
 10
28.5
 20
-4.5
 30
0.0
 11
33.499999999999972
 21
-4.5
 31
0.0
  0
CIRCLE
  5
1CB
100
AcDbEntity
  8
0
  6
CONTINUOUS
 62
               2
100
AcDbCircle
 10
31.0
 20
-4.5
 30
0.0
 40
1.5
  0
LINE
  5
1CC
100
AcDbEntity
  8
0
  6
CONTINUOUS
 62
               2
100
AcDbLine
 10
31.0
 20
-2.0
 30
0.0
 11
31.0
 21
-7.0
 31
0.0
  0
CIRCLE
  5
1CD
100
AcDbEntity
  8
0
  6
CONTINUOUS
 62
               7
100
AcDbCircle
 10
46.999999999999972
 20
-4.5
 30
0.0
 40
1.2
  0
LINE
  5
1CE
100
AcDbEntity
  8
0
  6
CONTINUOUS
 62
               2
100
AcDbLine
 10
44.499999999999972
 20
-4.5
 30
0.0
 11
49.499999999999943
 21
-4.5
 31
0.0
  0
CIRCLE
  5
1CF
100
AcDbEntity
  8
0
  6
CONTINUOUS
 62
               2
100
AcDbCircle
 10
46.999999999999972
 20
-4.5
 30
0.0
 40
1.5
  0
LINE
  5
1D0
100
AcDbEntity
  8
0
  6
CONTINUOUS
 62
               2
100
AcDbLine
 10
46.999999999999972
 20
-2.0
 30
0.0
 11
46.999999999999972
 21
-7.0
 31
0.0
  0
LINE
  5
1D1
100
AcDbEntity
  8
0
  6
CONTINUOUS
 62
               7
100
AcDbLine
 10
18.99999997585607
 20
-7.5
 30
0.0
 11
54.0
 21
-7.5
 31
0.0
  0
LINE
  5
1D2
100
AcDbEntity
  8
0
  6
CONTINUOUS
 62
               7
100
AcDbLine
 10
28.5
 20
-7.5000000136906095
 30
0.0
 11
28.5
 21
-5.0
 31
0.0
  0
LINE
  5
1D3
100
AcDbEntity
  8
0
  6
CONTINUOUS
 62
               7
100
AcDbLine
 10
23.5
 20
-7.5000000136906095
 30
0.0
 11
23.5
 21
-5.0
 31
0.0
  0
LINE
  5
1D4
100
AcDbEntity
  8
0
  6
CONTINUOUS
 62
               7
100
AcDbLine
 10
23.5
 20
-5.0
 30
0.0
 11
28.5
 21
-5.0
 31
0.0
  0
LINE
  5
1D5
100
AcDbEntity
  8
0
  6
CONTINUOUS
 62
               7
100
AcDbLine
 10
44.5
 20
-7.5000000136906095
 30
0.0
 11
44.5
 21
-5.0
 31
0.0
  0
LINE
  5
1D6
100
AcDbEntity
  8
0
  6
CONTINUOUS
 62
               7
100
AcDbLine
 10
39.5
 20
-7.5000000136906095
 30
0.0
 11
39.5
 21
-5.0
 31
0.0
  0
LINE
  5
1D7
100
AcDbEntity
  8
0
  6
CONTINUOUS
 62
               7
100
AcDbLine
 10
39.5
 20
-5.0
 30
0.0
 11
44.5
 21
-5.0
 31
0.0
  0
LINE
  5
1D8
100
AcDbEntity
  8
0
  6
CONTINUOUS
 62
               7
100
AcDbLine
 10
15.0
 20
-11.5
 30
0.0
 11
54.0
 21
-11.5
 31
0.0
  0
LINE
  5
1D9
100
AcDbEntity
  8
0
  6
CONTINUOUS
 62
               2
100
AcDbLine
 10
7.4889391494745325
 20
-5.0
 30
0.0
 11
20.159103191063451
 21
-5.0
 31
0.0
  0
LINE
  5
1DA
100
AcDbEntity
  8
0
  6
CONTINUOUS
 62
               2
100
AcDbLine
 10
25.999999997462709
 20
1.5
 30
0.0
 11
25.999999997462709
 21
-1.5
 31
0.0
  0
LINE
  5
1DB
100
AcDbEntity
  8
0
  6
CONTINUOUS
 62
               2
100
AcDbLine
 10
41.999999997462709
 20
1.5
 30
0.0
 11
41.999999997462709
 21
-1.5
 31
0.0
  0
LINE
  5
1DC
100
AcDbEntity
  8
0
  6
PHANTOM
 62
               3
100
AcDbLine
 10
37.487890521686126
 20
-6.4420584522282951
 30
0.0
 11
32.628434161794189
 21
-6.4420584522282951
 31
0.0
  0
LINE
  5
1DD
100
AcDbEntity
  8
0
  6
PHANTOM
 62
               3
100
AcDbLine
 10
32.628434161794189
 20
-6.4420584522282951
 30
0.0
 11
32.628434161794189
 21
-25.765569159039529
 31
0.0
  0
LINE
  5
1DE
100
AcDbEntity
  8
0
  6
PHANTOM
 62
               3
100
AcDbLine
 10
37.487890521686126
 20
-6.4420584522282951
 30
0.0
 11
37.487890521686126
 21
20.0
 31
0.0
  0
LINE
  5
1DF
100
AcDbEntity
  8
0
  6
PHANTOM
 62
               3
100
AcDbLine
 10
66.0
 20
-26.384889696870047
 30
0.0
 11
66.0
 21
10.723407250049831
 31
0.0
  0
ENDBLK
  5
1E0
100
AcDbEntity
  8
0
100
AcDbBlockEnd
  0
BLOCK
  5
1E1
100
AcDbEntity
  8
0
100
AcDbBlockBegin
  2
MGAPG6-5
 70
               0
 10
0.0
 20
0.0
 30
0.0
  3
MGAPG6-5
  1

  0
LINE
  5
1E2
100
AcDbEntity
  8
0
  6
PHANTOM
 62
               3
100
AcDbLine
 10
32.236665265870172
 20
6.3436786973210744
 30
0.0
 11
36.206590077900231
 21
6.3436786973210744
 31
0.0
  0
LINE
  5
1E3
100
AcDbEntity
  8
0
  6
CONTINUOUS
 62
               7
100
AcDbLine
 10
19.099999975856065
 20
7.5
 30
0.0
 11
61.0
 21
7.5
 31
0.0
  0
LINE
  5
1E4
100
AcDbEntity
  8
0
  6
CONTINUOUS
 62
               2
100
AcDbLine
 10
7.4889391494745325
 20
4.5
 30
0.0
 11
20.159103191063451
 21
4.5
 31
0.0
  0
LINE
  5
1E5
100
AcDbEntity
  8
0
  6
CONTINUOUS
 62
               7
100
AcDbLine
 10
17.5
 20
3.0
 30
0.0
 11
19.0
 21
3.0
 31
0.0
  0
LINE
  5
1E6
100
AcDbEntity
  8
0
  6
CONTINUOUS
 62
               7
100
AcDbLine
 10
17.5
 20
6.0
 30
0.0
 11
19.0
 21
6.0
 31
0.0
  0
LINE
  5
1E7
100
AcDbEntity
  8
0
  6
PHANTOM
 62
               2
100
AcDbLine
 10
15.99999997585607
 20
7.5
 30
0.0
 11
16.650000000000063
 21
7.5
 31
0.0
  0
LINE
  5
1E8
100
AcDbEntity
  8
0
  6
PHANTOM
 62
               2
100
AcDbLine
 10
15.99999997585607
 20
7.2000000000000028
 30
0.0
 11
16.650000000000063
 21
7.2000000000000028
 31
0.0
  0
LINE
  5
1E9
100
AcDbEntity
  8
0
  6
CONTINUOUS
 62
               7
100
AcDbLine
 10
15.99999997585607
 20
7.0
 30
0.0
 11
15.99999997585607
 21
8.0
 31
0.0
  0
CIRCLE
  5
1EA
100
AcDbEntity
  8
0
  6
CONTINUOUS
 62
               7
100
AcDbCircle
 10
16.650000000000077
 20
1.6499999999999986
 30
0.0
 40
0.15
  0
CIRCLE
  5
1EB
100
AcDbEntity
  8
0
  6
CONTINUOUS
 62
               7
100
AcDbCircle
 10
16.650000000000077
 20
7.3500000000000014
 30
0.0
 40
0.15
  0
LINE
  5
1EC
100
AcDbEntity
  8
0
  6
CONTINUOUS
 62
               7
100
AcDbLine
 10
17.500000000000057
 20
1.3000000000000007
 30
0.0
 11
17.500000000000057
 21
7.6999999999999993
 31
0.0
  0
LINE
  5
1ED
100
AcDbEntity
  8
0
  6
CONTINUOUS
 62
               7
100
AcDbLine
 10
15.500000000000099
 20
2.0
 30
0.0
 11
16.800000000000068
 21
2.0
 31
0.0
  0
LINE
  5
1EE
100
AcDbEntity
  8
0
  6
CONTINUOUS
 62
               7
100
AcDbLine
 10
15.500000000000099
 20
7.0
 30
0.0
 11
15.500000000000099
 21
2.0
 31
0.0
  0
LINE
  5
1EF
100
AcDbEntity
  8
0
  6
CONTINUOUS
 62
               7
100
AcDbLine
 10
16.800000000000068
 20
8.0
 30
0.0
 11
16.800000000000068
 21
0.8000000000000007
 31
0.0
  0
LINE
  5
1F0
100
AcDbEntity
  8
0
  6
CONTINUOUS
 62
               7
100
AcDbLine
 10
16.800000000000068
 20
0.8000000000000007
 30
0.0
 11
17.300000000000054
 21
0.8000000000000007
 31
0.0
  0
LINE
  5
1F1
100
AcDbEntity
  8
0
  6
CONTINUOUS
 62
               7
100
AcDbLine
 10
17.300000000000054
 20
0.8000000000000007
 30
0.0
 11
17.300000000000054
 21
8.0
 31
0.0
  0
LINE
  5
1F2
100
AcDbEntity
  8
0
  6
CONTINUOUS
 62
               7
100
AcDbLine
 10
17.300000000000054
 20
7.6999999999999993
 30
0.0
 11
17.500000000000057
 21
7.6999999999999993
 31
0.0
  0
LINE
  5
1F3
100
AcDbEntity
  8
0
  6
CONTINUOUS
 62
               7
100
AcDbLine
 10
17.300000000000054
 20
1.3000000000000007
 30
0.0
 11
17.500000000000057
 21
1.3000000000000007
 31
0.0
  0
LINE
  5
1F4
100
AcDbEntity
  8
0
  6
CONTINUOUS
 62
               7
100
AcDbLine
 10
16.800000000000068
 20
5.7000000000000028
 30
0.0
 11
17.300000000000054
 21
5.7000000000000028
 31
0.0
  0
LINE
  5
1F5
100
AcDbEntity
  8
0
  6
CONTINUOUS
 62
               7
100
AcDbLine
 10
16.800000000000068
 20
3.3000000000000007
 30
0.0
 11
17.300000000000054
 21
3.3000000000000007
 31
0.0
  0
LINE
  5
1F6
100
AcDbEntity
  8
0
  6
CONTINUOUS
 62
               2
100
AcDbLine
 10
17.300000000000054
 20
5.7000000000000028
 30
0.0
 11
16.800000000000068
 21
3.3000000000000007
 31
0.0
  0
LINE
  5
1F7
100
AcDbEntity
  8
0
  6
CONTINUOUS
 62
               2
100
AcDbLine
 10
16.800000000000068
 20
5.7000000000000028
 30
0.0
 11
17.300000000000054
 21
3.3000000000000007
 31
0.0
  0
LINE
  5
1F8
100
AcDbEntity
  8
0
  6
CONTINUOUS
 62
               2
100
AcDbLine
 10
17.5
 20
5.8000000000000007
 30
0.0
 11
17.846410161513774
 21
6.0
 31
0.0
  0
LINE
  5
1F9
100
AcDbEntity
  8
0
  6
CONTINUOUS
 62
               2
100
AcDbLine
 10
17.500000000000057
 20
3.1999999999999993
 30
0.0
 11
17.84641016151383
 21
3.0
 31
0.0
  0
CIRCLE
  5
1FA
100
AcDbEntity
  8
0
  6
CONTINUOUS
 62
               7
100
AcDbCircle
 10
9.9500000000000597
 20
1.6499999999999986
 30
0.0
 40
0.15
  0
LINE
  5
1FB
100
AcDbEntity
  8
0
  6
CONTINUOUS
 62
               7
100
AcDbLine
 10
11.300000000000097
 20
2.0
 30
0.0
 11
9.8000000000000682
 21
2.0
 31
0.0
  0
LINE
  5
1FC
100
AcDbEntity
  8
0
  6
CONTINUOUS
 62
               7
100
AcDbLine
 10
9.8000000000000682
 20
0.7999999999999972
 30
0.0
 11
9.8000000000000682
 21
7.0
 31
0.0
  0
LINE
  5
1FD
100
AcDbEntity
  8
0
  6
CONTINUOUS
 62
               7
100
AcDbLine
 10
11.300000000000097
 20
7.0
 30
0.0
 11
11.300000000000097
 21
2.0
 31
0.0
  0
LINE
  5
1FE
100
AcDbEntity
  8
0
  6
CONTINUOUS
 62
               7
100
AcDbLine
 10
0.0
 20
11.799999999999997
 30
0.0
 11
0.0
 21
0.7999999999999972
 31
0.0
  0
LINE
  5
1FF
100
AcDbEntity
  8
0
  6
CONTINUOUS
 62
               7
100
AcDbLine
 10
9.0
 20
7.0
 30
0.0
 11
9.0
 21
0.7999999999999972
 31
0.0
  0
LINE
  5
200
100
AcDbEntity
  8
0
  6
CONTINUOUS
 62
               7
100
AcDbLine
 10
0.0
 20
0.7999999999999972
 30
0.0
 11
9.8000000000000682
 21
0.7999999999999972
 31
0.0
  0
LINE
  5
201
100
AcDbEntity
  8
0
  6
CONTINUOUS
 62
               7
100
AcDbLine
 10
9.0
 20
7.0
 30
0.0
 11
16.800000000000068
 21
7.0
 31
0.0
  0
LINE
  5
202
100
AcDbEntity
  8
0
  6
PHANTOM
 62
               2
100
AcDbLine
 10
9.9500000000000597
 20
1.7999999999999972
 30
0.0
 11
16.650000000000063
 21
1.7999999999999972
 31
0.0
  0
LINE
  5
203
100
AcDbEntity
  8
0
  6
PHANTOM
 62
               2
100
AcDbLine
 10
9.9500000000000597
 20
1.5
 30
0.0
 11
16.650000000000063
 21
1.5
 31
0.0
  0
LINE
  5
204
100
AcDbEntity
  8
0
  6
CONTINUOUS
 62
               7
100
AcDbLine
 10
11.300000000000097
 20
2.5
 30
0.0
 11
15.500000000000099
 21
2.5
 31
0.0
  0
LINE
  5
205
100
AcDbEntity
  8
0
  6
CONTINUOUS
 62
               7
100
AcDbLine
 10
11.300000000000097
 20
6.5
 30
0.0
 11
15.500000000000099
 21
6.5
 31
0.0
  0
LINE
  5
206
100
AcDbEntity
  8
0
  6
CONTINUOUS
 62
               7
100
AcDbLine
 10
0.0
 20
11.799999999999997
 30
0.0
 11
14.99999997585607
 21
11.799999999999997
 31
0.0
  0
LINE
  5
207
100
AcDbEntity
  8
0
  6
CONTINUOUS
 62
               7
100
AcDbLine
 10
0.0
 20
11.299999999999997
 30
0.0
 11
15.0
 21
11.299999999999997
 31
0.0
  0
LINE
  5
208
100
AcDbEntity
  8
0
  6
CONTINUOUS
 62
               7
100
AcDbLine
 10
82.700000000000003
 20
6.0000000000000036
 30
0.0
 11
82.700000000000003
 21
3.0000000000000036
 31
0.0
  0
LINE
  5
209
100
AcDbEntity
  8
0
  6
CONTINUOUS
 62
               7
100
AcDbLine
 10
80.899999999999991
 20
3.0000000000000036
 30
0.0
 11
82.700000000000003
 21
3.0000000000000036
 31
0.0
  0
LINE
  5
20A
100
AcDbEntity
  8
0
  6
CONTINUOUS
 62
               7
100
AcDbLine
 10
80.899999999999991
 20
6.0000000000000036
 30
0.0
 11
82.700000000000003
 21
6.0000000000000036
 31
0.0
  0
LINE
  5
20B
100
AcDbEntity
  8
0
  6
CONTINUOUS
 62
               2
100
AcDbLine
 10
80.899999999999991
 20
3.2705001831054332
 30
0.0
 11
82.970500199327873
 21
3.2705001831054332
 31
0.0
  0
LINE
  5
20C
100
AcDbEntity
  8
0
  6
CONTINUOUS
 62
               2
100
AcDbLine
 10
80.899999999999991
 20
5.729499816894581
 30
0.0
 11
82.970500199327873
 21
5.729499816894581
 31
0.0
  0
LINE
  5
20D
100
AcDbEntity
  8
0
  6
CONTINUOUS
 62
               2
100
AcDbLine
 10
70.0
 20
3.2705001831054332
 30
0.0
 11
69.531479939404718
 21
3.0000000000000071
 31
0.0
  0
LINE
  5
20E
100
AcDbEntity
  8
0
  6
CONTINUOUS
 62
               2
100
AcDbLine
 10
70.0
 20
3.2705001831055185
 30
0.0
 11
71.0
 21
3.2705001831055185
 31
0.0
  0
LINE
  5
20F
100
AcDbEntity
  8
0
  6
CONTINUOUS
 62
               2
100
AcDbLine
 10
70.0
 20
5.729499816894581
 30
0.0
 11
69.531479939404718
 21
6.0000000000000071
 31
0.0
  0
LINE
  5
210
100
AcDbEntity
  8
0
  6
CONTINUOUS
 62
               2
100
AcDbLine
 10
70.0
 20
5.729499816894581
 30
0.0
 11
71.0
 21
5.729499816894581
 31
0.0
  0
LINE
  5
211
100
AcDbEntity
  8
0
  6
CONTINUOUS
 62
               7
100
AcDbLine
 10
70.0
 20
6.0000000000000071
 30
0.0
 11
70.0
 21
3.0000000000000071
 31
0.0
  0
LINE
  5
212
100
AcDbEntity
  8
0
  6
CONTINUOUS
 62
               7
100
AcDbLine
 10
53.99999997585607
 20
0.1999999999999993
 30
0.0
 11
61.0
 21
0.1999999999999993
 31
0.0
  0
LINE
  5
213
100
AcDbEntity
  8
0
  6
CONTINUOUS
 62
               7
100
AcDbLine
 10
55.0
 20
9.0
 30
0.0
 11
61.0
 21
9.0
 31
0.0
  0
LINE
  5
214
100
AcDbEntity
  8
0
  6
CONTINUOUS
 62
               7
100
AcDbLine
 10
61.0
 20
9.0
 30
0.0
 11
61.0
 21
0.2000000000000028
 31
0.0
  0
LINE
  5
215
100
AcDbEntity
  8
0
  6
CONTINUOUS
 62
               7
100
AcDbLine
 10
74.499999975856085
 20
1.0358983848622429
 30
0.0
 11
78.035898384862222
 21
1.0358983848622429
 31
0.0
  0
LINE
  5
216
100
AcDbEntity
  8
0
  6
CONTINUOUS
 62
               7
100
AcDbLine
 10
74.499999975856085
 20
2.7679491924311392
 30
0.0
 11
78.035898384862222
 21
2.7679491924311392
 31
0.0
  0
LINE
  5
217
100
AcDbEntity
  8
0
  6
CONTINUOUS
 62
               7
100
AcDbLine
 10
78.499999999999986
 20
1.5000000000000071
 30
0.0
 11
78.035898384862222
 21
1.0358983848622429
 31
0.0
  0
LINE
  5
218
100
AcDbEntity
  8
0
  6
CONTINUOUS
 62
               7
100
AcDbLine
 10
78.499999999999986
 20
7.5000000000000071
 30
0.0
 11
78.035898384862222
 21
7.9641016151377713
 31
0.0
  0
LINE
  5
219
100
AcDbEntity
  8
0
  6
CONTINUOUS
 62
               7
100
AcDbLine
 10
71.0
 20
1.6000000000000014
 30
0.0
 11
71.0
 21
7.4000000000000128
 31
0.0
  0
LINE
  5
21A
100
AcDbEntity
  8
0
  6
CONTINUOUS
 62
               7
100
AcDbLine
 10
74.499999999999986
 20
1.0358983848622572
 30
0.0
 11
74.499999999999986
 21
7.9641016151377713
 31
0.0
  0
LINE
  5
21B
100
AcDbEntity
  8
0
  6
CONTINUOUS
 62
               7
100
AcDbLine
 10
78.499999999999986
 20
1.5000000000000071
 30
0.0
 11
78.499999999999986
 21
7.5000000000000071
 31
0.0
  0
LINE
  5
21C
100
AcDbEntity
  8
0
  6
CONTINUOUS
 62
               7
100
AcDbLine
 10
82.999999999999986
 20
3.3000000000000043
 30
0.0
 11
82.999999999999986
 21
5.7000000000000099
 31
0.0
  0
LINE
  5
21D
100
AcDbEntity
  8
0
  6
CONTINUOUS
 62
               7
100
AcDbLine
 10
82.700000000000003
 20
3.0000000000000036
 30
0.0
 11
82.999999999999986
 21
3.3000000000000043
 31
0.0
  0
LINE
  5
21E
100
AcDbEntity
  8
0
  6
CONTINUOUS
 62
               7
100
AcDbLine
 10
82.700000000000003
 20
6.0000000000000036
 30
0.0
 11
82.999999999999986
 21
5.7000000000000099
 31
0.0
  0
LINE
  5
21F
100
AcDbEntity
  8
0
  6
CONTINUOUS
 62
               7
100
AcDbLine
 10
80.899999999999991
 20
7.2499999355027782
 30
0.0
 11
80.899999999999991
 21
1.750000064497236
 31
0.0
  0
LINE
  5
220
100
AcDbEntity
  8
0
  6
CONTINUOUS
 62
               7
100
AcDbLine
 10
71.0
 20
1.6000000000000014
 30
0.0
 11
74.499999999999986
 21
1.6000000000000014
 31
0.0
  0
LINE
  5
221
100
AcDbEntity
  8
0
  6
CONTINUOUS
 62
               7
100
AcDbLine
 10
71.0
 20
7.4000000000000128
 30
0.0
 11
74.499999999999986
 21
7.4000000000000128
 31
0.0
  0
LINE
  5
222
100
AcDbEntity
  8
0
  6
CONTINUOUS
 62
               7
100
AcDbLine
 10
74.499999975856085
 20
7.9641016151377713
 30
0.0
 11
78.035898384862222
 21
7.9641016151377713
 31
0.0
  0
LINE
  5
223
100
AcDbEntity
  8
0
  6
CONTINUOUS
 62
               7
100
AcDbLine
 10
74.499999975856085
 20
6.232050807568875
 30
0.0
 11
78.035898384862222
 21
6.232050807568875
 31
0.0
  0
LINE
  5
224
100
AcDbEntity
  8
0
  6
CONTINUOUS
 62
               7
100
AcDbLine
 10
80.654379869700634
 20
1.3245735194570685
 30
0.0
 11
78.716160837589555
 21
1.3245735194570685
 31
0.0
  0
LINE
  5
225
100
AcDbEntity
  8
0
  6
CONTINUOUS
 62
               7
100
AcDbLine
 10
80.899999999999991
 20
1.750000064497236
 30
0.0
 11
80.654379869700634
 21
1.3245735194570685
 31
0.0
  0
LINE
  5
226
100
AcDbEntity
  8
0
  6
CONTINUOUS
 62
               7
100
AcDbLine
 10
80.654379869700634
 20
2.9122867597285378
 30
0.0
 11
78.745620130299343
 21
2.9122867597285378
 31
0.0
  0
LINE
  5
227
100
AcDbEntity
  8
0
  6
CONTINUOUS
 62
               7
100
AcDbLine
 10
80.654379869700634
 20
7.6754264805429457
 30
0.0
 11
78.716160837589555
 21
7.6754264805429457
 31
0.0
  0
LINE
  5
228
100
AcDbEntity
  8
0
  6
CONTINUOUS
 62
               7
100
AcDbLine
 10
80.899999999999991
 20
7.2499999355027782
 30
0.0
 11
80.654379869700634
 21
7.6754264805429457
 31
0.0
  0
LINE
  5
229
100
AcDbEntity
  8
0
  6
CONTINUOUS
 62
               7
100
AcDbLine
 10
80.654379869700634
 20
6.0877132402714764
 30
0.0
 11
78.745620130299343
 21
6.0877132402714764
 31
0.0
  0
LINE
  5
22A
100
AcDbEntity
  8
0
  6
CONTINUOUS
 62
               7
100
AcDbLine
 10
78.499999999999986
 20
1.750000064497236
 30
0.0
 11
78.745620130299343
 21
1.3245735194570685
 31
0.0
  0
LINE
  5
22B
100
AcDbEntity
  8
0
  6
CONTINUOUS
 62
               7
100
AcDbLine
 10
78.499999999999986
 20
7.2499999355027782
 30
0.0
 11
78.745620130299343
 21
7.6754264805429457
 31
0.0
  0
SPLINE
  5
22C
100
AcDbEntity
  8
0
  6
CONTINUOUS
 62
               7
100
AcDbSpline
210
0.0
220
0.0
230
1.0
 70
               0
 71
               3
 72
               0
 73
               0
 74
               5
 44
0.000001
 12
0.4723474904831554
 22
-0.8814124166553733
 32
0.0
 13
-0.4723474904831553
 23
-0.8814124166553734
 33
0.0
 11
78.035898384862222
 21
6.232050807568875
 31
0.0
 11
78.373822986007937
 21
5.3944401475895134
 31
0.0
 11
78.499999999999986
 21
4.5000000000000071
 31
0.0
 11
78.373822986007937
 21
3.6055598524105008
 31
0.0
 11
78.035898384862222
 21
2.7679491924311392
 31
0.0
  0
SPLINE
  5
22D
100
AcDbEntity
  8
0
  6
CONTINUOUS
 62
               7
100
AcDbSpline
210
0.0
220
0.0
230
1.0
 70
               0
 71
               3
 72
               0
 73
               0
 74
               5
 44
0.000001
 12
0.7311721974753298
 22
0.6821929475149222
 32
0.0
 13
-0.7311721974753295
 23
0.6821929475149225
 33
0.0
 11
78.035898384862222
 21
1.0358983848622429
 31
0.0
 11
78.35775018762773
 21
1.4322095272864044
 31
0.0
 11
78.499999999999986
 21
1.9019237886466911
 31
0.0
 11
78.35775018762773
 21
2.3716380500069776
 31
0.0
 11
78.035898384862222
 21
2.7679491924311392
 31
0.0
  0
SPLINE
  5
22E
100
AcDbEntity
  8
0
  6
CONTINUOUS
 62
               7
100
AcDbSpline
210
0.0
220
0.0
230
1.0
 70
               0
 71
               3
 72
               0
 73
               0
 74
               5
 44
0.000001
 12
0.7311721974753298
 22
-0.6821929475149222
 32
0.0
 13
-0.7311721974753295
 23
-0.6821929475149225
 33
0.0
 11
78.035898384862222
 21
7.9641016151377713
 31
0.0
 11
78.35775018762773
 21
7.5677904727136101
 31
0.0
 11
78.499999999999986
 21
7.0980762113533231
 31
0.0
 11
78.35775018762773
 21
6.6283619499930362
 31
0.0
 11
78.035898384862222
 21
6.232050807568875
 31
0.0
  0
SPLINE
  5
22F
100
AcDbEntity
  8
0
  6
CONTINUOUS
 62
               7
100
AcDbSpline
210
0.0
220
0.0
230
1.0
 70
               0
 71
               3
 72
               0
 73
               0
 74
               5
 44
0.000001
 12
0.5262037598043649
 22
0.8503585144912411
 32
0.0
 13
-0.5262037598043637
 23
0.8503585144912418
 33
0.0
 11
80.654379869700634
 21
1.3245735194570685
 31
0.0
 11
80.831848423588909
 21
1.7051479526636197
 31
0.0
 11
80.899999999999991
 21
2.118430139592796
 31
0.0
 11
80.831848423588909
 21
2.5317123265219794
 31
0.0
 11
80.654379869700634
 21
2.9122867597285378
 31
0.0
  0
SPLINE
  5
230
100
AcDbEntity
  8
0
  6
CONTINUOUS
 62
               7
100
AcDbSpline
210
0.0
220
0.0
230
1.0
 70
               0
 71
               3
 72
               0
 73
               0
 74
               5
 44
0.000001
 12
0.5262037598043643
 22
-0.8503585144912415
 32
0.0
 13
-0.5262037598043634
 23
-0.850358514491242
 33
0.0
 11
80.654379869700634
 21
7.6754264805429457
 31
0.0
 11
80.831848423588909
 21
7.2948520473363869
 31
0.0
 11
80.899999999999991
 21
6.881569860407204
 31
0.0
 11
80.831848423588909
 21
6.4682876734780272
 31
0.0
 11
80.654379869700634
 21
6.0877132402714764
 31
0.0
  0
SPLINE
  5
231
100
AcDbEntity
  8
0
  6
CONTINUOUS
 62
               7
100
AcDbSpline
210
0.0
220
0.0
230
1.0
 70
               0
 71
               3
 72
               0
 73
               0
 74
               5
 44
0.000001
 12
0.2955767691118969
 22
0.9553189904745809
 32
0.0
 13
-0.2955767691118964
 23
0.955318990474581
 33
0.0
 11
80.654379869700634
 21
2.9122867597285378
 31
0.0
 11
80.836549128258667
 21
3.6962249971726848
 31
0.0
 11
80.899999999999991
 21
4.5000000000000071
 31
0.0
 11
80.836549128258667
 21
5.3037750028273294
 31
0.0
 11
80.654379869700634
 21
6.0877132402714764
 31
0.0
  0
SPLINE
  5
232
100
AcDbEntity
  8
0
  6
CONTINUOUS
 62
               7
100
AcDbSpline
210
0.0
220
0.0
230
1.0
 70
               0
 71
               3
 72
               0
 73
               0
 74
               5
 44
0.000001
 12
-0.5262037598043642
 22
0.8503585144912416
 32
0.0
 13
0.5262037598043635
 23
0.8503585144912419
 33
0.0
 11
78.745620130299343
 21
1.3245735194570685
 31
0.0
 11
78.568151576411069
 21
1.70514795266362
 31
0.0
 11
78.499999999999986
 21
2.118430139592796
 31
0.0
 11
78.568151576411069
 21
2.5317123265219794
 31
0.0
 11
78.745620130299343
 21
2.9122867597285382
 31
0.0
  0
SPLINE
  5
233
100
AcDbEntity
  8
0
  6
CONTINUOUS
 62
               7
100
AcDbSpline
210
0.0
220
0.0
230
1.0
 70
               0
 71
               3
 72
               0
 73
               0
 74
               5
 44
0.000001
 12
-0.2955767691118962
 22
0.9553189904745811
 32
0.0
 13
0.2955767691118969
 23
0.9553189904745809
 33
0.0
 11
78.745620130299343
 21
2.9122867597285378
 31
0.0
 11
78.56345087174131
 21
3.6962249971726848
 31
0.0
 11
78.499999999999986
 21
4.5000000000000071
 31
0.0
 11
78.56345087174131
 21
5.3037750028273294
 31
0.0
 11
78.745620130299343
 21
6.0877132402714764
 31
0.0
  0
SPLINE
  5
234
100
AcDbEntity
  8
0
  6
CONTINUOUS
 62
               7
100
AcDbSpline
210
0.0
220
0.0
230
1.0
 70
               0
 71
               3
 72
               0
 73
               0
 74
               5
 44
0.000001
 12
-0.5262037598043649
 22
-0.8503585144912411
 32
0.0
 13
0.5262037598043636
 23
-0.8503585144912418
 33
0.0
 11
78.745620130299343
 21
7.6754264805429457
 31
0.0
 11
78.568151576411069
 21
7.294852047336394
 31
0.0
 11
78.499999999999986
 21
6.8815698604072182
 31
0.0
 11
78.568151576411069
 21
6.4682876734780352
 31
0.0
 11
78.745620130299343
 21
6.0877132402714764
 31
0.0
  0
LINE
  5
235
100
AcDbEntity
  8
0
  6
CONTINUOUS
 62
               7
100
AcDbLine
 10
62.200000000000003
 20
3.0000000000000036
 30
0.0
 11
71.0
 21
3.0000000000000036
 31
0.0
  0
LINE
  5
236
100
AcDbEntity
  8
0
  6
CONTINUOUS
 62
               7
100
AcDbLine
 10
61.0
 20
6.0000000000000036
 30
0.0
 11
71.0
 21
6.0000000000000036
 31
0.0
  0
LINE
  5
237
100
AcDbEntity
  8
0
  6
CONTINUOUS
 62
               7
100
AcDbLine
 10
61.899999982139235
 20
5.25
 30
0.0
 11
61.0
 21
5.25
 31
0.0
  0
LINE
  5
238
100
AcDbEntity
  8
0
  6
CONTINUOUS
 62
               7
100
AcDbLine
 10
61.899999982139235
 20
0.75
 30
0.0
 11
61.0
 21
0.75
 31
0.0
  0
LINE
  5
239
100
AcDbEntity
  8
0
  6
CONTINUOUS
 62
               7
100
AcDbLine
 10
62.200000000000003
 20
1.0499999970304259
 30
0.0
 11
62.200000000000003
 21
4.949999973188568
 31
0.0
  0
LINE
  5
23A
100
AcDbEntity
  8
0
  6
CONTINUOUS
 62
               7
100
AcDbLine
 10
61.899999982139235
 20
5.25
 30
0.0
 11
62.200000000000017
 21
4.949999982139218
 31
0.0
  0
LINE
  5
23B
100
AcDbEntity
  8
0
  6
CONTINUOUS
 62
               7
100
AcDbLine
 10
62.200000000000003
 20
1.0499999970304259
 30
0.0
 11
61.900000002969549
 21
0.75
 31
0.0
  0
LINE
  5
23C
100
AcDbEntity
  8
0
  6
CONTINUOUS
 62
               7
100
AcDbLine
 10
61.899999982139235
 20
5.25
 30
0.0
 11
61.899999982139235
 21
0.75
 31
0.0
  0
LINE
  5
23D
100
AcDbEntity
  8
0
  6
CONTINUOUS
 62
               2
100
AcDbLine
 10
57.11780965045935
 20
4.5000000000000071
 30
0.0
 11
85.000000002537263
 21
4.5000000000000036
 31
0.0
  0
LINE
  5
23E
100
AcDbEntity
  8
0
  6
CONTINUOUS
 62
               7
100
AcDbLine
 10
54.5
 20
11.699999999999996
 30
0.0
 11
54.5
 21
8.1999999999999957
 31
0.0
  0
ARC
  5
23F
100
AcDbEntity
  8
0
  6
CONTINUOUS
 62
               7
100
AcDbCircle
 10
54.700000000000003
 20
10.200000000000003
 30
0.0
 40
0.3
100
AcDbArc
 50
0.0
 51
90.0
  0
ARC
  5
240
100
AcDbEntity
  8
0
  6
CONTINUOUS
 62
               7
100
AcDbCircle
 10
54.700000000000003
 20
8.7999999999999972
 30
0.0
 40
0.3
100
AcDbArc
 50
270.0
 51
0.0
  0
LINE
  5
241
100
AcDbEntity
  8
0
  6
CONTINUOUS
 62
               7
100
AcDbLine
 10
54.5
 20
10.5
 30
0.0
 11
54.700000000000003
 21
10.5
 31
0.0
  0
LINE
  5
242
100
AcDbEntity
  8
0
  6
CONTINUOUS
 62
               7
100
AcDbLine
 10
54.5
 20
8.5
 30
0.0
 11
54.700000000000003
 21
8.5
 31
0.0
  0
LINE
  5
243
100
AcDbEntity
  8
0
  6
CONTINUOUS
 62
               7
100
AcDbLine
 10
55.0
 20
10.200000000000003
 30
0.0
 11
55.0
 21
8.7999999999999972
 31
0.0
  0
LINE
  5
244
100
AcDbEntity
  8
0
  6
CONTINUOUS
 62
               7
100
AcDbLine
 10
54.000000001754415
 20
8.1999999999999957
 30
0.0
 11
54.500000001754415
 21
8.1999999999999957
 31
0.0
  0
LINE
  5
245
100
AcDbEntity
  8
0
  6
CONTINUOUS
 62
               7
100
AcDbLine
 10
54.000000001754415
 20
11.699999999999996
 30
0.0
 11
54.500000001754415
 21
11.699999999999996
 31
0.0
  0
LINE
  5
246
100
AcDbEntity
  8
0
  6
CONTINUOUS
 62
               7
100
AcDbLine
 10
15.0
 20
11.5
 30
0.0
 11
54.0
 21
11.5
 31
0.0
  0
LINE
  5
247
100
AcDbEntity
  8
0
  6
CONTINUOUS
 62
               7
100
AcDbLine
 10
39.5
 20
5.0
 30
0.0
 11
44.5
 21
5.0
 31
0.0
  0
LINE
  5
248
100
AcDbEntity
  8
0
  6
CONTINUOUS
 62
               7
100
AcDbLine
 10
39.5
 20
7.5000000136906095
 30
0.0
 11
39.5
 21
5.0
 31
0.0
  0
LINE
  5
249
100
AcDbEntity
  8
0
  6
CONTINUOUS
 62
               7
100
AcDbLine
 10
44.5
 20
7.5000000136906095
 30
0.0
 11
44.5
 21
5.0
 31
0.0
  0
LINE
  5
24A
100
AcDbEntity
  8
0
  6
CONTINUOUS
 62
               7
100
AcDbLine
 10
23.5
 20
5.0
 30
0.0
 11
28.5
 21
5.0
 31
0.0
  0
LINE
  5
24B
100
AcDbEntity
  8
0
  6
CONTINUOUS
 62
               7
100
AcDbLine
 10
23.5
 20
7.5000000136906095
 30
0.0
 11
23.5
 21
5.0
 31
0.0
  0
LINE
  5
24C
100
AcDbEntity
  8
0
  6
CONTINUOUS
 62
               7
100
AcDbLine
 10
28.5
 20
7.5000000136906095
 30
0.0
 11
28.5
 21
5.0
 31
0.0
  0
LINE
  5
24D
100
AcDbEntity
  8
0
  6
CONTINUOUS
 62
               2
100
AcDbLine
 10
46.999999999999972
 20
2.0
 30
0.0
 11
46.999999999999972
 21
7.0
 31
0.0
  0
CIRCLE
  5
24E
100
AcDbEntity
  8
0
  6
CONTINUOUS
 62
               2
100
AcDbCircle
 10
46.999999999999972
 20
4.5
 30
0.0
 40
1.5
  0
LINE
  5
24F
100
AcDbEntity
  8
0
  6
CONTINUOUS
 62
               2
100
AcDbLine
 10
44.499999999999972
 20
4.5
 30
0.0
 11
49.499999999999943
 21
4.5
 31
0.0
  0
CIRCLE
  5
250
100
AcDbEntity
  8
0
  6
CONTINUOUS
 62
               7
100
AcDbCircle
 10
46.999999999999972
 20
4.5
 30
0.0
 40
1.2
  0
LINE
  5
251
100
AcDbEntity
  8
0
  6
CONTINUOUS
 62
               2
100
AcDbLine
 10
31.0
 20
2.0
 30
0.0
 11
31.0
 21
7.0
 31
0.0
  0
CIRCLE
  5
252
100
AcDbEntity
  8
0
  6
CONTINUOUS
 62
               2
100
AcDbCircle
 10
31.0
 20
4.5
 30
0.0
 40
1.5
  0
LINE
  5
253
100
AcDbEntity
  8
0
  6
CONTINUOUS
 62
               2
100
AcDbLine
 10
28.5
 20
4.5
 30
0.0
 11
33.499999999999972
 21
4.5
 31
0.0
  0
CIRCLE
  5
254
100
AcDbEntity
  8
0
  6
CONTINUOUS
 62
               7
100
AcDbCircle
 10
31.0
 20
4.5
 30
0.0
 40
1.2
  0
LINE
  5
255
100
AcDbEntity
  8
0
  6
CONTINUOUS
 62
               2
100
AcDbLine
 10
22.0
 20
1.1999999999999886
 30
0.0
 11
22.0
 21
5.1999999999999886
 31
0.0
  0
LINE
  5
256
100
AcDbEntity
  8
0
  6
CONTINUOUS
 62
               2
100
AcDbLine
 10
20.0
 20
3.1999999999999886
 30
0.0
 11
24.0
 21
3.1999999999999886
 31
0.0
  0
CIRCLE
  5
257
100
AcDbEntity
  8
0
  6
CONTINUOUS
 62
               2
100
AcDbCircle
 10
22.0
 20
3.1999999999999886
 30
0.0
 40
1.0
  0
CIRCLE
  5
258
100
AcDbEntity
  8
0
  6
CONTINUOUS
 62
               7
100
AcDbCircle
 10
22.0
 20
3.1999999999999886
 30
0.0
 40
0.8
  0
LINE
  5
259
100
AcDbEntity
  8
0
  6
CONTINUOUS
 62
               2
100
AcDbLine
 10
35.0
 20
7.9000000000000057
 30
0.0
 11
35.0
 21
11.900000000000006
 31
0.0
  0
LINE
  5
25A
100
AcDbEntity
  8
0
  6
CONTINUOUS
 62
               2
100
AcDbLine
 10
33.0
 20
9.9000000000000057
 30
0.0
 11
37.0
 21
9.9000000000000057
 31
0.0
  0
CIRCLE
  5
25B
100
AcDbEntity
  8
0
  6
CONTINUOUS
 62
               2
100
AcDbCircle
 10
35.0
 20
9.9000000000000057
 30
0.0
 40
1.0
  0
CIRCLE
  5
25C
100
AcDbEntity
  8
0
  6
CONTINUOUS
 62
               7
100
AcDbCircle
 10
35.0
 20
9.9000000000000057
 30
0.0
 40
0.8
  0
LINE
  5
25D
100
AcDbEntity
  8
0
  6
CONTINUOUS
 62
               2
100
AcDbLine
 10
49.0
 20
7.9000000000000057
 30
0.0
 11
49.0
 21
11.900000000000006
 31
0.0
  0
LINE
  5
25E
100
AcDbEntity
  8
0
  6
CONTINUOUS
 62
               2
100
AcDbLine
 10
47.0
 20
9.9000000000000057
 30
0.0
 11
51.0
 21
9.9000000000000057
 31
0.0
  0
CIRCLE
  5
25F
100
AcDbEntity
  8
0
  6
CONTINUOUS
 62
               2
100
AcDbCircle
 10
49.0
 20
9.9000000000000057
 30
0.0
 40
1.0
  0
CIRCLE
  5
260
100
AcDbEntity
  8
0
  6
CONTINUOUS
 62
               7
100
AcDbCircle
 10
49.0
 20
9.9000000000000057
 30
0.0
 40
0.8
  0
LINE
  5
261
100
AcDbEntity
  8
0
  6
CONTINUOUS
 62
               2
100
AcDbLine
 10
51.0
 20
1.1999999999999886
 30
0.0
 11
51.0
 21
5.1999999999999886
 31
0.0
  0
LINE
  5
262
100
AcDbEntity
  8
0
  6
CONTINUOUS
 62
               2
100
AcDbLine
 10
49.0
 20
3.1999999999999886
 30
0.0
 11
53.0
 21
3.1999999999999886
 31
0.0
  0
CIRCLE
  5
263
100
AcDbEntity
  8
0
  6
CONTINUOUS
 62
               2
100
AcDbCircle
 10
51.0
 20
3.1999999999999886
 30
0.0
 40
1.0
  0
CIRCLE
  5
264
100
AcDbEntity
  8
0
  6
CONTINUOUS
 62
               7
100
AcDbCircle
 10
51.0
 20
3.1999999999999886
 30
0.0
 40
0.8
  0
LINE
  5
265
100
AcDbEntity
  8
0
  6
CONTINUOUS
 62
               7
100
AcDbLine
 10
14.99999997585607
 20
8.0
 30
0.0
 11
14.99999997585607
 21
11.99999998630939
 31
0.0
  0
LINE
  5
266
100
AcDbEntity
  8
0
  6
CONTINUOUS
 62
               7
100
AcDbLine
 10
14.99999997585607
 20
8.0
 30
0.0
 11
54.0
 21
8.0
 31
0.0
  0
LINE
  5
267
100
AcDbEntity
  8
0
  6
CONTINUOUS
 62
               7
100
AcDbLine
 10
19.0
 20
0.0
 30
0.0
 11
19.0
 21
8.0
 31
0.0
  0
LINE
  5
268
100
AcDbEntity
  8
0
  6
CONTINUOUS
 62
               7
100
AcDbLine
 10
54.0
 20
0.0
 30
0.0
 11
54.0
 21
12.0
 31
0.0
  0
LINE
  5
269
100
AcDbEntity
  8
0
  6
CONTINUOUS
 62
               7
100
AcDbLine
 10
15.0
 20
12.0
 30
0.0
 11
54.0
 21
12.0
 31
0.0
  0
LINE
  5
26A
100
AcDbEntity
  8
0
  6
CONTINUOUS
 62
               7
100
AcDbLine
 10
19.0
 20
0.0
 30
0.0
 11
54.0
 21
0.0
 31
0.0
  0
LINE
  5
26B
100
AcDbEntity
  8
0
  6
CONTINUOUS
 62
               2
100
AcDbLine
 10
-1.9999999974627087
 20
5.0
 30
0.0
 11
2.0000000025372913
 21
5.0
 31
0.0
  0
LINE
  5
26C
100
AcDbEntity
  8
0
  6
CONTINUOUS
 62
               2
100
AcDbLine
 10
26.0
 20
1.5
 30
0.0
 11
26.0
 21
-1.5
 31
0.0
  0
LINE
  5
26D
100
AcDbEntity
  8
0
  6
CONTINUOUS
 62
               2
100
AcDbLine
 10
42.0
 20
1.5
 30
0.0
 11
42.0
 21
-1.5
 31
0.0
  0
LINE
  5
26E
100
AcDbEntity
  8
0
  6
PHANTOM
 62
               3
100
AcDbLine
 10
36.206590077900231
 20
6.3436786973210744
 30
0.0
 11
36.206590077900231
 21
-15.0
 31
0.0
  0
LINE
  5
26F
100
AcDbEntity
  8
0
  6
PHANTOM
 62
               3
100
AcDbLine
 10
32.236665265870172
 20
25.0
 30
0.0
 11
32.236665265870172
 21
6.3436786973210744
 31
0.0
  0
LINE
  5
270
100
AcDbEntity
  8
0
  6
PHANTOM
 62
               3
100
AcDbLine
 10
66.0
 20
-7.6305435498147745
 30
0.0
 11
66.0
 21
17.369456450185226
 31
0.0
  0
ENDBLK
  5
271
100
AcDbEntity
  8
0
100
AcDbBlockEnd
  0
BLOCK
  5
272
100
AcDbEntity
  8
0
100
AcDbBlockBegin
  2
MGAPG6-6
 70
               0
 10
0.0
 20
0.0
 30
0.0
  3
MGAPG6-6
  1

  0
LINE
  5
273
100
AcDbEntity
  8
0
  6
CONTINUOUS
 62
               7
100
AcDbLine
 10
0.0000000273479799
 20
10.0
 30
0.0
 11
54.0
 21
10.0
 31
0.0
  0
LINE
  5
274
100
AcDbEntity
  8
0
  6
CONTINUOUS
 62
               7
100
AcDbLine
 10
18.5
 20
3.3000000000000114
 30
0.0
 11
18.5
 21
1.5
 31
0.0
  0
LINE
  5
275
100
AcDbEntity
  8
0
  6
CONTINUOUS
 62
               7
100
AcDbLine
 10
18.0
 20
1.5
 30
0.0
 11
18.0
 21
2.2000000000000028
 31
0.0
  0
LINE
  5
276
100
AcDbEntity
  8
0
  6
CONTINUOUS
 62
               7
100
AcDbLine
 10
18.5
 20
3.3000000000000114
 30
0.0
 11
19.0
 21
3.3000000000000114
 31
0.0
  0
LINE
  5
277
100
AcDbEntity
  8
0
  6
CONTINUOUS
 62
               7
100
AcDbLine
 10
18.5
 20
2.5
 30
0.0
 11
18.300000000000011
 21
2.5
 31
0.0
  0
ARC
  5
278
100
AcDbEntity
  8
0
  6
CONTINUOUS
 62
               7
100
AcDbCircle
 10
18.300000000000011
 20
2.2000000000000028
 30
0.0
 40
0.3
100
AcDbArc
 50
90.0
 51
180.0
  0
LINE
  5
279
100
AcDbEntity
  8
0
  6
CONTINUOUS
 62
               7
100
AcDbLine
 10
18.5
 20
-1.5
 30
0.0
 11
18.5
 21
-3.2999999999999972
 31
0.0
  0
LINE
  5
27A
100
AcDbEntity
  8
0
  6
CONTINUOUS
 62
               7
100
AcDbLine
 10
18.0
 20
-2.2000000000000028
 30
0.0
 11
18.0
 21
-1.5
 31
0.0
  0
LINE
  5
27B
100
AcDbEntity
  8
0
  6
CONTINUOUS
 62
               7
100
AcDbLine
 10
18.5
 20
-3.2999999999999972
 30
0.0
 11
19.0
 21
-3.2999999999999972
 31
0.0
  0
ARC
  5
27C
100
AcDbEntity
  8
0
  6
CONTINUOUS
 62
               7
100
AcDbCircle
 10
18.300000000000011
 20
-2.2000000000000028
 30
0.0
 40
0.3
100
AcDbArc
 50
180.0
 51
270.0
  0
LINE
  5
27D
100
AcDbEntity
  8
0
  6
CONTINUOUS
 62
               7
100
AcDbLine
 10
18.5
 20
-2.5
 30
0.0
 11
18.300000000000011
 21
-2.5
 31
0.0
  0
LINE
  5
27E
100
AcDbEntity
  8
0
  6
CONTINUOUS
 62
               7
100
AcDbLine
 10
17.500000000000057
 20
1.5
 30
0.0
 11
19.0
 21
1.5
 31
0.0
  0
LINE
  5
27F
100
AcDbEntity
  8
0
  6
CONTINUOUS
 62
               7
100
AcDbLine
 10
17.500000000000057
 20
-1.5
 30
0.0
 11
19.0
 21
-1.5
 31
0.0
  0
LINE
  5
280
100
AcDbEntity
  8
0
  6
CONTINUOUS
 62
               7
100
AcDbLine
 10
14.99999997585607
 20
2.0
 30
0.0
 11
14.99999997585607
 21
3.0
 31
0.0
  0
LINE
  5
281
100
AcDbEntity
  8
0
  6
CONTINUOUS
 62
               7
100
AcDbLine
 10
14.99999997585607
 20
-2.0
 30
0.0
 11
14.99999997585607
 21
-3.0
 31
0.0
  0
LINE
  5
282
100
AcDbEntity
  8
0
  6
CONTINUOUS
 62
               7
100
AcDbLine
 10
14.99999997585607
 20
-3.0
 30
0.0
 11
15.99999997585607
 21
-3.0
 31
0.0
  0
LINE
  5
283
100
AcDbEntity
  8
0
  6
CONTINUOUS
 62
               7
100
AcDbLine
 10
14.99999997585607
 20
3.0
 30
0.0
 11
15.99999997585607
 21
3.0
 31
0.0
  0
LINE
  5
284
100
AcDbEntity
  8
0
  6
CONTINUOUS
 62
               7
100
AcDbLine
 10
8.9999999758560705
 20
-4.0
 30
0.0
 11
15.99999997585607
 21
-4.0
 31
0.0
  0
LINE
  5
285
100
AcDbEntity
  8
0
  6
CONTINUOUS
 62
               7
100
AcDbLine
 10
8.9999999758560705
 20
4.0
 30
0.0
 11
15.99999997585607
 21
4.0
 31
0.0
  0
LINE
  5
286
100
AcDbEntity
  8
0
  6
CONTINUOUS
 62
               7
100
AcDbLine
 10
11.300000000000097
 20
-2.0
 30
0.0
 11
15.500000000000099
 21
-2.0
 31
0.0
  0
LINE
  5
287
100
AcDbEntity
  8
0
  6
CONTINUOUS
 62
               7
100
AcDbLine
 10
11.300000000000097
 20
2.0
 30
0.0
 11
15.500000000000099
 21
2.0
 31
0.0
  0
LINE
  5
288
100
AcDbEntity
  8
0
  6
CONTINUOUS
 62
               7
100
AcDbLine
 10
11.300000000000097
 20
-2.5
 30
0.0
 11
9.8000000000000682
 21
-2.5
 31
0.0
  0
LINE
  5
289
100
AcDbEntity
  8
0
  6
CONTINUOUS
 62
               7
100
AcDbLine
 10
15.500000000000099
 20
-2.5
 30
0.0
 11
16.800000000000068
 21
-2.5
 31
0.0
  0
LINE
  5
28A
100
AcDbEntity
  8
0
  6
PHANTOM
 62
               2
100
AcDbLine
 10
9.9500000000000597
 20
-3.0
 30
0.0
 11
16.650000000000063
 21
-3.0
 31
0.0
  0
CIRCLE
  5
28B
100
AcDbEntity
  8
0
  6
CONTINUOUS
 62
               7
100
AcDbCircle
 10
16.650000000000077
 20
-2.8500000000000085
 30
0.0
 40
0.15
  0
LINE
  5
28C
100
AcDbEntity
  8
0
  6
PHANTOM
 62
               2
100
AcDbLine
 10
9.9500000000000597
 20
-2.7000000000000028
 30
0.0
 11
16.650000000000063
 21
-2.7000000000000028
 31
0.0
  0
CIRCLE
  5
28D
100
AcDbEntity
  8
0
  6
CONTINUOUS
 62
               7
100
AcDbCircle
 10
9.9500000000000597
 20
-2.8500000000000085
 30
0.0
 40
0.15
  0
LINE
  5
28E
100
AcDbEntity
  8
0
  6
CONTINUOUS
 62
               7
100
AcDbLine
 10
6.7999999999999972
 20
-2.0
 30
0.0
 11
9.0
 21
-2.0
 31
0.0
  0
LINE
  5
28F
100
AcDbEntity
  8
0
  6
CONTINUOUS
 62
               7
100
AcDbLine
 10
9.0
 20
-3.7000000000000028
 30
0.0
 11
9.8000000000000682
 21
-3.7000000000000028
 31
0.0
  0
LINE
  5
290
100
AcDbEntity
  8
0
  6
CONTINUOUS
 62
               7
100
AcDbLine
 10
9.0
 20
3.7000000000000028
 30
0.0
 11
9.8000000000000682
 21
3.7000000000000028
 31
0.0
  0
LINE
  5
291
100
AcDbEntity
  8
0
  6
PHANTOM
 62
               2
100
AcDbLine
 10
9.9500000000000597
 20
3.0
 30
0.0
 11
16.650000000000063
 21
3.0
 31
0.0
  0
LINE
  5
292
100
AcDbEntity
  8
0
  6
CONTINUOUS
 62
               7
100
AcDbLine
 10
15.500000000000099
 20
2.5
 30
0.0
 11
16.800000000000068
 21
2.5
 31
0.0
  0
LINE
  5
293
100
AcDbEntity
  8
0
  6
CONTINUOUS
 62
               7
100
AcDbLine
 10
16.800000000000068
 20
3.5
 30
0.0
 11
16.800000000000068
 21
-3.5
 31
0.0
  0
LINE
  5
294
100
AcDbEntity
  8
0
  6
CONTINUOUS
 62
               7
100
AcDbLine
 10
11.300000000000097
 20
2.5
 30
0.0
 11
11.300000000000097
 21
-2.5
 31
0.0
  0
LINE
  5
295
100
AcDbEntity
  8
0
  6
CONTINUOUS
 62
               7
100
AcDbLine
 10
11.300000000000097
 20
2.5
 30
0.0
 11
9.8000000000000682
 21
2.5
 31
0.0
  0
CIRCLE
  5
296
100
AcDbEntity
  8
0
  6
CONTINUOUS
 62
               7
100
AcDbCircle
 10
16.650000000000077
 20
2.8500000000000085
 30
0.0
 40
0.15
  0
CIRCLE
  5
297
100
AcDbEntity
  8
0
  6
CONTINUOUS
 62
               7
100
AcDbCircle
 10
9.9500000000000597
 20
2.8500000000000085
 30
0.0
 40
0.15
  0
LINE
  5
298
100
AcDbEntity
  8
0
  6
PHANTOM
 62
               2
100
AcDbLine
 10
9.9500000000000597
 20
2.7000000000000028
 30
0.0
 11
16.650000000000063
 21
2.7000000000000028
 31
0.0
  0
LINE
  5
299
100
AcDbEntity
  8
0
  6
CONTINUOUS
 62
               7
100
AcDbLine
 10
9.8000000000000682
 20
3.7000000000000028
 30
0.0
 11
9.8000000000000682
 21
-3.7000000000000028
 31
0.0
  0
LINE
  5
29A
100
AcDbEntity
  8
0
  6
CONTINUOUS
 62
               7
100
AcDbLine
 10
15.500000000000099
 20
2.5
 30
0.0
 11
15.500000000000099
 21
-2.5
 31
0.0
  0
LINE
  5
29B
100
AcDbEntity
  8
0
  6
CONTINUOUS
 62
               7
100
AcDbLine
 10
6.7999999999999972
 20
2.0
 30
0.0
 11
9.0
 21
2.0
 31
0.0
  0
LINE
  5
29C
100
AcDbEntity
  8
0
  6
CONTINUOUS
 62
               7
100
AcDbLine
 10
17.500000000000057
 20
3.2000000000000028
 30
0.0
 11
17.500000000000057
 21
-3.2000000000000028
 31
0.0
  0
LINE
  5
29D
100
AcDbEntity
  8
0
  6
CONTINUOUS
 62
               7
100
AcDbLine
 10
6.7999999999999972
 20
2.4999999999999858
 30
0.0
 11
9.0
 21
2.4999999999999858
 31
0.0
  0
LINE
  5
29E
100
AcDbEntity
  8
0
  6
CONTINUOUS
 62
               7
100
AcDbLine
 10
6.7999999999999972
 20
-2.5
 30
0.0
 11
9.0
 21
-2.5
 31
0.0
  0
LINE
  5
29F
100
AcDbEntity
  8
0
  6
CONTINUOUS
 62
               7
100
AcDbLine
 10
4.2999999999999972
 20
-3.7000000000000028
 30
0.0
 11
6.7999999999999972
 21
-3.7000000000000028
 31
0.0
  0
LINE
  5
2A0
100
AcDbEntity
  8
0
  6
CONTINUOUS
 62
               7
100
AcDbLine
 10
4.2999999999999972
 20
3.7000000000000028
 30
0.0
 11
6.7999999999999972
 21
3.7000000000000028
 31
0.0
  0
LINE
  5
2A1
100
AcDbEntity
  8
0
  6
CONTINUOUS
 62
               7
100
AcDbLine
 10
4.2999999999999972
 20
-3.7000000000000028
 30
0.0
 11
4.2999999999999972
 21
3.7000000000000028
 31
0.0
  0
LINE
  5
2A2
100
AcDbEntity
  8
0
  6
CONTINUOUS
 62
               7
100
AcDbLine
 10
6.7999999999999972
 20
-4.2000000000000028
 30
0.0
 11
6.7999999999999972
 21
4.2000000000000028
 31
0.0
  0
LINE
  5
2A3
100
AcDbEntity
  8
0
  6
CONTINUOUS
 62
               7
100
AcDbLine
 10
0.0
 20
-4.2000000000000028
 30
0.0
 11
6.7999999999999972
 21
-4.2000000000000028
 31
0.0
  0
LINE
  5
2A4
100
AcDbEntity
  8
0
  6
CONTINUOUS
 62
               7
100
AcDbLine
 10
0.0
 20
4.2000000000000028
 30
0.0
 11
6.7999999999999972
 21
4.2000000000000028
 31
0.0
  0
LINE
  5
2A5
100
AcDbEntity
  8
0
  6
CONTINUOUS
 62
               7
100
AcDbLine
 10
15.99999997585607
 20
3.4000000000000057
 30
0.0
 11
16.800000000000068
 21
3.4000000000000057
 31
0.0
  0
LINE
  5
2A6
100
AcDbEntity
  8
0
  6
CONTINUOUS
 62
               7
100
AcDbLine
 10
15.99999997585607
 20
-3.4000000000000057
 30
0.0
 11
16.800000000000068
 21
-3.4000000000000057
 31
0.0
  0
LINE
  5
2A7
100
AcDbEntity
  8
0
  6
CONTINUOUS
 62
               7
100
AcDbLine
 10
16.800000000000068
 20
3.5
 30
0.0
 11
17.300000000000054
 21
3.5
 31
0.0
  0
LINE
  5
2A8
100
AcDbEntity
  8
0
  6
CONTINUOUS
 62
               7
100
AcDbLine
 10
16.800000000000068
 20
-3.5
 30
0.0
 11
17.300000000000054
 21
-3.5
 31
0.0
  0
LINE
  5
2A9
100
AcDbEntity
  8
0
  6
CONTINUOUS
 62
               7
100
AcDbLine
 10
17.300000000000054
 20
3.2000000000000028
 30
0.0
 11
17.500000000000057
 21
3.2000000000000028
 31
0.0
  0
LINE
  5
2AA
100
AcDbEntity
  8
0
  6
CONTINUOUS
 62
               7
100
AcDbLine
 10
17.300000000000054
 20
-3.2000000000000028
 30
0.0
 11
17.500000000000057
 21
-3.2000000000000028
 31
0.0
  0
LINE
  5
2AB
100
AcDbEntity
  8
0
  6
CONTINUOUS
 62
               7
100
AcDbLine
 10
17.300000000000054
 20
3.5
 30
0.0
 11
17.300000000000054
 21
-3.5
 31
0.0
  0
LINE
  5
2AC
100
AcDbEntity
  8
0
  6
CONTINUOUS
 62
               7
100
AcDbLine
 10
17.300000000000054
 20
3.4000000000000057
 30
0.0
 11
19.0
 21
3.4000000000000057
 31
0.0
  0
LINE
  5
2AD
100
AcDbEntity
  8
0
  6
CONTINUOUS
 62
               7
100
AcDbLine
 10
17.300000000000054
 20
-3.4000000000000057
 30
0.0
 11
19.0
 21
-3.4000000000000057
 31
0.0
  0
LINE
  5
2AE
100
AcDbEntity
  8
0
  6
CONTINUOUS
 62
               2
100
AcDbLine
 10
17.500000000000057
 20
-1.2999999999999972
 30
0.0
 11
17.84641016151383
 21
-1.5
 31
0.0
  0
LINE
  5
2AF
100
AcDbEntity
  8
0
  6
CONTINUOUS
 62
               2
100
AcDbLine
 10
17.500000000000057
 20
1.2999999999999972
 30
0.0
 11
17.84641016151383
 21
1.5
 31
0.0
  0
LINE
  5
2B0
100
AcDbEntity
  8
0
  6
CONTINUOUS
 62
               7
100
AcDbLine
 10
15.99999997585607
 20
-3.0
 30
0.0
 11
15.99999997585607
 21
-10.0
 31
0.0
  0
LINE
  5
2B1
100
AcDbEntity
  8
0
  6
CONTINUOUS
 62
               7
100
AcDbLine
 10
82.700000000000003
 20
1.5
 30
0.0
 11
82.700000000000003
 21
-1.5
 31
0.0
  0
LINE
  5
2B2
100
AcDbEntity
  8
0
  6
CONTINUOUS
 62
               7
100
AcDbLine
 10
80.899999999999991
 20
-1.5
 30
0.0
 11
82.700000000000003
 21
-1.5
 31
0.0
  0
LINE
  5
2B3
100
AcDbEntity
  8
0
  6
CONTINUOUS
 62
               7
100
AcDbLine
 10
80.899999999999991
 20
1.5
 30
0.0
 11
82.700000000000003
 21
1.5
 31
0.0
  0
LINE
  5
2B4
100
AcDbEntity
  8
0
  6
CONTINUOUS
 62
               2
100
AcDbLine
 10
80.899999999999991
 20
-1.2294998168945739
 30
0.0
 11
82.970500199327901
 21
-1.2294998168945739
 31
0.0
  0
LINE
  5
2B5
100
AcDbEntity
  8
0
  6
CONTINUOUS
 62
               2
100
AcDbLine
 10
80.899999999999991
 20
1.2294998168945739
 30
0.0
 11
82.970500199327901
 21
1.2294998168945739
 31
0.0
  0
LINE
  5
2B6
100
AcDbEntity
  8
0
  6
CONTINUOUS
 62
               2
100
AcDbLine
 10
70.0
 20
-1.2294998168945739
 30
0.0
 11
69.531479939404718
 21
-1.5
 31
0.0
  0
LINE
  5
2B7
100
AcDbEntity
  8
0
  6
CONTINUOUS
 62
               2
100
AcDbLine
 10
70.0
 20
-1.2294998168944886
 30
0.0
 11
71.0
 21
-1.2294998168944886
 31
0.0
  0
LINE
  5
2B8
100
AcDbEntity
  8
0
  6
CONTINUOUS
 62
               2
100
AcDbLine
 10
70.0
 20
1.2294998168945739
 30
0.0
 11
69.531479939404718
 21
1.5
 31
0.0
  0
LINE
  5
2B9
100
AcDbEntity
  8
0
  6
CONTINUOUS
 62
               2
100
AcDbLine
 10
70.0
 20
1.2294998168945739
 30
0.0
 11
71.0
 21
1.2294998168945739
 31
0.0
  0
LINE
  5
2BA
100
AcDbEntity
  8
0
  6
CONTINUOUS
 62
               7
100
AcDbLine
 10
70.0
 20
1.5
 30
0.0
 11
70.0
 21
-1.5
 31
0.0
  0
LINE
  5
2BB
100
AcDbEntity
  8
0
  6
CONTINUOUS
 62
               7
100
AcDbLine
 10
61.0
 20
9.0
 30
0.0
 11
61.0
 21
-9.0
 31
0.0
  0
LINE
  5
2BC
100
AcDbEntity
  8
0
  6
CONTINUOUS
 62
               7
100
AcDbLine
 10
61.0
 20
1.5
 30
0.0
 11
71.0
 21
1.5
 31
0.0
  0
LINE
  5
2BD
100
AcDbEntity
  8
0
  6
CONTINUOUS
 62
               7
100
AcDbLine
 10
61.0
 20
-1.5
 30
0.0
 11
71.0
 21
-1.5
 31
0.0
  0
LINE
  5
2BE
100
AcDbEntity
  8
0
  6
CONTINUOUS
 62
               7
100
AcDbLine
 10
71.0
 20
-2.9000000000000057
 30
0.0
 11
74.500000000000014
 21
-2.9000000000000057
 31
0.0
  0
LINE
  5
2BF
100
AcDbEntity
  8
0
  6
CONTINUOUS
 62
               7
100
AcDbLine
 10
71.0
 20
2.9000000000000057
 30
0.0
 11
74.500000000000014
 21
2.9000000000000057
 31
0.0
  0
LINE
  5
2C0
100
AcDbEntity
  8
0
  6
CONTINUOUS
 62
               7
100
AcDbLine
 10
80.899999999999991
 20
-2.7499999355027711
 30
0.0
 11
80.899999999999991
 21
2.7499999355027711
 31
0.0
  0
LINE
  5
2C1
100
AcDbEntity
  8
0
  6
CONTINUOUS
 62
               7
100
AcDbLine
 10
78.500000000000014
 20
-2.7499999355027711
 30
0.0
 11
80.899999999999991
 21
-2.7499999355027711
 31
0.0
  0
LINE
  5
2C2
100
AcDbEntity
  8
0
  6
CONTINUOUS
 62
               7
100
AcDbLine
 10
78.499999994920458
 20
2.7499999267047457
 30
0.0
 11
80.900000005079548
 21
2.7499999267047457
 31
0.0
  0
LINE
  5
2C3
100
AcDbEntity
  8
0
  6
CONTINUOUS
 62
               7
100
AcDbLine
 10
82.700000000000003
 20
-1.5
 30
0.0
 11
83.000000000000014
 21
-1.2000000000000028
 31
0.0
  0
LINE
  5
2C4
100
AcDbEntity
  8
0
  6
CONTINUOUS
 62
               7
100
AcDbLine
 10
74.500000000000014
 20
-3.0
 30
0.0
 11
78.500000000000014
 21
-3.0
 31
0.0
  0
LINE
  5
2C5
100
AcDbEntity
  8
0
  6
CONTINUOUS
 62
               7
100
AcDbLine
 10
74.500000000000014
 20
3.0
 30
0.0
 11
78.500000000000014
 21
3.0
 31
0.0
  0
LINE
  5
2C6
100
AcDbEntity
  8
0
  6
CONTINUOUS
 62
               7
100
AcDbLine
 10
82.700000000000003
 20
1.5
 30
0.0
 11
83.000000000000014
 21
1.2000000000000028
 31
0.0
  0
LINE
  5
2C7
100
AcDbEntity
  8
0
  6
CONTINUOUS
 62
               7
100
AcDbLine
 10
83.000000000000014
 20
1.2000000000000028
 30
0.0
 11
83.000000000000014
 21
-1.2000000000000028
 31
0.0
  0
LINE
  5
2C8
100
AcDbEntity
  8
0
  6
CONTINUOUS
 62
               7
100
AcDbLine
 10
78.500000000000014
 20
3.0
 30
0.0
 11
78.500000000000014
 21
-3.0
 31
0.0
  0
LINE
  5
2C9
100
AcDbEntity
  8
0
  6
CONTINUOUS
 62
               7
100
AcDbLine
 10
74.500000000000014
 20
3.0
 30
0.0
 11
74.500000000000014
 21
-3.0
 31
0.0
  0
LINE
  5
2CA
100
AcDbEntity
  8
0
  6
CONTINUOUS
 62
               7
100
AcDbLine
 10
71.0
 20
2.9000000000000057
 30
0.0
 11
71.0
 21
-2.9000000000000057
 31
0.0
  0
LINE
  5
2CB
100
AcDbEntity
  8
0
  6
CONTINUOUS
 62
               7
100
AcDbLine
 10
78.745620126413073
 20
0.0
 30
0.0
 11
80.654379873586933
 21
0.0
 31
0.0
  0
LINE
  5
2CC
100
AcDbEntity
  8
0
  6
CONTINUOUS
 62
               7
100
AcDbLine
 10
78.035898334623326
 20
0.0
 30
0.0
 11
74.500000000000014
 21
0.0
 31
0.0
  0
LINE
  5
2CD
100
AcDbEntity
  8
0
  6
CONTINUOUS
 62
               7
100
AcDbLine
 10
61.899999982139235
 20
-3.25
 30
0.0
 11
61.0
 21
-3.25
 31
0.0
  0
LINE
  5
2CE
100
AcDbEntity
  8
0
  6
CONTINUOUS
 62
               7
100
AcDbLine
 10
61.899999982139235
 20
-7.75
 30
0.0
 11
61.0
 21
-7.75
 31
0.0
  0
LINE
  5
2CF
100
AcDbEntity
  8
0
  6
CONTINUOUS
 62
               7
100
AcDbLine
 10
62.200000000000003
 20
-7.4500000029695741
 30
0.0
 11
62.200000000000003
 21
-3.550000026811432
 31
0.0
  0
LINE
  5
2D0
100
AcDbEntity
  8
0
  6
CONTINUOUS
 62
               7
100
AcDbLine
 10
61.899999982139235
 20
-3.25
 30
0.0
 11
62.200000000000017
 21
-3.550000017860782
 31
0.0
  0
LINE
  5
2D1
100
AcDbEntity
  8
0
  6
CONTINUOUS
 62
               7
100
AcDbLine
 10
62.200000000000003
 20
-7.4500000029695741
 30
0.0
 11
61.900000002969549
 21
-7.75
 31
0.0
  0
LINE
  5
2D2
100
AcDbEntity
  8
0
  6
CONTINUOUS
 62
               7
100
AcDbLine
 10
61.899999982139235
 20
-3.25
 30
0.0
 11
61.899999982139235
 21
-7.75
 31
0.0
  0
LINE
  5
2D3
100
AcDbEntity
  8
0
  6
CONTINUOUS
 62
               7
100
AcDbLine
 10
61.899999982139235
 20
3.25
 30
0.0
 11
61.0
 21
3.25
 31
0.0
  0
LINE
  5
2D4
100
AcDbEntity
  8
0
  6
CONTINUOUS
 62
               7
100
AcDbLine
 10
61.899999982139235
 20
7.75
 30
0.0
 11
61.0
 21
7.75
 31
0.0
  0
LINE
  5
2D5
100
AcDbEntity
  8
0
  6
CONTINUOUS
 62
               7
100
AcDbLine
 10
62.200000000000003
 20
7.4500000029695741
 30
0.0
 11
62.200000000000003
 21
3.550000026811432
 31
0.0
  0
LINE
  5
2D6
100
AcDbEntity
  8
0
  6
CONTINUOUS
 62
               7
100
AcDbLine
 10
61.899999982139235
 20
3.25
 30
0.0
 11
62.200000000000017
 21
3.550000017860782
 31
0.0
  0
LINE
  5
2D7
100
AcDbEntity
  8
0
  6
CONTINUOUS
 62
               7
100
AcDbLine
 10
62.200000000000003
 20
7.4500000029695741
 30
0.0
 11
61.900000002969549
 21
7.75
 31
0.0
  0
LINE
  5
2D8
100
AcDbEntity
  8
0
  6
CONTINUOUS
 62
               7
100
AcDbLine
 10
61.899999982139235
 20
3.25
 30
0.0
 11
61.899999982139235
 21
7.75
 31
0.0
  0
LINE
  5
2D9
100
AcDbEntity
  8
0
  6
CONTINUOUS
 62
               7
100
AcDbLine
 10
54.0
 20
-9.0
 30
0.0
 11
61.0
 21
-9.0
 31
0.0
  0
LINE
  5
2DA
100
AcDbEntity
  8
0
  6
CONTINUOUS
 62
               7
100
AcDbLine
 10
54.0
 20
9.0
 30
0.0
 11
61.0
 21
9.0
 31
0.0
  0
SPLINE
  5
2DB
100
AcDbEntity
  8
0
  6
CONTINUOUS
 62
               7
100
AcDbSpline
210
0.0
220
0.0
230
1.0
 70
               0
 71
               3
 72
               0
 73
               0
 74
               5
 44
0.000001
 12
0.336438950205106
 22
-0.9417052791531362
 32
0.0
 13
-0.3364389502051063
 23
-0.9417052791531361
 33
0.0
 11
80.654379873586933
 21
2.7499999267047457
 31
0.0
 11
80.835930732166318
 21
2.073685899190592
 31
0.0
 11
80.900000002539755
 21
1.3749999633523657
 31
0.0
 11
80.835930732166318
 21
0.6763140275141468
 31
0.0
 11
80.654379873586933
 21
0.0000000000000004
 31
0.0
  0
SPLINE
  5
2DC
100
AcDbEntity
  8
0
  6
CONTINUOUS
 62
               7
100
AcDbSpline
210
0.0
220
0.0
230
1.0
 70
               0
 71
               3
 72
               0
 73
               0
 74
               5
 44
0.000001
 12
0.3364389461655017
 22
-0.9417052805963481
 32
0.0
 13
-0.3364389461655019
 23
-0.9417052805963481
 33
0.0
 11
80.654379873586933
 21
0.0
 31
0.0
 11
80.835930730354463
 21
-0.6763140299525832
 31
0.0
 11
80.899999999999991
 21
-1.3749999677513927
 31
0.0
 11
80.835930730354463
 21
-2.0736859055501951
 31
0.0
 11
80.654379873586933
 21
-2.7499999355027711
 31
0.0
  0
SPLINE
  5
2DD
100
AcDbEntity
  8
0
  6
CONTINUOUS
 62
               7
100
AcDbSpline
210
0.0
220
0.0
230
1.0
 70
               0
 71
               3
 72
               0
 73
               0
 74
               5
 44
0.000001
 12
-0.3364389461654975
 22
0.9417052805963496
 32
0.0
 13
0.3364389461654974
 23
0.9417052805963496
 33
0.0
 11
78.745620126413073
 21
-2.7499999355027711
 31
0.0
 11
78.564069269645543
 21
-2.0736859055501951
 31
0.0
 11
78.500000000000014
 21
-1.3749999677513927
 31
0.0
 11
78.564069269645543
 21
-0.6763140299525833
 31
0.0
 11
78.745620126413073
 21
0.0000000000000004
 31
0.0
  0
SPLINE
  5
2DE
100
AcDbEntity
  8
0
  6
CONTINUOUS
 62
               7
100
AcDbSpline
210
0.0
220
0.0
230
1.0
 70
               0
 71
               3
 72
               0
 73
               0
 74
               5
 44
0.000001
 12
-0.3364389502051061
 22
0.9417052791531362
 32
0.0
 13
0.3364389502051062
 23
0.9417052791531362
 33
0.0
 11
78.745620126413073
 21
0.0
 31
0.0
 11
78.564069267833673
 21
0.6763140275141466
 31
0.0
 11
78.499999997460222
 21
1.3749999633523657
 31
0.0
 11
78.564069267833673
 21
2.0736858991905915
 31
0.0
 11
78.745620126413073
 21
2.7499999267047452
 31
0.0
  0
SPLINE
  5
2DF
100
AcDbEntity
  8
0
  6
CONTINUOUS
 62
               7
100
AcDbSpline
210
0.0
220
0.0
230
1.0
 70
               0
 71
               3
 72
               0
 73
               0
 74
               5
 44
0.000001
 12
0.5262037277974933
 22
-0.8503585342971644
 32
0.0
 13
-0.5262037277974935
 23
-0.8503585342971642
 33
0.0
 11
78.035898334623326
 21
3.0
 31
0.0
 11
78.371226910332268
 21
2.2809008094174223
 31
0.0
 11
78.499999981082723
 21
1.5
 31
0.0
 11
78.371226910332268
 21
0.7190991905825779
 31
0.0
 11
78.035898334623326
 21
0.0
 31
0.0
  0
SPLINE
  5
2E0
100
AcDbEntity
  8
0
  6
CONTINUOUS
 62
               7
100
AcDbSpline
210
0.0
220
0.0
230
1.0
 70
               0
 71
               3
 72
               0
 73
               0
 74
               5
 44
0.000001
 12
0.5262037277974933
 22
0.8503585342971644
 32
0.0
 13
-0.5262037277974935
 23
0.8503585342971642
 33
0.0
 11
78.035898334623326
 21
-3.0
 31
0.0
 11
78.371226910332268
 21
-2.2809008094174223
 31
0.0
 11
78.499999981082723
 21
-1.5
 31
0.0
 11
78.371226910332268
 21
-0.7190991905825779
 31
0.0
 11
78.035898334623326
 21
0.0
 31
0.0
  0
LINE
  5
2E1
100
AcDbEntity
  8
0
  6
CONTINUOUS
 62
               7
100
AcDbLine
 10
0.0000000273479799
 20
-10.0
 30
0.0
 11
54.0
 21
-10.0
 31
0.0
  0
LINE
  5
2E2
100
AcDbEntity
  8
0
  6
CONTINUOUS
 62
               7
100
AcDbLine
 10
18.99999997585607
 20
-9.5
 30
0.0
 11
54.0
 21
-9.5
 31
0.0
  0
LINE
  5
2E3
100
AcDbEntity
  8
0
  6
CONTINUOUS
 62
               7
100
AcDbLine
 10
18.99999997585607
 20
9.5
 30
0.0
 11
54.0
 21
9.5
 31
0.0
  0
LINE
  5
2E4
100
AcDbEntity
  8
0
  6
CONTINUOUS
 62
               7
100
AcDbLine
 10
19.0
 20
9.5
 30
0.0
 11
19.0
 21
-9.4999999863093905
 31
0.0
  0
LINE
  5
2E5
100
AcDbEntity
  8
0
  6
CENTER
 62
               2
100
AcDbLine
 10
-4.0
 20
0.0
 30
0.0
 11
85.000000002537263
 21
0.0
 31
0.0
  0
LINE
  5
2E6
100
AcDbEntity
  8
0
  6
CONTINUOUS
 62
               2
100
AcDbLine
 10
36.5
 20
-7.0
 30
0.0
 11
31.5
 21
-7.0
 31
0.0
  0
CIRCLE
  5
2E7
100
AcDbEntity
  8
0
  6
CONTINUOUS
 62
               7
100
AcDbCircle
 10
34.0
 20
-7.0
 30
0.0
 40
1.5
  0
LINE
  5
2E8
100
AcDbEntity
  8
0
  6
CONTINUOUS
 62
               2
100
AcDbLine
 10
34.0
 20
-4.5
 30
0.0
 11
34.0
 21
-9.5
 31
0.0
  0
ARC
  5
2E9
100
AcDbEntity
  8
0
  6
CONTINUOUS
 62
               7
100
AcDbCircle
 10
34.0
 20
7.5
 30
0.0
 40
1.5
100
AcDbArc
 50
0.0
 51
180.0
  0
LINE
  5
2EA
100
AcDbEntity
  8
0
  6
CONTINUOUS
 62
               2
100
AcDbLine
 10
31.700000000000003
 20
7.0
 30
0.0
 11
36.299999999999997
 21
7.0
 31
0.0
  0
ARC
  5
2EB
100
AcDbEntity
  8
0
  6
CONTINUOUS
 62
               7
100
AcDbCircle
 10
34.0
 20
6.5
 30
0.0
 40
1.5
100
AcDbArc
 50
180.0
 51
0.0
  0
LINE
  5
2EC
100
AcDbEntity
  8
0
  6
CONTINUOUS
 62
               7
100
AcDbLine
 10
32.5
 20
6.5
 30
0.0
 11
32.5
 21
7.5
 31
0.0
  0
CIRCLE
  5
2ED
100
AcDbEntity
  8
0
  6
CONTINUOUS
 62
               7
100
AcDbCircle
 10
26.0
 20
7.0
 30
0.0
 40
1.25
  0
LINE
  5
2EE
100
AcDbEntity
  8
0
  6
CONTINUOUS
 62
               2
100
AcDbLine
 10
23.5
 20
7.0
 30
0.0
 11
28.499999999999972
 21
7.0
 31
0.0
  0
CIRCLE
  5
2EF
100
AcDbEntity
  8
0
  6
CONTINUOUS
 62
               2
100
AcDbCircle
 10
26.0
 20
7.0
 30
0.0
 40
1.5
  0
LINE
  5
2F0
100
AcDbEntity
  8
0
  6
CONTINUOUS
 62
               2
100
AcDbLine
 10
26.0
 20
9.5
 30
0.0
 11
26.0
 21
4.5
 31
0.0
  0
CIRCLE
  5
2F1
100
AcDbEntity
  8
0
  6
CONTINUOUS
 62
               7
100
AcDbCircle
 10
42.0
 20
7.0
 30
0.0
 40
1.25
  0
LINE
  5
2F2
100
AcDbEntity
  8
0
  6
CONTINUOUS
 62
               2
100
AcDbLine
 10
39.5
 20
7.0
 30
0.0
 11
44.499999999999972
 21
7.0
 31
0.0
  0
CIRCLE
  5
2F3
100
AcDbEntity
  8
0
  6
CONTINUOUS
 62
               2
100
AcDbCircle
 10
42.0
 20
7.0
 30
0.0
 40
1.5
  0
LINE
  5
2F4
100
AcDbEntity
  8
0
  6
CONTINUOUS
 62
               2
100
AcDbLine
 10
42.0
 20
9.5
 30
0.0
 11
42.0
 21
4.5
 31
0.0
  0
CIRCLE
  5
2F5
100
AcDbEntity
  8
0
  6
CONTINUOUS
 62
               7
100
AcDbCircle
 10
26.0
 20
-7.0
 30
0.0
 40
1.25
  0
LINE
  5
2F6
100
AcDbEntity
  8
0
  6
CONTINUOUS
 62
               2
100
AcDbLine
 10
23.5
 20
-7.0
 30
0.0
 11
28.499999999999972
 21
-7.0
 31
0.0
  0
CIRCLE
  5
2F7
100
AcDbEntity
  8
0
  6
CONTINUOUS
 62
               2
100
AcDbCircle
 10
26.0
 20
-7.0
 30
0.0
 40
1.5
  0
LINE
  5
2F8
100
AcDbEntity
  8
0
  6
CONTINUOUS
 62
               2
100
AcDbLine
 10
26.0
 20
-4.5
 30
0.0
 11
26.0
 21
-9.5
 31
0.0
  0
CIRCLE
  5
2F9
100
AcDbEntity
  8
0
  6
CONTINUOUS
 62
               7
100
AcDbCircle
 10
42.0
 20
-7.0
 30
0.0
 40
1.25
  0
LINE
  5
2FA
100
AcDbEntity
  8
0
  6
CONTINUOUS
 62
               2
100
AcDbLine
 10
39.5
 20
-7.0
 30
0.0
 11
44.499999999999972
 21
-7.0
 31
0.0
  0
CIRCLE
  5
2FB
100
AcDbEntity
  8
0
  6
CONTINUOUS
 62
               2
100
AcDbCircle
 10
42.0
 20
-7.0
 30
0.0
 40
1.5
  0
LINE
  5
2FC
100
AcDbEntity
  8
0
  6
CONTINUOUS
 62
               2
100
AcDbLine
 10
42.0
 20
-4.5
 30
0.0
 11
42.0
 21
-9.5
 31
0.0
  0
LINE
  5
2FD
100
AcDbEntity
  8
0
  6
CONTINUOUS
 62
               7
100
AcDbLine
 10
19.0
 20
-2.7000000000000028
 30
0.0
 11
54.0
 21
-2.7000000000000028
 31
0.0
  0
LINE
  5
2FE
100
AcDbEntity
  8
0
  6
CONTINUOUS
 62
               7
100
AcDbLine
 10
19.0
 20
-2.4000000000000057
 30
0.0
 11
54.0
 21
-2.4000000000000057
 31
0.0
  0
LINE
  5
2FF
100
AcDbEntity
  8
0
  6
CONTINUOUS
 62
               7
100
AcDbLine
 10
19.0
 20
2.7000000000000028
 30
0.0
 11
54.0
 21
2.7000000000000028
 31
0.0
  0
LINE
  5
300
100
AcDbEntity
  8
0
  6
CONTINUOUS
 62
               7
100
AcDbLine
 10
19.0
 20
2.4000000000000057
 30
0.0
 11
54.0
 21
2.4000000000000057
 31
0.0
  0
LINE
  5
301
100
AcDbEntity
  8
0
  6
CONTINUOUS
 62
               2
100
AcDbLine
 10
-1.9999999974627087
 20
6.5
 30
0.0
 11
2.0000000025372913
 21
6.5
 31
0.0
  0
LINE
  5
302
100
AcDbEntity
  8
0
  6
CONTINUOUS
 62
               2
100
AcDbLine
 10
-1.9999999974627087
 20
-6.5
 30
0.0
 11
2.0000000025372913
 21
-6.5
 31
0.0
  0
LINE
  5
303
100
AcDbEntity
  8
0
  6
CONTINUOUS
 62
               7
100
AcDbLine
 10
35.5
 20
7.5
 30
0.0
 11
35.5
 21
6.5
 31
0.0
  0
LINE
  5
304
100
AcDbEntity
  8
0
  6
CONTINUOUS
 62
               2
100
AcDbLine
 10
34.0
 20
9.8000000256115385
 30
0.0
 11
34.0
 21
4.2000000017696806
 31
0.0
  0
LINE
  5
305
100
AcDbEntity
  8
0
  6
CONTINUOUS
 62
               7
100
AcDbLine
 10
54.0
 20
10.0
 30
0.0
 11
54.0
 21
-10.0
 31
0.0
  0
LINE
  5
306
100
AcDbEntity
  8
0
  6
CONTINUOUS
 62
               7
100
AcDbLine
 10
0.0
 20
10.00000001369061
 30
0.0
 11
0.0
 21
-9.9999999863093905
 31
0.0
  0
LINE
  5
307
100
AcDbEntity
  8
0
  6
CONTINUOUS
 62
               7
100
AcDbLine
 10
15.99999997585607
 20
3.0
 30
0.0
 11
15.99999997585607
 21
10.0
 31
0.0
  0
LINE
  5
308
100
AcDbEntity
  8
0
  6
CONTINUOUS
 62
               7
100
AcDbLine
 10
9.0
 20
-10.0
 30
0.0
 11
9.0
 21
10.0
 31
0.0
  0
LINE
  5
309
100
AcDbEntity
  8
0
  6
PHANTOM
 62
               3
100
AcDbLine
 10
38.0
 20
25.0
 30
0.0
 11
38.0
 21
-25.0
 31
0.0
  0
LINE
  5
30A
100
AcDbEntity
  8
0
  6
PHANTOM
 62
               3
100
AcDbLine
 10
66.000000005074781
 20
-14.130543549814774
 30
0.0
 11
66.000000005074781
 21
15.869456450185226
 31
0.0
  0
ENDBLK
  5
30B
100
AcDbEntity
  8
0
100
AcDbBlockEnd
  0
ENDSEC
  0
SECTION
  2
ENTITIES
  0
INSERT
  5
30C
100
AcDbEntity
  8
0
  6
ByBlock
100
AcDbBlockReference
  2
MGAPG6-6
 10
-30.0
 20
-70.0
 30
0.0
  0
INSERT
  5
30D
100
AcDbEntity
  8
0
  6
ByBlock
100
AcDbBlockReference
  2
MGAPG6-5
 10
-30.0
 20
-30.0
 30
0.0
  0
INSERT
  5
30E
100
AcDbEntity
  8
0
  6
ByBlock
100
AcDbBlockReference
  2
MGAPG6-4
 10
-30.0
 20
90.0
 30
0.0
  0
INSERT
  5
30F
100
AcDbEntity
  8
0
  6
ByBlock
100
AcDbBlockReference
  2
MGAPG6-3
 10
100.0
 20
30.0
 30
0.0
  0
INSERT
  5
310
100
AcDbEntity
  8
0
  6
ByBlock
100
AcDbBlockReference
  2
MGAPG6-2
 10
-90.0
 20
30.0
 30
0.0
  0
INSERT
  5
311
100
AcDbEntity
  8
0
  6
ByBlock
100
AcDbBlockReference
  2
MGAPG6-1
 10
-30.0
 20
30.0
 30
0.0
  0
LINE
  5
312
100
AcDbEntity
  8
0
  6
CONTINUOUS
 62
               7
100
AcDbLine
 10
-184.25
 20
-123.5
 30
0.0
 11
-123.45
 21
-123.5
 31
0.0
  0
LINE
  5
313
100
AcDbEntity
  8
0
  6
CONTINUOUS
 62
               7
100
AcDbLine
 10
-184.25
 20
-105.5
 30
0.0
 11
-184.25
 21
-123.5
 31
0.0
  0
LINE
  5
314
100
AcDbEntity
  8
0
  6
CONTINUOUS
 62
               7
100
AcDbLine
 10
-184.25
 20
-117.5
 30
0.0
 11
-123.45
 21
-117.5
 31
0.0
  0
LINE
  5
315
100
AcDbEntity
  8
0
  6
CONTINUOUS
 62
               7
100
AcDbLine
 10
-184.25
 20
-111.5
 30
0.0
 11
-123.45
 21
-111.5
 31
0.0
  0
LINE
  5
316
100
AcDbEntity
  8
0
  6
CONTINUOUS
 62
               7
100
AcDbLine
 10
-184.25
 20
-105.5
 30
0.0
 11
-123.45
 21
-105.5
 31
0.0
  0
LINE
  5
317
100
AcDbEntity
  8
0
  6
CONTINUOUS
 62
               7
100
AcDbLine
 10
-152.25
 20
-105.5
 30
0.0
 11
-152.25
 21
-123.5
 31
0.0
  0
LINE
  5
318
100
AcDbEntity
  8
0
  6
CONTINUOUS
 62
               7
100
AcDbLine
 10
-142.65000000000001
 20
-105.5
 30
0.0
 11
-142.65000000000001
 21
-123.5
 31
0.0
  0
LINE
  5
319
100
AcDbEntity
  8
0
  6
CONTINUOUS
 62
               7
100
AcDbLine
 10
-133.05000000000001
 20
-105.5
 30
0.0
 11
-133.05000000000001
 21
-123.5
 31
0.0
  0
LINE
  5
31A
100
AcDbEntity
  8
0
  6
CONTINUOUS
 62
               7
100
AcDbLine
 10
-123.45
 20
-105.5
 30
0.0
 11
-123.45
 21
-123.5
 31
0.0
  0
MTEXT
  5
31B
100
AcDbEntity
  8
0
  6
CONTINUOUS
 62
               7
100
AcDbMText
 10
-177.31666680177054
 20
-108.5
 30
0.0
 40
3.2000000476837158
 41
0.0
 71
               4
 72
               1
  1
\A1;STROKE
  0
MTEXT
  5
31C
100
AcDbEntity
  8
0
  6
CONTINUOUS
 62
               7
100
AcDbMText
 10
-182.09186067137608
 20
-114.5
 30
0.0
 40
3.2000000476837158
 41
0.0
 71
               4
 72
               1
  1
\W1.047;\A1;STRETCH A
  0
MTEXT
  5
31D
100
AcDbEntity
  8
0
  6
CONTINUOUS
 62
               7
100
AcDbMText
 10
-182.09186067137608
 20
-120.5
 30
0.0
 40
3.2000000476837158
 41
0.0
 71
               4
 72
               1
  1
\W1.047;\A1;STRETCH B
  0
MTEXT
  5
31E
100
AcDbEntity
  8
0
  6
CONTINUOUS
 62
               7
100
AcDbMText
 10
-148.51666668256124
 20
-108.5
 30
0.0
 40
3.2000000476837158
 41
0.0
 71
               4
 72
               1
  1
\A1;5
  0
MTEXT
  5
31F
100
AcDbEntity
  8
0
  6
CONTINUOUS
 62
               7
100
AcDbMText
 10
-140.33888892597625
 20
-108.5
 30
0.0
 40
3.2000000476837158
 41
0.0
 71
               4
 72
               1
  1
\W1.333;\A1;10
  0
MTEXT
  5
320
100
AcDbEntity
  8
0
  6
CONTINUOUS
 62
               7
100
AcDbMText
 10
-130.81000004577643
 20
-108.5
 30
0.0
 40
3.2000000476837158
 41
0.0
 71
               4
 72
               1
  1
\W1.200;\A1;15
  0
MTEXT
  5
321
100
AcDbEntity
  8
0
  6
CONTINUOUS
 62
               7
100
AcDbMText
 10
-148.40999999904631
 20
-114.5
 30
0.0
 40
3.2000000476837158
 41
0.0
 71
               4
 72
               1
  1
\W1.200;\A1;0
  0
MTEXT
  5
322
100
AcDbEntity
  8
0
  6
CONTINUOUS
 62
               7
100
AcDbMText
 10
-138.80999999904634
 20
-114.5
 30
0.0
 40
3.2000000476837158
 41
0.0
 71
               4
 72
               1
  1
\W1.200;\A1;0
  0
MTEXT
  5
323
100
AcDbEntity
  8
0
  6
CONTINUOUS
 62
               7
100
AcDbMText
 10
-129.3166666825613
 20
-114.5
 30
0.0
 40
3.2000000476837158
 41
0.0
 71
               4
 72
               1
  1
\A1;5
  0
MTEXT
  5
324
100
AcDbEntity
  8
0
  6
CONTINUOUS
 62
               7
100
AcDbMText
 10
-150.11666670640309
 20
-120.5
 30
0.0
 40
3.2000000476837158
 41
0.0
 71
               4
 72
               1
  1
\A1;-5
  0
MTEXT
  5
325
100
AcDbEntity
  8
0
  6
CONTINUOUS
 62
               7
100
AcDbMText
 10
-138.80999999904634
 20
-120.5
 30
0.0
 40
3.2000000476837158
 41
0.0
 71
               4
 72
               1
  1
\W1.200;\A1;0
  0
MTEXT
  5
326
100
AcDbEntity
  8
0
  6
CONTINUOUS
 62
               7
100
AcDbMText
 10
-129.3166666825613
 20
-120.5
 30
0.0
 40
3.2000000476837158
 41
0.0
 71
               4
 72
               1
  1
\A1;5
  0
MTEXT
  5
327
100
AcDbEntity
  8
0
  6
CONTINUOUS
 62
               7
100
AcDbMText
 10
-172.48195294136133
 20
-102.5
 30
0.0
 40
3.2000000476837158
 41
0.0
 71
               4
 72
               1
  1
\W1.065;\A1;STRETCH LIST
  0
MTEXT
  5
328
100
AcDbEntity
  8
0
  6
CONTINUOUS
 62
               3
100
AcDbMText
 10
-13.584851535428657
 20
111.86736846388432
 30
0.0
 40
3.2000000476837158
 41
0.0
 71
               4
 72
               1
  1
\W1.088;\A1;STRETCH LINE A
  0
MTEXT
  5
329
100
AcDbEntity
  8
0
  6
CONTINUOUS
 62
               7
100
AcDbMText
 10
-158.6867469902879
 20
98.600006103515625
 30
0.0
 40
4.5
 41
0.0
 71
               4
 72
               1
  1
\W1.084;\A1;MGAPG6*st(10)-L
  0
MTEXT
  5
32A
100
AcDbEntity
  8
0
  6
CONTINUOUS
 62
               7
100
AcDbMText
 10
-164.49999713897705
 20
121.35000610351562
 30
0.0
 40
4.5
 41
0.0
 71
               4
 72
               1
  1
\A1;MGAPG6
  0
MTEXT
  5
32B
100
AcDbEntity
  8
0
  6
CONTINUOUS
 62
               7
100
AcDbMText
 10
-189.14236876172134
 20
128.85000610351562
 30
0.0
 40
4.5
 41
0.0
 71
               4
 72
               1
  1
\W1.143;\A1;MINI GUIDE SLIDER
  0
MTEXT
  5
32C
100
AcDbEntity
  8
0
  6
CONTINUOUS
 62
               3
100
AcDbMText
 10
14.180310557331508
 20
100.72340725004983
 30
0.0
 40
3.2000000476837158
 41
0.0
 71
               4
 72
               1
  1
\W1.088;\A1;STRETCH LINE B
  0
MTEXT
  5
32D
100
AcDbEntity
  8
0
  6
CONTINUOUS
 62
               7
100
AcDbMText
 10
-185.67826087169476
 20
107.60000610351562
 30
0.0
 40
4.5
 41
0.0
 71
               4
 72
               1
  1
\W1.096;\A1;MODEL:MGAPG6*st(10)-R
  0
LINE
  5
32E
100
AcDbEntity
  8
0
  6
CONTINUOUS
 62
               7
100
AcDbLine
 10
-194.25
 20
132.60000610351562
 30
0.0
 11
194.80000305175781
 21
132.60000610351562
 31
0.0
  0
LINE
  5
32F
100
AcDbEntity
  8
0
  6
CONTINUOUS
 62
               7
100
AcDbLine
 10
194.80000305175781
 20
132.60000610351562
 30
0.0
 11
194.80000305175781
 21
-133.5
 31
0.0
  0
LINE
  5
330
100
AcDbEntity
  8
0
  6
CONTINUOUS
 62
               7
100
AcDbLine
 10
-194.25
 20
132.60000610351562
 30
0.0
 11
-194.25
 21
-133.5
 31
0.0
  0
LINE
  5
331
100
AcDbEntity
  8
0
  6
CONTINUOUS
 62
               7
100
AcDbLine
 10
-194.25
 20
-133.5
 30
0.0
 11
194.80000305175781
 21
-133.5
 31
0.0
  0
LINE
  5
332
100
AcDbEntity
  8
0
  6
CONTINUOUS
 62
               7
100
AcDbLine
 10
109.80000305175781
 20
-118.5
 30
0.0
 11
109.80000305175781
 21
-133.5
 31
0.0
  0
LINE
  5
333
100
AcDbEntity
  8
0
  6
CONTINUOUS
 62
               7
100
AcDbLine
 10
109.80000305175781
 20
-118.5
 30
0.0
 11
194.80000305175781
 21
-118.5
 31
0.0
  0
LINE
  5
334
100
AcDbEntity
  8
0
  6
CONTINUOUS
 62
               7
100
AcDbLine
 10
109.80000305175781
 20
132.60000610351562
 30
0.0
 11
109.80000305175781
 21
117.60000610351562
 31
0.0
  0
LINE
  5
335
100
AcDbEntity
  8
0
  6
CONTINUOUS
 62
               7
100
AcDbLine
 10
109.80000305175781
 20
117.60000610351562
 30
0.0
 11
194.80000305175781
 21
117.60000610351562
 31
0.0
  0
LINE
  5
336
100
AcDbEntity
  8
0
  6
CONTINUOUS
 62
               7
100
AcDbLine
 10
-194.25
 20
117.60000610351562
 30
0.0
 11
-109.25
 21
117.60000610351562
 31
0.0
  0
LINE
  5
337
100
AcDbEntity
  8
0
  6
CONTINUOUS
 62
               7
100
AcDbLine
 10
-109.25
 20
132.60000610351562
 30
0.0
 11
-109.25
 21
117.60000610351562
 31
0.0
  0
MTEXT
  5
338
100
AcDbEntity
  8
0
  6
CONTINUOUS
 62
               7
100
AcDbMText
 10
135.28361320576767
 20
125.10000610351562
 30
0.0
 40
4.5
 41
0.0
 71
               4
 72
               1
  1
\W1.311;\A1;Ver. 1.0
  0
MTEXT
  5
339
100
AcDbEntity
  8
0
  6
CONTINUOUS
 62
               7
100
AcDbMText
 10
115.5267259825148
 20
-126.0
 30
0.0
 40
6.3000001907348633
 41
0.0
 71
               4
 72
               1
  1
\W1.121;\A1;KOGANEI CORP.
  0
ENDSEC
  0
SECTION
  2
OBJECTS
  0
DICTIONARY
  5
19
100
AcDbDictionary
  3
ACAD_GROUP
350
1A
  3
ACAD_MLINESTYLE
350
1B
  0
DICTIONARY
  5
1A
102
{ACAD_REACTORS
330
19
102
}
100
AcDbDictionary
  0
DICTIONARY
  5
1B
102
{ACAD_REACTORS
330
19
102
}
100
AcDbDictionary
  3
STANDARD
350
1C
  0
MLINESTYLE
  5
1C
102
{ACAD_REACTORS
330
1B
102
}
100
AcDbMlineStyle
  2
Standard
 70
               0
  3

 62
               0
 51
90.0
 52
90.0
 71
               2
 49
0.5
 62
             256
  6
ByLayer
 49
-0.5
 62
             256
  6
ByLayer
  0
ENDSEC
  0
EOF
