  0
SECTION
  2
HEADER
  9
$ACADVER
  1
AC1012
  9
$DWGCODEPAGE
  3
dos932
  9
$INSBASE
 10
0.0
 20
0.0
 30
0.0
  9
$EXTMIN
 10
-194.25
 20
-133.5
 30
0.0
  9
$EXTMAX
 10
196.25000429153442
 20
132.60000610351562
 30
0.0
  9
$LIMMIN
 10
-194.25
 20
-133.5
  9
$LIMMAX
 10
196.25000429153442
 20
132.60000610351562
  9
$ORTHOMODE
 70
               0
  9
$REGENMODE
 70
               1
  9
$FILLMODE
 70
               1
  9
$QTEXTMODE
 70
               0
  9
$MIRRTEXT
 70
               1
  9
$DRAGMODE
 70
               2
  9
$LTSCALE
 40
1.0
  9
$OSMODE
 70
               0
  9
$ATTMODE
 70
               1
  9
$TEXTSIZE
 40
3.2000000476837158
  9
$TRACEWID
 40
0.05
  9
$TEXTSTYLE
  7
MX_NOTE_STANDARD
  9
$CLAYER
  8
0
  9
$CELTYPE
  6
CONTINUOUS
  9
$CECOLOR
 62
             256
  9
$CELTSCALE
 40
1.0
  9
$DELOBJ
 70
               1
  9
$DISPSILH
 70
               0
  9
$DIMSCALE
 40
1.0
  9
$DIMASZ
 40
2.5
  9
$DIMEXO
 40
1.5
  9
$DIMDLI
 40
3.75
  9
$DIMRND
 40
0.0
  9
$DIMDLE
 40
0.0
  9
$DIMEXE
 40
1.5
  9
$DIMTP
 40
0.0
  9
$DIMTM
 40
0.0
  9
$DIMTXT
 40
3.2000000476837158
  9
$DIMCEN
 40
2.5
  9
$DIMTSZ
 40
0.0
  9
$DIMTOL
 70
               0
  9
$DIMLIM
 70
               0
  9
$DIMTIH
 70
               0
  9
$DIMTOH
 70
               0
  9
$DIMSE1
 70
               0
  9
$DIMSE2
 70
               0
  9
$DIMTAD
 70
               1
  9
$DIMZIN
 70
               8
  9
$DIMBLK
  1

  9
$DIMASO
 70
               1
  9
$DIMSHO
 70
               1
  9
$DIMPOST
  1

  9
$DIMAPOST
  1

  9
$DIMALT
 70
               0
  9
$DIMALTD
 70
               4
  9
$DIMALTF
 40
0.03937007874016
  9
$DIMLFAC
 40
1.0
  9
$DIMTOFL
 70
               1
  9
$DIMTVP
 40
0.0
  9
$DIMTIX
 70
               0
  9
$DIMSOXD
 70
               0
  9
$DIMSAH
 70
               0
  9
$DIMBLK1
  1

  9
$DIMBLK2
  1

  9
$DIMSTYLE
  2
MXDIMSTYLE
  9
$DIMCLRD
 70
               0
  9
$DIMCLRE
 70
               0
  9
$DIMCLRT
 70
               0
  9
$DIMTFAC
 40
1.0
  9
$DIMGAP
 40
1.0
  9
$DIMJUST
 70
               0
  9
$DIMSD1
 70
               0
  9
$DIMSD2
 70
               0
  9
$DIMTOLJ
 70
               1
  9
$DIMTZIN
 70
               0
  9
$DIMALTZ
 70
               0
  9
$DIMALTTZ
 70
               0
  9
$DIMFIT
 70
               3
  9
$DIMUPT
 70
               1
  9
$DIMUNIT
 70
               2
  9
$DIMDEC
 70
               4
  9
$DIMTDEC
 70
               4
  9
$DIMALTU
 70
               2
  9
$DIMALTTD
 70
               4
  9
$DIMTXSTY
  7
MX_NOTE_STANDARD
  9
$DIMAUNIT
 70
               0
  9
$LUNITS
 70
               2
  9
$LUPREC
 70
               4
  9
$SKETCHINC
 40
0.1
  9
$FILLETRAD
 40
0.0
  9
$AUNITS
 70
               0
  9
$AUPREC
 70
               0
  9
$MENU
  1
acad
  9
$ELEVATION
 40
0.0
  9
$PELEVATION
 40
0.0
  9
$THICKNESS
 40
0.0
  9
$LIMCHECK
 70
               0
  9
$BLIPMODE
 70
               1
  9
$CHAMFERA
 40
0.0
  9
$CHAMFERB
 40
0.0
  9
$CHAMFERC
 40
0.0
  9
$CHAMFERD
 40
0.0
  9
$SKPOLY
 70
               0
  9
$TDCREATE
 40
2453655.719502315
  9
$TDUPDATE
 40
2453655.719502315
  9
$TDINDWG
 40
0.0000000000
  9
$TDUSRTIMER
 40
0.0000000000
  9
$USRTIMER
 70
               1
  9
$ANGBASE
 50
0.0
  9
$ANGDIR
 70
               0
  9
$PDMODE
 70
               0
  9
$PDSIZE
 40
0.0
  9
$PLINEWID
 40
0.0
  9
$COORDS
 70
               1
  9
$SPLFRAME
 70
               0
  9
$SPLINETYPE
 70
               6
  9
$SPLINESEGS
 70
               8
  9
$ATTDIA
 70
               0
  9
$ATTREQ
 70
               1
  9
$HANDLING
 70
               1
  9
$HANDSEED
  5
346
  9
$SURFTAB1
 70
               6
  9
$SURFTAB2
 70
               6
  9
$SURFTYPE
 70
               6
  9
$SURFU
 70
               6
  9
$SURFV
 70
               6
  9
$UCSNAME
  2

  9
$UCSORG
 10
0.0
 20
0.0
 30
0.0
  9
$UCSXDIR
 10
1.0
 20
0.0
 30
0.0
  9
$UCSYDIR
 10
0.0
 20
1.0
 30
0.0
  9
$PUCSNAME
  2

  9
$PUCSORG
 10
0.0
 20
0.0
 30
0.0
  9
$PUCSXDIR
 10
1.0
 20
0.0
 30
0.0
  9
$PUCSYDIR
 10
0.0
 20
1.0
 30
0.0
  9
$USERI1
 70
               0
  9
$USERI2
 70
               0
  9
$USERI3
 70
               0
  9
$USERI4
 70
               0
  9
$USERI5
 70
               0
  9
$USERR1
 40
0.0
  9
$USERR2
 40
0.0
  9
$USERR3
 40
0.0
  9
$USERR4
 40
0.0
  9
$USERR5
 40
0.0
  9
$WORLDVIEW
 70
               1
  9
$SHADEDGE
 70
               3
  9
$SHADEDIF
 70
              70
  9
$TILEMODE
 70
               1
  9
$MAXACTVP
 70
              16
  9
$PINSBASE
 10
0.0
 20
0.0
 30
0.0
  9
$PLIMCHECK
 70
               0
  9
$PEXTMIN
 10
1.0000000000000000E+20
 20
1.0000000000000000E+20
 30
1.0000000000000000E+20
  9
$PEXTMAX
 10
-1.0000000000000000E+20
 20
-1.0000000000000000E+20
 30
-1.0000000000000000E+20
  9
$PLIMMIN
 10
0.0
 20
0.0
  9
$PLIMMAX
 10
12.0
 20
9.0
  9
$UNITMODE
 70
               0
  9
$VISRETAIN
 70
               0
  9
$PLINEGEN
 70
               1
  9
$PSLTSCALE
 70
               0
  9
$TREEDEPTH
 70
            3020
  9
$PICKSTYLE
 70
               1
  9
$CMLSTYLE
  2
Standard
  9
$CMLJUST
 70
               0
  9
$CMLSCALE
 40
1.0
  9
$SAVEIMAGES
 70
               0
  0
ENDSEC
  0
SECTION
  2
CLASSES
  0
CLASS
  1
LWPOLYLINE
  2
AcDbPolyline
  3
"AutoCAD"
 90
        0
280
               0
281
               1
  0
CLASS
  1
IMAGE
  2
AcDbRasterImage
  3
ISM
 90
      127
280
               0
281
               1
  0
CLASS
  1
OLE2FRAME
  2
AcDbOle2Frame
  3
""
 90
        0
280
               0
281
               1
  0
CLASS
  1
HATCH
  2
AcDbHatch
  3
"ACAD_SEDONA"
 90
        0
280
               0
281
               1
  0
CLASS
  1
DICTIONARYVAR
  2
AcDbDictionaryVar
  3
"AutoCAD"
 90
        0
280
               0
281
               0
  0
CLASS
  1
RASTERVARIABLES
  2
AcDbRasterVariables
  3
ISM
 90
        0
280
               0
281
               0
  0
CLASS
  1
IMAGEDEF
  2
AcDbRasterImageDef
  3
ISM
 90
        0
280
               0
281
               0
  0
CLASS
  1
IMAGEDEF_REACTOR
  2
AcDbRasterImageDefReactor
  3
ISM
 90
        1
280
               0
281
               0
  0
CLASS
  1
IDBUFFER
  2
AcDbIdBuffer
  3
"Acad"
 90
        0
280
               0
281
               0
  0
CLASS
  1
SPATIAL_FILTER
  2
AcDbSpatialFilter
  3
"Acad"
 90
        0
280
               0
281
               0
  0
CLASS
  1
XRECORD
  2
AcDbXrecord
  3
"<Built In>"
 90
        0
280
               0
281
               0
  0
CLASS
  1
SORTENTSTABLE
  2
AcDbSortentsTable
  3
"AutoCAD"
 90
        0
280
               0
281
               0
  0
CLASS
  1
LAYER_INDEX
  2
AcDbLayerIndex
  3
"Acad"
 90
        0
280
               0
281
               0
  0
CLASS
  1
SPATIAL_INDEX
  2
AcDbSpatialIndex
  3
"Acad"
 90
        0
280
               0
281
               0
  0
CLASS
  1
OBJECT_PTR
  2
CAseDLPNTableRecord
  3
"ASE-LPNTableRecord"
 90
        1
280
               0
281
               0
  0
CLASS
  1
LAYOUT
  2
AcDbLayout
  3
"AutoCAD 2000"
 90
        1
280
               0
281
               0
  0
CLASS
  1
PLOTSETTINGS
  2
AcDbPlotSettings
  3
"AutoCAD 2000"
 90
        1
280
               0
281
               0
  0
CLASS
  1
ACDBDICTIONARYWDFLT
  2
AcDbDictionaryWithDefault
  3
"AutoCAD 2000"
 90
        1
280
               0
281
               0
  0
CLASS
  1
ACDBPLACEHOLDER
  2
AcDbPlaceHolder
  3
"AutoCAD 2000"
 90
        1
280
               0
281
               0
  0
ENDSEC
  0
SECTION
  2
TABLES
  0
TABLE
  2
VPORT
  5
7
100
AcDbSymbolTable
 70
               1
  0
VPORT
  5
15
100
AcDbSymbolTableRecord
100
AcDbViewportTableRecord
  2
*ACTIVE
 70
               0
 10
0.0
 20
0.0
 11
1.0
 21
1.0
 12
1.0000021457672119
 22
-0.4499969482421875
 13
0.0
 23
0.0
 14
1.0
 24
1.0
 15
0.0
 25
0.0
 16
0.0
 26
0.0
 36
1.0
 17
0.0
 27
0.0
 37
0.0
 40
268.76100616455079
 41
1.7320508075688772
 42
50.0
 43
0.0
 44
0.0
 50
0.0
 51
0.0
 71
               0
 72
             100
 73
               1
 74
               1
 75
               0
 76
               0
 77
               0
 78
               0
  0
ENDTAB
  0
TABLE
  2
LTYPE
  5
4
100
AcDbSymbolTable
 70
               5
  0
LTYPE
  5
11
100
AcDbSymbolTableRecord
100
AcDbLinetypeTableRecord
  2
BYBLOCK
 70
              64
  3

 72
              65
 73
               0
 40
0.0
  0
LTYPE
  5
12
100
AcDbSymbolTableRecord
100
AcDbLinetypeTableRecord
  2
BYLAYER
 70
              64
  3

 72
              65
 73
               0
 40
0.0
  0
LTYPE
  5
13
100
AcDbSymbolTableRecord
100
AcDbLinetypeTableRecord
  2
CONTINUOUS
 70
              64
  3
Solid line
 72
              65
 73
               0
 40
0.0
  0
LTYPE
  5
AE
100
AcDbSymbolTableRecord
100
AcDbLinetypeTableRecord
  2
PHANTOM
 70
              64
  3
Phantom ______  __  __  ______  __  __  ______
 72
              65
 73
               6
 40
30.0
 49
20.0
 74
               0
 49
-2.0
 74
               0
 49
2.0
 74
               0
 49
-2.0
 74
               0
 49
2.0
 74
               0
 49
-2.0
 74
               0
  0
LTYPE
  5
B0
100
AcDbSymbolTableRecord
100
AcDbLinetypeTableRecord
  2
CENTER
 70
              64
  3
Center ____ _ ____ _ ____ _ ____ _ ____ _ ____
 72
              65
 73
               4
 40
26.0
 49
20.0
 74
               0
 49
-2.0
 74
               0
 49
2.0
 74
               0
 49
-2.0
 74
               0
  0
ENDTAB
  0
TABLE
  2
LAYER
  5
2
100
AcDbSymbolTable
 70
               2
  0
LAYER
  5
14
100
AcDbSymbolTableRecord
100
AcDbLayerTableRecord
  2
0
 70
               0
 62
               7
  6
CONTINUOUS
  0
LAYER
  5
1D
100
AcDbSymbolTableRecord
100
AcDbLayerTableRecord
  2
DEFPOINTS
 70
               0
 62
               7
  6
CONTINUOUS
  0
ENDTAB
  0
TABLE
  2
STYLE
  5
3
100
AcDbSymbolTable
 70
               1
  0
STYLE
  5
17
100
AcDbSymbolTableRecord
100
AcDbTextStyleTableRecord
  2
MX_NOTE_STANDARD
 70
               0
 40
0.0
 41
1.0
 50
0.0
 71
               0
 42
3.2000000476837158
  3
txt.shx
  4
extfont.shx
  0
ENDTAB
  0
TABLE
  2
VIEW
  5
5
100
AcDbSymbolTable
 70
               0
  0
ENDTAB
  0
TABLE
  2
UCS
  5
6
100
AcDbSymbolTable
 70
               0
  0
ENDTAB
  0
TABLE
  2
APPID
  5
8
100
AcDbSymbolTable
 70
               1
  0
APPID
  5
16
100
AcDbSymbolTableRecord
100
AcDbRegAppTableRecord
  2
ACAD
 70
               0
  0
ENDTAB
  0
TABLE
  2
DIMSTYLE
  5
9
100
AcDbSymbolTable
 70
               1
  0
DIMSTYLE
105
18
100
AcDbSymbolTableRecord
100
AcDbDimStyleTableRecord
  2
MXDIMSTYLE
 70
               0
  3

  4

  5

  6

  7

 40
1.0
 41
2.5
 42
1.5
 43
3.75
 44
1.5
 45
0.0
 46
0.0
 47
0.0
 48
0.0
 71
               0
 72
               0
 73
               0
 74
               0
 75
               0
 76
               0
 77
               1
 78
               8
140
3.2000000476837158
141
2.5
142
0.0
143
0.03937007874016
144
1.0
145
0.0
146
1.0
147
1.0
170
               0
171
               4
172
               1
173
               0
174
               0
175
               0
176
               0
177
               0
178
               0
270
               2
271
               4
272
               4
273
               2
274
               4
275
               0
280
               0
281
               0
282
               0
283
               1
284
               0
285
               0
286
               0
287
               3
288
               1
340
17
  0
ENDTAB
  0
TABLE
  2
BLOCK_RECORD
  5
1
100
AcDbSymbolTable
 70
               6
  0
BLOCK_RECORD
  5
A
100
AcDbSymbolTableRecord
100
AcDbBlockTableRecord
  2
*MODEL_SPACE
  0
BLOCK_RECORD
  5
B
100
AcDbSymbolTableRecord
100
AcDbBlockTableRecord
  2
*PAPER_SPACE
  0
BLOCK_RECORD
  5
1E
100
AcDbSymbolTableRecord
100
AcDbBlockTableRecord
  2
MGAPG10-1
  0
BLOCK_RECORD
  5
1F
100
AcDbSymbolTableRecord
100
AcDbBlockTableRecord
  2
MGAPG10-2
  0
BLOCK_RECORD
  5
20
100
AcDbSymbolTableRecord
100
AcDbBlockTableRecord
  2
MGAPG10-3
  0
BLOCK_RECORD
  5
21
100
AcDbSymbolTableRecord
100
AcDbBlockTableRecord
  2
MGAPG10-4
  0
BLOCK_RECORD
  5
22
100
AcDbSymbolTableRecord
100
AcDbBlockTableRecord
  2
MGAPG10-5
  0
BLOCK_RECORD
  5
23
100
AcDbSymbolTableRecord
100
AcDbBlockTableRecord
  2
MGAPG10-6
  0
ENDTAB
  0
ENDSEC
  0
SECTION
  2
BLOCKS
  0
BLOCK
  5
D
100
AcDbEntity
  8
0
100
AcDbBlockBegin
  2
*MODEL_SPACE
 70
               0
 10
0.0
 20
0.0
 30
0.0
  3
*MODEL_SPACE
  1

  0
ENDBLK
  5
E
100
AcDbEntity
  8
0
100
AcDbBlockEnd
  0
BLOCK
  5
F
100
AcDbEntity
 67
               1
  8
0
100
AcDbBlockBegin
  2
*PAPER_SPACE
 70
               0
 10
0.0
 20
0.0
 30
0.0
  3
*PAPER_SPACE
  1

  0
ENDBLK
  5
10
100
AcDbEntity
 67
               1
  8
0
100
AcDbBlockEnd
  0
BLOCK
  5
24
100
AcDbEntity
  8
0
100
AcDbBlockBegin
  2
MGAPG10-1
 70
               0
 10
0.0
 20
0.0
 30
0.0
  3
MGAPG10-1
  1

  0
LINE
  5
25
100
AcDbEntity
  8
0
  6
CONTINUOUS
 62
               7
100
AcDbLine
 10
0.4999998092651481
 20
11.25
 30
0.0
 11
3.3000000000000114
 21
11.25
 31
0.0
  0
LINE
  5
26
100
AcDbEntity
  8
0
  6
CONTINUOUS
 62
               7
100
AcDbLine
 10
0.5000002346683914
 20
11.249999661049571
 30
0.0
 11
0.3000002346684028
 21
10.903589375478902
 31
0.0
  0
LINE
  5
27
100
AcDbEntity
  8
0
  6
CONTINUOUS
 62
               7
100
AcDbLine
 10
0.4999998092651481
 20
5.75
 30
0.0
 11
0.4999998092651481
 21
11.25
 31
0.0
  0
LINE
  5
28
100
AcDbEntity
  8
0
  6
CONTINUOUS
 62
               7
100
AcDbLine
 10
0.3000000000000114
 20
6.0964107513427734
 30
0.0
 11
0.3000000000000114
 21
10.903589248657227
 31
0.0
  0
LINE
  5
29
100
AcDbEntity
  8
0
  6
CONTINUOUS
 62
               7
100
AcDbLine
 10
0.500000968250248
 20
5.7499997949722683
 30
0.0
 11
0.300000610622277
 21
6.0964104219704041
 31
0.0
  0
LINE
  5
2A
100
AcDbEntity
  8
0
  6
CONTINUOUS
 62
               7
100
AcDbLine
 10
0.4999998092651481
 20
5.75
 30
0.0
 11
3.3000000000000114
 21
5.75
 31
0.0
  0
LINE
  5
2B
100
AcDbEntity
  8
0
  6
CONTINUOUS
 62
               7
100
AcDbLine
 10
0.0
 20
5.5
 30
0.0
 11
3.3000000000000114
 21
5.5
 31
0.0
  0
LINE
  5
2C
100
AcDbEntity
  8
0
  6
CONTINUOUS
 62
               7
100
AcDbLine
 10
0.0
 20
11.5
 30
0.0
 11
3.3000000000000114
 21
11.5
 31
0.0
  0
LINE
  5
2D
100
AcDbEntity
  8
0
  6
CONTINUOUS
 62
               7
100
AcDbLine
 10
3.3000000000000114
 20
11.50000001369061
 30
0.0
 11
3.3000000000000114
 21
5.5000000136906095
 31
0.0
  0
LINE
  5
2E
100
AcDbEntity
  8
0
  6
CONTINUOUS
 62
               2
100
AcDbLine
 10
-2.0
 20
8.5
 30
0.0
 11
2.0
 21
8.5
 31
0.0
  0
LINE
  5
2F
100
AcDbEntity
  8
0
  6
CONTINUOUS
 62
               7
100
AcDbLine
 10
3.3000000000000114
 20
-11.50000001369061
 30
0.0
 11
3.3000000000000114
 21
-5.5000000136906095
 31
0.0
  0
LINE
  5
30
100
AcDbEntity
  8
0
  6
CONTINUOUS
 62
               7
100
AcDbLine
 10
0.0
 20
-11.5
 30
0.0
 11
3.3000000000000114
 21
-11.5
 31
0.0
  0
LINE
  5
31
100
AcDbEntity
  8
0
  6
CONTINUOUS
 62
               7
100
AcDbLine
 10
0.0
 20
-5.5
 30
0.0
 11
3.3000000000000114
 21
-5.5
 31
0.0
  0
LINE
  5
32
100
AcDbEntity
  8
0
  6
CONTINUOUS
 62
               7
100
AcDbLine
 10
0.4999998092651481
 20
-5.75
 30
0.0
 11
3.3000000000000114
 21
-5.75
 31
0.0
  0
LINE
  5
33
100
AcDbEntity
  8
0
  6
CONTINUOUS
 62
               7
100
AcDbLine
 10
0.500000968250248
 20
-5.7499997949722683
 30
0.0
 11
0.300000610622277
 21
-6.0964104219704041
 31
0.0
  0
LINE
  5
34
100
AcDbEntity
  8
0
  6
CONTINUOUS
 62
               7
100
AcDbLine
 10
0.3000000000000114
 20
-6.0964107513427734
 30
0.0
 11
0.3000000000000114
 21
-10.903589248657227
 31
0.0
  0
LINE
  5
35
100
AcDbEntity
  8
0
  6
CONTINUOUS
 62
               7
100
AcDbLine
 10
0.4999998092651481
 20
-5.75
 30
0.0
 11
0.4999998092651481
 21
-11.25
 31
0.0
  0
LINE
  5
36
100
AcDbEntity
  8
0
  6
CONTINUOUS
 62
               7
100
AcDbLine
 10
0.5000002346683914
 20
-11.249999661049571
 30
0.0
 11
0.3000002346684028
 21
-10.903589375478902
 31
0.0
  0
LINE
  5
37
100
AcDbEntity
  8
0
  6
CONTINUOUS
 62
               7
100
AcDbLine
 10
0.4999998092651481
 20
-11.25
 30
0.0
 11
3.3000000000000114
 21
-11.25
 31
0.0
  0
LINE
  5
38
100
AcDbEntity
  8
0
  6
CONTINUOUS
 62
               2
100
AcDbLine
 10
-2.0
 20
-8.5
 30
0.0
 11
2.0
 21
-8.5
 31
0.0
  0
LINE
  5
39
100
AcDbEntity
  8
0
  6
CONTINUOUS
 62
               7
100
AcDbLine
 10
0.0
 20
-13.0
 30
0.0
 11
0.0
 21
13.0
 31
0.0
  0
LINE
  5
3A
100
AcDbEntity
  8
0
  6
CONTINUOUS
 62
               7
100
AcDbLine
 10
86.700000000000017
 20
2.0
 30
0.0
 11
86.700000000000017
 21
-2.0
 31
0.0
  0
LINE
  5
3B
100
AcDbEntity
  8
0
  6
CONTINUOUS
 62
               7
100
AcDbLine
 10
84.699999999999989
 20
-2.0
 30
0.0
 11
86.700000000000017
 21
-2.0
 31
0.0
  0
LINE
  5
3C
100
AcDbEntity
  8
0
  6
CONTINUOUS
 62
               7
100
AcDbLine
 10
84.700000002237545
 20
2.0
 30
0.0
 11
86.700000000000017
 21
2.0
 31
0.0
  0
LINE
  5
3D
100
AcDbEntity
  8
0
  6
CONTINUOUS
 62
               2
100
AcDbLine
 10
72.0
 20
-1.6209999999999951
 30
0.0
 11
71.343552743931411
 21
-2.0
 31
0.0
  0
LINE
  5
3E
100
AcDbEntity
  8
0
  6
CONTINUOUS
 62
               2
100
AcDbLine
 10
72.0
 20
-1.6209999999999951
 30
0.0
 11
74.0
 21
-1.6209999999999951
 31
0.0
  0
LINE
  5
3F
100
AcDbEntity
  8
0
  6
CONTINUOUS
 62
               7
100
AcDbLine
 10
72.0
 20
2.0
 30
0.0
 11
72.0
 21
-2.0
 31
0.0
  0
LINE
  5
40
100
AcDbEntity
  8
0
  6
CONTINUOUS
 62
               2
100
AcDbLine
 10
72.0
 20
1.6209999999999951
 30
0.0
 11
71.343552743931411
 21
2.0
 31
0.0
  0
LINE
  5
41
100
AcDbEntity
  8
0
  6
CONTINUOUS
 62
               2
100
AcDbLine
 10
72.0
 20
1.6209999999999951
 30
0.0
 11
74.0
 21
1.6209999999999951
 31
0.0
  0
LINE
  5
42
100
AcDbEntity
  8
0
  6
CONTINUOUS
 62
               2
100
AcDbLine
 10
84.699999999999989
 20
-1.6209999999999951
 30
0.0
 11
87.0
 21
-1.6209999999999951
 31
0.0
  0
LINE
  5
43
100
AcDbEntity
  8
0
  6
CONTINUOUS
 62
               2
100
AcDbLine
 10
84.699999999999989
 20
1.6209999999999951
 30
0.0
 11
87.0
 21
1.6209999999999951
 31
0.0
  0
LINE
  5
44
100
AcDbEntity
  8
0
  6
CONTINUOUS
 62
               7
100
AcDbLine
 10
65.300000190734863
 20
5.25
 30
0.0
 11
64.0
 21
5.25
 31
0.0
  0
LINE
  5
45
100
AcDbEntity
  8
0
  6
CONTINUOUS
 62
               7
100
AcDbLine
 10
65.29999976533162
 20
5.2500003389504286
 30
0.0
 11
65.499999765331609
 21
5.5964106245210985
 31
0.0
  0
LINE
  5
46
100
AcDbEntity
  8
0
  6
CONTINUOUS
 62
               7
100
AcDbLine
 10
65.300000190734863
 20
10.75
 30
0.0
 11
65.300000190734863
 21
5.25
 31
0.0
  0
LINE
  5
47
100
AcDbEntity
  8
0
  6
CONTINUOUS
 62
               7
100
AcDbLine
 10
65.5
 20
10.403589248657227
 30
0.0
 11
65.5
 21
5.5964107513427734
 31
0.0
  0
LINE
  5
48
100
AcDbEntity
  8
0
  6
CONTINUOUS
 62
               7
100
AcDbLine
 10
65.299999031749763
 20
10.750000205027732
 30
0.0
 11
65.499999389377734
 21
10.403589578029596
 31
0.0
  0
LINE
  5
49
100
AcDbEntity
  8
0
  6
CONTINUOUS
 62
               7
100
AcDbLine
 10
65.300000190734863
 20
10.75
 30
0.0
 11
64.0
 21
10.75
 31
0.0
  0
LINE
  5
4A
100
AcDbEntity
  8
0
  6
CONTINUOUS
 62
               7
100
AcDbLine
 10
65.300000190734863
 20
-5.25
 30
0.0
 11
64.0
 21
-5.25
 31
0.0
  0
LINE
  5
4B
100
AcDbEntity
  8
0
  6
CONTINUOUS
 62
               7
100
AcDbLine
 10
65.29999976533162
 20
-5.2500003389504286
 30
0.0
 11
65.499999765331609
 21
-5.5964106245210985
 31
0.0
  0
LINE
  5
4C
100
AcDbEntity
  8
0
  6
CONTINUOUS
 62
               7
100
AcDbLine
 10
65.300000190734863
 20
-10.75
 30
0.0
 11
65.300000190734863
 21
-5.25
 31
0.0
  0
LINE
  5
4D
100
AcDbEntity
  8
0
  6
CONTINUOUS
 62
               7
100
AcDbLine
 10
65.5
 20
-10.403589248657227
 30
0.0
 11
65.5
 21
-5.5964107513427734
 31
0.0
  0
LINE
  5
4E
100
AcDbEntity
  8
0
  6
CONTINUOUS
 62
               7
100
AcDbLine
 10
65.299999031749763
 20
-10.750000205027732
 30
0.0
 11
65.499999389377734
 21
-10.403589578029596
 31
0.0
  0
LINE
  5
4F
100
AcDbEntity
  8
0
  6
CONTINUOUS
 62
               7
100
AcDbLine
 10
65.300000190734863
 20
-10.75
 30
0.0
 11
64.0
 21
-10.75
 31
0.0
  0
LINE
  5
50
100
AcDbEntity
  8
0
  6
CONTINUOUS
 62
               7
100
AcDbLine
 10
64.0
 20
2.0
 30
0.0
 11
74.0
 21
2.0
 31
0.0
  0
LINE
  5
51
100
AcDbEntity
  8
0
  6
CONTINUOUS
 62
               7
100
AcDbLine
 10
64.0
 20
-2.0
 30
0.0
 11
74.0
 21
-2.0
 31
0.0
  0
LINE
  5
52
100
AcDbEntity
  8
0
  6
CONTINUOUS
 62
               7
100
AcDbLine
 10
81.5
 20
-5.0
 30
0.0
 11
77.5
 21
-5.0
 31
0.0
  0
LINE
  5
53
100
AcDbEntity
  8
0
  6
CONTINUOUS
 62
               7
100
AcDbLine
 10
84.699999999999989
 20
-3.5000000000000711
 30
0.0
 11
81.5
 21
-3.5000000000000711
 31
0.0
  0
LINE
  5
54
100
AcDbEntity
  8
0
  6
CONTINUOUS
 62
               7
100
AcDbLine
 10
77.5
 20
5.0
 30
0.0
 11
77.5
 21
-5.0
 31
0.0
  0
LINE
  5
55
100
AcDbEntity
  8
0
  6
CONTINUOUS
 62
               7
100
AcDbLine
 10
84.699999999999989
 20
3.5000000000000711
 30
0.0
 11
81.5
 21
3.5000000000000711
 31
0.0
  0
LINE
  5
56
100
AcDbEntity
  8
0
  6
CONTINUOUS
 62
               7
100
AcDbLine
 10
81.5
 20
5.0
 30
0.0
 11
77.5
 21
5.0
 31
0.0
  0
LINE
  5
57
100
AcDbEntity
  8
0
  6
CONTINUOUS
 62
               7
100
AcDbLine
 10
86.700000000000017
 20
-2.0
 30
0.0
 11
87.0
 21
-1.6999999999998323
 31
0.0
  0
LINE
  5
58
100
AcDbEntity
  8
0
  6
CONTINUOUS
 62
               7
100
AcDbLine
 10
86.700000000000017
 20
2.0
 30
0.0
 11
87.0
 21
1.6999999999998323
 31
0.0
  0
LINE
  5
59
100
AcDbEntity
  8
0
  6
CONTINUOUS
 62
               7
100
AcDbLine
 10
87.0
 20
1.6999999999998323
 30
0.0
 11
87.0
 21
-1.6999999999998323
 31
0.0
  0
LINE
  5
5A
100
AcDbEntity
  8
0
  6
CONTINUOUS
 62
               7
100
AcDbLine
 10
84.699999999999989
 20
3.5000000000000711
 30
0.0
 11
84.699999999999989
 21
-3.5000000000000711
 31
0.0
  0
LINE
  5
5B
100
AcDbEntity
  8
0
  6
CONTINUOUS
 62
               7
100
AcDbLine
 10
81.5
 20
5.0
 30
0.0
 11
81.5
 21
-5.0
 31
0.0
  0
LINE
  5
5C
100
AcDbEntity
  8
0
  6
CONTINUOUS
 62
               7
100
AcDbLine
 10
74.0
 20
4.7000000000000028
 30
0.0
 11
74.0
 21
-4.7000000000000028
 31
0.0
  0
LINE
  5
5D
100
AcDbEntity
  8
0
  6
CONTINUOUS
 62
               7
100
AcDbLine
 10
64.0
 20
12.0
 30
0.0
 11
64.0
 21
-12.0
 31
0.0
  0
LINE
  5
5E
100
AcDbEntity
  8
0
  6
CONTINUOUS
 62
               7
100
AcDbLine
 10
80.726497308103745
 20
0.0
 30
0.0
 11
77.5
 21
0.0
 31
0.0
  0
LINE
  5
5F
100
AcDbEntity
  8
0
  6
CONTINUOUS
 62
               7
100
AcDbLine
 10
84.387392608830396
 20
0.0
 30
0.0
 11
81.812607391169621
 21
0.0
 31
0.0
  0
LINE
  5
60
100
AcDbEntity
  8
0
  6
CONTINUOUS
 62
               7
100
AcDbLine
 10
77.5
 20
-4.7000000000000028
 30
0.0
 11
74.0
 21
-4.7000000000000028
 31
0.0
  0
LINE
  5
61
100
AcDbEntity
  8
0
  6
CONTINUOUS
 62
               7
100
AcDbLine
 10
77.5
 20
4.7000000000000028
 30
0.0
 11
74.0
 21
4.7000000000000028
 31
0.0
  0
LINE
  5
62
100
AcDbEntity
  8
0
  6
CONTINUOUS
 62
               7
100
AcDbLine
 10
57.5
 20
-4.5
 30
0.0
 11
64.0
 21
-4.5
 31
0.0
  0
LINE
  5
63
100
AcDbEntity
  8
0
  6
CONTINUOUS
 62
               7
100
AcDbLine
 10
57.5
 20
4.5
 30
0.0
 11
64.0
 21
4.5
 31
0.0
  0
LINE
  5
64
100
AcDbEntity
  8
0
  6
CONTINUOUS
 62
               7
100
AcDbLine
 10
57.0
 20
-12.0
 30
0.0
 11
64.0
 21
-12.0
 31
0.0
  0
LINE
  5
65
100
AcDbEntity
  8
0
  6
CONTINUOUS
 62
               7
100
AcDbLine
 10
57.0
 20
12.0
 30
0.0
 11
64.0
 21
12.0
 31
0.0
  0
SPLINE
  5
66
100
AcDbEntity
  8
0
  6
CONTINUOUS
 62
               7
100
AcDbSpline
210
0.0
220
0.0
230
1.0
 70
               0
 71
               3
 72
               0
 73
               0
 74
               5
 44
0.000001
 12
0.5262037021178121
 22
-0.8503585501878069
 32
0.0
 13
-0.5262037021178122
 23
-0.8503585501878068
 33
0.0
 11
80.726497308103745
 21
5.0
 31
0.0
 11
81.285378232102147
 21
3.8015013436920961
 31
0.0
 11
81.5
 21
2.5
 31
0.0
 11
81.285378232102147
 21
1.1984986563079043
 31
0.0
 11
80.726497308103745
 21
0.0000000000000004
 31
0.0
  0
SPLINE
  5
67
100
AcDbEntity
  8
0
  6
CONTINUOUS
 62
               7
100
AcDbSpline
210
0.0
220
0.0
230
1.0
 70
               0
 71
               3
 72
               0
 73
               0
 74
               5
 44
0.000001
 12
0.5262037021178121
 22
0.8503585501878069
 32
0.0
 13
-0.5262037021178122
 23
0.8503585501878068
 33
0.0
 11
80.726497308103745
 21
-5.0
 31
0.0
 11
81.285378232102147
 21
-3.8015013436920961
 31
0.0
 11
81.5
 21
-2.5
 31
0.0
 11
81.285378232102147
 21
-1.1984986563079043
 31
0.0
 11
80.726497308103745
 21
-0.0000000000000004
 31
0.0
  0
SPLINE
  5
68
100
AcDbEntity
  8
0
  6
CONTINUOUS
 62
               7
100
AcDbSpline
210
0.0
220
0.0
230
1.0
 70
               0
 71
               3
 72
               0
 73
               0
 74
               5
 44
0.000001
 12
0.3364388986558901
 22
-0.9417052975698989
 32
0.0
 13
-0.33643889865589
 23
-0.9417052975698989
 33
0.0
 11
84.387392608830396
 21
3.5000000000000711
 31
0.0
 11
84.618457305229967
 21
2.639236664851377
 31
0.0
 11
84.699999999999989
 21
1.7500000000000355
 31
0.0
 11
84.618457305229967
 21
0.8607633351486943
 31
0.0
 11
84.387392608830396
 21
0.0
 31
0.0
  0
SPLINE
  5
69
100
AcDbEntity
  8
0
  6
CONTINUOUS
 62
               7
100
AcDbSpline
210
0.0
220
0.0
230
1.0
 70
               0
 71
               3
 72
               0
 73
               0
 74
               5
 44
0.000001
 12
0.3364388986558901
 22
0.9417052975698989
 32
0.0
 13
-0.33643889865589
 23
0.9417052975698989
 33
0.0
 11
84.387392608830396
 21
-3.5000000000000711
 31
0.0
 11
84.618457305229967
 21
-2.639236664851377
 31
0.0
 11
84.699999999999989
 21
-1.7500000000000355
 31
0.0
 11
84.618457305229967
 21
-0.8607633351486943
 31
0.0
 11
84.387392608830396
 21
0.0
 31
0.0
  0
SPLINE
  5
6A
100
AcDbEntity
  8
0
  6
CONTINUOUS
 62
               7
100
AcDbSpline
210
0.0
220
0.0
230
1.0
 70
               0
 71
               3
 72
               0
 73
               0
 74
               5
 44
0.000001
 12
-0.33643889865589
 22
-0.9417052975698989
 32
0.0
 13
0.3364388986558901
 23
-0.9417052975698989
 33
0.0
 11
81.812607391169621
 21
3.5000000000000711
 31
0.0
 11
81.58154269477005
 21
2.639236664851377
 31
0.0
 11
81.500000000000028
 21
1.7500000000000355
 31
0.0
 11
81.58154269477005
 21
0.8607633351486943
 31
0.0
 11
81.812607391169621
 21
0.0
 31
0.0
  0
SPLINE
  5
6B
100
AcDbEntity
  8
0
  6
CONTINUOUS
 62
               7
100
AcDbSpline
210
0.0
220
0.0
230
1.0
 70
               0
 71
               3
 72
               0
 73
               0
 74
               5
 44
0.000001
 12
-0.33643889865589
 22
0.9417052975698989
 32
0.0
 13
0.3364388986558901
 23
0.9417052975698989
 33
0.0
 11
81.812607391169621
 21
-3.5000000000000711
 31
0.0
 11
81.58154269477005
 21
-2.639236664851377
 31
0.0
 11
81.500000000000028
 21
-1.7500000000000355
 31
0.0
 11
81.58154269477005
 21
-0.8607633351486943
 31
0.0
 11
81.812607391169621
 21
0.0
 31
0.0
  0
LINE
  5
6C
100
AcDbEntity
  8
0
  6
CONTINUOUS
 62
               7
100
AcDbLine
 10
57.5
 20
-8.4999999999999858
 30
0.0
 11
57.700000000000017
 21
-8.4999999999999858
 31
0.0
  0
LINE
  5
6D
100
AcDbEntity
  8
0
  6
CONTINUOUS
 62
               7
100
AcDbLine
 10
57.5
 20
-6.5
 30
0.0
 11
57.700000000000017
 21
-6.5
 31
0.0
  0
ARC
  5
6E
100
AcDbEntity
  8
0
  6
CONTINUOUS
 62
               7
100
AcDbCircle
 10
57.700000000000017
 20
-6.7999999999999972
 30
0.0
 40
0.3
100
AcDbArc
 50
0.0
 51
90.0
  0
ARC
  5
6F
100
AcDbEntity
  8
0
  6
CONTINUOUS
 62
               7
100
AcDbCircle
 10
57.700000000000017
 20
-8.2000000000000028
 30
0.0
 40
0.3
100
AcDbArc
 50
270.0
 51
0.0
  0
LINE
  5
70
100
AcDbEntity
  8
0
  6
CONTINUOUS
 62
               7
100
AcDbLine
 10
58.0
 20
-6.7999999999999972
 30
0.0
 11
58.0
 21
-8.2000000000000028
 31
0.0
  0
LINE
  5
71
100
AcDbEntity
  8
0
  6
CONTINUOUS
 62
               7
100
AcDbLine
 10
57.0
 20
-9.2999999999999972
 30
0.0
 11
57.5
 21
-9.2999999999999972
 31
0.0
  0
LINE
  5
72
100
AcDbEntity
  8
0
  6
CONTINUOUS
 62
               7
100
AcDbLine
 10
57.5
 20
6.5000000000000071
 30
0.0
 11
57.700000000000017
 21
6.5000000000000071
 31
0.0
  0
LINE
  5
73
100
AcDbEntity
  8
0
  6
CONTINUOUS
 62
               7
100
AcDbLine
 10
57.5
 20
8.5
 30
0.0
 11
57.700000000000017
 21
8.5
 31
0.0
  0
ARC
  5
74
100
AcDbEntity
  8
0
  6
CONTINUOUS
 62
               7
100
AcDbCircle
 10
57.700000000000017
 20
8.2000000000000171
 30
0.0
 40
0.3
100
AcDbArc
 50
0.0
 51
90.0
  0
ARC
  5
75
100
AcDbEntity
  8
0
  6
CONTINUOUS
 62
               7
100
AcDbCircle
 10
57.700000000000017
 20
6.8000000000000043
 30
0.0
 40
0.3
100
AcDbArc
 50
270.0
 51
0.0
  0
LINE
  5
76
100
AcDbEntity
  8
0
  6
CONTINUOUS
 62
               7
100
AcDbLine
 10
58.0
 20
8.2000000000000171
 30
0.0
 11
58.0
 21
6.8000000000000043
 31
0.0
  0
LINE
  5
77
100
AcDbEntity
  8
0
  6
CONTINUOUS
 62
               7
100
AcDbLine
 10
57.0
 20
9.2999999999999972
 30
0.0
 11
57.5
 21
9.2999999999999972
 31
0.0
  0
LINE
  5
78
100
AcDbEntity
  8
0
  6
CONTINUOUS
 62
               7
100
AcDbLine
 10
57.5
 20
9.2999999999999972
 30
0.0
 11
57.5
 21
-9.2999999999999972
 31
0.0
  0
CIRCLE
  5
79
100
AcDbEntity
  8
0
  6
CONTINUOUS
 62
               7
100
AcDbCircle
 10
27.999999997462709
 20
-9.5
 30
0.0
 40
1.6000000000000001
  0
CIRCLE
  5
7A
100
AcDbEntity
  8
0
  6
CONTINUOUS
 62
               7
100
AcDbCircle
 10
27.999999997462709
 20
9.5
 30
0.0
 40
1.6000000000000001
  0
CIRCLE
  5
7B
100
AcDbEntity
  8
0
  6
CONTINUOUS
 62
               7
100
AcDbCircle
 10
43.999999997462709
 20
9.5
 30
0.0
 40
1.6000000000000001
  0
LINE
  5
7C
100
AcDbEntity
  8
0
  6
CONTINUOUS
 62
               7
100
AcDbLine
 10
0.0
 20
-13.0
 30
0.0
 11
57.0
 21
-13.0
 31
0.0
  0
LINE
  5
7D
100
AcDbEntity
  8
0
  6
CONTINUOUS
 62
               7
100
AcDbLine
 10
57.0
 20
-13.0
 30
0.0
 11
57.0
 21
13.0
 31
0.0
  0
LINE
  5
7E
100
AcDbEntity
  8
0
  6
CONTINUOUS
 62
               7
100
AcDbLine
 10
15.5
 20
-13.0
 30
0.0
 11
15.5
 21
13.0
 31
0.0
  0
CIRCLE
  5
7F
100
AcDbEntity
  8
0
  6
CONTINUOUS
 62
               7
100
AcDbCircle
 10
23.0
 20
-9.5
 30
0.0
 40
1.25
  0
CIRCLE
  5
80
100
AcDbEntity
  8
0
  6
CONTINUOUS
 62
               2
100
AcDbCircle
 10
23.0
 20
-9.5
 30
0.0
 40
1.5
  0
LINE
  5
81
100
AcDbEntity
  8
0
  6
CONTINUOUS
 62
               2
100
AcDbLine
 10
23.0
 20
-7.0
 30
0.0
 11
23.0
 21
-12.0
 31
0.0
  0
CIRCLE
  5
82
100
AcDbEntity
  8
0
  6
CONTINUOUS
 62
               7
100
AcDbCircle
 10
39.0
 20
9.5
 30
0.0
 40
1.25
  0
CIRCLE
  5
83
100
AcDbEntity
  8
0
  6
CONTINUOUS
 62
               2
100
AcDbCircle
 10
39.0
 20
9.5
 30
0.0
 40
1.5
  0
LINE
  5
84
100
AcDbEntity
  8
0
  6
CONTINUOUS
 62
               2
100
AcDbLine
 10
39.0
 20
7.0
 30
0.0
 11
39.0
 21
12.0
 31
0.0
  0
CIRCLE
  5
85
100
AcDbEntity
  8
0
  6
CONTINUOUS
 62
               7
100
AcDbCircle
 10
29.0
 20
9.5
 30
0.0
 40
2.8999999999999999
  0
LINE
  5
86
100
AcDbEntity
  8
0
  6
CONTINUOUS
 62
               2
100
AcDbLine
 10
29.0
 20
5.5999999999999943
 30
0.0
 11
29.0
 21
13.399999999999991
 31
0.0
  0
CIRCLE
  5
87
100
AcDbEntity
  8
0
  6
CONTINUOUS
 62
               7
100
AcDbCircle
 10
23.0
 20
9.5
 30
0.0
 40
1.25
  0
CIRCLE
  5
88
100
AcDbEntity
  8
0
  6
CONTINUOUS
 62
               2
100
AcDbCircle
 10
23.0
 20
9.5
 30
0.0
 40
1.5
  0
LINE
  5
89
100
AcDbEntity
  8
0
  6
CONTINUOUS
 62
               7
100
AcDbLine
 10
0.0
 20
13.0
 30
0.0
 11
57.0
 21
13.0
 31
0.0
  0
LINE
  5
8A
100
AcDbEntity
  8
0
  6
CONTINUOUS
 62
               2
100
AcDbLine
 10
23.0
 20
7.0
 30
0.0
 11
23.0
 21
12.0
 31
0.0
  0
LINE
  5
8B
100
AcDbEntity
  8
0
  6
CONTINUOUS
 62
               2
100
AcDbLine
 10
23.0
 20
-2.5
 30
0.0
 11
23.0
 21
2.5
 31
0.0
  0
CIRCLE
  5
8C
100
AcDbEntity
  8
0
  6
CONTINUOUS
 62
               7
100
AcDbCircle
 10
23.0
 20
0.0
 30
0.0
 40
1.5
  0
ARC
  5
8D
100
AcDbEntity
  8
0
  6
CONTINUOUS
 62
               7
100
AcDbCircle
 10
38.5
 20
0.0
 30
0.0
 40
1.5
100
AcDbArc
 50
90.0
 51
270.0
  0
LINE
  5
8E
100
AcDbEntity
  8
0
  6
CONTINUOUS
 62
               2
100
AcDbLine
 10
39.0
 20
2.2999999999999972
 30
0.0
 11
39.0
 21
-2.2999999999999972
 31
0.0
  0
ARC
  5
8F
100
AcDbEntity
  8
0
  6
CONTINUOUS
 62
               7
100
AcDbCircle
 10
39.5
 20
0.0
 30
0.0
 40
1.5
100
AcDbArc
 50
270.0
 51
90.0
  0
LINE
  5
90
100
AcDbEntity
  8
0
  6
CONTINUOUS
 62
               7
100
AcDbLine
 10
39.5
 20
1.5
 30
0.0
 11
38.5
 21
1.5
 31
0.0
  0
LINE
  5
91
100
AcDbEntity
  8
0
  6
CONTINUOUS
 62
               7
100
AcDbLine
 10
39.5
 20
-1.5
 30
0.0
 11
38.5
 21
-1.5
 31
0.0
  0
LINE
  5
92
100
AcDbEntity
  8
0
  6
CONTINUOUS
 62
               2
100
AcDbLine
 10
20.5
 20
9.5
 30
0.0
 11
32.900000000000006
 21
9.5
 31
0.0
  0
LINE
  5
93
100
AcDbEntity
  8
0
  6
CONTINUOUS
 62
               7
100
AcDbLine
 10
30.999999997462709
 20
9.5
 30
0.0
 11
30.999999997462709
 21
11.600000002416465
 31
0.0
  0
ARC
  5
94
100
AcDbEntity
  8
0
  6
CONTINUOUS
 62
               7
100
AcDbCircle
 10
27.999999997462709
 20
9.5
 30
0.0
 40
3.0
100
AcDbArc
 50
285.3669528080801
 51
0.0
  0
LINE
  5
95
100
AcDbEntity
  8
0
  6
CONTINUOUS
 62
               2
100
AcDbLine
 10
27.999999997462709
 20
5.5999999999999943
 30
0.0
 11
27.999999997462709
 21
13.399999999999991
 31
0.0
  0
CIRCLE
  5
96
100
AcDbEntity
  8
0
  6
CONTINUOUS
 62
               7
100
AcDbCircle
 10
45.0
 20
9.5
 30
0.0
 40
2.8999999999999999
  0
LINE
  5
97
100
AcDbEntity
  8
0
  6
CONTINUOUS
 62
               2
100
AcDbLine
 10
45.0
 20
5.5999999999999943
 30
0.0
 11
45.0
 21
13.399999999999991
 31
0.0
  0
LINE
  5
98
100
AcDbEntity
  8
0
  6
CONTINUOUS
 62
               2
100
AcDbLine
 10
36.5
 20
9.5
 30
0.0
 11
48.900000000000006
 21
9.5
 31
0.0
  0
LINE
  5
99
100
AcDbEntity
  8
0
  6
CONTINUOUS
 62
               7
100
AcDbLine
 10
46.999999997462709
 20
9.5
 30
0.0
 11
46.999999997462709
 21
11.600000002416465
 31
0.0
  0
LINE
  5
9A
100
AcDbEntity
  8
0
  6
CONTINUOUS
 62
               2
100
AcDbLine
 10
43.999999997462709
 20
5.5999999999999943
 30
0.0
 11
43.999999997462709
 21
13.399999999999991
 31
0.0
  0
ARC
  5
9B
100
AcDbEntity
  8
0
  6
CONTINUOUS
 62
               7
100
AcDbCircle
 10
43.999999997462709
 20
9.5
 30
0.0
 40
3.0
100
AcDbArc
 50
285.3669528080801
 51
0.0
  0
CIRCLE
  5
9C
100
AcDbEntity
  8
0
  6
CONTINUOUS
 62
               7
100
AcDbCircle
 10
29.0
 20
-9.5
 30
0.0
 40
2.8999999999999999
  0
LINE
  5
9D
100
AcDbEntity
  8
0
  6
CONTINUOUS
 62
               2
100
AcDbLine
 10
29.0
 20
-5.5999999999999943
 30
0.0
 11
29.0
 21
-13.400000000000006
 31
0.0
  0
LINE
  5
9E
100
AcDbEntity
  8
0
  6
CONTINUOUS
 62
               2
100
AcDbLine
 10
20.5
 20
-9.5
 30
0.0
 11
32.900000000000006
 21
-9.5
 31
0.0
  0
LINE
  5
9F
100
AcDbEntity
  8
0
  6
CONTINUOUS
 62
               7
100
AcDbLine
 10
30.999999997462709
 20
-9.5
 30
0.0
 11
30.999999997462709
 21
-11.600000002416465
 31
0.0
  0
LINE
  5
A0
100
AcDbEntity
  8
0
  6
CONTINUOUS
 62
               2
100
AcDbLine
 10
27.999999997462709
 20
-5.5999999999999943
 30
0.0
 11
27.999999997462709
 21
-13.400000000000006
 31
0.0
  0
ARC
  5
A1
100
AcDbEntity
  8
0
  6
CONTINUOUS
 62
               7
100
AcDbCircle
 10
27.999999997462709
 20
-9.5
 30
0.0
 40
3.0
100
AcDbArc
 50
0.0
 51
74.633047191919886
  0
LINE
  5
A2
100
AcDbEntity
  8
0
  6
CONTINUOUS
 62
               7
100
AcDbLine
 10
0.0
 20
12.5
 30
0.0
 11
57.0
 21
12.5
 31
0.0
  0
LINE
  5
A3
100
AcDbEntity
  8
0
  6
CONTINUOUS
 62
               7
100
AcDbLine
 10
0.0
 20
-12.5
 30
0.0
 11
57.0
 21
-12.5
 31
0.0
  0
CIRCLE
  5
A4
100
AcDbEntity
  8
0
  6
CONTINUOUS
 62
               2
100
AcDbCircle
 10
39.0
 20
-9.5
 30
0.0
 40
1.5
  0
LINE
  5
A5
100
AcDbEntity
  8
0
  6
CONTINUOUS
 62
               2
100
AcDbLine
 10
39.0
 20
-7.0
 30
0.0
 11
39.0
 21
-12.0
 31
0.0
  0
CIRCLE
  5
A6
100
AcDbEntity
  8
0
  6
CONTINUOUS
 62
               7
100
AcDbCircle
 10
45.0
 20
-9.5
 30
0.0
 40
2.8999999999999999
  0
LINE
  5
A7
100
AcDbEntity
  8
0
  6
CONTINUOUS
 62
               2
100
AcDbLine
 10
45.0
 20
-5.5999999999999943
 30
0.0
 11
45.0
 21
-13.399999999999991
 31
0.0
  0
LINE
  5
A8
100
AcDbEntity
  8
0
  6
CONTINUOUS
 62
               2
100
AcDbLine
 10
36.5
 20
-9.5
 30
0.0
 11
48.900000000000006
 21
-9.5
 31
0.0
  0
LINE
  5
A9
100
AcDbEntity
  8
0
  6
CONTINUOUS
 62
               7
100
AcDbLine
 10
46.999999997462709
 20
-9.5
 30
0.0
 11
46.999999997462709
 21
-11.600000002416465
 31
0.0
  0
LINE
  5
AA
100
AcDbEntity
  8
0
  6
CONTINUOUS
 62
               2
100
AcDbLine
 10
43.999999997462709
 20
-5.5999999999999943
 30
0.0
 11
43.999999997462709
 21
-13.399999999999991
 31
0.0
  0
ARC
  5
AB
100
AcDbEntity
  8
0
  6
CONTINUOUS
 62
               7
100
AcDbCircle
 10
43.999999997462709
 20
-9.5
 30
0.0
 40
3.0
100
AcDbArc
 50
0.0
 51
74.633047191919914
  0
CIRCLE
  5
AC
100
AcDbEntity
  8
0
  6
CONTINUOUS
 62
               7
100
AcDbCircle
 10
39.0
 20
-9.5
 30
0.0
 40
1.25
  0
CIRCLE
  5
AD
100
AcDbEntity
  8
0
  6
CONTINUOUS
 62
               7
100
AcDbCircle
 10
43.999999997462709
 20
-9.5
 30
0.0
 40
1.6000000000000001
  0
LINE
  5
AF
100
AcDbEntity
  8
0
  6
PHANTOM
 62
               3
100
AcDbLine
 10
68.999999997462709
 20
-22.778513498289669
 30
0.0
 11
68.999999997462709
 21
24.46756042926512
 31
0.0
  0
LINE
  5
B1
100
AcDbEntity
  8
0
  6
CENTER
 62
               2
100
AcDbLine
 10
-5.0
 20
0.0
 30
0.0
 11
90.0
 21
0.0
 31
0.0
  0
LINE
  5
B2
100
AcDbEntity
  8
0
  6
PHANTOM
 62
               3
100
AcDbLine
 10
34.450000000000003
 20
-22.778513498289669
 30
0.0
 11
34.450000000000003
 21
24.46756042926512
 31
0.0
  0
ENDBLK
  5
B3
100
AcDbEntity
  8
0
100
AcDbBlockEnd
  0
BLOCK
  5
B4
100
AcDbEntity
  8
0
100
AcDbBlockBegin
  2
MGAPG10-2
 70
               0
 10
0.0
 20
0.0
 30
0.0
  3
MGAPG10-2
  1

  0
LINE
  5
B5
100
AcDbEntity
  8
0
  6
CONTINUOUS
 62
               7
100
AcDbLine
 10
6.5
 20
5.2000000000000028
 30
0.0
 11
1.5
 21
5.2000000000000028
 31
0.0
  0
LINE
  5
B6
100
AcDbEntity
  8
0
  6
CONTINUOUS
 62
               7
100
AcDbLine
 10
6.5
 20
-5.2000000000000028
 30
0.0
 11
1.5
 21
-5.2000000000000028
 31
0.0
  0
LINE
  5
B7
100
AcDbEntity
  8
0
  6
CONTINUOUS
 62
               7
100
AcDbLine
 10
1.5
 20
3.2000000000000028
 30
0.0
 11
3.0576171043882994
 21
3.2000000000000028
 31
0.0
  0
LINE
  5
B8
100
AcDbEntity
  8
0
  6
CONTINUOUS
 62
               7
100
AcDbLine
 10
1.5
 20
-3.2000000000000028
 30
0.0
 11
3.0576171043882994
 21
-3.2000000000000028
 31
0.0
  0
ARC
  5
B9
100
AcDbEntity
  8
0
  6
CONTINUOUS
 62
               7
100
AcDbCircle
 10
6.5
 20
0.0
 30
0.0
 40
5.0
100
AcDbArc
 50
140.20818050044272
 51
219.79181949955728
  0
ARC
  5
BA
100
AcDbEntity
  8
0
  6
CONTINUOUS
 62
               7
100
AcDbCircle
 10
6.5
 20
0.0
 30
0.0
 40
5.2000000000000028
100
AcDbArc
 50
270.0
 51
90.0
  0
CIRCLE
  5
BB
100
AcDbEntity
  8
0
  6
CONTINUOUS
 62
               7
100
AcDbCircle
 10
6.5
 20
0.0
 30
0.0
 40
1.7
  0
CIRCLE
  5
BC
100
AcDbEntity
  8
0
  6
CONTINUOUS
 62
               7
100
AcDbCircle
 10
6.5
 20
0.0
 30
0.0
 40
4.7000000000000002
  0
LINE
  5
BD
100
AcDbEntity
  8
0
  6
CONTINUOUS
 62
               7
100
AcDbLine
 10
1.5
 20
-13.0
 30
0.0
 11
15.5
 21
-13.0
 31
0.0
  0
LINE
  5
BE
100
AcDbEntity
  8
0
  6
CONTINUOUS
 62
               7
100
AcDbLine
 10
0.0
 20
-12.5
 30
0.0
 11
1.5
 21
-12.5
 31
0.0
  0
LINE
  5
BF
100
AcDbEntity
  8
0
  6
CONTINUOUS
 62
               7
100
AcDbLine
 10
0.0
 20
12.5
 30
0.0
 11
1.5
 21
12.5
 31
0.0
  0
LINE
  5
C0
100
AcDbEntity
  8
0
  6
CONTINUOUS
 62
               7
100
AcDbLine
 10
16.0
 20
12.5
 30
0.0
 11
16.0
 21
-12.500000000000114
 31
0.0
  0
LINE
  5
C1
100
AcDbEntity
  8
0
  6
CONTINUOUS
 62
               2
100
AcDbLine
 10
6.5
 20
6.0
 30
0.0
 11
6.5
 21
-6.0
 31
0.0
  0
CIRCLE
  5
C2
100
AcDbEntity
  8
0
  6
CONTINUOUS
 62
               7
100
AcDbCircle
 10
12.99999988079071
 20
-8.5
 30
0.0
 40
2.4035892486572266
  0
CIRCLE
  5
C3
100
AcDbEntity
  8
0
  6
CONTINUOUS
 62
               7
100
AcDbCircle
 10
13.0
 20
-8.5
 30
0.0
 40
2.75
  0
LINE
  5
C4
100
AcDbEntity
  8
0
  6
CONTINUOUS
 62
               7
100
AcDbLine
 10
13.721687955956924
 20
-9.7499999202652816
 30
0.0
 11
14.443375663656724
 21
-8.4999999307231064
 31
0.0
  0
LINE
  5
C5
100
AcDbEntity
  8
0
  6
CONTINUOUS
 62
               7
100
AcDbLine
 10
11.556625162249503
 20
-8.5000005461139949
 30
0.0
 11
12.278312869949303
 21
-7.2500005565718197
 31
0.0
  0
LINE
  5
C6
100
AcDbEntity
  8
0
  6
CONTINUOUS
 62
               7
100
AcDbLine
 10
14.443374837750497
 20
-8.5000005461139949
 30
0.0
 11
13.721687130050697
 21
-7.2500005565718197
 31
0.0
  0
LINE
  5
C7
100
AcDbEntity
  8
0
  6
CONTINUOUS
 62
               7
100
AcDbLine
 10
12.278312044043076
 20
-9.7499999202652816
 30
0.0
 11
11.556624336343276
 21
-8.4999999307231064
 31
0.0
  0
LINE
  5
C8
100
AcDbEntity
  8
0
  6
CONTINUOUS
 62
               7
100
AcDbLine
 10
12.278312087059021
 20
-7.25
 30
0.0
 11
13.721687912940979
 21
-7.25
 31
0.0
  0
LINE
  5
C9
100
AcDbEntity
  8
0
  6
CONTINUOUS
 62
               7
100
AcDbLine
 10
12.278311967849731
 20
-9.75
 30
0.0
 11
13.721688032150269
 21
-9.75
 31
0.0
  0
ARC
  5
CA
100
AcDbEntity
  8
0
  6
CONTINUOUS
 62
               7
100
AcDbCircle
 10
13.0
 20
-8.5
 30
0.0
 40
3.0
100
AcDbArc
 50
90.0
 51
270.0
  0
LINE
  5
CB
100
AcDbEntity
  8
0
  6
CONTINUOUS
 62
               7
100
AcDbLine
 10
15.799999999999997
 20
12.499999999999972
 30
0.0
 11
15.799999999999997
 21
-12.5
 31
0.0
  0
LINE
  5
CC
100
AcDbEntity
  8
0
  6
CONTINUOUS
 62
               7
100
AcDbLine
 10
1.5
 20
13.0
 30
0.0
 11
1.5
 21
3.2000000000000028
 31
0.0
  0
CIRCLE
  5
CD
100
AcDbEntity
  8
0
  6
CONTINUOUS
 62
               7
100
AcDbCircle
 10
6.5
 20
3.2500000000000142
 30
0.0
 40
0.6
  0
CIRCLE
  5
CE
100
AcDbEntity
  8
0
  6
CONTINUOUS
 62
               7
100
AcDbCircle
 10
6.5
 20
-3.2500000000000142
 30
0.0
 40
0.6
  0
CIRCLE
  5
CF
100
AcDbEntity
  8
0
  6
CONTINUOUS
 62
               7
100
AcDbCircle
 10
7.0
 20
-9.0
 30
0.0
 40
1.25
  0
LINE
  5
D0
100
AcDbEntity
  8
0
  6
CONTINUOUS
 62
               2
100
AcDbLine
 10
4.5
 20
-9.0
 30
0.0
 11
9.4999999999999716
 21
-9.0
 31
0.0
  0
CIRCLE
  5
D1
100
AcDbEntity
  8
0
  6
CONTINUOUS
 62
               2
100
AcDbCircle
 10
7.0
 20
-9.0
 30
0.0
 40
1.5
  0
LINE
  5
D2
100
AcDbEntity
  8
0
  6
CONTINUOUS
 62
               2
100
AcDbLine
 10
7.0
 20
-6.5
 30
0.0
 11
7.0
 21
-11.5
 31
0.0
  0
LINE
  5
D3
100
AcDbEntity
  8
0
  6
CONTINUOUS
 62
               7
100
AcDbLine
 10
13.0
 20
-5.5
 30
0.0
 11
15.799999999999997
 21
-5.5
 31
0.0
  0
LINE
  5
D4
100
AcDbEntity
  8
0
  6
CONTINUOUS
 62
               7
100
AcDbLine
 10
13.0
 20
-11.5
 30
0.0
 11
15.799999999999997
 21
-11.5
 31
0.0
  0
CIRCLE
  5
D5
100
AcDbEntity
  8
0
  6
CONTINUOUS
 62
               7
100
AcDbCircle
 10
12.99999988079071
 20
8.5
 30
0.0
 40
2.4035892486572266
  0
CIRCLE
  5
D6
100
AcDbEntity
  8
0
  6
CONTINUOUS
 62
               7
100
AcDbCircle
 10
13.0
 20
8.5
 30
0.0
 40
2.75
  0
LINE
  5
D7
100
AcDbEntity
  8
0
  6
CONTINUOUS
 62
               7
100
AcDbLine
 10
13.721687955956924
 20
9.7499999202652816
 30
0.0
 11
14.443375663656724
 21
8.4999999307231064
 31
0.0
  0
LINE
  5
D8
100
AcDbEntity
  8
0
  6
CONTINUOUS
 62
               7
100
AcDbLine
 10
14.443374837750497
 20
8.5000005461139949
 30
0.0
 11
13.721687130050697
 21
7.2500005565718197
 31
0.0
  0
ARC
  5
D9
100
AcDbEntity
  8
0
  6
CONTINUOUS
 62
               7
100
AcDbCircle
 10
13.0
 20
8.5
 30
0.0
 40
3.0
100
AcDbArc
 50
90.0
 51
270.0
  0
LINE
  5
DA
100
AcDbEntity
  8
0
  6
CONTINUOUS
 62
               7
100
AcDbLine
 10
13.0
 20
5.5
 30
0.0
 11
15.799999999999997
 21
5.5
 31
0.0
  0
LINE
  5
DB
100
AcDbEntity
  8
0
  6
CONTINUOUS
 62
               7
100
AcDbLine
 10
13.0
 20
11.5
 30
0.0
 11
15.799999999999997
 21
11.5
 31
0.0
  0
LINE
  5
DC
100
AcDbEntity
  8
0
  6
CONTINUOUS
 62
               7
100
AcDbLine
 10
12.278311967849731
 20
9.75
 30
0.0
 11
13.721688032150269
 21
9.75
 31
0.0
  0
LINE
  5
DD
100
AcDbEntity
  8
0
  6
CONTINUOUS
 62
               7
100
AcDbLine
 10
12.278312087059021
 20
7.25
 30
0.0
 11
13.721687912940979
 21
7.25
 31
0.0
  0
LINE
  5
DE
100
AcDbEntity
  8
0
  6
CONTINUOUS
 62
               7
100
AcDbLine
 10
12.278312044043076
 20
9.7499999202652816
 30
0.0
 11
11.556624336343276
 21
8.4999999307231064
 31
0.0
  0
LINE
  5
DF
100
AcDbEntity
  8
0
  6
CONTINUOUS
 62
               7
100
AcDbLine
 10
11.556625162249503
 20
8.5000005461139949
 30
0.0
 11
12.278312869949303
 21
7.2500005565718197
 31
0.0
  0
LINE
  5
E0
100
AcDbEntity
  8
0
  6
CONTINUOUS
 62
               2
100
AcDbLine
 10
4.5
 20
9.0
 30
0.0
 11
9.4999999999999716
 21
9.0
 31
0.0
  0
CIRCLE
  5
E1
100
AcDbEntity
  8
0
  6
CONTINUOUS
 62
               2
100
AcDbCircle
 10
7.0
 20
9.0
 30
0.0
 40
1.5
  0
LINE
  5
E2
100
AcDbEntity
  8
0
  6
CONTINUOUS
 62
               2
100
AcDbLine
 10
7.0
 20
6.5
 30
0.0
 11
7.0
 21
11.5
 31
0.0
  0
CIRCLE
  5
E3
100
AcDbEntity
  8
0
  6
CONTINUOUS
 62
               7
100
AcDbCircle
 10
7.0
 20
9.0
 30
0.0
 40
1.25
  0
LINE
  5
E4
100
AcDbEntity
  8
0
  6
CONTINUOUS
 62
               7
100
AcDbLine
 10
1.5
 20
13.0
 30
0.0
 11
15.5
 21
13.0
 31
0.0
  0
LINE
  5
E5
100
AcDbEntity
  8
0
  6
CONTINUOUS
 62
               7
100
AcDbLine
 10
15.299999999999997
 20
13.0
 30
0.0
 11
15.799999999999997
 21
12.499999999999972
 31
0.0
  0
LINE
  5
E6
100
AcDbEntity
  8
0
  6
CONTINUOUS
 62
               7
100
AcDbLine
 10
16.0
 20
12.5
 30
0.0
 11
15.5
 21
12.999999999999986
 31
0.0
  0
LINE
  5
E7
100
AcDbEntity
  8
0
  6
CONTINUOUS
 62
               7
100
AcDbLine
 10
15.799999999999997
 20
-12.5
 30
0.0
 11
15.300000000000097
 21
-13.0
 31
0.0
  0
LINE
  5
E8
100
AcDbEntity
  8
0
  6
CONTINUOUS
 62
               7
100
AcDbLine
 10
15.5
 20
-13.0
 30
0.0
 11
16.0
 21
-12.500000000000114
 31
0.0
  0
LINE
  5
E9
100
AcDbEntity
  8
0
  6
CONTINUOUS
 62
               7
100
AcDbLine
 10
1.5
 20
-3.2000000000000028
 30
0.0
 11
1.5
 21
-13.0
 31
0.0
  0
LINE
  5
EA
100
AcDbEntity
  8
0
  6
CONTINUOUS
 62
               7
100
AcDbLine
 10
0.0
 20
-3.7000000000000171
 30
0.0
 11
0.0
 21
-12.5
 31
0.0
  0
LINE
  5
EB
100
AcDbEntity
  8
0
  6
CONTINUOUS
 62
               7
100
AcDbLine
 10
0.0
 20
12.5
 30
0.0
 11
0.0
 21
3.7000000000000028
 31
0.0
  0
LINE
  5
EC
100
AcDbEntity
  8
0
  6
CONTINUOUS
 62
               7
100
AcDbLine
 10
0.2999999999999972
 20
3.3999999999999915
 30
0.0
 11
0.0
 21
3.7000000000000028
 31
0.0
  0
LINE
  5
ED
100
AcDbEntity
  8
0
  6
CONTINUOUS
 62
               7
100
AcDbLine
 10
0.2999999999999972
 20
-3.4000000000000057
 30
0.0
 11
0.0
 21
-3.7000000000000171
 31
0.0
  0
LINE
  5
EE
100
AcDbEntity
  8
0
  6
CONTINUOUS
 62
               7
100
AcDbLine
 10
0.2999999999999972
 20
3.3999999999999915
 30
0.0
 11
0.2999999999999972
 21
-3.4000000000000057
 31
0.0
  0
LINE
  5
EF
100
AcDbEntity
  8
0
  6
CONTINUOUS
 62
               2
100
AcDbLine
 10
-1.3611854854500507
 20
9.5
 30
0.0
 11
2.6747344633773196
 21
9.5
 31
0.0
  0
LINE
  5
F0
100
AcDbEntity
  8
0
  6
CONTINUOUS
 62
               2
100
AcDbLine
 10
-1.3611854854500507
 20
-9.5
 30
0.0
 11
2.6747344633773196
 21
-9.5
 31
0.0
  0
LINE
  5
F1
100
AcDbEntity
  8
0
  6
CENTER
 62
               2
100
AcDbLine
 10
-4.0
 20
0.0
 30
0.0
 11
20.0
 21
0.0
 31
0.0
  0
ENDBLK
  5
F2
100
AcDbEntity
  8
0
100
AcDbBlockEnd
  0
BLOCK
  5
F3
100
AcDbEntity
  8
0
100
AcDbBlockBegin
  2
MGAPG10-3
 70
               0
 10
0.0
 20
0.0
 30
0.0
  3
MGAPG10-3
  1

  0
LINE
  5
F4
100
AcDbEntity
  8
0
  6
CONTINUOUS
 62
               7
100
AcDbLine
 10
-11.534182867015232
 20
-5.0
 30
0.0
 11
-10.5
 21
-5.0
 31
0.0
  0
LINE
  5
F5
100
AcDbEntity
  8
0
  6
CENTER
 62
               2
100
AcDbLine
 10
4.0
 20
0.0
 30
0.0
 11
-20.0
 21
0.0
 31
0.0
  0
LINE
  5
F6
100
AcDbEntity
  8
0
  6
CONTINUOUS
 62
               7
100
AcDbLine
 10
-1.5
 20
-13.0
 30
0.0
 11
-15.500000000000142
 21
-13.0
 31
0.0
  0
LINE
  5
F7
100
AcDbEntity
  8
0
  6
CONTINUOUS
 62
               7
100
AcDbLine
 10
-1.5
 20
13.0
 30
0.0
 11
-15.500000000000114
 21
13.0
 31
0.0
  0
LINE
  5
F8
100
AcDbEntity
  8
0
  6
CONTINUOUS
 62
               7
100
AcDbLine
 10
-11.534182867015232
 20
5.0
 30
0.0
 11
-10.5
 21
5.0
 31
0.0
  0
CIRCLE
  5
F9
100
AcDbEntity
  8
0
  6
CONTINUOUS
 62
               7
100
AcDbCircle
 10
-6.5
 20
0.0
 30
0.0
 40
5.0
  0
LINE
  5
FA
100
AcDbEntity
  8
0
  6
CONTINUOUS
 62
               7
100
AcDbLine
 10
-9.3867513459481131
 20
5.0
 30
0.0
 11
-12.273502691896255
 21
0.0000000000000284
 31
0.0
  0
LINE
  5
FB
100
AcDbEntity
  8
0
  6
CONTINUOUS
 62
               7
100
AcDbLine
 10
-12.273502691896255
 20
0.0000000000000284
 30
0.0
 11
-9.3867513459481415
 21
-4.9999999999999716
 31
0.0
  0
LINE
  5
FC
100
AcDbEntity
  8
0
  6
CONTINUOUS
 62
               7
100
AcDbLine
 10
-10.5
 20
4.5
 30
0.0
 11
-12.5
 21
4.5
 31
0.0
  0
LINE
  5
FD
100
AcDbEntity
  8
0
  6
CONTINUOUS
 62
               7
100
AcDbLine
 10
-10.5
 20
-4.5
 30
0.0
 11
-12.5
 21
-4.5
 31
0.0
  0
LINE
  5
FE
100
AcDbEntity
  8
0
  6
CONTINUOUS
 62
               7
100
AcDbLine
 10
-12.5
 20
4.5
 30
0.0
 11
-12.5
 21
-4.5
 31
0.0
  0
LINE
  5
FF
100
AcDbEntity
  8
0
  6
CONTINUOUS
 62
               7
100
AcDbLine
 10
-11.199999999999989
 20
-5.3999999999999986
 30
0.0
 11
-11.0
 21
-5.3999999999999986
 31
0.0
  0
LINE
  5
100
100
AcDbEntity
  8
0
  6
CONTINUOUS
 62
               7
100
AcDbLine
 10
-11.199999999999989
 20
5.3999999999999986
 30
0.0
 11
-11.0
 21
5.3999999999999986
 31
0.0
  0
LINE
  5
101
100
AcDbEntity
  8
0
  6
CONTINUOUS
 62
               7
100
AcDbLine
 10
-13.199999999999989
 20
5.1000000000000014
 30
0.0
 11
-13.199999999999989
 21
-5.1000000000000014
 31
0.0
  0
LINE
  5
102
100
AcDbEntity
  8
0
  6
CONTINUOUS
 62
               7
100
AcDbLine
 10
-11.199999999999989
 20
5.1000000000000014
 30
0.0
 11
-13.199999999999989
 21
5.1000000000000014
 31
0.0
  0
LINE
  5
103
100
AcDbEntity
  8
0
  6
CONTINUOUS
 62
               7
100
AcDbLine
 10
-11.199999999999989
 20
9.2999999999999972
 30
0.0
 11
-11.199999999999989
 21
5.1000000000000014
 31
0.0
  0
LINE
  5
104
100
AcDbEntity
  8
0
  6
CONTINUOUS
 62
               7
100
AcDbLine
 10
-11.199999999999989
 20
-5.1000000000000014
 30
0.0
 11
-13.199999999999989
 21
-5.1000000000000014
 31
0.0
  0
LINE
  5
105
100
AcDbEntity
  8
0
  6
CONTINUOUS
 62
               7
100
AcDbLine
 10
-11.199999999999989
 20
-9.2999999999999972
 30
0.0
 11
-11.199999999999989
 21
-5.1000000000000014
 31
0.0
  0
LINE
  5
106
100
AcDbEntity
  8
0
  6
CONTINUOUS
 62
               7
100
AcDbLine
 10
-11.199999999999989
 20
-9.2999999999999972
 30
0.0
 11
-15.699999999999989
 21
-9.2999999999999972
 31
0.0
  0
LINE
  5
107
100
AcDbEntity
  8
0
  6
CONTINUOUS
 62
               7
100
AcDbLine
 10
-11.199999999999989
 20
9.2999999999999972
 30
0.0
 11
-15.699999999999989
 21
9.2999999999999972
 31
0.0
  0
LINE
  5
108
100
AcDbEntity
  8
0
  6
CONTINUOUS
 62
               7
100
AcDbLine
 10
-15.699999999999989
 20
-9.2999999999999972
 30
0.0
 11
-15.699999999999989
 21
9.2999999999999972
 31
0.0
  0
ARC
  5
109
100
AcDbEntity
  8
0
  6
CONTINUOUS
 62
               7
100
AcDbCircle
 10
-12.0
 20
5.0826500600480529
 30
0.0
 40
0.4
100
AcDbArc
 50
249.51268488527725
 51
290.48731511472278
  0
ARC
  5
10A
100
AcDbEntity
  8
0
  6
CONTINUOUS
 62
               7
100
AcDbCircle
 10
-12.070000000000022
 20
5.2700000000000102
 30
0.0
 40
0.6000000000000001
100
AcDbArc
 50
290.48731511472278
 51
333.25631604959665
  0
ARC
  5
10B
100
AcDbEntity
  8
0
  6
CONTINUOUS
 62
               7
100
AcDbCircle
 10
-11.929999999999978
 20
5.2700000000000102
 30
0.0
 40
0.6000000000000001
100
AcDbArc
 50
206.74368395040338
 51
249.51268488527725
  0
LINE
  5
10C
100
AcDbEntity
  8
0
  6
CONTINUOUS
 62
               7
100
AcDbLine
 10
-12.800000000000011
 20
5.0
 30
0.0
 11
-12.465817132984768
 21
5.0
 31
0.0
  0
ARC
  5
10D
100
AcDbEntity
  8
0
  6
CONTINUOUS
 62
               7
100
AcDbCircle
 10
-12.0
 20
5.1999999999999886
 30
0.0
 40
0.5
100
AcDbArc
 50
191.53695903281414
 51
348.4630409671858
  0
LINE
  5
10E
100
AcDbEntity
  8
0
  6
CONTINUOUS
 62
               7
100
AcDbLine
 10
-11.0
 20
13.0
 30
0.0
 11
-11.0
 21
5.3999999999999986
 31
0.0
  0
LINE
  5
10F
100
AcDbEntity
  8
0
  6
CONTINUOUS
 62
               7
100
AcDbLine
 10
-12.799999999999983
 20
-5.0
 30
0.0
 11
-12.800000000000011
 21
5.0
 31
0.0
  0
LINE
  5
110
100
AcDbEntity
  8
0
  6
CONTINUOUS
 62
               7
100
AcDbLine
 10
-16.0
 20
12.5
 30
0.0
 11
-16.0
 21
-12.5
 31
0.0
  0
LINE
  5
111
100
AcDbEntity
  8
0
  6
CONTINUOUS
 62
               7
100
AcDbLine
 10
-12.434314575050735
 20
6.9343145750507631
 30
0.0
 11
-13.565685424949237
 21
8.0656854249492369
 31
0.0
  0
LINE
  5
112
100
AcDbEntity
  8
0
  6
CONTINUOUS
 62
               7
100
AcDbLine
 10
-12.434314575050735
 20
8.0656854249492369
 30
0.0
 11
-13.565685424949237
 21
6.9343145750507631
 31
0.0
  0
CIRCLE
  5
113
100
AcDbEntity
  8
0
  6
CONTINUOUS
 62
               7
100
AcDbCircle
 10
-13.0
 20
7.5
 30
0.0
 40
1.0
  0
LINE
  5
114
100
AcDbEntity
  8
0
  6
CONTINUOUS
 62
               7
100
AcDbLine
 10
-12.434314575050763
 20
-8.0656854249492369
 30
0.0
 11
-13.565685424949265
 21
-6.9343145750507631
 31
0.0
  0
LINE
  5
115
100
AcDbEntity
  8
0
  6
CONTINUOUS
 62
               7
100
AcDbLine
 10
-12.434314575050763
 20
-6.9343145750507631
 30
0.0
 11
-13.565685424949265
 21
-8.0656854249492369
 31
0.0
  0
CIRCLE
  5
116
100
AcDbEntity
  8
0
  6
CONTINUOUS
 62
               7
100
AcDbCircle
 10
-13.0
 20
-7.5
 30
0.0
 40
1.0
  0
LINE
  5
117
100
AcDbEntity
  8
0
  6
CONTINUOUS
 62
               7
100
AcDbLine
 10
-16.0
 20
-12.5
 30
0.0
 11
-15.500000000000142
 21
-13.0
 31
0.0
  0
LINE
  5
118
100
AcDbEntity
  8
0
  6
CONTINUOUS
 62
               7
100
AcDbLine
 10
-16.0
 20
12.5
 30
0.0
 11
-15.500000000000114
 21
13.0
 31
0.0
  0
LINE
  5
119
100
AcDbEntity
  8
0
  6
CONTINUOUS
 62
               7
100
AcDbLine
 10
-11.0
 20
-13.0
 30
0.0
 11
-11.0
 21
-5.3999999999999986
 31
0.0
  0
ARC
  5
11A
100
AcDbEntity
  8
0
  6
CONTINUOUS
 62
               7
100
AcDbCircle
 10
-12.0
 20
-5.1999999999999886
 30
0.0
 40
0.5
100
AcDbArc
 50
11.536959032814146
 51
168.46304096718586
  0
LINE
  5
11B
100
AcDbEntity
  8
0
  6
CONTINUOUS
 62
               7
100
AcDbLine
 10
-12.800000000000011
 20
-5.0
 30
0.0
 11
-12.465817132984768
 21
-5.0
 31
0.0
  0
ARC
  5
11C
100
AcDbEntity
  8
0
  6
CONTINUOUS
 62
               7
100
AcDbCircle
 10
-11.929999999999978
 20
-5.2700000000000102
 30
0.0
 40
0.6000000000000001
100
AcDbArc
 50
110.48731511472272
 51
153.25631604959662
  0
ARC
  5
11D
100
AcDbEntity
  8
0
  6
CONTINUOUS
 62
               7
100
AcDbCircle
 10
-12.070000000000022
 20
-5.2700000000000102
 30
0.0
 40
0.6000000000000001
100
AcDbArc
 50
26.743683950403376
 51
69.512684885277253
  0
ARC
  5
11E
100
AcDbEntity
  8
0
  6
CONTINUOUS
 62
               7
100
AcDbCircle
 10
-12.0
 20
-5.0826500600480529
 30
0.0
 40
0.4
100
AcDbArc
 50
69.512684885277253
 51
110.48731511472275
  0
ARC
  5
11F
100
AcDbEntity
  8
0
  6
CONTINUOUS
 62
               7
100
AcDbCircle
 10
-4.0
 20
-8.0
 30
0.0
 40
3.25
100
AcDbArc
 50
112.61986494803988
 51
81.006943203481455
  0
ARC
  5
120
100
AcDbEntity
  8
0
  6
CONTINUOUS
 62
               7
100
AcDbCircle
 10
-4.0
 20
8.0
 30
0.0
 40
3.25
100
AcDbArc
 50
278.99305679651854
 51
247.38013505196011
  0
CIRCLE
  5
121
100
AcDbEntity
  8
0
  6
CONTINUOUS
 62
               7
100
AcDbCircle
 10
-4.0000001192092896
 20
8.0
 30
0.0
 40
2.4035892486572266
  0
CIRCLE
  5
122
100
AcDbEntity
  8
0
  6
CONTINUOUS
 62
               7
100
AcDbCircle
 10
-4.0
 20
8.0
 30
0.0
 40
2.75
  0
LINE
  5
123
100
AcDbEntity
  8
0
  6
CONTINUOUS
 62
               7
100
AcDbLine
 10
-3.2783120440430764
 20
9.2499999202652816
 30
0.0
 11
-2.5566243363432761
 21
7.9999999307231064
 31
0.0
  0
LINE
  5
124
100
AcDbEntity
  8
0
  6
CONTINUOUS
 62
               7
100
AcDbLine
 10
-5.4433748377504969
 20
8.0000005461139949
 30
0.0
 11
-4.7216871300506966
 21
6.7500005565718197
 31
0.0
  0
LINE
  5
125
100
AcDbEntity
  8
0
  6
CONTINUOUS
 62
               7
100
AcDbLine
 10
-2.5566251622495031
 20
8.0000005461139949
 30
0.0
 11
-3.2783128699493034
 21
6.7500005565718197
 31
0.0
  0
LINE
  5
126
100
AcDbEntity
  8
0
  6
CONTINUOUS
 62
               7
100
AcDbLine
 10
-4.7216879559569236
 20
9.2499999202652816
 30
0.0
 11
-5.4433756636567239
 21
7.9999999307231064
 31
0.0
  0
LINE
  5
127
100
AcDbEntity
  8
0
  6
CONTINUOUS
 62
               7
100
AcDbLine
 10
-4.721687912940979
 20
6.75
 30
0.0
 11
-3.278312087059021
 21
6.75
 31
0.0
  0
LINE
  5
128
100
AcDbEntity
  8
0
  6
CONTINUOUS
 62
               7
100
AcDbLine
 10
-4.7216880321502686
 20
9.25
 30
0.0
 11
-3.2783119678497314
 21
9.25
 31
0.0
  0
CIRCLE
  5
129
100
AcDbEntity
  8
0
  6
CONTINUOUS
 62
               7
100
AcDbCircle
 10
-4.0000001192092896
 20
-8.0
 30
0.0
 40
2.4035892486572266
  0
CIRCLE
  5
12A
100
AcDbEntity
  8
0
  6
CONTINUOUS
 62
               7
100
AcDbCircle
 10
-4.0
 20
-8.0
 30
0.0
 40
2.75
  0
LINE
  5
12B
100
AcDbEntity
  8
0
  6
CONTINUOUS
 62
               7
100
AcDbLine
 10
-3.2783120440430764
 20
-9.2499999202652816
 30
0.0
 11
-2.5566243363432761
 21
-7.9999999307231064
 31
0.0
  0
LINE
  5
12C
100
AcDbEntity
  8
0
  6
CONTINUOUS
 62
               7
100
AcDbLine
 10
-5.4433748377504969
 20
-8.0000005461139949
 30
0.0
 11
-4.7216871300506966
 21
-6.7500005565718197
 31
0.0
  0
LINE
  5
12D
100
AcDbEntity
  8
0
  6
CONTINUOUS
 62
               7
100
AcDbLine
 10
-2.5566251622495031
 20
-8.0000005461139949
 30
0.0
 11
-3.2783128699493034
 21
-6.7500005565718197
 31
0.0
  0
LINE
  5
12E
100
AcDbEntity
  8
0
  6
CONTINUOUS
 62
               7
100
AcDbLine
 10
-4.7216879559569236
 20
-9.2499999202652816
 30
0.0
 11
-5.4433756636567239
 21
-7.9999999307231064
 31
0.0
  0
LINE
  5
12F
100
AcDbEntity
  8
0
  6
CONTINUOUS
 62
               7
100
AcDbLine
 10
-4.721687912940979
 20
-6.75
 30
0.0
 11
-3.278312087059021
 21
-6.75
 31
0.0
  0
LINE
  5
130
100
AcDbEntity
  8
0
  6
CONTINUOUS
 62
               7
100
AcDbLine
 10
-4.7216880321502686
 20
-9.25
 30
0.0
 11
-3.2783119678497314
 21
-9.25
 31
0.0
  0
LINE
  5
131
100
AcDbEntity
  8
0
  6
CONTINUOUS
 62
               7
100
AcDbLine
 10
-0.2000000000000171
 20
-12.0
 30
0.0
 11
-10.5
 21
-12.0
 31
0.0
  0
LINE
  5
132
100
AcDbEntity
  8
0
  6
CONTINUOUS
 62
               7
100
AcDbLine
 10
-10.5
 20
12.5
 30
0.0
 11
-10.5
 21
4.5
 31
0.0
  0
LINE
  5
133
100
AcDbEntity
  8
0
  6
CONTINUOUS
 62
               7
100
AcDbLine
 10
-0.1999999999999886
 20
12.0
 30
0.0
 11
-10.5
 21
12.0
 31
0.0
  0
LINE
  5
134
100
AcDbEntity
  8
0
  6
CONTINUOUS
 62
               7
100
AcDbLine
 10
-3.6132486540518869
 20
-5.0
 30
0.0
 11
-0.7264973081037454
 21
0.0
 31
0.0
  0
LINE
  5
135
100
AcDbEntity
  8
0
  6
CONTINUOUS
 62
               7
100
AcDbLine
 10
-0.7264973081037454
 20
-0.0000000000000284
 30
0.0
 11
-3.6132486540518585
 21
5.0
 31
0.0
  0
LINE
  5
136
100
AcDbEntity
  8
0
  6
CONTINUOUS
 62
               7
100
AcDbLine
 10
-3.6132486540518585
 20
4.9999999999999716
 30
0.0
 11
-9.3867513459481131
 21
5.0000000000000284
 31
0.0
  0
LINE
  5
137
100
AcDbEntity
  8
0
  6
CONTINUOUS
 62
               7
100
AcDbLine
 10
-9.3867513459481415
 20
-4.9999999999999716
 30
0.0
 11
-3.6132486540518869
 21
-5.0
 31
0.0
  0
LINE
  5
138
100
AcDbEntity
  8
0
  6
CONTINUOUS
 62
               7
100
AcDbLine
 10
-2.4585481156726132
 20
0.0
 30
0.0
 11
-4.479274057836335
 21
-3.5
 31
0.0
  0
LINE
  5
139
100
AcDbEntity
  8
0
  6
CONTINUOUS
 62
               7
100
AcDbLine
 10
-4.4792740578363066
 20
3.5
 30
0.0
 11
-2.4585481156726416
 21
-0.0000000000000284
 31
0.0
  0
LINE
  5
13A
100
AcDbEntity
  8
0
  6
CONTINUOUS
 62
               7
100
AcDbLine
 10
-8.5207259421636934
 20
3.5
 30
0.0
 11
-4.4792740578363066
 21
3.4999999999999716
 31
0.0
  0
LINE
  5
13B
100
AcDbEntity
  8
0
  6
CONTINUOUS
 62
               7
100
AcDbLine
 10
-4.4792740578363066
 20
-3.5
 30
0.0
 11
-8.5207259421636934
 21
-3.4999999999999716
 31
0.0
  0
CIRCLE
  5
13C
100
AcDbEntity
  8
0
  6
CONTINUOUS
 62
               7
100
AcDbCircle
 10
-6.5
 20
0.0
 30
0.0
 40
2.0
  0
CIRCLE
  5
13D
100
AcDbEntity
  8
0
  6
CONTINUOUS
 62
               2
100
AcDbCircle
 10
-6.5
 20
0.0
 30
0.0
 40
1.6209999999999951
  0
LINE
  5
13E
100
AcDbEntity
  8
0
  6
CONTINUOUS
 62
               7
100
AcDbLine
 10
-8.5207259421636934
 20
-3.5
 30
0.0
 11
-10.541451884327358
 21
0.0000000000000284
 31
0.0
  0
LINE
  5
13F
100
AcDbEntity
  8
0
  6
CONTINUOUS
 62
               7
100
AcDbLine
 10
-10.541451884327387
 20
0.0
 30
0.0
 11
-8.520725942163665
 21
3.4999999999999716
 31
0.0
  0
CIRCLE
  5
140
100
AcDbEntity
  8
0
  6
CONTINUOUS
 62
               7
100
AcDbCircle
 10
-6.5
 20
0.0
 30
0.0
 40
3.5
  0
LINE
  5
141
100
AcDbEntity
  8
0
  6
CONTINUOUS
 62
               7
100
AcDbLine
 10
-0.2000000000000171
 20
-12.0
 30
0.0
 11
-0.1999999999999886
 21
12.0
 31
0.0
  0
LINE
  5
142
100
AcDbEntity
  8
0
  6
CONTINUOUS
 62
               7
100
AcDbLine
 10
-1.5
 20
-13.0
 30
0.0
 11
-1.5
 21
-12.5
 31
0.0
  0
LINE
  5
143
100
AcDbEntity
  8
0
  6
CONTINUOUS
 62
               7
100
AcDbLine
 10
-1.5
 20
12.5
 30
0.0
 11
-1.5
 21
13.0
 31
0.0
  0
LINE
  5
144
100
AcDbEntity
  8
0
  6
CONTINUOUS
 62
               7
100
AcDbLine
 10
-10.5
 20
-4.5
 30
0.0
 11
-10.5
 21
-12.5
 31
0.0
  0
LINE
  5
145
100
AcDbEntity
  8
0
  6
CONTINUOUS
 62
               7
100
AcDbLine
 10
0.0
 20
-12.5
 30
0.0
 11
-10.5
 21
-12.5
 31
0.0
  0
LINE
  5
146
100
AcDbEntity
  8
0
  6
CONTINUOUS
 62
               7
100
AcDbLine
 10
0.0
 20
12.5
 30
0.0
 11
-10.5
 21
12.5
 31
0.0
  0
LINE
  5
147
100
AcDbEntity
  8
0
  6
CONTINUOUS
 62
               2
100
AcDbLine
 10
-6.5
 20
6.0966570951920289
 30
0.0
 11
-6.5
 21
-6.0966570951920289
 31
0.0
  0
LINE
  5
148
100
AcDbEntity
  8
0
  6
CONTINUOUS
 62
               7
100
AcDbLine
 10
0.0
 20
3.7000000000000171
 30
0.0
 11
0.0
 21
12.5
 31
0.0
  0
LINE
  5
149
100
AcDbEntity
  8
0
  6
CONTINUOUS
 62
               7
100
AcDbLine
 10
0.0
 20
-12.5
 30
0.0
 11
0.0
 21
-3.7000000000000171
 31
0.0
  0
LINE
  5
14A
100
AcDbEntity
  8
0
  6
CONTINUOUS
 62
               7
100
AcDbLine
 10
-0.2000000000000171
 20
-3.5
 30
0.0
 11
0.0
 21
-3.7000000000000171
 31
0.0
  0
LINE
  5
14B
100
AcDbEntity
  8
0
  6
CONTINUOUS
 62
               7
100
AcDbLine
 10
-0.1999999999999886
 20
3.5000000000000213
 30
0.0
 11
0.0
 21
3.7000000000000171
 31
0.0
  0
LINE
  5
14C
100
AcDbEntity
  8
0
  6
CONTINUOUS
 62
               2
100
AcDbLine
 10
-1.0124373632061179
 20
9.5
 30
0.0
 11
2.1747344633773196
 21
9.5
 31
0.0
  0
LINE
  5
14D
100
AcDbEntity
  8
0
  6
CONTINUOUS
 62
               2
100
AcDbLine
 10
-0.9454828907762192
 20
-9.5
 30
0.0
 11
2.1747344633773196
 21
-9.5
 31
0.0
  0
ENDBLK
  5
14E
100
AcDbEntity
  8
0
100
AcDbBlockEnd
  0
BLOCK
  5
14F
100
AcDbEntity
  8
0
100
AcDbBlockBegin
  2
MGAPG10-4
 70
               0
 10
0.0
 20
0.0
 30
0.0
  3
MGAPG10-4
  1

  0
LINE
  5
150
100
AcDbEntity
  8
0
  6
CONTINUOUS
 62
               7
100
AcDbLine
 10
0.0
 20
-15.299999999999997
 30
0.0
 11
15.5
 21
-15.299999999999997
 31
0.0
  0
LINE
  5
151
100
AcDbEntity
  8
0
  6
CONTINUOUS
 62
               7
100
AcDbLine
 10
19.000000000000071
 20
-8.5
 30
0.0
 11
21.0
 21
-8.5
 31
0.0
  0
LINE
  5
152
100
AcDbEntity
  8
0
  6
CONTINUOUS
 62
               7
100
AcDbLine
 10
18.999999999999986
 20
-4.5
 30
0.0
 11
21.0
 21
-4.5
 31
0.0
  0
LINE
  5
153
100
AcDbEntity
  8
0
  6
CONTINUOUS
 62
               7
100
AcDbLine
 10
0.0
 20
-15.799999999999997
 30
0.0
 11
15.5
 21
-15.799999999999997
 31
0.0
  0
LINE
  5
154
100
AcDbEntity
  8
0
  6
CONTINUOUS
 62
               7
100
AcDbLine
 10
12.800000000000125
 20
-9.2000000000000028
 30
0.0
 11
17.000000000000114
 21
-9.2000000000000028
 31
0.0
  0
LINE
  5
155
100
AcDbEntity
  8
0
  6
PHANTOM
 62
               2
100
AcDbLine
 10
16.5
 20
-10.5
 30
0.0
 11
18.125000000000071
 21
-10.5
 31
0.0
  0
LINE
  5
156
100
AcDbEntity
  8
0
  6
PHANTOM
 62
               2
100
AcDbLine
 10
16.5
 20
-10.150000000000006
 30
0.0
 11
18.125000000000071
 21
-10.150000000000006
 31
0.0
  0
LINE
  5
157
100
AcDbEntity
  8
0
  6
CONTINUOUS
 62
               7
100
AcDbLine
 10
12.800000000000125
 20
-3.7999999999999972
 30
0.0
 11
17.000000000000114
 21
-3.7999999999999972
 31
0.0
  0
LINE
  5
158
100
AcDbEntity
  8
0
  6
PHANTOM
 62
               2
100
AcDbLine
 10
11.475000000000108
 20
-2.5
 30
0.0
 11
18.125000000000071
 21
-2.5
 31
0.0
  0
LINE
  5
159
100
AcDbEntity
  8
0
  6
PHANTOM
 62
               2
100
AcDbLine
 10
11.475000000000108
 20
-2.8499999999999943
 30
0.0
 11
18.125000000000071
 21
-2.8499999999999943
 31
0.0
  0
LINE
  5
15A
100
AcDbEntity
  8
0
  6
CONTINUOUS
 62
               7
100
AcDbLine
 10
10.5
 20
-10.0
 30
0.0
 11
16.5
 21
-10.0
 31
0.0
  0
LINE
  5
15B
100
AcDbEntity
  8
0
  6
CONTINUOUS
 62
               7
100
AcDbLine
 10
11.300000000000097
 20
-1.5
 30
0.0
 11
11.300000000000097
 21
-10.0
 31
0.0
  0
LINE
  5
15C
100
AcDbEntity
  8
0
  6
CONTINUOUS
 62
               7
100
AcDbLine
 10
12.800000000000125
 20
-3.1499999999999915
 30
0.0
 11
11.300000000000097
 21
-3.1499999999999915
 31
0.0
  0
LINE
  5
15D
100
AcDbEntity
  8
0
  6
CONTINUOUS
 62
               7
100
AcDbLine
 10
12.800000000000125
 20
-3.1499999999999915
 30
0.0
 11
12.800000000000125
 21
-9.8500000000000085
 31
0.0
  0
CIRCLE
  5
15E
100
AcDbEntity
  8
0
  6
CONTINUOUS
 62
               7
100
AcDbCircle
 10
11.475000000000108
 20
-2.6749999999999972
 30
0.0
 40
0.175
  0
LINE
  5
15F
100
AcDbEntity
  8
0
  6
CONTINUOUS
 62
               7
100
AcDbLine
 10
12.800000000000125
 20
-9.8500000000000085
 30
0.0
 11
11.300000000000097
 21
-9.8500000000000085
 31
0.0
  0
LINE
  5
160
100
AcDbEntity
  8
0
  6
CONTINUOUS
 62
               7
100
AcDbLine
 10
0.0
 20
-15.799999999999997
 30
0.0
 11
0.0
 21
-1.5
 31
0.0
  0
LINE
  5
161
100
AcDbEntity
  8
0
  6
CONTINUOUS
 62
               7
100
AcDbLine
 10
10.5
 20
-10.0
 30
0.0
 11
10.5
 21
-1.5
 31
0.0
  0
LINE
  5
162
100
AcDbEntity
  8
0
  6
CONTINUOUS
 62
               7
100
AcDbLine
 10
0.0
 20
-1.5
 30
0.0
 11
11.300000000000097
 21
-1.5
 31
0.0
  0
LINE
  5
163
100
AcDbEntity
  8
0
  6
CONTINUOUS
 62
               7
100
AcDbLine
 10
16.5
 20
-11.0
 30
0.0
 11
16.5
 21
-10.0
 31
0.0
  0
LINE
  5
164
100
AcDbEntity
  8
0
  6
CONTINUOUS
 62
               7
100
AcDbLine
 10
17.000000000000114
 20
-3.1499999999999915
 30
0.0
 11
18.300000000000082
 21
-3.1499999999999915
 31
0.0
  0
CIRCLE
  5
165
100
AcDbEntity
  8
0
  6
CONTINUOUS
 62
               7
100
AcDbCircle
 10
18.125000000000071
 20
-2.6749999999999972
 30
0.0
 40
0.175
  0
CIRCLE
  5
166
100
AcDbEntity
  8
0
  6
CONTINUOUS
 62
               7
100
AcDbCircle
 10
18.125000000000071
 20
-10.325000000000003
 30
0.0
 40
0.175
  0
LINE
  5
167
100
AcDbEntity
  8
0
  6
CONTINUOUS
 62
               7
100
AcDbLine
 10
17.000000000000114
 20
-9.8500000000000085
 30
0.0
 11
18.300000000000082
 21
-9.8500000000000085
 31
0.0
  0
LINE
  5
168
100
AcDbEntity
  8
0
  6
CONTINUOUS
 62
               7
100
AcDbLine
 10
17.000000000000114
 20
-9.8500000000000085
 30
0.0
 11
17.000000000000114
 21
-3.1499999999999915
 31
0.0
  0
LINE
  5
169
100
AcDbEntity
  8
0
  6
CONTINUOUS
 62
               7
100
AcDbLine
 10
18.300000000000082
 20
-1.7000000000000028
 30
0.0
 11
19.000000000000071
 21
-1.7000000000000028
 31
0.0
  0
LINE
  5
16A
100
AcDbEntity
  8
0
  6
CONTINUOUS
 62
               7
100
AcDbLine
 10
18.300000000000082
 20
-8.1703293088490057
 30
0.0
 11
19.000000000000071
 21
-8.1703293088490057
 31
0.0
  0
LINE
  5
16B
100
AcDbEntity
  8
0
  6
CONTINUOUS
 62
               2
100
AcDbLine
 10
19.000000000000071
 20
-8.25
 30
0.0
 11
19.433012701892295
 21
-8.5
 31
0.0
  0
LINE
  5
16C
100
AcDbEntity
  8
0
  6
CONTINUOUS
 62
               7
100
AcDbLine
 10
18.300000000000082
 20
-4.8296706911509943
 30
0.0
 11
19.000000000000071
 21
-4.8296706911509943
 31
0.0
  0
LINE
  5
16D
100
AcDbEntity
  8
0
  6
CONTINUOUS
 62
               2
100
AcDbLine
 10
19.000000000000071
 20
-4.75
 30
0.0
 11
19.433012701892295
 21
-4.5
 31
0.0
  0
LINE
  5
16E
100
AcDbEntity
  8
0
  6
CONTINUOUS
 62
               2
100
AcDbLine
 10
18.300000000000082
 20
-4.8296706911509943
 30
0.0
 11
19.000000000000071
 21
-8.1703293088490057
 31
0.0
  0
LINE
  5
16F
100
AcDbEntity
  8
0
  6
CONTINUOUS
 62
               2
100
AcDbLine
 10
19.000000000000071
 20
-4.8296706911509943
 30
0.0
 11
18.300000000000082
 21
-8.1703293088490057
 31
0.0
  0
LINE
  5
170
100
AcDbEntity
  8
0
  6
CONTINUOUS
 62
               7
100
AcDbLine
 10
18.300000000000082
 20
-11.0
 30
0.0
 11
18.300000000000082
 21
-1.7000000000000028
 31
0.0
  0
LINE
  5
171
100
AcDbEntity
  8
0
  6
CONTINUOUS
 62
               7
100
AcDbLine
 10
19.000000000000071
 20
-11.0
 30
0.0
 11
19.000000000000071
 21
-1.7000000000000028
 31
0.0
  0
LINE
  5
172
100
AcDbEntity
  8
0
  6
CONTINUOUS
 62
               2
100
AcDbLine
 10
8.6325144453194511
 20
-6.5
 30
0.0
 11
22.569570616885898
 21
-6.5
 31
0.0
  0
LINE
  5
173
100
AcDbEntity
  8
0
  6
CONTINUOUS
 62
               7
100
AcDbLine
 10
86.699999997462726
 20
-4.5
 30
0.0
 11
86.699999997462726
 21
-8.5
 31
0.0
  0
LINE
  5
174
100
AcDbEntity
  8
0
  6
CONTINUOUS
 62
               7
100
AcDbLine
 10
84.699999997462697
 20
-8.5
 30
0.0
 11
86.699999997462726
 21
-8.5
 31
0.0
  0
LINE
  5
175
100
AcDbEntity
  8
0
  6
CONTINUOUS
 62
               7
100
AcDbLine
 10
84.699999997462697
 20
-4.5
 30
0.0
 11
86.699999997462726
 21
-4.5
 31
0.0
  0
LINE
  5
176
100
AcDbEntity
  8
0
  6
CONTINUOUS
 62
               2
100
AcDbLine
 10
71.999999997462709
 20
-8.1209999999999951
 30
0.0
 11
71.34355274139412
 21
-8.5
 31
0.0
  0
LINE
  5
177
100
AcDbEntity
  8
0
  6
CONTINUOUS
 62
               2
100
AcDbLine
 10
71.999999997462709
 20
-8.1209999999999951
 30
0.0
 11
73.999999997462709
 21
-8.1209999999999951
 31
0.0
  0
LINE
  5
178
100
AcDbEntity
  8
0
  6
CONTINUOUS
 62
               7
100
AcDbLine
 10
71.999999997462709
 20
-4.5
 30
0.0
 11
71.999999997462709
 21
-8.5
 31
0.0
  0
LINE
  5
179
100
AcDbEntity
  8
0
  6
CONTINUOUS
 62
               2
100
AcDbLine
 10
71.999999997462709
 20
-4.8790000000000049
 30
0.0
 11
71.34355274139412
 21
-4.5
 31
0.0
  0
LINE
  5
17A
100
AcDbEntity
  8
0
  6
CONTINUOUS
 62
               2
100
AcDbLine
 10
71.999999997462709
 20
-4.8790000000000049
 30
0.0
 11
73.999999997462709
 21
-4.8790000000000049
 31
0.0
  0
LINE
  5
17B
100
AcDbEntity
  8
0
  6
CONTINUOUS
 62
               2
100
AcDbLine
 10
84.699999997462697
 20
-8.1209999999999951
 30
0.0
 11
86.999999997462709
 21
-8.1209999999999951
 31
0.0
  0
LINE
  5
17C
100
AcDbEntity
  8
0
  6
CONTINUOUS
 62
               2
100
AcDbLine
 10
84.699999997462697
 20
-4.8790000000000049
 30
0.0
 11
86.999999997462709
 21
-4.8790000000000049
 31
0.0
  0
LINE
  5
17D
100
AcDbEntity
  8
0
  6
CONTINUOUS
 62
               7
100
AcDbLine
 10
65.300000188197572
 20
-1.25
 30
0.0
 11
63.999999997462709
 21
-1.25
 31
0.0
  0
LINE
  5
17E
100
AcDbEntity
  8
0
  6
CONTINUOUS
 62
               7
100
AcDbLine
 10
65.299999762794329
 20
-1.2500003389504286
 30
0.0
 11
65.499999762794317
 21
-1.5964106245210985
 31
0.0
  0
LINE
  5
17F
100
AcDbEntity
  8
0
  6
CONTINUOUS
 62
               7
100
AcDbLine
 10
65.300000188197572
 20
-6.75
 30
0.0
 11
65.300000188197572
 21
-1.25
 31
0.0
  0
LINE
  5
180
100
AcDbEntity
  8
0
  6
CONTINUOUS
 62
               7
100
AcDbLine
 10
65.499999997462709
 20
-6.4035892486572266
 30
0.0
 11
65.499999997462709
 21
-1.5964107513427734
 31
0.0
  0
LINE
  5
181
100
AcDbEntity
  8
0
  6
CONTINUOUS
 62
               7
100
AcDbLine
 10
65.299999029212472
 20
-6.7500002050277317
 30
0.0
 11
65.499999386840443
 21
-6.4035895780295959
 31
0.0
  0
LINE
  5
182
100
AcDbEntity
  8
0
  6
CONTINUOUS
 62
               7
100
AcDbLine
 10
65.300000188197572
 20
-6.75
 30
0.0
 11
63.999999997462709
 21
-6.75
 31
0.0
  0
LINE
  5
183
100
AcDbEntity
  8
0
  6
CONTINUOUS
 62
               2
100
AcDbLine
 10
59.999999997462709
 20
-6.5
 30
0.0
 11
90.0
 21
-6.5
 31
0.0
  0
LINE
  5
184
100
AcDbEntity
  8
0
  6
CONTINUOUS
 62
               7
100
AcDbLine
 10
56.999999997462709
 20
-0.2000000000000028
 30
0.0
 11
63.999999997462709
 21
-0.2000000000000028
 31
0.0
  0
LINE
  5
185
100
AcDbEntity
  8
0
  6
CONTINUOUS
 62
               7
100
AcDbLine
 10
56.999999997462709
 20
-10.5
 30
0.0
 11
63.999999997462709
 21
-10.5
 31
0.0
  0
LINE
  5
186
100
AcDbEntity
  8
0
  6
CONTINUOUS
 62
               7
100
AcDbLine
 10
58.0
 20
-12.5
 30
0.0
 11
63.999999997462709
 21
-12.5
 31
0.0
  0
LINE
  5
187
100
AcDbEntity
  8
0
  6
CONTINUOUS
 62
               7
100
AcDbLine
 10
81.49999999746268
 20
-2.9999999999999289
 30
0.0
 11
81.812607388632273
 21
-2.4585481156726132
 31
0.0
  0
LINE
  5
188
100
AcDbEntity
  8
0
  6
CONTINUOUS
 62
               7
100
AcDbLine
 10
81.49999999746268
 20
-10.000000000000071
 30
0.0
 11
81.812607388632273
 21
-10.541451884327387
 31
0.0
  0
LINE
  5
189
100
AcDbEntity
  8
0
  6
CONTINUOUS
 62
               7
100
AcDbLine
 10
84.699999997462697
 20
-10.000000000000071
 30
0.0
 11
84.387392606293105
 21
-10.541451884327387
 31
0.0
  0
LINE
  5
18A
100
AcDbEntity
  8
0
  6
CONTINUOUS
 62
               7
100
AcDbLine
 10
84.387392606293105
 20
-8.5207259421636934
 30
0.0
 11
81.812607388632273
 21
-8.5207259421636934
 31
0.0
  0
LINE
  5
18B
100
AcDbEntity
  8
0
  6
CONTINUOUS
 62
               7
100
AcDbLine
 10
84.387392606293105
 20
-2.4585481156726132
 30
0.0
 11
81.812607388632273
 21
-2.4585481156726132
 31
0.0
  0
LINE
  5
18C
100
AcDbEntity
  8
0
  6
CONTINUOUS
 62
               7
100
AcDbLine
 10
84.699999997462697
 20
-2.9999999999999289
 30
0.0
 11
84.387392606293105
 21
-2.4585481156726132
 31
0.0
  0
LINE
  5
18D
100
AcDbEntity
  8
0
  6
CONTINUOUS
 62
               7
100
AcDbLine
 10
84.387392606293105
 20
-4.4792740578363066
 30
0.0
 11
81.812607388632273
 21
-4.4792740578363066
 31
0.0
  0
LINE
  5
18E
100
AcDbEntity
  8
0
  6
CONTINUOUS
 62
               7
100
AcDbLine
 10
84.387392606293105
 20
-10.541451884327387
 30
0.0
 11
81.499999997462709
 21
-10.541451884327387
 31
0.0
  0
LINE
  5
18F
100
AcDbEntity
  8
0
  6
CONTINUOUS
 62
               7
100
AcDbLine
 10
81.499999997462709
 20
-1.5
 30
0.0
 11
80.726497305566454
 21
-0.7264973081037454
 31
0.0
  0
LINE
  5
190
100
AcDbEntity
  8
0
  6
CONTINUOUS
 62
               7
100
AcDbLine
 10
80.726497305566454
 20
-0.7264973081037454
 30
0.0
 11
77.499999997462709
 21
-0.7264973081037454
 31
0.0
  0
LINE
  5
191
100
AcDbEntity
  8
0
  6
CONTINUOUS
 62
               7
100
AcDbLine
 10
80.726497305566454
 20
-3.6132486540518585
 30
0.0
 11
77.499999997462709
 21
-3.6132486540518585
 31
0.0
  0
LINE
  5
192
100
AcDbEntity
  8
0
  6
CONTINUOUS
 62
               7
100
AcDbLine
 10
81.499999997462709
 20
-11.5
 30
0.0
 11
80.726497305566454
 21
-12.273502691896255
 31
0.0
  0
LINE
  5
193
100
AcDbEntity
  8
0
  6
CONTINUOUS
 62
               7
100
AcDbLine
 10
80.726497305566454
 20
-9.3867513459481415
 30
0.0
 11
77.499999997462709
 21
-9.3867513459481415
 31
0.0
  0
LINE
  5
194
100
AcDbEntity
  8
0
  6
CONTINUOUS
 62
               7
100
AcDbLine
 10
80.726497305566454
 20
-12.273502691896255
 30
0.0
 11
77.499999997462709
 21
-12.273502691896255
 31
0.0
  0
LINE
  5
195
100
AcDbEntity
  8
0
  6
CONTINUOUS
 62
               7
100
AcDbLine
 10
63.999999997462709
 20
-8.5
 30
0.0
 11
73.999999997462709
 21
-8.5
 31
0.0
  0
LINE
  5
196
100
AcDbEntity
  8
0
  6
CONTINUOUS
 62
               7
100
AcDbLine
 10
65.499999997462709
 20
-4.5
 30
0.0
 11
73.999999997462709
 21
-4.5
 31
0.0
  0
LINE
  5
197
100
AcDbEntity
  8
0
  6
CONTINUOUS
 62
               7
100
AcDbLine
 10
77.499999997462709
 20
-12.273502691896255
 30
0.0
 11
77.499999997462709
 21
-0.7264973081037454
 31
0.0
  0
LINE
  5
198
100
AcDbEntity
  8
0
  6
CONTINUOUS
 62
               7
100
AcDbLine
 10
86.699999997462726
 20
-4.5
 30
0.0
 11
86.999999997462709
 21
-4.8000000000001677
 31
0.0
  0
LINE
  5
199
100
AcDbEntity
  8
0
  6
CONTINUOUS
 62
               7
100
AcDbLine
 10
86.699999997462726
 20
-8.5
 30
0.0
 11
86.999999997462709
 21
-8.1999999999998323
 31
0.0
  0
LINE
  5
19A
100
AcDbEntity
  8
0
  6
CONTINUOUS
 62
               7
100
AcDbLine
 10
86.999999997462709
 20
-8.1999999999998323
 30
0.0
 11
86.999999997462709
 21
-4.8000000000001677
 31
0.0
  0
LINE
  5
19B
100
AcDbEntity
  8
0
  6
CONTINUOUS
 62
               7
100
AcDbLine
 10
84.699999997462697
 20
-10.000000000000071
 30
0.0
 11
84.699999997462697
 21
-2.9999999999999289
 31
0.0
  0
LINE
  5
19C
100
AcDbEntity
  8
0
  6
CONTINUOUS
 62
               7
100
AcDbLine
 10
81.499999997462709
 20
-11.5
 30
0.0
 11
81.499999997462709
 21
-1.5
 31
0.0
  0
LINE
  5
19D
100
AcDbEntity
  8
0
  6
CONTINUOUS
 62
               7
100
AcDbLine
 10
73.999999997462709
 20
-11.200000000000003
 30
0.0
 11
73.999999997462709
 21
-1.7999999999999972
 31
0.0
  0
LINE
  5
19E
100
AcDbEntity
  8
0
  6
CONTINUOUS
 62
               7
100
AcDbLine
 10
77.499999997462709
 20
-1.7999999999999972
 30
0.0
 11
73.999999997462709
 21
-1.7999999999999972
 31
0.0
  0
LINE
  5
19F
100
AcDbEntity
  8
0
  6
CONTINUOUS
 62
               7
100
AcDbLine
 10
77.499999997462709
 20
-11.200000000000003
 30
0.0
 11
73.999999997462709
 21
-11.200000000000003
 31
0.0
  0
LINE
  5
1A0
100
AcDbEntity
  8
0
  6
CONTINUOUS
 62
               7
100
AcDbLine
 10
63.999999997462709
 20
-12.5
 30
0.0
 11
63.999999997462709
 21
-0.2000000000000028
 31
0.0
  0
SPLINE
  5
1A1
100
AcDbEntity
  8
0
  6
CONTINUOUS
 62
               7
100
AcDbSpline
210
0.0
220
0.0
230
1.0
 70
               0
 71
               3
 72
               0
 73
               0
 74
               5
 44
0.000001
 12
-0.5262037021177514
 22
-0.8503585501878445
 32
0.0
 13
0.5262037021177172
 23
-0.8503585501878657
 33
0.0
 11
81.812607388632273
 21
-2.4585481156726132
 31
0.0
 11
81.586738352291505
 21
-2.9429155809625609
 31
0.0
 11
81.49999999746268
 21
-3.4689110867544599
 31
0.0
 11
81.586738352291519
 21
-3.9949065925463558
 31
0.0
 11
81.812607388632273
 21
-4.4792740578363066
 31
0.0
  0
SPLINE
  5
1A2
100
AcDbEntity
  8
0
  6
CONTINUOUS
 62
               7
100
AcDbSpline
210
0.0
220
0.0
230
1.0
 70
               0
 71
               3
 72
               0
 73
               0
 74
               5
 44
0.000001
 12
-0.2955767282155966
 22
0.9553190031279413
 32
0.0
 13
0.2955767282155967
 23
0.9553190031279412
 33
0.0
 11
81.812607388632273
 21
-8.5207259421636934
 31
0.0
 11
81.58075563943018
 21
-7.5229863636814081
 31
0.0
 11
81.49999999746268
 21
-6.5
 31
0.0
 11
81.58075563943018
 21
-5.4770136363185919
 31
0.0
 11
81.812607388632273
 21
-4.4792740578363066
 31
0.0
  0
SPLINE
  5
1A3
100
AcDbEntity
  8
0
  6
CONTINUOUS
 62
               7
100
AcDbSpline
210
0.0
220
0.0
230
1.0
 70
               0
 71
               3
 72
               0
 73
               0
 74
               5
 44
0.000001
 12
-0.5262037021177514
 22
0.8503585501878445
 32
0.0
 13
0.5262037021177172
 23
0.8503585501878657
 33
0.0
 11
81.812607388632273
 21
-10.541451884327387
 31
0.0
 11
81.586738352291505
 21
-10.057084419037439
 31
0.0
 11
81.49999999746268
 21
-9.5310889132455401
 31
0.0
 11
81.586738352291519
 21
-9.0050934074536446
 31
0.0
 11
81.812607388632273
 21
-8.5207259421636934
 31
0.0
  0
SPLINE
  5
1A4
100
AcDbEntity
  8
0
  6
CONTINUOUS
 62
               7
100
AcDbSpline
210
0.0
220
0.0
230
1.0
 70
               0
 71
               3
 72
               0
 73
               0
 74
               5
 44
0.000001
 12
-0.5262037021177514
 22
0.8503585501878445
 32
0.0
 13
0.5262037021177172
 23
0.8503585501878657
 33
0.0
 11
81.812607388632273
 21
-10.541451884327387
 31
0.0
 11
81.586738352291505
 21
-10.057084419037439
 31
0.0
 11
81.49999999746268
 21
-9.5310889132455401
 31
0.0
 11
81.586738352291519
 21
-9.0050934074536446
 31
0.0
 11
81.812607388632273
 21
-8.5207259421636934
 31
0.0
  0
SPLINE
  5
1A5
100
AcDbEntity
  8
0
  6
CONTINUOUS
 62
               7
100
AcDbSpline
210
0.0
220
0.0
230
1.0
 70
               0
 71
               3
 72
               0
 73
               0
 74
               5
 44
0.000001
 12
0.2955767282155964
 22
0.9553190031279413
 32
0.0
 13
-0.2955767282155966
 23
0.9553190031279413
 33
0.0
 11
84.387392606293105
 21
-8.5207259421636934
 31
0.0
 11
84.619244355495198
 21
-7.5229863636814081
 31
0.0
 11
84.699999997462697
 21
-6.5
 31
0.0
 11
84.619244355495198
 21
-5.4770136363185919
 31
0.0
 11
84.387392606293105
 21
-4.4792740578363066
 31
0.0
  0
SPLINE
  5
1A6
100
AcDbEntity
  8
0
  6
CONTINUOUS
 62
               7
100
AcDbSpline
210
0.0
220
0.0
230
1.0
 70
               0
 71
               3
 72
               0
 73
               0
 74
               5
 44
0.000001
 12
0.5262037021177513
 22
0.8503585501878445
 32
0.0
 13
-0.5262037021177171
 23
0.8503585501878658
 33
0.0
 11
84.387392606293105
 21
-10.541451884327387
 31
0.0
 11
84.613261642633873
 21
-10.057084419037439
 31
0.0
 11
84.699999997462697
 21
-9.5310889132455401
 31
0.0
 11
84.613261642633859
 21
-9.0050934074536446
 31
0.0
 11
84.387392606293105
 21
-8.5207259421636934
 31
0.0
  0
SPLINE
  5
1A7
100
AcDbEntity
  8
0
  6
CONTINUOUS
 62
               7
100
AcDbSpline
210
0.0
220
0.0
230
1.0
 70
               0
 71
               3
 72
               0
 73
               0
 74
               5
 44
0.000001
 12
0.5262037021177513
 22
-0.8503585501878445
 32
0.0
 13
-0.5262037021177171
 23
-0.8503585501878658
 33
0.0
 11
84.387392606293105
 21
-2.4585481156726132
 31
0.0
 11
84.613261642633873
 21
-2.9429155809625609
 31
0.0
 11
84.699999997462697
 21
-3.4689110867544599
 31
0.0
 11
84.613261642633859
 21
-3.9949065925463558
 31
0.0
 11
84.387392606293105
 21
-4.4792740578363066
 31
0.0
  0
SPLINE
  5
1A8
100
AcDbEntity
  8
0
  6
CONTINUOUS
 62
               7
100
AcDbSpline
210
0.0
220
0.0
230
1.0
 70
               0
 71
               3
 72
               0
 73
               0
 74
               5
 44
0.000001
 12
0.5262037021177513
 22
0.8503585501878445
 32
0.0
 13
-0.5262037021177171
 23
0.8503585501878658
 33
0.0
 11
84.387392606293105
 21
-10.541451884327387
 31
0.0
 11
84.613261642633873
 21
-10.057084419037439
 31
0.0
 11
84.699999997462697
 21
-9.5310889132455401
 31
0.0
 11
84.613261642633859
 21
-9.0050934074536446
 31
0.0
 11
84.387392606293105
 21
-8.5207259421636934
 31
0.0
  0
SPLINE
  5
1A9
100
AcDbEntity
  8
0
  6
CONTINUOUS
 62
               7
100
AcDbSpline
210
0.0
220
0.0
230
1.0
 70
               0
 71
               3
 72
               0
 73
               0
 74
               5
 44
0.000001
 12
0.4723474904831427
 22
0.8814124166553802
 32
0.0
 13
-0.4723474904831424
 23
0.8814124166553803
 33
0.0
 11
80.726497305566454
 21
-9.3867513459481415
 31
0.0
 11
81.289704974142637
 21
-7.9907335793158563
 31
0.0
 11
81.499999997462709
 21
-6.5
 31
0.0
 11
81.289704974142637
 21
-5.0092664206841437
 31
0.0
 11
80.726497305566454
 21
-3.6132486540518576
 31
0.0
  0
SPLINE
  5
1AA
100
AcDbEntity
  8
0
  6
CONTINUOUS
 62
               7
100
AcDbSpline
210
0.0
220
0.0
230
1.0
 70
               0
 71
               3
 72
               0
 73
               0
 74
               5
 44
0.000001
 12
0.7311721974753269
 22
-0.6821929475149252
 32
0.0
 13
-0.7311721974753274
 23
-0.6821929475149248
 33
0.0
 11
80.726497305566454
 21
-0.7264973081037454
 31
0.0
 11
81.262916976842291
 21
-1.387015878810671
 31
0.0
 11
81.499999997462709
 21
-2.1698729810778019
 31
0.0
 11
81.262916976842291
 21
-2.952730083344933
 31
0.0
 11
80.726497305566454
 21
-3.6132486540518585
 31
0.0
  0
SPLINE
  5
1AB
100
AcDbEntity
  8
0
  6
CONTINUOUS
 62
               7
100
AcDbSpline
210
0.0
220
0.0
230
1.0
 70
               0
 71
               3
 72
               0
 73
               0
 74
               5
 44
0.000001
 12
0.7311721974753269
 22
0.6821929475149252
 32
0.0
 13
-0.7311721974753274
 23
0.6821929475149248
 33
0.0
 11
80.726497305566454
 21
-12.273502691896255
 31
0.0
 11
81.262916976842291
 21
-11.61298412118933
 31
0.0
 11
81.499999997462709
 21
-10.830127018922198
 31
0.0
 11
81.262916976842291
 21
-10.047269916655067
 31
0.0
 11
80.726497305566454
 21
-9.3867513459481415
 31
0.0
  0
LINE
  5
1AC
100
AcDbEntity
  8
0
  6
CONTINUOUS
 62
               2
100
AcDbLine
 10
47.0
 20
-6.0
 30
0.0
 11
55.0
 21
-6.0
 31
0.0
  0
LINE
  5
1AD
100
AcDbEntity
  8
0
  6
CONTINUOUS
 62
               7
100
AcDbLine
 10
57.5
 20
-12.0
 30
0.0
 11
57.700000000000003
 21
-12.0
 31
0.0
  0
LINE
  5
1AE
100
AcDbEntity
  8
0
  6
CONTINUOUS
 62
               7
100
AcDbLine
 10
57.5
 20
-14.0
 30
0.0
 11
57.700000000000003
 21
-14.0
 31
0.0
  0
ARC
  5
1AF
100
AcDbEntity
  8
0
  6
CONTINUOUS
 62
               7
100
AcDbCircle
 10
57.700000000000003
 20
-13.700000000000003
 30
0.0
 40
0.3
100
AcDbArc
 50
270.0
 51
0.0
  0
ARC
  5
1B0
100
AcDbEntity
  8
0
  6
CONTINUOUS
 62
               7
100
AcDbCircle
 10
57.700000000000003
 20
-12.299999999999997
 30
0.0
 40
0.3
100
AcDbArc
 50
0.0
 51
90.0
  0
LINE
  5
1B1
100
AcDbEntity
  8
0
  6
CONTINUOUS
 62
               7
100
AcDbLine
 10
58.0
 20
-13.700000000000003
 30
0.0
 11
58.0
 21
-12.299999999999997
 31
0.0
  0
LINE
  5
1B2
100
AcDbEntity
  8
0
  6
CONTINUOUS
 62
               7
100
AcDbLine
 10
57.5
 20
-11.200000000000003
 30
0.0
 11
57.5
 21
-15.700000000000003
 31
0.0
  0
LINE
  5
1B3
100
AcDbEntity
  8
0
  6
CONTINUOUS
 62
               7
100
AcDbLine
 10
57.000000023841864
 20
-15.700000000000003
 30
0.0
 11
57.500000023841864
 21
-15.700000000000003
 31
0.0
  0
LINE
  5
1B4
100
AcDbEntity
  8
0
  6
CONTINUOUS
 62
               7
100
AcDbLine
 10
57.000000023841864
 20
-11.200000000000003
 30
0.0
 11
57.500000023841864
 21
-11.200000000000003
 31
0.0
  0
LINE
  5
1B5
100
AcDbEntity
  8
0
  6
CONTINUOUS
 62
               7
100
AcDbLine
 10
21.0
 20
-10.49999998630939
 30
0.0
 11
57.0
 21
-10.49999998630939
 31
0.0
  0
LINE
  5
1B6
100
AcDbEntity
  8
0
  6
CONTINUOUS
 62
               7
100
AcDbLine
 10
20.999999997462709
 20
0.0
 30
0.0
 11
56.999999997462709
 21
0.0
 31
0.0
  0
LINE
  5
1B7
100
AcDbEntity
  8
0
  6
CONTINUOUS
 62
               7
100
AcDbLine
 10
57.0
 20
0.0
 30
0.0
 11
57.0
 21
-16.0
 31
0.0
  0
LINE
  5
1B8
100
AcDbEntity
  8
0
  6
CONTINUOUS
 62
               7
100
AcDbLine
 10
21.0
 20
-11.0
 30
0.0
 11
21.0
 21
0.0
 31
0.0
  0
LINE
  5
1B9
100
AcDbEntity
  8
0
  6
CONTINUOUS
 62
               7
100
AcDbLine
 10
15.5
 20
-16.0
 30
0.0
 11
57.0
 21
-16.0
 31
0.0
  0
LINE
  5
1BA
100
AcDbEntity
  8
0
  6
CONTINUOUS
 62
               7
100
AcDbLine
 10
15.5
 20
-11.0
 30
0.0
 11
57.0
 21
-11.0
 31
0.0
  0
LINE
  5
1BB
100
AcDbEntity
  8
0
  6
CONTINUOUS
 62
               7
100
AcDbLine
 10
15.5
 20
-16.0
 30
0.0
 11
15.5
 21
-11.0
 31
0.0
  0
CIRCLE
  5
1BC
100
AcDbEntity
  8
0
  6
CONTINUOUS
 62
               7
100
AcDbCircle
 10
24.0
 20
-6.0
 30
0.0
 40
0.8
  0
CIRCLE
  5
1BD
100
AcDbEntity
  8
0
  6
CONTINUOUS
 62
               2
100
AcDbCircle
 10
24.0
 20
-6.0
 30
0.0
 40
1.0
  0
LINE
  5
1BE
100
AcDbEntity
  8
0
  6
CONTINUOUS
 62
               2
100
AcDbLine
 10
22.0
 20
-6.0
 30
0.0
 11
26.0
 21
-6.0
 31
0.0
  0
LINE
  5
1BF
100
AcDbEntity
  8
0
  6
CONTINUOUS
 62
               2
100
AcDbLine
 10
24.0
 20
-4.0
 30
0.0
 11
24.0
 21
-8.0
 31
0.0
  0
CIRCLE
  5
1C0
100
AcDbEntity
  8
0
  6
CONTINUOUS
 62
               7
100
AcDbCircle
 10
53.0
 20
-6.0
 30
0.0
 40
0.8
  0
CIRCLE
  5
1C1
100
AcDbEntity
  8
0
  6
CONTINUOUS
 62
               2
100
AcDbCircle
 10
53.0
 20
-6.0
 30
0.0
 40
1.0
  0
LINE
  5
1C2
100
AcDbEntity
  8
0
  6
CONTINUOUS
 62
               2
100
AcDbLine
 10
53.0
 20
-4.0
 30
0.0
 11
53.0
 21
-8.0
 31
0.0
  0
CIRCLE
  5
1C3
100
AcDbEntity
  8
0
  6
CONTINUOUS
 62
               7
100
AcDbCircle
 10
50.0
 20
-13.000000000000028
 30
0.0
 40
0.8
  0
CIRCLE
  5
1C4
100
AcDbEntity
  8
0
  6
CONTINUOUS
 62
               2
100
AcDbCircle
 10
50.0
 20
-13.000000000000028
 30
0.0
 40
1.0
  0
LINE
  5
1C5
100
AcDbEntity
  8
0
  6
CONTINUOUS
 62
               2
100
AcDbLine
 10
48.0
 20
-13.000000000000028
 30
0.0
 11
52.0
 21
-13.000000000000028
 31
0.0
  0
LINE
  5
1C6
100
AcDbEntity
  8
0
  6
CONTINUOUS
 62
               2
100
AcDbLine
 10
50.0
 20
-11.000000000000028
 30
0.0
 11
50.0
 21
-15.000000000000028
 31
0.0
  0
CIRCLE
  5
1C7
100
AcDbEntity
  8
0
  6
CONTINUOUS
 62
               7
100
AcDbCircle
 10
36.0
 20
-13.000000000000028
 30
0.0
 40
0.8
  0
CIRCLE
  5
1C8
100
AcDbEntity
  8
0
  6
CONTINUOUS
 62
               2
100
AcDbCircle
 10
36.0
 20
-13.000000000000028
 30
0.0
 40
1.0
  0
LINE
  5
1C9
100
AcDbEntity
  8
0
  6
CONTINUOUS
 62
               2
100
AcDbLine
 10
34.0
 20
-13.000000000000028
 30
0.0
 11
38.0
 21
-13.000000000000028
 31
0.0
  0
LINE
  5
1CA
100
AcDbEntity
  8
0
  6
CONTINUOUS
 62
               2
100
AcDbLine
 10
36.0
 20
-11.000000000000028
 30
0.0
 11
36.0
 21
-15.000000000000028
 31
0.0
  0
CIRCLE
  5
1CB
100
AcDbEntity
  8
0
  6
CONTINUOUS
 62
               7
100
AcDbCircle
 10
33.5
 20
-6.0
 30
0.0
 40
1.2
  0
LINE
  5
1CC
100
AcDbEntity
  8
0
  6
CONTINUOUS
 62
               2
100
AcDbLine
 10
31.0
 20
-6.0
 30
0.0
 11
35.999999999999972
 21
-6.0
 31
0.0
  0
CIRCLE
  5
1CD
100
AcDbEntity
  8
0
  6
CONTINUOUS
 62
               2
100
AcDbCircle
 10
33.5
 20
-6.0
 30
0.0
 40
1.5
  0
LINE
  5
1CE
100
AcDbEntity
  8
0
  6
CONTINUOUS
 62
               2
100
AcDbLine
 10
33.5
 20
-3.5
 30
0.0
 11
33.5
 21
-8.5
 31
0.0
  0
CIRCLE
  5
1CF
100
AcDbEntity
  8
0
  6
CONTINUOUS
 62
               7
100
AcDbCircle
 10
49.5
 20
-6.0
 30
0.0
 40
1.2
  0
CIRCLE
  5
1D0
100
AcDbEntity
  8
0
  6
CONTINUOUS
 62
               2
100
AcDbCircle
 10
49.5
 20
-6.0
 30
0.0
 40
1.5
  0
LINE
  5
1D1
100
AcDbEntity
  8
0
  6
CONTINUOUS
 62
               2
100
AcDbLine
 10
49.5
 20
-3.5
 30
0.0
 11
49.5
 21
-8.5
 31
0.0
  0
LINE
  5
1D2
100
AcDbEntity
  8
0
  6
CONTINUOUS
 62
               7
100
AcDbLine
 10
41.0
 20
-10.49999998630939
 30
0.0
 11
41.0
 21
-7.0000000136906095
 31
0.0
  0
LINE
  5
1D3
100
AcDbEntity
  8
0
  6
CONTINUOUS
 62
               7
100
AcDbLine
 10
47.0
 20
-10.49999998630939
 30
0.0
 11
47.0
 21
-7.0000000136906095
 31
0.0
  0
LINE
  5
1D4
100
AcDbEntity
  8
0
  6
CONTINUOUS
 62
               7
100
AcDbLine
 10
41.0
 20
-6.9999999863093905
 30
0.0
 11
47.0
 21
-6.9999999863093905
 31
0.0
  0
LINE
  5
1D5
100
AcDbEntity
  8
0
  6
CONTINUOUS
 62
               7
100
AcDbLine
 10
25.0
 20
-6.9999999863093905
 30
0.0
 11
31.0
 21
-6.9999999863093905
 31
0.0
  0
LINE
  5
1D6
100
AcDbEntity
  8
0
  6
CONTINUOUS
 62
               7
100
AcDbLine
 10
25.0
 20
-10.49999998630939
 30
0.0
 11
25.0
 21
-7.0000000136906095
 31
0.0
  0
LINE
  5
1D7
100
AcDbEntity
  8
0
  6
CONTINUOUS
 62
               7
100
AcDbLine
 10
31.0
 20
-10.49999998630939
 30
0.0
 11
31.0
 21
-7.0000000136906095
 31
0.0
  0
LINE
  5
1D8
100
AcDbEntity
  8
0
  6
CONTINUOUS
 62
               7
100
AcDbLine
 10
15.5
 20
-15.5
 30
0.0
 11
57.0
 21
-15.5
 31
0.0
  0
LINE
  5
1D9
100
AcDbEntity
  8
0
  6
CONTINUOUS
 62
               2
100
AcDbLine
 10
-2.0
 20
-7.0
 30
0.0
 11
2.0
 21
-7.0
 31
0.0
  0
LINE
  5
1DA
100
AcDbEntity
  8
0
  6
CONTINUOUS
 62
               2
100
AcDbLine
 10
27.999999997462709
 20
-2.0
 30
0.0
 11
27.999999997462709
 21
2.0
 31
0.0
  0
LINE
  5
1DB
100
AcDbEntity
  8
0
  6
CONTINUOUS
 62
               2
100
AcDbLine
 10
43.999999997462709
 20
-2.0
 30
0.0
 11
43.999999997462709
 21
2.0
 31
0.0
  0
LINE
  5
1DC
100
AcDbEntity
  8
0
  6
PHANTOM
 62
               3
100
AcDbLine
 10
39.0
 20
-9.3129580782003103
 30
0.0
 11
33.156134103941376
 21
-9.3129580782003103
 31
0.0
  0
LINE
  5
1DD
100
AcDbEntity
  8
0
  6
PHANTOM
 62
               3
100
AcDbLine
 10
33.156134103941376
 20
-9.3129580782003103
 30
0.0
 11
33.156134103941376
 21
-23.079067350554539
 31
0.0
  0
LINE
  5
1DE
100
AcDbEntity
  8
0
  6
PHANTOM
 62
               3
100
AcDbLine
 10
68.999999997462709
 20
-23.03243957073488
 30
0.0
 11
68.999999997462709
 21
5.9085878209024543
 31
0.0
  0
LINE
  5
1DF
100
AcDbEntity
  8
0
  6
PHANTOM
 62
               3
100
AcDbLine
 10
39.0
 20
-9.3129580782003103
 30
0.0
 11
39.0
 21
18.091539993752122
 31
0.0
  0
ENDBLK
  5
1E0
100
AcDbEntity
  8
0
100
AcDbBlockEnd
  0
BLOCK
  5
1E1
100
AcDbEntity
  8
0
100
AcDbBlockBegin
  2
MGAPG10-5
 70
               0
 10
0.0
 20
0.0
 30
0.0
  3
MGAPG10-5
  1

  0
LINE
  5
1E2
100
AcDbEntity
  8
0
  6
PHANTOM
 62
               3
100
AcDbLine
 10
32.897278265296507
 20
9.2873961051105738
 30
0.0
 11
38.008484037162617
 21
9.2873961051105738
 31
0.0
  0
LINE
  5
1E3
100
AcDbEntity
  8
0
  6
CONTINUOUS
 62
               7
100
AcDbLine
 10
19.000000000000071
 20
8.5
 30
0.0
 11
21.0
 21
8.5
 31
0.0
  0
LINE
  5
1E4
100
AcDbEntity
  8
0
  6
CONTINUOUS
 62
               7
100
AcDbLine
 10
18.999999999999986
 20
4.5
 30
0.0
 11
21.0
 21
4.5
 31
0.0
  0
LINE
  5
1E5
100
AcDbEntity
  8
0
  6
PHANTOM
 62
               2
100
AcDbLine
 10
16.5
 20
10.5
 30
0.0
 11
18.125000000000071
 21
10.5
 31
0.0
  0
LINE
  5
1E6
100
AcDbEntity
  8
0
  6
PHANTOM
 62
               2
100
AcDbLine
 10
16.5
 20
10.149999999999999
 30
0.0
 11
18.125000000000071
 21
10.149999999999999
 31
0.0
  0
LINE
  5
1E7
100
AcDbEntity
  8
0
  6
CONTINUOUS
 62
               7
100
AcDbLine
 10
19.000000000000071
 20
11.0
 30
0.0
 11
19.000000000000071
 21
1.6999999999999993
 31
0.0
  0
LINE
  5
1E8
100
AcDbEntity
  8
0
  6
CONTINUOUS
 62
               7
100
AcDbLine
 10
18.300000000000082
 20
11.0
 30
0.0
 11
18.300000000000082
 21
1.6999999999999993
 31
0.0
  0
LINE
  5
1E9
100
AcDbEntity
  8
0
  6
CONTINUOUS
 62
               7
100
AcDbLine
 10
16.5
 20
11.0
 30
0.0
 11
16.5
 21
10.0
 31
0.0
  0
LINE
  5
1EA
100
AcDbEntity
  8
0
  6
CONTINUOUS
 62
               7
100
AcDbLine
 10
17.000000000000114
 20
3.1500000000000021
 30
0.0
 11
18.300000000000082
 21
3.1500000000000021
 31
0.0
  0
CIRCLE
  5
1EB
100
AcDbEntity
  8
0
  6
CONTINUOUS
 62
               7
100
AcDbCircle
 10
18.125000000000071
 20
2.6749999999999972
 30
0.0
 40
0.175
  0
CIRCLE
  5
1EC
100
AcDbEntity
  8
0
  6
CONTINUOUS
 62
               7
100
AcDbCircle
 10
18.125000000000071
 20
10.324999999999999
 30
0.0
 40
0.175
  0
LINE
  5
1ED
100
AcDbEntity
  8
0
  6
CONTINUOUS
 62
               7
100
AcDbLine
 10
17.000000000000114
 20
9.8499999999999979
 30
0.0
 11
18.300000000000082
 21
9.8499999999999979
 31
0.0
  0
LINE
  5
1EE
100
AcDbEntity
  8
0
  6
CONTINUOUS
 62
               7
100
AcDbLine
 10
17.000000000000114
 20
9.8499999999999979
 30
0.0
 11
17.000000000000114
 21
3.1500000000000021
 31
0.0
  0
LINE
  5
1EF
100
AcDbEntity
  8
0
  6
CONTINUOUS
 62
               7
100
AcDbLine
 10
18.300000000000082
 20
1.6999999999999993
 30
0.0
 11
19.000000000000071
 21
1.6999999999999993
 31
0.0
  0
LINE
  5
1F0
100
AcDbEntity
  8
0
  6
CONTINUOUS
 62
               7
100
AcDbLine
 10
18.300000000000082
 20
8.1703293088490057
 30
0.0
 11
19.000000000000071
 21
8.1703293088490057
 31
0.0
  0
LINE
  5
1F1
100
AcDbEntity
  8
0
  6
CONTINUOUS
 62
               7
100
AcDbLine
 10
18.300000000000082
 20
4.8296706911509943
 30
0.0
 11
19.000000000000071
 21
4.8296706911509943
 31
0.0
  0
LINE
  5
1F2
100
AcDbEntity
  8
0
  6
CONTINUOUS
 62
               2
100
AcDbLine
 10
19.000000000000071
 20
8.1703293088490057
 30
0.0
 11
18.300000000000082
 21
4.8296706911509943
 31
0.0
  0
LINE
  5
1F3
100
AcDbEntity
  8
0
  6
CONTINUOUS
 62
               2
100
AcDbLine
 10
18.300000000000082
 20
8.1703293088490057
 30
0.0
 11
19.000000000000071
 21
4.8296706911509943
 31
0.0
  0
LINE
  5
1F4
100
AcDbEntity
  8
0
  6
CONTINUOUS
 62
               2
100
AcDbLine
 10
19.000000000000071
 20
8.25
 30
0.0
 11
19.433012701892295
 21
8.5
 31
0.0
  0
LINE
  5
1F5
100
AcDbEntity
  8
0
  6
CONTINUOUS
 62
               2
100
AcDbLine
 10
19.000000000000071
 20
4.75
 30
0.0
 11
19.433012701892295
 21
4.5
 31
0.0
  0
LINE
  5
1F6
100
AcDbEntity
  8
0
  6
CONTINUOUS
 62
               7
100
AcDbLine
 10
11.300000000000097
 20
1.5
 30
0.0
 11
11.300000000000097
 21
10.0
 31
0.0
  0
LINE
  5
1F7
100
AcDbEntity
  8
0
  6
CONTINUOUS
 62
               7
100
AcDbLine
 10
12.800000000000125
 20
3.1500000000000021
 30
0.0
 11
11.300000000000097
 21
3.1500000000000021
 31
0.0
  0
LINE
  5
1F8
100
AcDbEntity
  8
0
  6
CONTINUOUS
 62
               7
100
AcDbLine
 10
12.800000000000125
 20
3.1500000000000021
 30
0.0
 11
12.800000000000125
 21
9.8499999999999979
 31
0.0
  0
CIRCLE
  5
1F9
100
AcDbEntity
  8
0
  6
CONTINUOUS
 62
               7
100
AcDbCircle
 10
11.475000000000108
 20
2.6749999999999972
 30
0.0
 40
0.175
  0
LINE
  5
1FA
100
AcDbEntity
  8
0
  6
CONTINUOUS
 62
               7
100
AcDbLine
 10
12.800000000000125
 20
9.8499999999999979
 30
0.0
 11
11.300000000000097
 21
9.8499999999999979
 31
0.0
  0
LINE
  5
1FB
100
AcDbEntity
  8
0
  6
CONTINUOUS
 62
               7
100
AcDbLine
 10
0.0
 20
15.799999999999997
 30
0.0
 11
0.0
 21
1.5
 31
0.0
  0
LINE
  5
1FC
100
AcDbEntity
  8
0
  6
CONTINUOUS
 62
               7
100
AcDbLine
 10
10.5
 20
10.0
 30
0.0
 11
10.5
 21
1.5
 31
0.0
  0
LINE
  5
1FD
100
AcDbEntity
  8
0
  6
CONTINUOUS
 62
               7
100
AcDbLine
 10
0.0
 20
1.5
 30
0.0
 11
11.300000000000097
 21
1.5
 31
0.0
  0
LINE
  5
1FE
100
AcDbEntity
  8
0
  6
CONTINUOUS
 62
               7
100
AcDbLine
 10
10.5
 20
10.0
 30
0.0
 11
16.5
 21
10.0
 31
0.0
  0
LINE
  5
1FF
100
AcDbEntity
  8
0
  6
PHANTOM
 62
               2
100
AcDbLine
 10
11.475000000000108
 20
2.8500000000000014
 30
0.0
 11
18.125000000000071
 21
2.8500000000000014
 31
0.0
  0
LINE
  5
200
100
AcDbEntity
  8
0
  6
PHANTOM
 62
               2
100
AcDbLine
 10
11.475000000000108
 20
2.5
 30
0.0
 11
18.125000000000071
 21
2.5
 31
0.0
  0
LINE
  5
201
100
AcDbEntity
  8
0
  6
CONTINUOUS
 62
               7
100
AcDbLine
 10
12.800000000000125
 20
3.7999999999999972
 30
0.0
 11
17.000000000000114
 21
3.7999999999999972
 31
0.0
  0
LINE
  5
202
100
AcDbEntity
  8
0
  6
CONTINUOUS
 62
               7
100
AcDbLine
 10
12.800000000000125
 20
9.1999999999999993
 30
0.0
 11
17.000000000000114
 21
9.1999999999999993
 31
0.0
  0
LINE
  5
203
100
AcDbEntity
  8
0
  6
CONTINUOUS
 62
               7
100
AcDbLine
 10
0.0
 20
15.799999999999997
 30
0.0
 11
15.5
 21
15.799999999999997
 31
0.0
  0
LINE
  5
204
100
AcDbEntity
  8
0
  6
CONTINUOUS
 62
               2
100
AcDbLine
 10
8.6325144453194511
 20
6.5
 30
0.0
 11
22.569570616885898
 21
6.5
 31
0.0
  0
LINE
  5
205
100
AcDbEntity
  8
0
  6
CONTINUOUS
 62
               7
100
AcDbLine
 10
0.0
 20
15.299999999999997
 30
0.0
 11
15.5
 21
15.299999999999997
 31
0.0
  0
LINE
  5
206
100
AcDbEntity
  8
0
  6
CONTINUOUS
 62
               7
100
AcDbLine
 10
63.999999997462709
 20
8.5
 30
0.0
 11
73.999999997462709
 21
8.5
 31
0.0
  0
LINE
  5
207
100
AcDbEntity
  8
0
  6
CONTINUOUS
 62
               7
100
AcDbLine
 10
65.499999997462709
 20
4.5
 30
0.0
 11
73.999999997462709
 21
4.5
 31
0.0
  0
LINE
  5
208
100
AcDbEntity
  8
0
  6
CONTINUOUS
 62
               7
100
AcDbLine
 10
86.699999997462726
 20
8.5
 30
0.0
 11
86.699999997462726
 21
4.5
 31
0.0
  0
LINE
  5
209
100
AcDbEntity
  8
0
  6
CONTINUOUS
 62
               7
100
AcDbLine
 10
84.699999997462697
 20
4.5
 30
0.0
 11
86.699999997462726
 21
4.5
 31
0.0
  0
LINE
  5
20A
100
AcDbEntity
  8
0
  6
CONTINUOUS
 62
               7
100
AcDbLine
 10
84.699999997462697
 20
8.5
 30
0.0
 11
86.699999997462726
 21
8.5
 31
0.0
  0
LINE
  5
20B
100
AcDbEntity
  8
0
  6
CONTINUOUS
 62
               2
100
AcDbLine
 10
71.999999997462709
 20
4.8790000000000049
 30
0.0
 11
71.34355274139412
 21
4.5
 31
0.0
  0
LINE
  5
20C
100
AcDbEntity
  8
0
  6
CONTINUOUS
 62
               2
100
AcDbLine
 10
71.999999997462709
 20
4.8790000000000049
 30
0.0
 11
73.999999997462709
 21
4.8790000000000049
 31
0.0
  0
LINE
  5
20D
100
AcDbEntity
  8
0
  6
CONTINUOUS
 62
               7
100
AcDbLine
 10
71.999999997462709
 20
8.5
 30
0.0
 11
71.999999997462709
 21
4.5
 31
0.0
  0
LINE
  5
20E
100
AcDbEntity
  8
0
  6
CONTINUOUS
 62
               2
100
AcDbLine
 10
71.999999997462709
 20
8.1209999999999951
 30
0.0
 11
71.34355274139412
 21
8.5
 31
0.0
  0
LINE
  5
20F
100
AcDbEntity
  8
0
  6
CONTINUOUS
 62
               2
100
AcDbLine
 10
71.999999997462709
 20
8.1209999999999951
 30
0.0
 11
73.999999997462709
 21
8.1209999999999951
 31
0.0
  0
LINE
  5
210
100
AcDbEntity
  8
0
  6
CONTINUOUS
 62
               2
100
AcDbLine
 10
84.699999997462697
 20
4.8790000000000049
 30
0.0
 11
86.999999997462709
 21
4.8790000000000049
 31
0.0
  0
LINE
  5
211
100
AcDbEntity
  8
0
  6
CONTINUOUS
 62
               2
100
AcDbLine
 10
84.699999997462697
 20
8.1209999999999951
 30
0.0
 11
86.999999997462709
 21
8.1209999999999951
 31
0.0
  0
LINE
  5
212
100
AcDbEntity
  8
0
  6
CONTINUOUS
 62
               7
100
AcDbLine
 10
81.49999999746268
 20
10.000000000000071
 30
0.0
 11
81.812607388632273
 21
10.541451884327387
 31
0.0
  0
LINE
  5
213
100
AcDbEntity
  8
0
  6
CONTINUOUS
 62
               7
100
AcDbLine
 10
81.49999999746268
 20
2.9999999999999289
 30
0.0
 11
81.812607388632273
 21
2.4585481156726132
 31
0.0
  0
LINE
  5
214
100
AcDbEntity
  8
0
  6
CONTINUOUS
 62
               7
100
AcDbLine
 10
84.699999997462697
 20
2.9999999999999289
 30
0.0
 11
84.387392606293105
 21
2.4585481156726132
 31
0.0
  0
LINE
  5
215
100
AcDbEntity
  8
0
  6
CONTINUOUS
 62
               7
100
AcDbLine
 10
84.387392606293105
 20
4.4792740578363066
 30
0.0
 11
81.812607388632273
 21
4.4792740578363066
 31
0.0
  0
LINE
  5
216
100
AcDbEntity
  8
0
  6
CONTINUOUS
 62
               7
100
AcDbLine
 10
84.387392606293105
 20
10.541451884327387
 30
0.0
 11
81.812607388632273
 21
10.541451884327387
 31
0.0
  0
LINE
  5
217
100
AcDbEntity
  8
0
  6
CONTINUOUS
 62
               7
100
AcDbLine
 10
84.699999997462697
 20
10.000000000000071
 30
0.0
 11
84.387392606293105
 21
10.541451884327387
 31
0.0
  0
LINE
  5
218
100
AcDbEntity
  8
0
  6
CONTINUOUS
 62
               7
100
AcDbLine
 10
84.387392606293105
 20
8.5207259421636934
 30
0.0
 11
81.812607388632273
 21
8.5207259421636934
 31
0.0
  0
LINE
  5
219
100
AcDbEntity
  8
0
  6
CONTINUOUS
 62
               7
100
AcDbLine
 10
84.387392606293105
 20
2.4585481156726132
 30
0.0
 11
81.499999997462709
 21
2.4585481156726132
 31
0.0
  0
LINE
  5
21A
100
AcDbEntity
  8
0
  6
CONTINUOUS
 62
               7
100
AcDbLine
 10
81.499999997462709
 20
11.5
 30
0.0
 11
80.726497305566454
 21
12.273502691896255
 31
0.0
  0
LINE
  5
21B
100
AcDbEntity
  8
0
  6
CONTINUOUS
 62
               7
100
AcDbLine
 10
80.726497305566454
 20
12.273502691896255
 30
0.0
 11
77.499999997462709
 21
12.273502691896255
 31
0.0
  0
LINE
  5
21C
100
AcDbEntity
  8
0
  6
CONTINUOUS
 62
               7
100
AcDbLine
 10
80.726497305566454
 20
9.3867513459481415
 30
0.0
 11
77.499999997462709
 21
9.3867513459481415
 31
0.0
  0
LINE
  5
21D
100
AcDbEntity
  8
0
  6
CONTINUOUS
 62
               7
100
AcDbLine
 10
81.499999997462709
 20
1.5
 30
0.0
 11
80.726497305566454
 21
0.7264973081037454
 31
0.0
  0
LINE
  5
21E
100
AcDbEntity
  8
0
  6
CONTINUOUS
 62
               7
100
AcDbLine
 10
80.726497305566454
 20
3.6132486540518585
 30
0.0
 11
77.499999997462709
 21
3.6132486540518585
 31
0.0
  0
LINE
  5
21F
100
AcDbEntity
  8
0
  6
CONTINUOUS
 62
               7
100
AcDbLine
 10
80.726497305566454
 20
0.7264973081037454
 30
0.0
 11
77.499999997462709
 21
0.7264973081037454
 31
0.0
  0
LINE
  5
220
100
AcDbEntity
  8
0
  6
CONTINUOUS
 62
               7
100
AcDbLine
 10
77.499999997462709
 20
0.7264973081037454
 30
0.0
 11
77.499999997462709
 21
12.273502691896255
 31
0.0
  0
LINE
  5
221
100
AcDbEntity
  8
0
  6
CONTINUOUS
 62
               7
100
AcDbLine
 10
86.699999997462726
 20
8.5
 30
0.0
 11
86.999999997462709
 21
8.1999999999998323
 31
0.0
  0
LINE
  5
222
100
AcDbEntity
  8
0
  6
CONTINUOUS
 62
               7
100
AcDbLine
 10
86.699999997462726
 20
4.5
 30
0.0
 11
86.999999997462709
 21
4.8000000000001677
 31
0.0
  0
LINE
  5
223
100
AcDbEntity
  8
0
  6
CONTINUOUS
 62
               7
100
AcDbLine
 10
86.999999997462709
 20
4.8000000000001677
 30
0.0
 11
86.999999997462709
 21
8.1999999999998323
 31
0.0
  0
LINE
  5
224
100
AcDbEntity
  8
0
  6
CONTINUOUS
 62
               7
100
AcDbLine
 10
84.699999997462697
 20
2.9999999999999289
 30
0.0
 11
84.699999997462697
 21
10.000000000000071
 31
0.0
  0
LINE
  5
225
100
AcDbEntity
  8
0
  6
CONTINUOUS
 62
               7
100
AcDbLine
 10
81.499999997462709
 20
1.5
 30
0.0
 11
81.499999997462709
 21
11.5
 31
0.0
  0
LINE
  5
226
100
AcDbEntity
  8
0
  6
CONTINUOUS
 62
               7
100
AcDbLine
 10
73.999999997462709
 20
1.7999999999999972
 30
0.0
 11
73.999999997462709
 21
11.200000000000003
 31
0.0
  0
LINE
  5
227
100
AcDbEntity
  8
0
  6
CONTINUOUS
 62
               7
100
AcDbLine
 10
77.499999997462709
 20
11.200000000000003
 30
0.0
 11
73.999999997462709
 21
11.200000000000003
 31
0.0
  0
LINE
  5
228
100
AcDbEntity
  8
0
  6
CONTINUOUS
 62
               7
100
AcDbLine
 10
77.499999997462709
 20
1.7999999999999972
 30
0.0
 11
73.999999997462709
 21
1.7999999999999972
 31
0.0
  0
SPLINE
  5
229
100
AcDbEntity
  8
0
  6
CONTINUOUS
 62
               7
100
AcDbSpline
210
0.0
220
0.0
230
1.0
 70
               0
 71
               3
 72
               0
 73
               0
 74
               5
 44
0.000001
 12
-0.5262037021177514
 22
-0.8503585501878445
 32
0.0
 13
0.5262037021177172
 23
-0.8503585501878657
 33
0.0
 11
81.812607388632273
 21
10.541451884327387
 31
0.0
 11
81.586738352291505
 21
10.057084419037439
 31
0.0
 11
81.49999999746268
 21
9.5310889132455401
 31
0.0
 11
81.586738352291519
 21
9.0050934074536446
 31
0.0
 11
81.812607388632273
 21
8.5207259421636934
 31
0.0
  0
SPLINE
  5
22A
100
AcDbEntity
  8
0
  6
CONTINUOUS
 62
               7
100
AcDbSpline
210
0.0
220
0.0
230
1.0
 70
               0
 71
               3
 72
               0
 73
               0
 74
               5
 44
0.000001
 12
-0.2955767282155966
 22
0.9553190031279413
 32
0.0
 13
0.2955767282155967
 23
0.9553190031279412
 33
0.0
 11
81.812607388632273
 21
4.4792740578363066
 31
0.0
 11
81.58075563943018
 21
5.4770136363185919
 31
0.0
 11
81.49999999746268
 21
6.5
 31
0.0
 11
81.58075563943018
 21
7.5229863636814081
 31
0.0
 11
81.812607388632273
 21
8.5207259421636934
 31
0.0
  0
SPLINE
  5
22B
100
AcDbEntity
  8
0
  6
CONTINUOUS
 62
               7
100
AcDbSpline
210
0.0
220
0.0
230
1.0
 70
               0
 71
               3
 72
               0
 73
               0
 74
               5
 44
0.000001
 12
-0.5262037021177514
 22
0.8503585501878445
 32
0.0
 13
0.5262037021177172
 23
0.8503585501878657
 33
0.0
 11
81.812607388632273
 21
2.4585481156726132
 31
0.0
 11
81.586738352291505
 21
2.9429155809625609
 31
0.0
 11
81.49999999746268
 21
3.4689110867544599
 31
0.0
 11
81.586738352291519
 21
3.9949065925463558
 31
0.0
 11
81.812607388632273
 21
4.4792740578363066
 31
0.0
  0
SPLINE
  5
22C
100
AcDbEntity
  8
0
  6
CONTINUOUS
 62
               7
100
AcDbSpline
210
0.0
220
0.0
230
1.0
 70
               0
 71
               3
 72
               0
 73
               0
 74
               5
 44
0.000001
 12
-0.5262037021177514
 22
0.8503585501878445
 32
0.0
 13
0.5262037021177172
 23
0.8503585501878657
 33
0.0
 11
81.812607388632273
 21
2.4585481156726132
 31
0.0
 11
81.586738352291505
 21
2.9429155809625609
 31
0.0
 11
81.49999999746268
 21
3.4689110867544599
 31
0.0
 11
81.586738352291519
 21
3.9949065925463558
 31
0.0
 11
81.812607388632273
 21
4.4792740578363066
 31
0.0
  0
SPLINE
  5
22D
100
AcDbEntity
  8
0
  6
CONTINUOUS
 62
               7
100
AcDbSpline
210
0.0
220
0.0
230
1.0
 70
               0
 71
               3
 72
               0
 73
               0
 74
               5
 44
0.000001
 12
0.2955767282155964
 22
0.9553190031279413
 32
0.0
 13
-0.2955767282155966
 23
0.9553190031279413
 33
0.0
 11
84.387392606293105
 21
4.4792740578363066
 31
0.0
 11
84.619244355495198
 21
5.4770136363185919
 31
0.0
 11
84.699999997462697
 21
6.5
 31
0.0
 11
84.619244355495198
 21
7.5229863636814081
 31
0.0
 11
84.387392606293105
 21
8.5207259421636934
 31
0.0
  0
SPLINE
  5
22E
100
AcDbEntity
  8
0
  6
CONTINUOUS
 62
               7
100
AcDbSpline
210
0.0
220
0.0
230
1.0
 70
               0
 71
               3
 72
               0
 73
               0
 74
               5
 44
0.000001
 12
0.5262037021177513
 22
0.8503585501878445
 32
0.0
 13
-0.5262037021177171
 23
0.8503585501878658
 33
0.0
 11
84.387392606293105
 21
2.4585481156726132
 31
0.0
 11
84.613261642633873
 21
2.9429155809625609
 31
0.0
 11
84.699999997462697
 21
3.4689110867544599
 31
0.0
 11
84.613261642633859
 21
3.9949065925463558
 31
0.0
 11
84.387392606293105
 21
4.4792740578363066
 31
0.0
  0
SPLINE
  5
22F
100
AcDbEntity
  8
0
  6
CONTINUOUS
 62
               7
100
AcDbSpline
210
0.0
220
0.0
230
1.0
 70
               0
 71
               3
 72
               0
 73
               0
 74
               5
 44
0.000001
 12
0.5262037021177513
 22
-0.8503585501878445
 32
0.0
 13
-0.5262037021177171
 23
-0.8503585501878658
 33
0.0
 11
84.387392606293105
 21
10.541451884327387
 31
0.0
 11
84.613261642633873
 21
10.057084419037439
 31
0.0
 11
84.699999997462697
 21
9.5310889132455401
 31
0.0
 11
84.613261642633859
 21
9.0050934074536446
 31
0.0
 11
84.387392606293105
 21
8.5207259421636934
 31
0.0
  0
SPLINE
  5
230
100
AcDbEntity
  8
0
  6
CONTINUOUS
 62
               7
100
AcDbSpline
210
0.0
220
0.0
230
1.0
 70
               0
 71
               3
 72
               0
 73
               0
 74
               5
 44
0.000001
 12
0.5262037021177513
 22
0.8503585501878445
 32
0.0
 13
-0.5262037021177171
 23
0.8503585501878658
 33
0.0
 11
84.387392606293105
 21
2.4585481156726132
 31
0.0
 11
84.613261642633873
 21
2.9429155809625609
 31
0.0
 11
84.699999997462697
 21
3.4689110867544599
 31
0.0
 11
84.613261642633859
 21
3.9949065925463558
 31
0.0
 11
84.387392606293105
 21
4.4792740578363066
 31
0.0
  0
SPLINE
  5
231
100
AcDbEntity
  8
0
  6
CONTINUOUS
 62
               7
100
AcDbSpline
210
0.0
220
0.0
230
1.0
 70
               0
 71
               3
 72
               0
 73
               0
 74
               5
 44
0.000001
 12
0.4723474904831427
 22
0.8814124166553802
 32
0.0
 13
-0.4723474904831424
 23
0.8814124166553803
 33
0.0
 11
80.726497305566454
 21
3.6132486540518585
 31
0.0
 11
81.289704974142637
 21
5.0092664206841437
 31
0.0
 11
81.499999997462709
 21
6.5
 31
0.0
 11
81.289704974142637
 21
7.9907335793158563
 31
0.0
 11
80.726497305566454
 21
9.3867513459481415
 31
0.0
  0
SPLINE
  5
232
100
AcDbEntity
  8
0
  6
CONTINUOUS
 62
               7
100
AcDbSpline
210
0.0
220
0.0
230
1.0
 70
               0
 71
               3
 72
               0
 73
               0
 74
               5
 44
0.000001
 12
0.7311721974753269
 22
-0.6821929475149252
 32
0.0
 13
-0.7311721974753274
 23
-0.6821929475149248
 33
0.0
 11
80.726497305566454
 21
12.273502691896255
 31
0.0
 11
81.262916976842291
 21
11.61298412118933
 31
0.0
 11
81.499999997462709
 21
10.830127018922198
 31
0.0
 11
81.262916976842291
 21
10.047269916655067
 31
0.0
 11
80.726497305566454
 21
9.3867513459481415
 31
0.0
  0
SPLINE
  5
233
100
AcDbEntity
  8
0
  6
CONTINUOUS
 62
               7
100
AcDbSpline
210
0.0
220
0.0
230
1.0
 70
               0
 71
               3
 72
               0
 73
               0
 74
               5
 44
0.000001
 12
0.7311721974753269
 22
0.6821929475149252
 32
0.0
 13
-0.7311721974753274
 23
0.6821929475149248
 33
0.0
 11
80.726497305566454
 21
0.7264973081037454
 31
0.0
 11
81.262916976842291
 21
1.387015878810671
 31
0.0
 11
81.499999997462709
 21
2.1698729810778019
 31
0.0
 11
81.262916976842291
 21
2.952730083344933
 31
0.0
 11
80.726497305566454
 21
3.6132486540518585
 31
0.0
  0
LINE
  5
234
100
AcDbEntity
  8
0
  6
CONTINUOUS
 62
               7
100
AcDbLine
 10
65.300000188197572
 20
6.75
 30
0.0
 11
63.999999997462709
 21
6.75
 31
0.0
  0
LINE
  5
235
100
AcDbEntity
  8
0
  6
CONTINUOUS
 62
               7
100
AcDbLine
 10
65.299999762794329
 20
6.7499996610495714
 30
0.0
 11
65.499999762794317
 21
6.4035893754789015
 31
0.0
  0
LINE
  5
236
100
AcDbEntity
  8
0
  6
CONTINUOUS
 62
               7
100
AcDbLine
 10
65.300000188197572
 20
1.25
 30
0.0
 11
65.300000188197572
 21
6.75
 31
0.0
  0
LINE
  5
237
100
AcDbEntity
  8
0
  6
CONTINUOUS
 62
               7
100
AcDbLine
 10
65.499999997462709
 20
1.5964107513427734
 30
0.0
 11
65.499999997462709
 21
6.4035892486572266
 31
0.0
  0
LINE
  5
238
100
AcDbEntity
  8
0
  6
CONTINUOUS
 62
               7
100
AcDbLine
 10
65.299999029212472
 20
1.2499997949722683
 30
0.0
 11
65.499999386840443
 21
1.5964104219704041
 31
0.0
  0
LINE
  5
239
100
AcDbEntity
  8
0
  6
CONTINUOUS
 62
               7
100
AcDbLine
 10
65.300000188197572
 20
1.25
 30
0.0
 11
63.999999997462709
 21
1.25
 31
0.0
  0
LINE
  5
23A
100
AcDbEntity
  8
0
  6
CONTINUOUS
 62
               7
100
AcDbLine
 10
63.999999997462709
 20
12.5
 30
0.0
 11
63.999999997462709
 21
0.1999999999999993
 31
0.0
  0
LINE
  5
23B
100
AcDbEntity
  8
0
  6
CONTINUOUS
 62
               7
100
AcDbLine
 10
58.0
 20
12.5
 30
0.0
 11
63.999999997462709
 21
12.5
 31
0.0
  0
LINE
  5
23C
100
AcDbEntity
  8
0
  6
CONTINUOUS
 62
               7
100
AcDbLine
 10
56.999999997462709
 20
10.5
 30
0.0
 11
63.999999997462709
 21
10.5
 31
0.0
  0
LINE
  5
23D
100
AcDbEntity
  8
0
  6
CONTINUOUS
 62
               7
100
AcDbLine
 10
56.999999997462709
 20
0.1999999999999993
 30
0.0
 11
63.999999997462709
 21
0.1999999999999993
 31
0.0
  0
LINE
  5
23E
100
AcDbEntity
  8
0
  6
CONTINUOUS
 62
               2
100
AcDbLine
 10
59.999999997462709
 20
6.5
 30
0.0
 11
90.0
 21
6.5
 31
0.0
  0
LINE
  5
23F
100
AcDbEntity
  8
0
  6
CONTINUOUS
 62
               2
100
AcDbLine
 10
47.0
 20
6.0
 30
0.0
 11
55.0
 21
6.0
 31
0.0
  0
LINE
  5
240
100
AcDbEntity
  8
0
  6
CONTINUOUS
 62
               7
100
AcDbLine
 10
57.5
 20
14.0
 30
0.0
 11
57.700000000000003
 21
14.0
 31
0.0
  0
LINE
  5
241
100
AcDbEntity
  8
0
  6
CONTINUOUS
 62
               7
100
AcDbLine
 10
57.5
 20
12.0
 30
0.0
 11
57.700000000000003
 21
12.0
 31
0.0
  0
ARC
  5
242
100
AcDbEntity
  8
0
  6
CONTINUOUS
 62
               7
100
AcDbCircle
 10
57.700000000000003
 20
12.299999999999997
 30
0.0
 40
0.3
100
AcDbArc
 50
270.0
 51
0.0
  0
ARC
  5
243
100
AcDbEntity
  8
0
  6
CONTINUOUS
 62
               7
100
AcDbCircle
 10
57.700000000000003
 20
13.700000000000003
 30
0.0
 40
0.3
100
AcDbArc
 50
0.0
 51
90.0
  0
LINE
  5
244
100
AcDbEntity
  8
0
  6
CONTINUOUS
 62
               7
100
AcDbLine
 10
58.0
 20
12.299999999999997
 30
0.0
 11
58.0
 21
13.700000000000003
 31
0.0
  0
LINE
  5
245
100
AcDbEntity
  8
0
  6
CONTINUOUS
 62
               7
100
AcDbLine
 10
57.5
 20
11.199999999999999
 30
0.0
 11
57.5
 21
15.699999999999999
 31
0.0
  0
LINE
  5
246
100
AcDbEntity
  8
0
  6
CONTINUOUS
 62
               7
100
AcDbLine
 10
57.000000023841864
 20
15.699999999999999
 30
0.0
 11
57.500000023841864
 21
15.699999999999999
 31
0.0
  0
LINE
  5
247
100
AcDbEntity
  8
0
  6
CONTINUOUS
 62
               7
100
AcDbLine
 10
57.000000023841864
 20
11.199999999999999
 30
0.0
 11
57.500000023841864
 21
11.199999999999999
 31
0.0
  0
LINE
  5
248
100
AcDbEntity
  8
0
  6
CONTINUOUS
 62
               7
100
AcDbLine
 10
15.5
 20
15.5
 30
0.0
 11
57.0
 21
15.5
 31
0.0
  0
LINE
  5
249
100
AcDbEntity
  8
0
  6
CONTINUOUS
 62
               7
100
AcDbLine
 10
31.0
 20
10.49999998630939
 30
0.0
 11
31.0
 21
7.0000000136906095
 31
0.0
  0
LINE
  5
24A
100
AcDbEntity
  8
0
  6
CONTINUOUS
 62
               7
100
AcDbLine
 10
25.0
 20
10.49999998630939
 30
0.0
 11
25.0
 21
7.0000000136906095
 31
0.0
  0
LINE
  5
24B
100
AcDbEntity
  8
0
  6
CONTINUOUS
 62
               7
100
AcDbLine
 10
25.0
 20
6.9999999863093905
 30
0.0
 11
31.0
 21
6.9999999863093905
 31
0.0
  0
LINE
  5
24C
100
AcDbEntity
  8
0
  6
CONTINUOUS
 62
               7
100
AcDbLine
 10
41.0
 20
6.9999999863093905
 30
0.0
 11
47.0
 21
6.9999999863093905
 31
0.0
  0
LINE
  5
24D
100
AcDbEntity
  8
0
  6
CONTINUOUS
 62
               7
100
AcDbLine
 10
47.0
 20
10.49999998630939
 30
0.0
 11
47.0
 21
7.0000000136906095
 31
0.0
  0
LINE
  5
24E
100
AcDbEntity
  8
0
  6
CONTINUOUS
 62
               7
100
AcDbLine
 10
41.0
 20
10.49999998630939
 30
0.0
 11
41.0
 21
7.0000000136906095
 31
0.0
  0
LINE
  5
24F
100
AcDbEntity
  8
0
  6
CONTINUOUS
 62
               2
100
AcDbLine
 10
49.5
 20
3.5
 30
0.0
 11
49.5
 21
8.5
 31
0.0
  0
CIRCLE
  5
250
100
AcDbEntity
  8
0
  6
CONTINUOUS
 62
               2
100
AcDbCircle
 10
49.5
 20
6.0
 30
0.0
 40
1.5
  0
CIRCLE
  5
251
100
AcDbEntity
  8
0
  6
CONTINUOUS
 62
               7
100
AcDbCircle
 10
49.5
 20
6.0
 30
0.0
 40
1.2
  0
LINE
  5
252
100
AcDbEntity
  8
0
  6
CONTINUOUS
 62
               2
100
AcDbLine
 10
33.5
 20
3.5
 30
0.0
 11
33.5
 21
8.5
 31
0.0
  0
CIRCLE
  5
253
100
AcDbEntity
  8
0
  6
CONTINUOUS
 62
               2
100
AcDbCircle
 10
33.5
 20
6.0
 30
0.0
 40
1.5
  0
LINE
  5
254
100
AcDbEntity
  8
0
  6
CONTINUOUS
 62
               2
100
AcDbLine
 10
31.0
 20
6.0
 30
0.0
 11
35.999999999999972
 21
6.0
 31
0.0
  0
CIRCLE
  5
255
100
AcDbEntity
  8
0
  6
CONTINUOUS
 62
               7
100
AcDbCircle
 10
33.5
 20
6.0
 30
0.0
 40
1.2
  0
LINE
  5
256
100
AcDbEntity
  8
0
  6
CONTINUOUS
 62
               2
100
AcDbLine
 10
36.0
 20
11.000000000000028
 30
0.0
 11
36.0
 21
15.000000000000028
 31
0.0
  0
LINE
  5
257
100
AcDbEntity
  8
0
  6
CONTINUOUS
 62
               2
100
AcDbLine
 10
34.0
 20
13.000000000000028
 30
0.0
 11
38.0
 21
13.000000000000028
 31
0.0
  0
CIRCLE
  5
258
100
AcDbEntity
  8
0
  6
CONTINUOUS
 62
               2
100
AcDbCircle
 10
36.0
 20
13.000000000000028
 30
0.0
 40
1.0
  0
CIRCLE
  5
259
100
AcDbEntity
  8
0
  6
CONTINUOUS
 62
               7
100
AcDbCircle
 10
36.0
 20
13.000000000000028
 30
0.0
 40
0.8
  0
LINE
  5
25A
100
AcDbEntity
  8
0
  6
CONTINUOUS
 62
               2
100
AcDbLine
 10
50.0
 20
11.000000000000028
 30
0.0
 11
50.0
 21
15.000000000000028
 31
0.0
  0
LINE
  5
25B
100
AcDbEntity
  8
0
  6
CONTINUOUS
 62
               2
100
AcDbLine
 10
48.0
 20
13.000000000000028
 30
0.0
 11
52.0
 21
13.000000000000028
 31
0.0
  0
CIRCLE
  5
25C
100
AcDbEntity
  8
0
  6
CONTINUOUS
 62
               2
100
AcDbCircle
 10
50.0
 20
13.000000000000028
 30
0.0
 40
1.0
  0
CIRCLE
  5
25D
100
AcDbEntity
  8
0
  6
CONTINUOUS
 62
               7
100
AcDbCircle
 10
50.0
 20
13.000000000000028
 30
0.0
 40
0.8
  0
LINE
  5
25E
100
AcDbEntity
  8
0
  6
CONTINUOUS
 62
               2
100
AcDbLine
 10
53.0
 20
4.0
 30
0.0
 11
53.0
 21
8.0
 31
0.0
  0
CIRCLE
  5
25F
100
AcDbEntity
  8
0
  6
CONTINUOUS
 62
               2
100
AcDbCircle
 10
53.0
 20
6.0
 30
0.0
 40
1.0
  0
CIRCLE
  5
260
100
AcDbEntity
  8
0
  6
CONTINUOUS
 62
               7
100
AcDbCircle
 10
53.0
 20
6.0
 30
0.0
 40
0.8
  0
LINE
  5
261
100
AcDbEntity
  8
0
  6
CONTINUOUS
 62
               2
100
AcDbLine
 10
24.0
 20
4.0
 30
0.0
 11
24.0
 21
8.0
 31
0.0
  0
LINE
  5
262
100
AcDbEntity
  8
0
  6
CONTINUOUS
 62
               2
100
AcDbLine
 10
22.0
 20
6.0
 30
0.0
 11
26.0
 21
6.0
 31
0.0
  0
CIRCLE
  5
263
100
AcDbEntity
  8
0
  6
CONTINUOUS
 62
               2
100
AcDbCircle
 10
24.0
 20
6.0
 30
0.0
 40
1.0
  0
CIRCLE
  5
264
100
AcDbEntity
  8
0
  6
CONTINUOUS
 62
               7
100
AcDbCircle
 10
24.0
 20
6.0
 30
0.0
 40
0.8
  0
LINE
  5
265
100
AcDbEntity
  8
0
  6
CONTINUOUS
 62
               7
100
AcDbLine
 10
15.5
 20
16.0
 30
0.0
 11
15.5
 21
11.0
 31
0.0
  0
LINE
  5
266
100
AcDbEntity
  8
0
  6
CONTINUOUS
 62
               7
100
AcDbLine
 10
15.5
 20
11.0
 30
0.0
 11
57.0
 21
11.0
 31
0.0
  0
LINE
  5
267
100
AcDbEntity
  8
0
  6
CONTINUOUS
 62
               7
100
AcDbLine
 10
15.5
 20
16.0
 30
0.0
 11
57.0
 21
16.0
 31
0.0
  0
LINE
  5
268
100
AcDbEntity
  8
0
  6
CONTINUOUS
 62
               7
100
AcDbLine
 10
21.0
 20
11.0
 30
0.0
 11
21.0
 21
0.0
 31
0.0
  0
LINE
  5
269
100
AcDbEntity
  8
0
  6
CONTINUOUS
 62
               7
100
AcDbLine
 10
57.0
 20
0.0
 30
0.0
 11
57.0
 21
16.0
 31
0.0
  0
LINE
  5
26A
100
AcDbEntity
  8
0
  6
CONTINUOUS
 62
               7
100
AcDbLine
 10
20.999999997462709
 20
0.0
 30
0.0
 11
56.999999997462709
 21
0.0
 31
0.0
  0
LINE
  5
26B
100
AcDbEntity
  8
0
  6
CONTINUOUS
 62
               7
100
AcDbLine
 10
21.0
 20
10.49999998630939
 30
0.0
 11
57.0
 21
10.49999998630939
 31
0.0
  0
LINE
  5
26C
100
AcDbEntity
  8
0
  6
CONTINUOUS
 62
               2
100
AcDbLine
 10
-2.0
 20
7.0
 30
0.0
 11
2.0
 21
7.0
 31
0.0
  0
LINE
  5
26D
100
AcDbEntity
  8
0
  6
CONTINUOUS
 62
               2
100
AcDbLine
 10
43.999999997462709
 20
-2.0
 30
0.0
 11
43.999999997462709
 21
2.0
 31
0.0
  0
LINE
  5
26E
100
AcDbEntity
  8
0
  6
CONTINUOUS
 62
               2
100
AcDbLine
 10
27.999999997462709
 20
-2.0
 30
0.0
 11
27.999999997462709
 21
2.0
 31
0.0
  0
LINE
  5
26F
100
AcDbEntity
  8
0
  6
PHANTOM
 62
               3
100
AcDbLine
 10
68.999999997462709
 20
-11.258967711829825
 30
0.0
 11
68.999999997462709
 21
25.721486501710331
 31
0.0
  0
LINE
  5
270
100
AcDbEntity
  8
0
  6
PHANTOM
 62
               3
100
AcDbLine
 10
38.0
 20
9.2873961051105738
 30
0.0
 11
38.0
 21
-11.258967711829825
 31
0.0
  0
LINE
  5
271
100
AcDbEntity
  8
0
  6
PHANTOM
 62
               3
100
AcDbLine
 10
32.888794228133889
 20
9.2873961051105738
 30
0.0
 11
32.888794228133889
 21
25.721486501710331
 31
0.0
  0
ENDBLK
  5
272
100
AcDbEntity
  8
0
100
AcDbBlockEnd
  0
BLOCK
  5
273
100
AcDbEntity
  8
0
100
AcDbBlockBegin
  2
MGAPG10-6
 70
               0
 10
0.0
 20
0.0
 30
0.0
  3
MGAPG10-6
  1

  0
LINE
  5
274
100
AcDbEntity
  8
0
  6
CONTINUOUS
 62
               7
100
AcDbLine
 10
20.499999997462709
 20
-5.2999999999999972
 30
0.0
 11
20.499999997462709
 21
-2.0
 31
0.0
  0
LINE
  5
275
100
AcDbEntity
  8
0
  6
CONTINUOUS
 62
               7
100
AcDbLine
 10
20.499999997462709
 20
5.2999999999999972
 30
0.0
 11
20.999999997462709
 21
5.2999999999999972
 31
0.0
  0
LINE
  5
276
100
AcDbEntity
  8
0
  6
CONTINUOUS
 62
               7
100
AcDbLine
 10
20.499999997462709
 20
2.2649503305812289
 30
0.0
 11
20.999999997462709
 21
2.2649503305812289
 31
0.0
  0
LINE
  5
277
100
AcDbEntity
  8
0
  6
CONTINUOUS
 62
               7
100
AcDbLine
 10
19.999999997462709
 20
4.2000000000000028
 30
0.0
 11
19.999999997462709
 21
2.7999999999999972
 31
0.0
  0
ARC
  5
278
100
AcDbEntity
  8
0
  6
CONTINUOUS
 62
               7
100
AcDbCircle
 10
20.299999997462692
 20
2.7999999999999972
 30
0.0
 40
0.3
100
AcDbArc
 50
180.0
 51
270.0
  0
ARC
  5
279
100
AcDbEntity
  8
0
  6
CONTINUOUS
 62
               7
100
AcDbCircle
 10
20.299999997462692
 20
4.2000000000000028
 30
0.0
 40
0.3
100
AcDbArc
 50
90.0
 51
180.0
  0
LINE
  5
27A
100
AcDbEntity
  8
0
  6
CONTINUOUS
 62
               7
100
AcDbLine
 10
20.499999997462709
 20
4.5
 30
0.0
 11
20.299999997462692
 21
4.5
 31
0.0
  0
LINE
  5
27B
100
AcDbEntity
  8
0
  6
CONTINUOUS
 62
               7
100
AcDbLine
 10
20.499999997462709
 20
2.5
 30
0.0
 11
20.299999997462692
 21
2.5
 31
0.0
  0
LINE
  5
27C
100
AcDbEntity
  8
0
  6
CONTINUOUS
 62
               7
100
AcDbLine
 10
20.499999997462709
 20
-5.2999999999999972
 30
0.0
 11
20.999999997462709
 21
-5.2999999999999972
 31
0.0
  0
LINE
  5
27D
100
AcDbEntity
  8
0
  6
CONTINUOUS
 62
               7
100
AcDbLine
 10
20.499999997462709
 20
-2.2649503305812289
 30
0.0
 11
20.999999997462709
 21
-2.2649503305812289
 31
0.0
  0
LINE
  5
27E
100
AcDbEntity
  8
0
  6
CONTINUOUS
 62
               7
100
AcDbLine
 10
19.999999997462709
 20
-2.7999999999999972
 30
0.0
 11
19.999999997462709
 21
-4.2000000000000028
 31
0.0
  0
ARC
  5
27F
100
AcDbEntity
  8
0
  6
CONTINUOUS
 62
               7
100
AcDbCircle
 10
20.299999997462692
 20
-4.2000000000000028
 30
0.0
 40
0.3
100
AcDbArc
 50
180.0
 51
270.0
  0
ARC
  5
280
100
AcDbEntity
  8
0
  6
CONTINUOUS
 62
               7
100
AcDbCircle
 10
20.299999997462692
 20
-2.7999999999999972
 30
0.0
 40
0.3
100
AcDbArc
 50
90.0
 51
180.0
  0
LINE
  5
281
100
AcDbEntity
  8
0
  6
CONTINUOUS
 62
               7
100
AcDbLine
 10
20.499999997462709
 20
-2.5
 30
0.0
 11
20.299999997462692
 21
-2.5
 31
0.0
  0
LINE
  5
282
100
AcDbEntity
  8
0
  6
CONTINUOUS
 62
               7
100
AcDbLine
 10
20.499999997462709
 20
-4.5
 30
0.0
 11
20.299999997462692
 21
-4.5
 31
0.0
  0
LINE
  5
283
100
AcDbEntity
  8
0
  6
CONTINUOUS
 62
               7
100
AcDbLine
 10
20.499999997462709
 20
2.0
 30
0.0
 11
20.499999997462709
 21
5.2999999999999972
 31
0.0
  0
LINE
  5
284
100
AcDbEntity
  8
0
  6
CONTINUOUS
 62
               7
100
AcDbLine
 10
18.99999999746278
 20
2.0
 30
0.0
 11
20.999999997462709
 21
2.0
 31
0.0
  0
LINE
  5
285
100
AcDbEntity
  8
0
  6
CONTINUOUS
 62
               7
100
AcDbLine
 10
18.99999999746278
 20
-2.0
 30
0.0
 11
20.999999997462709
 21
-2.0
 31
0.0
  0
LINE
  5
286
100
AcDbEntity
  8
0
  6
CONTINUOUS
 62
               7
100
AcDbLine
 10
15.5
 20
2.7000000000000028
 30
0.0
 11
15.5
 21
3.9686269623225741
 31
0.0
  0
LINE
  5
287
100
AcDbEntity
  8
0
  6
CONTINUOUS
 62
               7
100
AcDbLine
 10
15.5
 20
-3.9686269665968865
 30
0.0
 11
16.5
 21
-3.9686269665968865
 31
0.0
  0
LINE
  5
288
100
AcDbEntity
  8
0
  6
CONTINUOUS
 62
               7
100
AcDbLine
 10
15.5
 20
3.9686269665968865
 30
0.0
 11
16.5
 21
3.9686269665968865
 31
0.0
  0
LINE
  5
289
100
AcDbEntity
  8
0
  6
CONTINUOUS
 62
               7
100
AcDbLine
 10
11.299999997462805
 20
-4.8733971724044807
 30
0.0
 11
16.5
 21
-4.8733971724044807
 31
0.0
  0
LINE
  5
28A
100
AcDbEntity
  8
0
  6
CONTINUOUS
 62
               7
100
AcDbLine
 10
11.299999997462805
 20
4.8733971724044807
 30
0.0
 11
16.5
 21
4.8733971724044807
 31
0.0
  0
LINE
  5
28B
100
AcDbEntity
  8
0
  6
CONTINUOUS
 62
               7
100
AcDbLine
 10
15.5
 20
-3.9686269897037931
 30
0.0
 11
15.5
 21
-2.7000000000000028
 31
0.0
  0
LINE
  5
28C
100
AcDbEntity
  8
0
  6
CONTINUOUS
 62
               7
100
AcDbLine
 10
12.799999997462834
 20
-2.7000000000000028
 30
0.0
 11
16.999999997462822
 21
-2.7000000000000028
 31
0.0
  0
LINE
  5
28D
100
AcDbEntity
  8
0
  6
CONTINUOUS
 62
               7
100
AcDbLine
 10
12.799999997462834
 20
2.7000000000000028
 30
0.0
 11
16.999999997462822
 21
2.7000000000000028
 31
0.0
  0
LINE
  5
28E
100
AcDbEntity
  8
0
  6
PHANTOM
 62
               2
100
AcDbLine
 10
11.474999997462817
 20
-4.0
 30
0.0
 11
18.12499999746278
 21
-4.0
 31
0.0
  0
LINE
  5
28F
100
AcDbEntity
  8
0
  6
PHANTOM
 62
               2
100
AcDbLine
 10
11.474999997462817
 20
-3.6499999999999915
 30
0.0
 11
18.12499999746278
 21
-3.6499999999999915
 31
0.0
  0
CIRCLE
  5
290
100
AcDbEntity
  8
0
  6
CONTINUOUS
 62
               7
100
AcDbCircle
 10
18.12499999746278
 20
-3.8250000000000028
 30
0.0
 40
0.175
  0
LINE
  5
291
100
AcDbEntity
  8
0
  6
CONTINUOUS
 62
               7
100
AcDbLine
 10
16.999999997462822
 20
-3.3499999999999943
 30
0.0
 11
18.299999997462791
 21
-3.3499999999999943
 31
0.0
  0
CIRCLE
  5
292
100
AcDbEntity
  8
0
  6
CONTINUOUS
 62
               7
100
AcDbCircle
 10
11.474999997462817
 20
-3.8250000000000028
 30
0.0
 40
0.175
  0
LINE
  5
293
100
AcDbEntity
  8
0
  6
CONTINUOUS
 62
               7
100
AcDbLine
 10
12.799999997462834
 20
-3.3499999999999943
 30
0.0
 11
11.299999997462805
 21
-3.3499999999999943
 31
0.0
  0
LINE
  5
294
100
AcDbEntity
  8
0
  6
CONTINUOUS
 62
               7
100
AcDbLine
 10
10.499999997462709
 20
-5.0
 30
0.0
 11
11.299999997462805
 21
-5.0
 31
0.0
  0
LINE
  5
295
100
AcDbEntity
  8
0
  6
CONTINUOUS
 62
               7
100
AcDbLine
 10
7.4999999974627087
 20
-2.7000000000000028
 30
0.0
 11
10.49999999746268
 21
-2.7000000000000028
 31
0.0
  0
LINE
  5
296
100
AcDbEntity
  8
0
  6
CONTINUOUS
 62
               7
100
AcDbLine
 10
10.499999997462709
 20
5.0
 30
0.0
 11
11.299999997462805
 21
5.0
 31
0.0
  0
LINE
  5
297
100
AcDbEntity
  8
0
  6
CONTINUOUS
 62
               7
100
AcDbLine
 10
16.999999997462822
 20
3.3499999999999943
 30
0.0
 11
18.299999997462791
 21
3.3499999999999943
 31
0.0
  0
LINE
  5
298
100
AcDbEntity
  8
0
  6
CONTINUOUS
 62
               7
100
AcDbLine
 10
12.799999997462834
 20
3.3499999999999943
 30
0.0
 11
11.299999997462805
 21
3.3499999999999943
 31
0.0
  0
LINE
  5
299
100
AcDbEntity
  8
0
  6
CONTINUOUS
 62
               7
100
AcDbLine
 10
12.799999997462834
 20
3.3499999999999943
 30
0.0
 11
12.799999997462834
 21
-3.3499999999999943
 31
0.0
  0
LINE
  5
29A
100
AcDbEntity
  8
0
  6
PHANTOM
 62
               2
100
AcDbLine
 10
11.474999997462817
 20
4.0
 30
0.0
 11
18.12499999746278
 21
4.0
 31
0.0
  0
CIRCLE
  5
29B
100
AcDbEntity
  8
0
  6
CONTINUOUS
 62
               7
100
AcDbCircle
 10
18.12499999746278
 20
3.8250000000000028
 30
0.0
 40
0.175
  0
CIRCLE
  5
29C
100
AcDbEntity
  8
0
  6
CONTINUOUS
 62
               7
100
AcDbCircle
 10
11.474999997462817
 20
3.8250000000000028
 30
0.0
 40
0.175
  0
LINE
  5
29D
100
AcDbEntity
  8
0
  6
PHANTOM
 62
               2
100
AcDbLine
 10
11.474999997462817
 20
3.6499999999999915
 30
0.0
 11
18.12499999746278
 21
3.6499999999999915
 31
0.0
  0
LINE
  5
29E
100
AcDbEntity
  8
0
  6
CONTINUOUS
 62
               7
100
AcDbLine
 10
11.299999997462805
 20
5.0
 30
0.0
 11
11.299999997462805
 21
-5.0
 31
0.0
  0
LINE
  5
29F
100
AcDbEntity
  8
0
  6
CONTINUOUS
 62
               7
100
AcDbLine
 10
16.999999997462822
 20
3.3499999999999943
 30
0.0
 11
16.999999997462822
 21
-3.3499999999999943
 31
0.0
  0
LINE
  5
2A0
100
AcDbEntity
  8
0
  6
CONTINUOUS
 62
               7
100
AcDbLine
 10
7.4999999974627087
 20
2.7000000000000028
 30
0.0
 11
10.49999999746268
 21
2.7000000000000028
 31
0.0
  0
LINE
  5
2A1
100
AcDbEntity
  8
0
  6
CONTINUOUS
 62
               7
100
AcDbLine
 10
4.5
 20
-4.7000000000000028
 30
0.0
 11
4.5
 21
4.7000000000000028
 31
0.0
  0
LINE
  5
2A2
100
AcDbEntity
  8
0
  6
CONTINUOUS
 62
               7
100
AcDbLine
 10
7.5
 20
-5.2000000000000028
 30
0.0
 11
7.5
 21
5.2000000000000028
 31
0.0
  0
LINE
  5
2A3
100
AcDbEntity
  8
0
  6
CONTINUOUS
 62
               7
100
AcDbLine
 10
7.5
 20
3.1999999999999886
 30
0.0
 11
10.49999999746268
 21
3.1999999999999886
 31
0.0
  0
LINE
  5
2A4
100
AcDbEntity
  8
0
  6
CONTINUOUS
 62
               7
100
AcDbLine
 10
7.5
 20
-3.1999999999999886
 30
0.0
 11
10.49999999746268
 21
-3.1999999999999886
 31
0.0
  0
LINE
  5
2A5
100
AcDbEntity
  8
0
  6
CONTINUOUS
 62
               7
100
AcDbLine
 10
0.0
 20
-5.2000000000000028
 30
0.0
 11
7.5
 21
-5.2000000000000028
 31
0.0
  0
LINE
  5
2A6
100
AcDbEntity
  8
0
  6
CONTINUOUS
 62
               7
100
AcDbLine
 10
0.0
 20
5.2000000000000028
 30
0.0
 11
7.5
 21
5.2000000000000028
 31
0.0
  0
LINE
  5
2A7
100
AcDbEntity
  8
0
  6
CONTINUOUS
 62
               7
100
AcDbLine
 10
4.5
 20
4.7000000000000028
 30
0.0
 11
7.5
 21
4.7000000000000028
 31
0.0
  0
LINE
  5
2A8
100
AcDbEntity
  8
0
  6
CONTINUOUS
 62
               7
100
AcDbLine
 10
4.5
 20
-4.7000000000000028
 30
0.0
 11
7.5
 21
-4.7000000000000028
 31
0.0
  0
LINE
  5
2A9
100
AcDbEntity
  8
0
  6
CONTINUOUS
 62
               7
100
AcDbLine
 10
16.5
 20
5.4000000000000057
 30
0.0
 11
20.999999997462709
 21
5.4000000000000057
 31
0.0
  0
LINE
  5
2AA
100
AcDbEntity
  8
0
  6
CONTINUOUS
 62
               7
100
AcDbLine
 10
16.5
 20
-5.4000000000000057
 30
0.0
 11
20.999999997462709
 21
-5.4000000000000057
 31
0.0
  0
LINE
  5
2AB
100
AcDbEntity
  8
0
  6
CONTINUOUS
 62
               2
100
AcDbLine
 10
18.99999999746278
 20
-1.75
 30
0.0
 11
19.433012699355004
 21
-2.0
 31
0.0
  0
LINE
  5
2AC
100
AcDbEntity
  8
0
  6
CONTINUOUS
 62
               2
100
AcDbLine
 10
18.99999999746278
 20
1.75
 30
0.0
 11
19.433012699355004
 21
2.0
 31
0.0
  0
LINE
  5
2AD
100
AcDbEntity
  8
0
  6
CONTINUOUS
 62
               7
100
AcDbLine
 10
18.299999997462791
 20
4.5
 30
0.0
 11
18.299999997462791
 21
-4.5
 31
0.0
  0
LINE
  5
2AE
100
AcDbEntity
  8
0
  6
CONTINUOUS
 62
               7
100
AcDbLine
 10
18.99999999746278
 20
4.5
 30
0.0
 11
18.99999999746278
 21
-4.5
 31
0.0
  0
LINE
  5
2AF
100
AcDbEntity
  8
0
  6
CONTINUOUS
 62
               7
100
AcDbLine
 10
18.299999997462791
 20
4.5
 30
0.0
 11
18.99999999746278
 21
4.5
 31
0.0
  0
LINE
  5
2B0
100
AcDbEntity
  8
0
  6
CONTINUOUS
 62
               7
100
AcDbLine
 10
18.299999997462791
 20
-4.5
 30
0.0
 11
18.99999999746278
 21
-4.5
 31
0.0
  0
LINE
  5
2B1
100
AcDbEntity
  8
0
  6
CONTINUOUS
 62
               7
100
AcDbLine
 10
16.5
 20
3.9686269665968865
 30
0.0
 11
16.5
 21
12.99999998630939
 31
0.0
  0
LINE
  5
2B2
100
AcDbEntity
  8
0
  6
CONTINUOUS
 62
               7
100
AcDbLine
 10
16.5
 20
-13.00000001369061
 30
0.0
 11
16.5
 21
-3.9686269665968865
 31
0.0
  0
LINE
  5
2B3
100
AcDbEntity
  8
0
  6
CONTINUOUS
 62
               7
100
AcDbLine
 10
10.49999999746268
 20
13.0
 30
0.0
 11
10.49999999746268
 21
-13.0
 31
0.0
  0
LINE
  5
2B4
100
AcDbEntity
  8
0
  6
CONTINUOUS
 62
               7
100
AcDbLine
 10
0.0
 20
13.0
 30
0.0
 11
0.0
 21
-13.0
 31
0.0
  0
LINE
  5
2B5
100
AcDbEntity
  8
0
  6
CONTINUOUS
 62
               7
100
AcDbLine
 10
64.0
 20
-2.0
 30
0.0
 11
74.0
 21
-2.0
 31
0.0
  0
LINE
  5
2B6
100
AcDbEntity
  8
0
  6
CONTINUOUS
 62
               7
100
AcDbLine
 10
64.0
 20
2.0
 30
0.0
 11
74.0
 21
2.0
 31
0.0
  0
LINE
  5
2B7
100
AcDbEntity
  8
0
  6
CONTINUOUS
 62
               7
100
AcDbLine
 10
86.700000000000017
 20
2.0
 30
0.0
 11
86.700000000000017
 21
-2.0
 31
0.0
  0
LINE
  5
2B8
100
AcDbEntity
  8
0
  6
CONTINUOUS
 62
               7
100
AcDbLine
 10
84.699999999999989
 20
-2.0
 30
0.0
 11
86.700000000000017
 21
-2.0
 31
0.0
  0
LINE
  5
2B9
100
AcDbEntity
  8
0
  6
CONTINUOUS
 62
               7
100
AcDbLine
 10
84.700000002237545
 20
2.0
 30
0.0
 11
86.700000000000017
 21
2.0
 31
0.0
  0
LINE
  5
2BA
100
AcDbEntity
  8
0
  6
CONTINUOUS
 62
               2
100
AcDbLine
 10
72.0
 20
-1.6209999999999951
 30
0.0
 11
71.343552743931411
 21
-2.0
 31
0.0
  0
LINE
  5
2BB
100
AcDbEntity
  8
0
  6
CONTINUOUS
 62
               2
100
AcDbLine
 10
72.0
 20
-1.6209999999999951
 30
0.0
 11
74.0
 21
-1.6209999999999951
 31
0.0
  0
LINE
  5
2BC
100
AcDbEntity
  8
0
  6
CONTINUOUS
 62
               7
100
AcDbLine
 10
72.0
 20
2.0
 30
0.0
 11
72.0
 21
-2.0
 31
0.0
  0
LINE
  5
2BD
100
AcDbEntity
  8
0
  6
CONTINUOUS
 62
               2
100
AcDbLine
 10
72.0
 20
1.6209999999999951
 30
0.0
 11
71.343552743931411
 21
2.0
 31
0.0
  0
LINE
  5
2BE
100
AcDbEntity
  8
0
  6
CONTINUOUS
 62
               2
100
AcDbLine
 10
72.0
 20
1.6209999999999951
 30
0.0
 11
74.0
 21
1.6209999999999951
 31
0.0
  0
LINE
  5
2BF
100
AcDbEntity
  8
0
  6
CONTINUOUS
 62
               2
100
AcDbLine
 10
84.699999999999989
 20
-1.6209999999999951
 30
0.0
 11
87.0
 21
-1.6209999999999951
 31
0.0
  0
LINE
  5
2C0
100
AcDbEntity
  8
0
  6
CONTINUOUS
 62
               2
100
AcDbLine
 10
84.699999999999989
 20
1.6209999999999951
 30
0.0
 11
87.0
 21
1.6209999999999951
 31
0.0
  0
LINE
  5
2C1
100
AcDbEntity
  8
0
  6
CONTINUOUS
 62
               7
100
AcDbLine
 10
81.5
 20
-5.0
 30
0.0
 11
77.5
 21
-5.0
 31
0.0
  0
LINE
  5
2C2
100
AcDbEntity
  8
0
  6
CONTINUOUS
 62
               7
100
AcDbLine
 10
84.699999999999989
 20
-3.5000000000000711
 30
0.0
 11
81.5
 21
-3.5000000000000711
 31
0.0
  0
LINE
  5
2C3
100
AcDbEntity
  8
0
  6
CONTINUOUS
 62
               7
100
AcDbLine
 10
77.5
 20
5.0
 30
0.0
 11
77.5
 21
-5.0
 31
0.0
  0
LINE
  5
2C4
100
AcDbEntity
  8
0
  6
CONTINUOUS
 62
               7
100
AcDbLine
 10
84.699999999999989
 20
3.5000000000000711
 30
0.0
 11
81.5
 21
3.5000000000000711
 31
0.0
  0
LINE
  5
2C5
100
AcDbEntity
  8
0
  6
CONTINUOUS
 62
               7
100
AcDbLine
 10
81.5
 20
5.0
 30
0.0
 11
77.5
 21
5.0
 31
0.0
  0
LINE
  5
2C6
100
AcDbEntity
  8
0
  6
CONTINUOUS
 62
               7
100
AcDbLine
 10
86.700000000000017
 20
-2.0
 30
0.0
 11
87.0
 21
-1.6999999999998323
 31
0.0
  0
LINE
  5
2C7
100
AcDbEntity
  8
0
  6
CONTINUOUS
 62
               7
100
AcDbLine
 10
86.700000000000017
 20
2.0
 30
0.0
 11
87.0
 21
1.6999999999998323
 31
0.0
  0
LINE
  5
2C8
100
AcDbEntity
  8
0
  6
CONTINUOUS
 62
               7
100
AcDbLine
 10
87.0
 20
1.6999999999998323
 30
0.0
 11
87.0
 21
-1.6999999999998323
 31
0.0
  0
LINE
  5
2C9
100
AcDbEntity
  8
0
  6
CONTINUOUS
 62
               7
100
AcDbLine
 10
84.699999999999989
 20
3.5000000000000711
 30
0.0
 11
84.699999999999989
 21
-3.5000000000000711
 31
0.0
  0
LINE
  5
2CA
100
AcDbEntity
  8
0
  6
CONTINUOUS
 62
               7
100
AcDbLine
 10
81.5
 20
5.0
 30
0.0
 11
81.5
 21
-5.0
 31
0.0
  0
LINE
  5
2CB
100
AcDbEntity
  8
0
  6
CONTINUOUS
 62
               7
100
AcDbLine
 10
74.0
 20
4.7000000000000028
 30
0.0
 11
74.0
 21
-4.7000000000000028
 31
0.0
  0
LINE
  5
2CC
100
AcDbEntity
  8
0
  6
CONTINUOUS
 62
               7
100
AcDbLine
 10
80.726497308103745
 20
0.0
 30
0.0
 11
77.5
 21
0.0
 31
0.0
  0
LINE
  5
2CD
100
AcDbEntity
  8
0
  6
CONTINUOUS
 62
               7
100
AcDbLine
 10
84.387392608830396
 20
0.0
 30
0.0
 11
81.812607391169621
 21
0.0
 31
0.0
  0
LINE
  5
2CE
100
AcDbEntity
  8
0
  6
CONTINUOUS
 62
               7
100
AcDbLine
 10
77.5
 20
-4.7000000000000028
 30
0.0
 11
74.0
 21
-4.7000000000000028
 31
0.0
  0
LINE
  5
2CF
100
AcDbEntity
  8
0
  6
CONTINUOUS
 62
               7
100
AcDbLine
 10
77.5
 20
4.7000000000000028
 30
0.0
 11
74.0
 21
4.7000000000000028
 31
0.0
  0
SPLINE
  5
2D0
100
AcDbEntity
  8
0
  6
CONTINUOUS
 62
               7
100
AcDbSpline
210
0.0
220
0.0
230
1.0
 70
               0
 71
               3
 72
               0
 73
               0
 74
               5
 44
0.000001
 12
0.5262037021178121
 22
-0.8503585501878069
 32
0.0
 13
-0.5262037021178122
 23
-0.8503585501878068
 33
0.0
 11
80.726497308103745
 21
5.0
 31
0.0
 11
81.285378232102147
 21
3.8015013436920961
 31
0.0
 11
81.5
 21
2.5
 31
0.0
 11
81.285378232102147
 21
1.1984986563079043
 31
0.0
 11
80.726497308103745
 21
0.0000000000000004
 31
0.0
  0
SPLINE
  5
2D1
100
AcDbEntity
  8
0
  6
CONTINUOUS
 62
               7
100
AcDbSpline
210
0.0
220
0.0
230
1.0
 70
               0
 71
               3
 72
               0
 73
               0
 74
               5
 44
0.000001
 12
0.5262037021178121
 22
0.8503585501878069
 32
0.0
 13
-0.5262037021178122
 23
0.8503585501878068
 33
0.0
 11
80.726497308103745
 21
-5.0
 31
0.0
 11
81.285378232102147
 21
-3.8015013436920961
 31
0.0
 11
81.5
 21
-2.5
 31
0.0
 11
81.285378232102147
 21
-1.1984986563079043
 31
0.0
 11
80.726497308103745
 21
-0.0000000000000004
 31
0.0
  0
SPLINE
  5
2D2
100
AcDbEntity
  8
0
  6
CONTINUOUS
 62
               7
100
AcDbSpline
210
0.0
220
0.0
230
1.0
 70
               0
 71
               3
 72
               0
 73
               0
 74
               5
 44
0.000001
 12
0.3364388986558901
 22
-0.9417052975698989
 32
0.0
 13
-0.33643889865589
 23
-0.9417052975698989
 33
0.0
 11
84.387392608830396
 21
3.5000000000000711
 31
0.0
 11
84.618457305229967
 21
2.6392366648513734
 31
0.0
 11
84.699999999999989
 21
1.7500000000000284
 31
0.0
 11
84.618457305229967
 21
0.8607633351486907
 31
0.0
 11
84.387392608830396
 21
0.0
 31
0.0
  0
SPLINE
  5
2D3
100
AcDbEntity
  8
0
  6
CONTINUOUS
 62
               7
100
AcDbSpline
210
0.0
220
0.0
230
1.0
 70
               0
 71
               3
 72
               0
 73
               0
 74
               5
 44
0.000001
 12
0.3364388986558901
 22
0.9417052975698989
 32
0.0
 13
-0.33643889865589
 23
0.9417052975698989
 33
0.0
 11
84.387392608830396
 21
-3.5000000000000711
 31
0.0
 11
84.618457305229967
 21
-2.6392366648513734
 31
0.0
 11
84.699999999999989
 21
-1.7500000000000284
 31
0.0
 11
84.618457305229967
 21
-0.8607633351486907
 31
0.0
 11
84.387392608830396
 21
0.0
 31
0.0
  0
SPLINE
  5
2D4
100
AcDbEntity
  8
0
  6
CONTINUOUS
 62
               7
100
AcDbSpline
210
0.0
220
0.0
230
1.0
 70
               0
 71
               3
 72
               0
 73
               0
 74
               5
 44
0.000001
 12
-0.33643889865589
 22
-0.9417052975698989
 32
0.0
 13
0.3364388986558901
 23
-0.9417052975698989
 33
0.0
 11
81.812607391169621
 21
3.5000000000000711
 31
0.0
 11
81.58154269477005
 21
2.6392366648513734
 31
0.0
 11
81.500000000000028
 21
1.7500000000000284
 31
0.0
 11
81.58154269477005
 21
0.8607633351486907
 31
0.0
 11
81.812607391169621
 21
0.0
 31
0.0
  0
SPLINE
  5
2D5
100
AcDbEntity
  8
0
  6
CONTINUOUS
 62
               7
100
AcDbSpline
210
0.0
220
0.0
230
1.0
 70
               0
 71
               3
 72
               0
 73
               0
 74
               5
 44
0.000001
 12
-0.33643889865589
 22
0.9417052975698989
 32
0.0
 13
0.3364388986558901
 23
0.9417052975698989
 33
0.0
 11
81.812607391169621
 21
-3.5000000000000711
 31
0.0
 11
81.58154269477005
 21
-2.6392366648513734
 31
0.0
 11
81.500000000000028
 21
-1.7500000000000284
 31
0.0
 11
81.58154269477005
 21
-0.8607633351486907
 31
0.0
 11
81.812607391169621
 21
0.0
 31
0.0
  0
LINE
  5
2D6
100
AcDbEntity
  8
0
  6
CONTINUOUS
 62
               7
100
AcDbLine
 10
65.300000190734863
 20
5.25
 30
0.0
 11
64.0
 21
5.25
 31
0.0
  0
LINE
  5
2D7
100
AcDbEntity
  8
0
  6
CONTINUOUS
 62
               7
100
AcDbLine
 10
65.29999976533162
 20
5.2500003389504286
 30
0.0
 11
65.499999765331609
 21
5.5964106245210985
 31
0.0
  0
LINE
  5
2D8
100
AcDbEntity
  8
0
  6
CONTINUOUS
 62
               7
100
AcDbLine
 10
65.300000190734863
 20
10.75
 30
0.0
 11
65.300000190734863
 21
5.25
 31
0.0
  0
LINE
  5
2D9
100
AcDbEntity
  8
0
  6
CONTINUOUS
 62
               7
100
AcDbLine
 10
65.5
 20
10.403589248657227
 30
0.0
 11
65.5
 21
5.5964107513427734
 31
0.0
  0
LINE
  5
2DA
100
AcDbEntity
  8
0
  6
CONTINUOUS
 62
               7
100
AcDbLine
 10
65.299999031749763
 20
10.750000205027732
 30
0.0
 11
65.499999389377734
 21
10.403589578029596
 31
0.0
  0
LINE
  5
2DB
100
AcDbEntity
  8
0
  6
CONTINUOUS
 62
               7
100
AcDbLine
 10
65.300000190734863
 20
10.75
 30
0.0
 11
64.0
 21
10.75
 31
0.0
  0
LINE
  5
2DC
100
AcDbEntity
  8
0
  6
CONTINUOUS
 62
               7
100
AcDbLine
 10
65.300000190734863
 20
-5.25
 30
0.0
 11
64.0
 21
-5.25
 31
0.0
  0
LINE
  5
2DD
100
AcDbEntity
  8
0
  6
CONTINUOUS
 62
               7
100
AcDbLine
 10
65.29999976533162
 20
-5.2500003389504286
 30
0.0
 11
65.499999765331609
 21
-5.5964106245210985
 31
0.0
  0
LINE
  5
2DE
100
AcDbEntity
  8
0
  6
CONTINUOUS
 62
               7
100
AcDbLine
 10
65.300000190734863
 20
-10.75
 30
0.0
 11
65.300000190734863
 21
-5.25
 31
0.0
  0
LINE
  5
2DF
100
AcDbEntity
  8
0
  6
CONTINUOUS
 62
               7
100
AcDbLine
 10
65.5
 20
-10.403589248657227
 30
0.0
 11
65.5
 21
-5.5964107513427734
 31
0.0
  0
LINE
  5
2E0
100
AcDbEntity
  8
0
  6
CONTINUOUS
 62
               7
100
AcDbLine
 10
65.299999031749763
 20
-10.750000205027732
 30
0.0
 11
65.499999389377734
 21
-10.403589578029596
 31
0.0
  0
LINE
  5
2E1
100
AcDbEntity
  8
0
  6
CONTINUOUS
 62
               7
100
AcDbLine
 10
65.300000190734863
 20
-10.75
 30
0.0
 11
64.0
 21
-10.75
 31
0.0
  0
LINE
  5
2E2
100
AcDbEntity
  8
0
  6
CONTINUOUS
 62
               7
100
AcDbLine
 10
64.0
 20
12.0
 30
0.0
 11
64.0
 21
-12.0
 31
0.0
  0
LINE
  5
2E3
100
AcDbEntity
  8
0
  6
CONTINUOUS
 62
               7
100
AcDbLine
 10
57.0
 20
-12.0
 30
0.0
 11
64.0
 21
-12.0
 31
0.0
  0
LINE
  5
2E4
100
AcDbEntity
  8
0
  6
CONTINUOUS
 62
               7
100
AcDbLine
 10
57.0
 20
12.0
 30
0.0
 11
64.0
 21
12.0
 31
0.0
  0
LINE
  5
2E5
100
AcDbEntity
  8
0
  6
CENTER
 62
               2
100
AcDbLine
 10
-5.0
 20
0.0
 30
0.0
 11
90.0
 21
0.0
 31
0.0
  0
LINE
  5
2E6
100
AcDbEntity
  8
0
  6
CONTINUOUS
 62
               7
100
AcDbLine
 10
20.999999997462709
 20
12.5
 30
0.0
 11
20.999999997462709
 21
-12.499999978616074
 31
0.0
  0
LINE
  5
2E7
100
AcDbEntity
  8
0
  6
CONTINUOUS
 62
               7
100
AcDbLine
 10
20.999999997462709
 20
12.5
 30
0.0
 11
57.0
 21
12.5
 31
0.0
  0
LINE
  5
2E8
100
AcDbEntity
  8
0
  6
CONTINUOUS
 62
               7
100
AcDbLine
 10
20.999999997462709
 20
-12.499999978616074
 30
0.0
 11
57.0
 21
-12.499999978616074
 31
0.0
  0
LINE
  5
2E9
100
AcDbEntity
  8
0
  6
CONTINUOUS
 62
               7
100
AcDbLine
 10
57.0
 20
13.0
 30
0.0
 11
57.0
 21
-13.0
 31
0.0
  0
LINE
  5
2EA
100
AcDbEntity
  8
0
  6
CONTINUOUS
 62
               7
100
AcDbLine
 10
0.0
 20
13.0
 30
0.0
 11
57.0
 21
13.0
 31
0.0
  0
LINE
  5
2EB
100
AcDbEntity
  8
0
  6
CONTINUOUS
 62
               7
100
AcDbLine
 10
0.0
 20
-13.0
 30
0.0
 11
57.0
 21
-13.0
 31
0.0
  0
LINE
  5
2EC
100
AcDbEntity
  8
0
  6
CONTINUOUS
 62
               2
100
AcDbLine
 10
27.999999997462709
 20
6.5
 30
0.0
 11
27.999999997462709
 21
12.5
 31
0.0
  0
CIRCLE
  5
2ED
100
AcDbEntity
  8
0
  6
CONTINUOUS
 62
               7
100
AcDbCircle
 10
27.999999997462709
 20
9.5
 30
0.0
 40
1.7
  0
CIRCLE
  5
2EE
100
AcDbEntity
  8
0
  6
CONTINUOUS
 62
               2
100
AcDbCircle
 10
27.999999997462709
 20
9.5
 30
0.0
 40
2.0
  0
LINE
  5
2EF
100
AcDbEntity
  8
0
  6
CONTINUOUS
 62
               2
100
AcDbLine
 10
24.999999997462709
 20
9.5
 30
0.0
 11
30.999999997462709
 21
9.5
 31
0.0
  0
CIRCLE
  5
2F0
100
AcDbEntity
  8
0
  6
CONTINUOUS
 62
               2
100
AcDbCircle
 10
43.999999997462709
 20
-9.5
 30
0.0
 40
2.0
  0
CIRCLE
  5
2F1
100
AcDbEntity
  8
0
  6
CONTINUOUS
 62
               7
100
AcDbCircle
 10
43.999999997462709
 20
-9.5
 30
0.0
 40
1.7
  0
CIRCLE
  5
2F2
100
AcDbEntity
  8
0
  6
CONTINUOUS
 62
               2
100
AcDbCircle
 10
27.999999997462709
 20
-9.5
 30
0.0
 40
2.0
  0
CIRCLE
  5
2F3
100
AcDbEntity
  8
0
  6
CONTINUOUS
 62
               7
100
AcDbCircle
 10
27.999999997462709
 20
-9.5
 30
0.0
 40
1.7
  0
ARC
  5
2F4
100
AcDbEntity
  8
0
  6
CONTINUOUS
 62
               7
100
AcDbCircle
 10
35.999999997462709
 20
10.0
 30
0.0
 40
1.5
100
AcDbArc
 50
0.0
 51
180.0
  0
LINE
  5
2F5
100
AcDbEntity
  8
0
  6
CONTINUOUS
 62
               2
100
AcDbLine
 10
33.699999997462726
 20
9.5
 30
0.0
 11
38.299999997462692
 21
9.5
 31
0.0
  0
ARC
  5
2F6
100
AcDbEntity
  8
0
  6
CONTINUOUS
 62
               7
100
AcDbCircle
 10
35.999999997462709
 20
9.0
 30
0.0
 40
1.5
100
AcDbArc
 50
180.0
 51
0.0
  0
LINE
  5
2F7
100
AcDbEntity
  8
0
  6
CONTINUOUS
 62
               7
100
AcDbLine
 10
37.499999997462709
 20
9.0
 30
0.0
 11
37.499999997462709
 21
10.0
 31
0.0
  0
LINE
  5
2F8
100
AcDbEntity
  8
0
  6
CONTINUOUS
 62
               2
100
AcDbLine
 10
35.999999997462709
 20
12.300000025611538
 30
0.0
 11
35.999999997462709
 21
6.7000000017696806
 31
0.0
  0
LINE
  5
2F9
100
AcDbEntity
  8
0
  6
CONTINUOUS
 62
               7
100
AcDbLine
 10
34.499999997462709
 20
9.0
 30
0.0
 11
34.499999997462709
 21
10.0
 31
0.0
  0
LINE
  5
2FA
100
AcDbEntity
  8
0
  6
CONTINUOUS
 62
               2
100
AcDbLine
 10
38.499999997462709
 20
-9.5
 30
0.0
 11
33.499999997462709
 21
-9.5
 31
0.0
  0
LINE
  5
2FB
100
AcDbEntity
  8
0
  6
CONTINUOUS
 62
               2
100
AcDbLine
 10
35.999999997462709
 20
-7.0
 30
0.0
 11
35.999999997462709
 21
-12.0
 31
0.0
  0
CIRCLE
  5
2FC
100
AcDbEntity
  8
0
  6
CONTINUOUS
 62
               7
100
AcDbCircle
 10
35.999999997462709
 20
-9.5
 30
0.0
 40
1.5
  0
LINE
  5
2FD
100
AcDbEntity
  8
0
  6
CONTINUOUS
 62
               2
100
AcDbLine
 10
27.999999997462709
 20
-12.5
 30
0.0
 11
27.999999997462709
 21
-6.5
 31
0.0
  0
LINE
  5
2FE
100
AcDbEntity
  8
0
  6
CONTINUOUS
 62
               2
100
AcDbLine
 10
24.999999997462709
 20
-9.5
 30
0.0
 11
30.999999997462709
 21
-9.5
 31
0.0
  0
LINE
  5
2FF
100
AcDbEntity
  8
0
  6
CONTINUOUS
 62
               2
100
AcDbLine
 10
43.999999997462709
 20
-12.5
 30
0.0
 11
43.999999997462709
 21
-6.5
 31
0.0
  0
LINE
  5
300
100
AcDbEntity
  8
0
  6
CONTINUOUS
 62
               2
100
AcDbLine
 10
40.999999997462709
 20
-9.5
 30
0.0
 11
46.999999997462709
 21
-9.5
 31
0.0
  0
LINE
  5
301
100
AcDbEntity
  8
0
  6
CONTINUOUS
 62
               2
100
AcDbLine
 10
43.999999997462709
 20
6.5
 30
0.0
 11
43.999999997462709
 21
12.5
 31
0.0
  0
LINE
  5
302
100
AcDbEntity
  8
0
  6
CONTINUOUS
 62
               2
100
AcDbLine
 10
40.999999997462709
 20
9.5
 30
0.0
 11
46.999999997462709
 21
9.5
 31
0.0
  0
CIRCLE
  5
303
100
AcDbEntity
  8
0
  6
CONTINUOUS
 62
               7
100
AcDbCircle
 10
43.999999997462709
 20
9.5
 30
0.0
 40
1.7
  0
CIRCLE
  5
304
100
AcDbEntity
  8
0
  6
CONTINUOUS
 62
               2
100
AcDbCircle
 10
43.999999997462709
 20
9.5
 30
0.0
 40
2.0
  0
LINE
  5
305
100
AcDbEntity
  8
0
  6
CONTINUOUS
 62
               7
100
AcDbLine
 10
20.999999997462709
 20
3.7000000000000028
 30
0.0
 11
57.0
 21
3.7000000000000028
 31
0.0
  0
LINE
  5
306
100
AcDbEntity
  8
0
  6
CONTINUOUS
 62
               7
100
AcDbLine
 10
20.999999997462709
 20
-3.7000000000000028
 30
0.0
 11
57.0
 21
-3.7000000000000028
 31
0.0
  0
LINE
  5
307
100
AcDbEntity
  8
0
  6
CONTINUOUS
 62
               7
100
AcDbLine
 10
20.999999997462709
 20
-3.4000000000000057
 30
0.0
 11
57.0
 21
-3.4000000000000057
 31
0.0
  0
LINE
  5
308
100
AcDbEntity
  8
0
  6
CONTINUOUS
 62
               7
100
AcDbLine
 10
20.999999997462709
 20
3.4000000000000057
 30
0.0
 11
57.0
 21
3.4000000000000057
 31
0.0
  0
LINE
  5
309
100
AcDbEntity
  8
0
  6
CONTINUOUS
 62
               2
100
AcDbLine
 10
-2.0
 20
8.5
 30
0.0
 11
2.0
 21
8.5
 31
0.0
  0
LINE
  5
30A
100
AcDbEntity
  8
0
  6
CONTINUOUS
 62
               2
100
AcDbLine
 10
-2.0
 20
-8.5
 30
0.0
 11
2.0
 21
-8.5
 31
0.0
  0
LINE
  5
30B
100
AcDbEntity
  8
0
  6
PHANTOM
 62
               3
100
AcDbLine
 10
68.999999997462709
 20
-19.25621100354158
 30
0.0
 11
68.999999997462709
 21
22.646896024108116
 31
0.0
  0
LINE
  5
30C
100
AcDbEntity
  8
0
  6
PHANTOM
 62
               3
100
AcDbLine
 10
39.749999997462709
 20
-22.368987583228233
 30
0.0
 11
39.749999997462709
 21
26.213640872774789
 31
0.0
  0
ENDBLK
  5
30D
100
AcDbEntity
  8
0
100
AcDbBlockEnd
  0
ENDSEC
  0
SECTION
  2
ENTITIES
  0
INSERT
  5
30E
100
AcDbEntity
  8
0
  6
ByBlock
100
AcDbBlockReference
  2
MGAPG10-6
 10
-30.0
 20
-70.0
 30
0.0
  0
INSERT
  5
30F
100
AcDbEntity
  8
0
  6
ByBlock
100
AcDbBlockReference
  2
MGAPG10-5
 10
-30.0
 20
-30.0
 30
0.0
  0
INSERT
  5
310
100
AcDbEntity
  8
0
  6
ByBlock
100
AcDbBlockReference
  2
MGAPG10-4
 10
-30.0
 20
90.0
 30
0.0
  0
INSERT
  5
311
100
AcDbEntity
  8
0
  6
ByBlock
100
AcDbBlockReference
  2
MGAPG10-3
 10
110.0
 20
30.0
 30
0.0
  0
INSERT
  5
312
100
AcDbEntity
  8
0
  6
ByBlock
100
AcDbBlockReference
  2
MGAPG10-2
 10
-90.0
 20
30.0
 30
0.0
  0
INSERT
  5
313
100
AcDbEntity
  8
0
  6
ByBlock
100
AcDbBlockReference
  2
MGAPG10-1
 10
-30.0
 20
30.0
 30
0.0
  0
MTEXT
  5
314
100
AcDbEntity
  8
0
  6
CONTINUOUS
 62
               7
100
AcDbMText
 10
-162.88195294136133
 20
-102.5
 30
0.0
 40
3.2000000476837158
 41
0.0
 71
               4
 72
               1
  1
\W1.065;\A1;STRETCH LIST
  0
MTEXT
  5
315
100
AcDbEntity
  8
0
  6
CONTINUOUS
 62
               7
100
AcDbMText
 10
-111.6681818508906
 20
-120.5
 30
0.0
 40
3.2000000476837158
 41
0.0
 71
               4
 72
               1
  1
\W1.091;\A1;20
  0
MTEXT
  5
316
100
AcDbEntity
  8
0
  6
CONTINUOUS
 62
               7
100
AcDbMText
 10
-121.13888892597632
 20
-120.5
 30
0.0
 40
3.2000000476837158
 41
0.0
 71
               4
 72
               1
  1
\W1.333;\A1;10
  0
MTEXT
  5
317
100
AcDbEntity
  8
0
  6
CONTINUOUS
 62
               7
100
AcDbMText
 10
-129.3166666825613
 20
-120.5
 30
0.0
 40
3.2000000476837158
 41
0.0
 71
               4
 72
               1
  1
\A1;5
  0
MTEXT
  5
318
100
AcDbEntity
  8
0
  6
CONTINUOUS
 62
               7
100
AcDbMText
 10
-138.80999999904634
 20
-120.5
 30
0.0
 40
3.2000000476837158
 41
0.0
 71
               4
 72
               1
  1
\W1.200;\A1;0
  0
MTEXT
  5
319
100
AcDbEntity
  8
0
  6
CONTINUOUS
 62
               7
100
AcDbMText
 10
-150.11666670640309
 20
-120.5
 30
0.0
 40
3.2000000476837158
 41
0.0
 71
               4
 72
               1
  1
\A1;-5
  0
MTEXT
  5
31A
100
AcDbEntity
  8
0
  6
CONTINUOUS
 62
               7
100
AcDbMText
 10
-111.6681818508906
 20
-114.5
 30
0.0
 40
3.2000000476837158
 41
0.0
 71
               4
 72
               1
  1
\W1.091;\A1;20
  0
MTEXT
  5
31B
100
AcDbEntity
  8
0
  6
CONTINUOUS
 62
               7
100
AcDbMText
 10
-121.13888892597632
 20
-114.5
 30
0.0
 40
3.2000000476837158
 41
0.0
 71
               4
 72
               1
  1
\W1.333;\A1;10
  0
MTEXT
  5
31C
100
AcDbEntity
  8
0
  6
CONTINUOUS
 62
               7
100
AcDbMText
 10
-130.73888892597628
 20
-114.5
 30
0.0
 40
3.2000000476837158
 41
0.0
 71
               4
 72
               1
  1
\W1.333;\A1;10
  0
MTEXT
  5
31D
100
AcDbEntity
  8
0
  6
CONTINUOUS
 62
               7
100
AcDbMText
 10
-138.80999999904634
 20
-114.5
 30
0.0
 40
3.2000000476837158
 41
0.0
 71
               4
 72
               1
  1
\W1.200;\A1;0
  0
MTEXT
  5
31E
100
AcDbEntity
  8
0
  6
CONTINUOUS
 62
               7
100
AcDbMText
 10
-148.40999999904631
 20
-114.5
 30
0.0
 40
3.2000000476837158
 41
0.0
 71
               4
 72
               1
  1
\W1.200;\A1;0
  0
MTEXT
  5
31F
100
AcDbEntity
  8
0
  6
CONTINUOUS
 62
               7
100
AcDbMText
 10
-111.6681818508906
 20
-108.5
 30
0.0
 40
3.2000000476837158
 41
0.0
 71
               4
 72
               1
  1
\W1.091;\A1;30
  0
MTEXT
  5
320
100
AcDbEntity
  8
0
  6
CONTINUOUS
 62
               7
100
AcDbMText
 10
-121.26818185089057
 20
-108.5
 30
0.0
 40
3.2000000476837158
 41
0.0
 71
               4
 72
               1
  1
\W1.091;\A1;20
  0
MTEXT
  5
321
100
AcDbEntity
  8
0
  6
CONTINUOUS
 62
               7
100
AcDbMText
 10
-130.81000004577643
 20
-108.5
 30
0.0
 40
3.2000000476837158
 41
0.0
 71
               4
 72
               1
  1
\W1.200;\A1;15
  0
MTEXT
  5
322
100
AcDbEntity
  8
0
  6
CONTINUOUS
 62
               7
100
AcDbMText
 10
-140.33888892597625
 20
-108.5
 30
0.0
 40
3.2000000476837158
 41
0.0
 71
               4
 72
               1
  1
\W1.333;\A1;10
  0
MTEXT
  5
323
100
AcDbEntity
  8
0
  6
CONTINUOUS
 62
               7
100
AcDbMText
 10
-148.51666668256124
 20
-108.5
 30
0.0
 40
3.2000000476837158
 41
0.0
 71
               4
 72
               1
  1
\A1;5
  0
MTEXT
  5
324
100
AcDbEntity
  8
0
  6
CONTINUOUS
 62
               7
100
AcDbMText
 10
-182.09186067137608
 20
-120.5
 30
0.0
 40
3.2000000476837158
 41
0.0
 71
               4
 72
               1
  1
\W1.047;\A1;STRETCH B
  0
MTEXT
  5
325
100
AcDbEntity
  8
0
  6
CONTINUOUS
 62
               7
100
AcDbMText
 10
-182.09186067137608
 20
-114.5
 30
0.0
 40
3.2000000476837158
 41
0.0
 71
               4
 72
               1
  1
\W1.047;\A1;STRETCH A
  0
MTEXT
  5
326
100
AcDbEntity
  8
0
  6
CONTINUOUS
 62
               7
100
AcDbMText
 10
-177.31666680177054
 20
-108.5
 30
0.0
 40
3.2000000476837158
 41
0.0
 71
               4
 72
               1
  1
\A1;STROKE
  0
LINE
  5
327
100
AcDbEntity
  8
0
  6
CONTINUOUS
 62
               7
100
AcDbLine
 10
-104.25
 20
-105.5
 30
0.0
 11
-104.25
 21
-123.5
 31
0.0
  0
LINE
  5
328
100
AcDbEntity
  8
0
  6
CONTINUOUS
 62
               7
100
AcDbLine
 10
-113.84999999999999
 20
-105.5
 30
0.0
 11
-113.84999999999999
 21
-123.5
 31
0.0
  0
LINE
  5
329
100
AcDbEntity
  8
0
  6
CONTINUOUS
 62
               7
100
AcDbLine
 10
-123.45
 20
-105.5
 30
0.0
 11
-123.45
 21
-123.5
 31
0.0
  0
LINE
  5
32A
100
AcDbEntity
  8
0
  6
CONTINUOUS
 62
               7
100
AcDbLine
 10
-133.05000000000001
 20
-105.5
 30
0.0
 11
-133.05000000000001
 21
-123.5
 31
0.0
  0
LINE
  5
32B
100
AcDbEntity
  8
0
  6
CONTINUOUS
 62
               7
100
AcDbLine
 10
-142.65000000000001
 20
-105.5
 30
0.0
 11
-142.65000000000001
 21
-123.5
 31
0.0
  0
LINE
  5
32C
100
AcDbEntity
  8
0
  6
CONTINUOUS
 62
               7
100
AcDbLine
 10
-152.25
 20
-105.5
 30
0.0
 11
-152.25
 21
-123.5
 31
0.0
  0
LINE
  5
32D
100
AcDbEntity
  8
0
  6
CONTINUOUS
 62
               7
100
AcDbLine
 10
-184.25
 20
-105.5
 30
0.0
 11
-104.25
 21
-105.5
 31
0.0
  0
LINE
  5
32E
100
AcDbEntity
  8
0
  6
CONTINUOUS
 62
               7
100
AcDbLine
 10
-184.25
 20
-111.5
 30
0.0
 11
-104.25
 21
-111.5
 31
0.0
  0
LINE
  5
32F
100
AcDbEntity
  8
0
  6
CONTINUOUS
 62
               7
100
AcDbLine
 10
-184.25
 20
-117.5
 30
0.0
 11
-104.25
 21
-117.5
 31
0.0
  0
LINE
  5
330
100
AcDbEntity
  8
0
  6
CONTINUOUS
 62
               7
100
AcDbLine
 10
-184.25
 20
-105.5
 30
0.0
 11
-184.25
 21
-123.5
 31
0.0
  0
LINE
  5
331
100
AcDbEntity
  8
0
  6
CONTINUOUS
 62
               7
100
AcDbLine
 10
-184.25
 20
-123.5
 30
0.0
 11
-104.25
 21
-123.5
 31
0.0
  0
MTEXT
  5
332
100
AcDbEntity
  8
0
  6
CONTINUOUS
 62
               3
100
AcDbMText
 10
-13.940110523536378
 20
112.83238215041331
 30
0.0
 40
3.2000000476837158
 41
0.0
 71
               4
 72
               1
  1
\W1.088;\A1;STRETCH LINE A
  0
MTEXT
  5
333
100
AcDbEntity
  8
0
  6
CONTINUOUS
 62
               7
100
AcDbMText
 10
-158.66279069999541
 20
98.600006103515625
 30
0.0
 40
4.5
 41
0.0
 71
               4
 72
               1
  1
\W1.116;\A1;MGAPG10*st(10)-L
  0
MTEXT
  5
334
100
AcDbEntity
  8
0
  6
CONTINUOUS
 62
               7
100
AcDbMText
 10
-166.6923045256199
 20
121.35000610351562
 30
0.0
 40
4.5
 41
0.0
 71
               4
 72
               1
  1
\W1.077;\A1;MGAPG10
  0
MTEXT
  5
335
100
AcDbEntity
  8
0
  6
CONTINUOUS
 62
               7
100
AcDbMText
 10
-189.14236876172134
 20
128.85000610351562
 30
0.0
 40
4.5
 41
0.0
 71
               4
 72
               1
  1
\W1.143;\A1;MINI GUIDE SLIDER
  0
MTEXT
  5
336
100
AcDbEntity
  8
0
  6
CONTINUOUS
 62
               3
100
AcDbMText
 10
17.180310552256927
 20
98.408587820902454
 30
0.0
 40
3.2000000476837158
 41
0.0
 71
               4
 72
               1
  1
\W1.088;\A1;STRETCH LINE B
  0
MTEXT
  5
337
100
AcDbEntity
  8
0
  6
CONTINUOUS
 62
               7
100
AcDbMText
 10
-185.66101695127151
 20
107.60000610351562
 30
0.0
 40
4.5
 41
0.0
 71
               4
 72
               1
  1
\W1.119;\A1;MODEL:MGAPG10*st(10)-R
  0
LINE
  5
338
100
AcDbEntity
  8
0
  6
CONTINUOUS
 62
               7
100
AcDbLine
 10
-194.25
 20
132.60000610351562
 30
0.0
 11
194.80000305175781
 21
132.60000610351562
 31
0.0
  0
LINE
  5
339
100
AcDbEntity
  8
0
  6
CONTINUOUS
 62
               7
100
AcDbLine
 10
194.80000305175781
 20
132.60000610351562
 30
0.0
 11
194.80000305175781
 21
-133.5
 31
0.0
  0
LINE
  5
33A
100
AcDbEntity
  8
0
  6
CONTINUOUS
 62
               7
100
AcDbLine
 10
-194.25
 20
132.60000610351562
 30
0.0
 11
-194.25
 21
-133.5
 31
0.0
  0
LINE
  5
33B
100
AcDbEntity
  8
0
  6
CONTINUOUS
 62
               7
100
AcDbLine
 10
-194.25
 20
-133.5
 30
0.0
 11
194.80000305175781
 21
-133.5
 31
0.0
  0
LINE
  5
33C
100
AcDbEntity
  8
0
  6
CONTINUOUS
 62
               7
100
AcDbLine
 10
109.80000305175781
 20
-118.5
 30
0.0
 11
109.80000305175781
 21
-133.5
 31
0.0
  0
LINE
  5
33D
100
AcDbEntity
  8
0
  6
CONTINUOUS
 62
               7
100
AcDbLine
 10
109.80000305175781
 20
-118.5
 30
0.0
 11
194.80000305175781
 21
-118.5
 31
0.0
  0
LINE
  5
33E
100
AcDbEntity
  8
0
  6
CONTINUOUS
 62
               7
100
AcDbLine
 10
109.80000305175781
 20
132.60000610351562
 30
0.0
 11
109.80000305175781
 21
117.60000610351562
 31
0.0
  0
LINE
  5
33F
100
AcDbEntity
  8
0
  6
CONTINUOUS
 62
               7
100
AcDbLine
 10
109.80000305175781
 20
117.60000610351562
 30
0.0
 11
194.80000305175781
 21
117.60000610351562
 31
0.0
  0
LINE
  5
340
100
AcDbEntity
  8
0
  6
CONTINUOUS
 62
               7
100
AcDbLine
 10
-194.25
 20
117.60000610351562
 30
0.0
 11
-109.25
 21
117.60000610351562
 31
0.0
  0
LINE
  5
341
100
AcDbEntity
  8
0
  6
CONTINUOUS
 62
               7
100
AcDbLine
 10
-109.25
 20
132.60000610351562
 30
0.0
 11
-109.25
 21
117.60000610351562
 31
0.0
  0
MTEXT
  5
342
100
AcDbEntity
  8
0
  6
CONTINUOUS
 62
               7
100
AcDbMText
 10
135.28361320576767
 20
125.10000610351562
 30
0.0
 40
4.5
 41
0.0
 71
               4
 72
               1
  1
\W1.311;\A1;Ver. 1.0
  0
MTEXT
  5
343
100
AcDbEntity
  8
0
  6
CONTINUOUS
 62
               7
100
AcDbMText
 10
115.5267259825148
 20
-126.0
 30
0.0
 40
6.3000001907348633
 41
0.0
 71
               4
 72
               1
  1
\W1.121;\A1;KOGANEI CORP.
  0
ENDSEC
  0
SECTION
  2
OBJECTS
  0
DICTIONARY
  5
19
100
AcDbDictionary
  3
ACAD_GROUP
350
1A
  3
ACAD_MLINESTYLE
350
1B
  0
DICTIONARY
  5
1A
102
{ACAD_REACTORS
330
19
102
}
100
AcDbDictionary
  0
DICTIONARY
  5
1B
102
{ACAD_REACTORS
330
19
102
}
100
AcDbDictionary
  3
STANDARD
350
1C
  0
MLINESTYLE
  5
1C
102
{ACAD_REACTORS
330
1B
102
}
100
AcDbMlineStyle
  2
Standard
 70
               0
  3

 62
               0
 51
90.0
 52
90.0
 71
               2
 49
0.5
 62
             256
  6
ByLayer
 49
-0.5
 62
             256
  6
ByLayer
  0
ENDSEC
  0
EOF
