  0
SECTION
  2
HEADER
  9
$ACADVER
  1
AC1012
  9
$DWGCODEPAGE
  3
dos932
  9
$INSBASE
 10
0.0
 20
0.0
 30
0.0
  9
$EXTMIN
 10
-281.25
 20
-195.0
 30
0.0
  9
$EXTMAX
 10
285.5999755859375
 20
195.5
 30
0.0
  9
$LIMMIN
 10
-281.25
 20
-195.0
  9
$LIMMAX
 10
285.5999755859375
 20
195.5
  9
$ORTHOMODE
 70
               0
  9
$REGENMODE
 70
               1
  9
$FILLMODE
 70
               1
  9
$QTEXTMODE
 70
               0
  9
$MIRRTEXT
 70
               1
  9
$DRAGMODE
 70
               2
  9
$LTSCALE
 40
1.0
  9
$OSMODE
 70
               0
  9
$ATTMODE
 70
               1
  9
$TEXTSIZE
 40
3.2000000476837158
  9
$TRACEWID
 40
0.05
  9
$TEXTSTYLE
  7
MX_NOTE_STANDARD
  9
$CLAYER
  8
0
  9
$CELTYPE
  6
CONTINUOUS
  9
$CECOLOR
 62
             256
  9
$CELTSCALE
 40
1.0
  9
$DELOBJ
 70
               1
  9
$DISPSILH
 70
               0
  9
$DIMSCALE
 40
1.0
  9
$DIMASZ
 40
2.5
  9
$DIMEXO
 40
1.5
  9
$DIMDLI
 40
3.75
  9
$DIMRND
 40
0.0
  9
$DIMDLE
 40
0.0
  9
$DIMEXE
 40
1.5
  9
$DIMTP
 40
0.0
  9
$DIMTM
 40
0.0
  9
$DIMTXT
 40
3.2000000476837158
  9
$DIMCEN
 40
2.5
  9
$DIMTSZ
 40
0.0
  9
$DIMTOL
 70
               0
  9
$DIMLIM
 70
               0
  9
$DIMTIH
 70
               0
  9
$DIMTOH
 70
               0
  9
$DIMSE1
 70
               0
  9
$DIMSE2
 70
               0
  9
$DIMTAD
 70
               1
  9
$DIMZIN
 70
               8
  9
$DIMBLK
  1

  9
$DIMASO
 70
               1
  9
$DIMSHO
 70
               1
  9
$DIMPOST
  1

  9
$DIMAPOST
  1

  9
$DIMALT
 70
               0
  9
$DIMALTD
 70
               4
  9
$DIMALTF
 40
0.03937007874016
  9
$DIMLFAC
 40
1.0
  9
$DIMTOFL
 70
               1
  9
$DIMTVP
 40
0.0
  9
$DIMTIX
 70
               0
  9
$DIMSOXD
 70
               0
  9
$DIMSAH
 70
               0
  9
$DIMBLK1
  1

  9
$DIMBLK2
  1

  9
$DIMSTYLE
  2
MXDIMSTYLE
  9
$DIMCLRD
 70
               0
  9
$DIMCLRE
 70
               0
  9
$DIMCLRT
 70
               0
  9
$DIMTFAC
 40
1.0
  9
$DIMGAP
 40
1.0
  9
$DIMJUST
 70
               0
  9
$DIMSD1
 70
               0
  9
$DIMSD2
 70
               0
  9
$DIMTOLJ
 70
               1
  9
$DIMTZIN
 70
               0
  9
$DIMALTZ
 70
               0
  9
$DIMALTTZ
 70
               0
  9
$DIMFIT
 70
               3
  9
$DIMUPT
 70
               1
  9
$DIMUNIT
 70
               2
  9
$DIMDEC
 70
               4
  9
$DIMTDEC
 70
               4
  9
$DIMALTU
 70
               2
  9
$DIMALTTD
 70
               4
  9
$DIMTXSTY
  7
MX_NOTE_STANDARD
  9
$DIMAUNIT
 70
               0
  9
$LUNITS
 70
               2
  9
$LUPREC
 70
               4
  9
$SKETCHINC
 40
0.1
  9
$FILLETRAD
 40
0.0
  9
$AUNITS
 70
               0
  9
$AUPREC
 70
               0
  9
$MENU
  1
acad
  9
$ELEVATION
 40
0.0
  9
$PELEVATION
 40
0.0
  9
$THICKNESS
 40
0.0
  9
$LIMCHECK
 70
               0
  9
$BLIPMODE
 70
               1
  9
$CHAMFERA
 40
0.0
  9
$CHAMFERB
 40
0.0
  9
$CHAMFERC
 40
0.0
  9
$CHAMFERD
 40
0.0
  9
$SKPOLY
 70
               0
  9
$TDCREATE
 40
2453656.551145834
  9
$TDUPDATE
 40
2453656.551145834
  9
$TDINDWG
 40
0.0000000000
  9
$TDUSRTIMER
 40
0.0000000000
  9
$USRTIMER
 70
               1
  9
$ANGBASE
 50
0.0
  9
$ANGDIR
 70
               0
  9
$PDMODE
 70
               0
  9
$PDSIZE
 40
0.0
  9
$PLINEWID
 40
0.0
  9
$COORDS
 70
               1
  9
$SPLFRAME
 70
               0
  9
$SPLINETYPE
 70
               6
  9
$SPLINESEGS
 70
               8
  9
$ATTDIA
 70
               0
  9
$ATTREQ
 70
               1
  9
$HANDLING
 70
               1
  9
$HANDSEED
  5
771
  9
$SURFTAB1
 70
               6
  9
$SURFTAB2
 70
               6
  9
$SURFTYPE
 70
               6
  9
$SURFU
 70
               6
  9
$SURFV
 70
               6
  9
$UCSNAME
  2

  9
$UCSORG
 10
0.0
 20
0.0
 30
0.0
  9
$UCSXDIR
 10
1.0
 20
0.0
 30
0.0
  9
$UCSYDIR
 10
0.0
 20
1.0
 30
0.0
  9
$PUCSNAME
  2

  9
$PUCSORG
 10
0.0
 20
0.0
 30
0.0
  9
$PUCSXDIR
 10
1.0
 20
0.0
 30
0.0
  9
$PUCSYDIR
 10
0.0
 20
1.0
 30
0.0
  9
$USERI1
 70
               0
  9
$USERI2
 70
               0
  9
$USERI3
 70
               0
  9
$USERI4
 70
               0
  9
$USERI5
 70
               0
  9
$USERR1
 40
0.0
  9
$USERR2
 40
0.0
  9
$USERR3
 40
0.0
  9
$USERR4
 40
0.0
  9
$USERR5
 40
0.0
  9
$WORLDVIEW
 70
               1
  9
$SHADEDGE
 70
               3
  9
$SHADEDIF
 70
              70
  9
$TILEMODE
 70
               1
  9
$MAXACTVP
 70
              16
  9
$PINSBASE
 10
0.0
 20
0.0
 30
0.0
  9
$PLIMCHECK
 70
               0
  9
$PEXTMIN
 10
1.0000000000000000E+20
 20
1.0000000000000000E+20
 30
1.0000000000000000E+20
  9
$PEXTMAX
 10
-1.0000000000000000E+20
 20
-1.0000000000000000E+20
 30
-1.0000000000000000E+20
  9
$PLIMMIN
 10
0.0
 20
0.0
  9
$PLIMMAX
 10
12.0
 20
9.0
  9
$UNITMODE
 70
               0
  9
$VISRETAIN
 70
               0
  9
$PLINEGEN
 70
               1
  9
$PSLTSCALE
 70
               0
  9
$TREEDEPTH
 70
            3020
  9
$PICKSTYLE
 70
               1
  9
$CMLSTYLE
  2
Standard
  9
$CMLJUST
 70
               0
  9
$CMLSCALE
 40
1.0
  9
$SAVEIMAGES
 70
               0
  0
ENDSEC
  0
SECTION
  2
CLASSES
  0
CLASS
  1
LWPOLYLINE
  2
AcDbPolyline
  3
"AutoCAD"
 90
        0
280
               0
281
               1
  0
CLASS
  1
IMAGE
  2
AcDbRasterImage
  3
ISM
 90
      127
280
               0
281
               1
  0
CLASS
  1
OLE2FRAME
  2
AcDbOle2Frame
  3
""
 90
        0
280
               0
281
               1
  0
CLASS
  1
HATCH
  2
AcDbHatch
  3
"ACAD_SEDONA"
 90
        0
280
               0
281
               1
  0
CLASS
  1
DICTIONARYVAR
  2
AcDbDictionaryVar
  3
"AutoCAD"
 90
        0
280
               0
281
               0
  0
CLASS
  1
RASTERVARIABLES
  2
AcDbRasterVariables
  3
ISM
 90
        0
280
               0
281
               0
  0
CLASS
  1
IMAGEDEF
  2
AcDbRasterImageDef
  3
ISM
 90
        0
280
               0
281
               0
  0
CLASS
  1
IMAGEDEF_REACTOR
  2
AcDbRasterImageDefReactor
  3
ISM
 90
        1
280
               0
281
               0
  0
CLASS
  1
IDBUFFER
  2
AcDbIdBuffer
  3
"Acad"
 90
        0
280
               0
281
               0
  0
CLASS
  1
SPATIAL_FILTER
  2
AcDbSpatialFilter
  3
"Acad"
 90
        0
280
               0
281
               0
  0
CLASS
  1
XRECORD
  2
AcDbXrecord
  3
"<Built In>"
 90
        0
280
               0
281
               0
  0
CLASS
  1
SORTENTSTABLE
  2
AcDbSortentsTable
  3
"AutoCAD"
 90
        0
280
               0
281
               0
  0
CLASS
  1
LAYER_INDEX
  2
AcDbLayerIndex
  3
"Acad"
 90
        0
280
               0
281
               0
  0
CLASS
  1
SPATIAL_INDEX
  2
AcDbSpatialIndex
  3
"Acad"
 90
        0
280
               0
281
               0
  0
CLASS
  1
OBJECT_PTR
  2
CAseDLPNTableRecord
  3
"ASE-LPNTableRecord"
 90
        1
280
               0
281
               0
  0
CLASS
  1
LAYOUT
  2
AcDbLayout
  3
"AutoCAD 2000"
 90
        1
280
               0
281
               0
  0
CLASS
  1
PLOTSETTINGS
  2
AcDbPlotSettings
  3
"AutoCAD 2000"
 90
        1
280
               0
281
               0
  0
CLASS
  1
ACDBDICTIONARYWDFLT
  2
AcDbDictionaryWithDefault
  3
"AutoCAD 2000"
 90
        1
280
               0
281
               0
  0
CLASS
  1
ACDBPLACEHOLDER
  2
AcDbPlaceHolder
  3
"AutoCAD 2000"
 90
        1
280
               0
281
               0
  0
ENDSEC
  0
SECTION
  2
TABLES
  0
TABLE
  2
VPORT
  5
7
100
AcDbSymbolTable
 70
               1
  0
VPORT
  5
15
100
AcDbSymbolTableRecord
100
AcDbViewportTableRecord
  2
*ACTIVE
 70
               0
 10
0.0
 20
0.0
 11
1.0
 21
1.0
 12
2.17498779296875
 22
0.25
 13
0.0
 23
0.0
 14
1.0
 24
1.0
 15
0.0
 25
0.0
 16
0.0
 26
0.0
 36
1.0
 17
0.0
 27
0.0
 37
0.0
 40
394.40500000000003
 41
1.7320508075688772
 42
50.0
 43
0.0
 44
0.0
 50
0.0
 51
0.0
 71
               0
 72
             100
 73
               1
 74
               1
 75
               0
 76
               0
 77
               0
 78
               0
  0
ENDTAB
  0
TABLE
  2
LTYPE
  5
4
100
AcDbSymbolTable
 70
               6
  0
LTYPE
  5
11
100
AcDbSymbolTableRecord
100
AcDbLinetypeTableRecord
  2
BYBLOCK
 70
              64
  3

 72
              65
 73
               0
 40
0.0
  0
LTYPE
  5
12
100
AcDbSymbolTableRecord
100
AcDbLinetypeTableRecord
  2
BYLAYER
 70
              64
  3

 72
              65
 73
               0
 40
0.0
  0
LTYPE
  5
13
100
AcDbSymbolTableRecord
100
AcDbLinetypeTableRecord
  2
CONTINUOUS
 70
              64
  3
Solid line
 72
              65
 73
               0
 40
0.0
  0
LTYPE
  5
63
100
AcDbSymbolTableRecord
100
AcDbLinetypeTableRecord
  2
CENTER
 70
              64
  3
Center ____ _ ____ _ ____ _ ____ _ ____ _ ____
 72
              65
 73
               4
 40
26.0
 49
20.0
 74
               0
 49
-2.0
 74
               0
 49
2.0
 74
               0
 49
-2.0
 74
               0
  0
LTYPE
  5
19A
100
AcDbSymbolTableRecord
100
AcDbLinetypeTableRecord
  2
PHANTOM
 70
              64
  3
Phantom ______  __  __  ______  __  __  ______
 72
              65
 73
               6
 40
30.0
 49
20.0
 74
               0
 49
-2.0
 74
               0
 49
2.0
 74
               0
 49
-2.0
 74
               0
 49
2.0
 74
               0
 49
-2.0
 74
               0
  0
LTYPE
  5
75C
100
AcDbSymbolTableRecord
100
AcDbLinetypeTableRecord
  2
DASHED
 70
              64
  3
Dashed __ __ __ __ __ __ __ __ __ __ __ __ __ _
 72
              65
 73
               2
 40
4.0
 49
2.0
 74
               0
 49
-2.0
 74
               0
  0
ENDTAB
  0
TABLE
  2
LAYER
  5
2
100
AcDbSymbolTable
 70
               2
  0
LAYER
  5
14
100
AcDbSymbolTableRecord
100
AcDbLayerTableRecord
  2
0
 70
               0
 62
               7
  6
CONTINUOUS
  0
LAYER
  5
1D
100
AcDbSymbolTableRecord
100
AcDbLayerTableRecord
  2
DEFPOINTS
 70
               0
 62
               7
  6
CONTINUOUS
  0
ENDTAB
  0
TABLE
  2
STYLE
  5
3
100
AcDbSymbolTable
 70
               1
  0
STYLE
  5
17
100
AcDbSymbolTableRecord
100
AcDbTextStyleTableRecord
  2
MX_NOTE_STANDARD
 70
               0
 40
0.0
 41
1.0
 50
0.0
 71
               0
 42
3.2000000476837158
  3
txt.shx
  4
extfont.shx
  0
ENDTAB
  0
TABLE
  2
VIEW
  5
5
100
AcDbSymbolTable
 70
               0
  0
ENDTAB
  0
TABLE
  2
UCS
  5
6
100
AcDbSymbolTable
 70
               0
  0
ENDTAB
  0
TABLE
  2
APPID
  5
8
100
AcDbSymbolTable
 70
               1
  0
APPID
  5
16
100
AcDbSymbolTableRecord
100
AcDbRegAppTableRecord
  2
ACAD
 70
               0
  0
ENDTAB
  0
TABLE
  2
DIMSTYLE
  5
9
100
AcDbSymbolTable
 70
               1
  0
DIMSTYLE
105
18
100
AcDbSymbolTableRecord
100
AcDbDimStyleTableRecord
  2
MXDIMSTYLE
 70
               0
  3

  4

  5

  6

  7

 40
1.0
 41
2.5
 42
1.5
 43
3.75
 44
1.5
 45
0.0
 46
0.0
 47
0.0
 48
0.0
 71
               0
 72
               0
 73
               0
 74
               0
 75
               0
 76
               0
 77
               1
 78
               8
140
3.2000000476837158
141
2.5
142
0.0
143
0.03937007874016
144
1.0
145
0.0
146
1.0
147
1.0
170
               0
171
               4
172
               1
173
               0
174
               0
175
               0
176
               0
177
               0
178
               0
270
               2
271
               4
272
               4
273
               2
274
               4
275
               0
280
               0
281
               0
282
               0
283
               1
284
               0
285
               0
286
               0
287
               3
288
               1
340
17
  0
ENDTAB
  0
TABLE
  2
BLOCK_RECORD
  5
1
100
AcDbSymbolTable
 70
              24
  0
BLOCK_RECORD
  5
A
100
AcDbSymbolTableRecord
100
AcDbBlockTableRecord
  2
*MODEL_SPACE
  0
BLOCK_RECORD
  5
B
100
AcDbSymbolTableRecord
100
AcDbBlockTableRecord
  2
*PAPER_SPACE
  0
BLOCK_RECORD
  5
1E
100
AcDbSymbolTableRecord
100
AcDbBlockTableRecord
  2
MGALGS4_5-1
  0
BLOCK_RECORD
  5
1F
100
AcDbSymbolTableRecord
100
AcDbBlockTableRecord
  2
MGALGS4_5-2
  0
BLOCK_RECORD
  5
20
100
AcDbSymbolTableRecord
100
AcDbBlockTableRecord
  2
MGALGS4_5-3
  0
BLOCK_RECORD
  5
21
100
AcDbSymbolTableRecord
100
AcDbBlockTableRecord
  2
MGALGS4_5-4
  0
BLOCK_RECORD
  5
22
100
AcDbSymbolTableRecord
100
AcDbBlockTableRecord
  2
MGALGS4_5-5
  0
BLOCK_RECORD
  5
23
100
AcDbSymbolTableRecord
100
AcDbBlockTableRecord
  2
MGALGS4_5-6
  0
BLOCK_RECORD
  5
24
100
AcDbSymbolTableRecord
100
AcDbBlockTableRecord
  2
MGALGS4_5-7
  0
BLOCK_RECORD
  5
25
100
AcDbSymbolTableRecord
100
AcDbBlockTableRecord
  2
MGALGS4_5-8
  0
BLOCK_RECORD
  5
26
100
AcDbSymbolTableRecord
100
AcDbBlockTableRecord
  2
MGALGS4_5-9
  0
BLOCK_RECORD
  5
27
100
AcDbSymbolTableRecord
100
AcDbBlockTableRecord
  2
MGALGS4_5-10
  0
BLOCK_RECORD
  5
28
100
AcDbSymbolTableRecord
100
AcDbBlockTableRecord
  2
MGALGS4_5-11
  0
BLOCK_RECORD
  5
29
100
AcDbSymbolTableRecord
100
AcDbBlockTableRecord
  2
MGALGS4_5-12
  0
BLOCK_RECORD
  5
2A
100
AcDbSymbolTableRecord
100
AcDbBlockTableRecord
  2
MGALGS4_5-13
  0
BLOCK_RECORD
  5
2B
100
AcDbSymbolTableRecord
100
AcDbBlockTableRecord
  2
MGALGS4_5-14
  0
BLOCK_RECORD
  5
2C
100
AcDbSymbolTableRecord
100
AcDbBlockTableRecord
  2
MGALGS4_5-15
  0
BLOCK_RECORD
  5
2D
100
AcDbSymbolTableRecord
100
AcDbBlockTableRecord
  2
MGALGS4_5-16
  0
BLOCK_RECORD
  5
2E
100
AcDbSymbolTableRecord
100
AcDbBlockTableRecord
  2
MGALGS4_5-17
  0
BLOCK_RECORD
  5
2F
100
AcDbSymbolTableRecord
100
AcDbBlockTableRecord
  2
MGALGS4_5-18
  0
BLOCK_RECORD
  5
30
100
AcDbSymbolTableRecord
100
AcDbBlockTableRecord
  2
MGALGS4_5-19
  0
BLOCK_RECORD
  5
31
100
AcDbSymbolTableRecord
100
AcDbBlockTableRecord
  2
MGALGS4_5-20
  0
BLOCK_RECORD
  5
32
100
AcDbSymbolTableRecord
100
AcDbBlockTableRecord
  2
MGALGS4_5-21
  0
BLOCK_RECORD
  5
33
100
AcDbSymbolTableRecord
100
AcDbBlockTableRecord
  2
MGALGS4_5-22
  0
BLOCK_RECORD
  5
34
100
AcDbSymbolTableRecord
100
AcDbBlockTableRecord
  2
MGALGS4_5-23
  0
BLOCK_RECORD
  5
35
100
AcDbSymbolTableRecord
100
AcDbBlockTableRecord
  2
MGALGS4_5-24
  0
ENDTAB
  0
ENDSEC
  0
SECTION
  2
BLOCKS
  0
BLOCK
  5
D
100
AcDbEntity
  8
0
100
AcDbBlockBegin
  2
*MODEL_SPACE
 70
               0
 10
0.0
 20
0.0
 30
0.0
  3
*MODEL_SPACE
  1

  0
ENDBLK
  5
E
100
AcDbEntity
  8
0
100
AcDbBlockEnd
  0
BLOCK
  5
F
100
AcDbEntity
 67
               1
  8
0
100
AcDbBlockBegin
  2
*PAPER_SPACE
 70
               0
 10
0.0
 20
0.0
 30
0.0
  3
*PAPER_SPACE
  1

  0
ENDBLK
  5
10
100
AcDbEntity
 67
               1
  8
0
100
AcDbBlockEnd
  0
BLOCK
  5
36
100
AcDbEntity
  8
0
100
AcDbBlockBegin
  2
MGALGS4_5-1
 70
               0
 10
0.0
 20
0.0
 30
0.0
  3
MGALGS4_5-1
  1

  0
LINE
  5
37
100
AcDbEntity
  8
0
  6
CONTINUOUS
 62
               7
100
AcDbLine
 10
-10.700000002537223
 20
9.8999999999999986
 30
0.0
 11
-10.700000002537223
 21
14.100000000000001
 31
0.0
  0
LINE
  5
38
100
AcDbEntity
  8
0
  6
CONTINUOUS
 62
               7
100
AcDbLine
 10
-14.000000002537234
 20
9.8999999999999986
 30
0.0
 11
-10.700000002537223
 21
9.8999999999999986
 31
0.0
  0
LINE
  5
39
100
AcDbEntity
  8
0
  6
CONTINUOUS
 62
               7
100
AcDbLine
 10
-14.000000002537234
 20
14.100000000000001
 30
0.0
 11
-10.700000002537223
 21
14.100000000000001
 31
0.0
  0
LINE
  5
3A
100
AcDbEntity
  8
0
  6
CONTINUOUS
 62
               7
100
AcDbLine
 10
-12.40000000253724
 20
10.100000000000001
 30
0.0
 11
-12.400000002537212
 21
13.899999999999999
 31
0.0
  0
LINE
  5
3B
100
AcDbEntity
  8
0
  6
CONTINUOUS
 62
               7
100
AcDbLine
 10
-12.700000002537223
 20
10.399999999999999
 30
0.0
 11
-12.700000002537223
 21
13.600000000000001
 31
0.0
  0
LINE
  5
3C
100
AcDbEntity
  8
0
  6
CONTINUOUS
 62
               7
100
AcDbLine
 10
-12.700000002537223
 20
10.399999999999999
 30
0.0
 11
-12.40000000253724
 21
10.100000000000001
 31
0.0
  0
LINE
  5
3D
100
AcDbEntity
  8
0
  6
CONTINUOUS
 62
               7
100
AcDbLine
 10
-12.700000002537223
 20
13.600000000000001
 30
0.0
 11
-12.400000002537212
 21
13.899999999999999
 31
0.0
  0
LINE
  5
3E
100
AcDbEntity
  8
0
  6
CONTINUOUS
 62
               7
100
AcDbLine
 10
-12.40000000253724
 20
10.100000000000001
 30
0.0
 11
-10.700000002537223
 21
10.100000000000001
 31
0.0
  0
LINE
  5
3F
100
AcDbEntity
  8
0
  6
CONTINUOUS
 62
               7
100
AcDbLine
 10
-12.400000002537212
 20
13.899999999999999
 30
0.0
 11
-10.700000002537223
 21
13.899999999999999
 31
0.0
  0
LINE
  5
40
100
AcDbEntity
  8
0
  6
CONTINUOUS
 62
               7
100
AcDbLine
 10
-14.000000002537234
 20
26.099999999999994
 30
0.0
 11
-10.700000002537223
 21
26.099999999999994
 31
0.0
  0
LINE
  5
41
100
AcDbEntity
  8
0
  6
CONTINUOUS
 62
               7
100
AcDbLine
 10
-14.000000002537234
 20
21.900000000000006
 30
0.0
 11
-10.700000002537223
 21
21.900000000000006
 31
0.0
  0
LINE
  5
42
100
AcDbEntity
  8
0
  6
CONTINUOUS
 62
               7
100
AcDbLine
 10
-12.400000002537212
 20
22.099999999999994
 30
0.0
 11
-10.700000002537223
 21
22.099999999999994
 31
0.0
  0
LINE
  5
43
100
AcDbEntity
  8
0
  6
CONTINUOUS
 62
               7
100
AcDbLine
 10
-12.40000000253724
 20
25.900000000000006
 30
0.0
 11
-10.700000002537223
 21
25.900000000000006
 31
0.0
  0
LINE
  5
44
100
AcDbEntity
  8
0
  6
CONTINUOUS
 62
               7
100
AcDbLine
 10
-12.700000002537223
 20
22.400000000000006
 30
0.0
 11
-12.400000002537212
 21
22.099999999999994
 31
0.0
  0
LINE
  5
45
100
AcDbEntity
  8
0
  6
CONTINUOUS
 62
               7
100
AcDbLine
 10
-12.700000002537223
 20
25.599999999999994
 30
0.0
 11
-12.40000000253724
 21
25.900000000000006
 31
0.0
  0
LINE
  5
46
100
AcDbEntity
  8
0
  6
CONTINUOUS
 62
               7
100
AcDbLine
 10
-10.700000002537223
 20
26.099999999999994
 30
0.0
 11
-10.700000002537223
 21
21.900000000000006
 31
0.0
  0
LINE
  5
47
100
AcDbEntity
  8
0
  6
CONTINUOUS
 62
               7
100
AcDbLine
 10
-12.700000002537223
 20
25.599999999999994
 30
0.0
 11
-12.700000002537223
 21
22.400000000000006
 31
0.0
  0
LINE
  5
48
100
AcDbEntity
  8
0
  6
CONTINUOUS
 62
               7
100
AcDbLine
 10
-12.40000000253724
 20
25.900000000000006
 30
0.0
 11
-12.400000002537212
 21
22.099999999999994
 31
0.0
  0
LINE
  5
49
100
AcDbEntity
  8
0
  6
CONTINUOUS
 62
               7
100
AcDbLine
 10
-14.000000002537234
 20
9.0
 30
0.0
 11
-14.000000002537234
 21
27.0
 31
0.0
  0
LINE
  5
4A
100
AcDbEntity
  8
0
  6
CONTINUOUS
 62
               7
100
AcDbLine
 10
-14.000000002537234
 20
9.0
 30
0.0
 11
37.999999997462766
 21
9.0
 31
0.0
  0
CIRCLE
  5
4B
100
AcDbEntity
  8
0
  6
CONTINUOUS
 62
               7
100
AcDbCircle
 10
6.9999999974627087
 20
12.0
 30
0.0
 40
1.25
  0
LINE
  5
4C
100
AcDbEntity
  8
0
  6
CONTINUOUS
 62
               2
100
AcDbLine
 10
6.9999999974627087
 20
9.5
 30
0.0
 11
6.9999999974627087
 21
14.5
 31
0.0
  0
CIRCLE
  5
4D
100
AcDbEntity
  8
0
  6
CONTINUOUS
 62
               2
100
AcDbCircle
 10
6.9999999974627087
 20
12.0
 30
0.0
 40
1.5
  0
CIRCLE
  5
4E
100
AcDbEntity
  8
0
  6
CONTINUOUS
 62
               7
100
AcDbCircle
 10
11.999999997462709
 20
11.5
 30
0.0
 40
2.0
  0
LINE
  5
4F
100
AcDbEntity
  8
0
  6
CONTINUOUS
 62
               2
100
AcDbLine
 10
8.9999999974627087
 20
11.5
 30
0.0
 11
14.999999997462709
 21
11.5
 31
0.0
  0
LINE
  5
50
100
AcDbEntity
  8
0
  6
CONTINUOUS
 62
               2
100
AcDbLine
 10
11.999999997462709
 20
14.5
 30
0.0
 11
11.999999997462709
 21
8.5
 31
0.0
  0
CIRCLE
  5
51
100
AcDbEntity
  8
0
  6
CONTINUOUS
 62
               7
100
AcDbCircle
 10
22.999999997462709
 20
12.0
 30
0.0
 40
1.25
  0
LINE
  5
52
100
AcDbEntity
  8
0
  6
CONTINUOUS
 62
               2
100
AcDbLine
 10
22.999999997462709
 20
9.5
 30
0.0
 11
22.999999997462709
 21
14.5
 31
0.0
  0
CIRCLE
  5
53
100
AcDbEntity
  8
0
  6
CONTINUOUS
 62
               2
100
AcDbCircle
 10
22.999999997462709
 20
12.0
 30
0.0
 40
1.5
  0
LINE
  5
54
100
AcDbEntity
  8
0
  6
CONTINUOUS
 62
               2
100
AcDbLine
 10
20.499999997462709
 20
12.0
 30
0.0
 11
25.499999997462709
 21
12.0
 31
0.0
  0
CIRCLE
  5
55
100
AcDbEntity
  8
0
  6
CONTINUOUS
 62
               7
100
AcDbCircle
 10
6.9999999974627087
 20
24.0
 30
0.0
 40
1.25
  0
LINE
  5
56
100
AcDbEntity
  8
0
  6
CONTINUOUS
 62
               2
100
AcDbLine
 10
6.9999999974627087
 20
26.5
 30
0.0
 11
6.9999999974627087
 21
21.5
 31
0.0
  0
CIRCLE
  5
57
100
AcDbEntity
  8
0
  6
CONTINUOUS
 62
               2
100
AcDbCircle
 10
6.9999999974627087
 20
24.0
 30
0.0
 40
1.5
  0
LINE
  5
58
100
AcDbEntity
  8
0
  6
CONTINUOUS
 62
               7
100
AcDbLine
 10
22.499999997462766
 20
19.5
 30
0.0
 11
23.499999997462766
 21
19.5
 31
0.0
  0
LINE
  5
59
100
AcDbEntity
  8
0
  6
CONTINUOUS
 62
               7
100
AcDbLine
 10
22.499999997462766
 20
16.5
 30
0.0
 11
23.499999997462766
 21
16.5
 31
0.0
  0
ARC
  5
5A
100
AcDbEntity
  8
0
  6
CONTINUOUS
 62
               7
100
AcDbCircle
 10
23.499999997462766
 20
18.0
 30
0.0
 40
1.5
100
AcDbArc
 50
270.0
 51
90.0
  0
LINE
  5
5B
100
AcDbEntity
  8
0
  6
CONTINUOUS
 62
               2
100
AcDbLine
 10
6.9999999974627656
 20
20.5
 30
0.0
 11
6.9999999974627656
 21
15.5
 31
0.0
  0
CIRCLE
  5
5C
100
AcDbEntity
  8
0
  6
CONTINUOUS
 62
               7
100
AcDbCircle
 10
6.9999999974627656
 20
18.0
 30
0.0
 40
1.5
  0
CIRCLE
  5
5D
100
AcDbEntity
  8
0
  6
CONTINUOUS
 62
               7
100
AcDbCircle
 10
22.999999997462709
 20
24.0
 30
0.0
 40
1.25
  0
LINE
  5
5E
100
AcDbEntity
  8
0
  6
CONTINUOUS
 62
               2
100
AcDbLine
 10
22.999999997462709
 20
26.5
 30
0.0
 11
22.999999997462709
 21
21.5
 31
0.0
  0
CIRCLE
  5
5F
100
AcDbEntity
  8
0
  6
CONTINUOUS
 62
               2
100
AcDbCircle
 10
22.999999997462709
 20
24.0
 30
0.0
 40
1.5
  0
LINE
  5
60
100
AcDbEntity
  8
0
  6
CONTINUOUS
 62
               2
100
AcDbLine
 10
20.499999997462709
 20
24.0
 30
0.0
 11
25.499999997462709
 21
24.0
 31
0.0
  0
LINE
  5
61
100
AcDbEntity
  8
0
  6
CONTINUOUS
 62
               7
100
AcDbLine
 10
-14.000000002537234
 20
27.0
 30
0.0
 11
37.999999997462766
 21
27.0
 31
0.0
  0
LINE
  5
62
100
AcDbEntity
  8
0
  6
CONTINUOUS
 62
               7
100
AcDbLine
 10
37.999999997462766
 20
36.499999986309462
 30
0.0
 11
37.999999997462766
 21
9.0
 31
0.0
  0
LINE
  5
64
100
AcDbEntity
  8
0
  6
CENTER
 62
               2
100
AcDbLine
 10
-16.566477576315094
 20
18.0
 30
0.0
 11
45.179379970253876
 21
18.0
 31
0.0
  0
LINE
  5
65
100
AcDbEntity
  8
0
  6
CONTINUOUS
 62
               7
100
AcDbLine
 10
-0.0000000025372344
 20
27.0
 30
0.0
 11
-0.0000000025372344
 21
9.0
 31
0.0
  0
ARC
  5
66
100
AcDbEntity
  8
0
  6
CONTINUOUS
 62
               7
100
AcDbCircle
 10
22.499999997462766
 20
18.0
 30
0.0
 40
1.5
100
AcDbArc
 50
90.0
 51
270.0
  0
LINE
  5
67
100
AcDbEntity
  8
0
  6
CONTINUOUS
 62
               2
100
AcDbLine
 10
22.999999997462766
 20
20.5
 30
0.0
 11
22.999999997462766
 21
15.5
 31
0.0
  0
LINE
  5
68
100
AcDbEntity
  8
0
  6
CONTINUOUS
 62
               2
100
AcDbLine
 10
4.4999999974627087
 20
12.0
 30
0.0
 11
9.4999999974627087
 21
12.0
 31
0.0
  0
LINE
  5
69
100
AcDbEntity
  8
0
  6
CONTINUOUS
 62
               7
100
AcDbLine
 10
-14.000000002537234
 20
9.5
 30
0.0
 11
37.999999997462766
 21
9.5
 31
0.0
  0
LINE
  5
6A
100
AcDbEntity
  8
0
  6
CONTINUOUS
 62
               7
100
AcDbLine
 10
-14.000000002537234
 20
26.5
 30
0.0
 11
37.999999997462766
 21
26.5
 31
0.0
  0
LINE
  5
6B
100
AcDbEntity
  8
0
  6
CONTINUOUS
 62
               2
100
AcDbLine
 10
4.4999999974627087
 20
24.0
 30
0.0
 11
9.4999999974627087
 21
24.0
 31
0.0
  0
CIRCLE
  5
6C
100
AcDbEntity
  8
0
  6
CONTINUOUS
 62
               7
100
AcDbCircle
 10
11.999999997462709
 20
24.5
 30
0.0
 40
2.0
  0
LINE
  5
6D
100
AcDbEntity
  8
0
  6
CONTINUOUS
 62
               2
100
AcDbLine
 10
11.999999997462709
 20
21.5
 30
0.0
 11
11.999999997462709
 21
27.5
 31
0.0
  0
LINE
  5
6E
100
AcDbEntity
  8
0
  6
CONTINUOUS
 62
               2
100
AcDbLine
 10
8.9999999974627087
 20
24.5
 30
0.0
 11
14.999999997462709
 21
24.5
 31
0.0
  0
CIRCLE
  5
6F
100
AcDbEntity
  8
0
  6
CONTINUOUS
 62
               7
100
AcDbCircle
 10
27.999999997462709
 20
11.5
 30
0.0
 40
2.0
  0
LINE
  5
70
100
AcDbEntity
  8
0
  6
CONTINUOUS
 62
               2
100
AcDbLine
 10
27.999999997462709
 20
14.5
 30
0.0
 11
27.999999997462709
 21
8.5
 31
0.0
  0
LINE
  5
71
100
AcDbEntity
  8
0
  6
CONTINUOUS
 62
               2
100
AcDbLine
 10
24.999999997462709
 20
11.5
 30
0.0
 11
30.999999997462709
 21
11.5
 31
0.0
  0
LINE
  5
72
100
AcDbEntity
  8
0
  6
CONTINUOUS
 62
               7
100
AcDbLine
 10
38.499999997462766
 20
10.699999999999989
 30
0.0
 11
38.499999997462766
 21
25.300000000000011
 31
0.0
  0
LINE
  5
73
100
AcDbEntity
  8
0
  6
CONTINUOUS
 62
               7
100
AcDbLine
 10
37.999999997462766
 20
10.699999999999989
 30
0.0
 11
38.499999997462766
 21
10.699999999999989
 31
0.0
  0
LINE
  5
74
100
AcDbEntity
  8
0
  6
CONTINUOUS
 62
               7
100
AcDbLine
 10
38.499999997462766
 20
11.5
 30
0.0
 11
38.699999997462754
 21
11.5
 31
0.0
  0
LINE
  5
75
100
AcDbEntity
  8
0
  6
CONTINUOUS
 62
               7
100
AcDbLine
 10
38.499999997462766
 20
13.5
 30
0.0
 11
38.699999997462754
 21
13.5
 31
0.0
  0
ARC
  5
76
100
AcDbEntity
  8
0
  6
CONTINUOUS
 62
               7
100
AcDbCircle
 10
38.699999997462754
 20
13.200000000000003
 30
0.0
 40
0.3
100
AcDbArc
 50
0.0
 51
90.0
  0
ARC
  5
77
100
AcDbEntity
  8
0
  6
CONTINUOUS
 62
               7
100
AcDbCircle
 10
38.699999997462754
 20
11.799999999999997
 30
0.0
 40
0.3
100
AcDbArc
 50
270.0
 51
0.0
  0
LINE
  5
78
100
AcDbEntity
  8
0
  6
CONTINUOUS
 62
               7
100
AcDbLine
 10
38.999999997462766
 20
13.200000000000003
 30
0.0
 11
38.999999997462766
 21
11.799999999999997
 31
0.0
  0
LINE
  5
79
100
AcDbEntity
  8
0
  6
CONTINUOUS
 62
               7
100
AcDbLine
 10
37.999999997462766
 20
25.300000000000011
 30
0.0
 11
38.499999997462766
 21
25.300000000000011
 31
0.0
  0
LINE
  5
7A
100
AcDbEntity
  8
0
  6
CONTINUOUS
 62
               7
100
AcDbLine
 10
38.999999997462766
 20
22.799999999999997
 30
0.0
 11
38.999999997462766
 21
24.200000000000003
 31
0.0
  0
LINE
  5
7B
100
AcDbEntity
  8
0
  6
CONTINUOUS
 62
               7
100
AcDbLine
 10
38.499999997462766
 20
24.5
 30
0.0
 11
38.699999997462754
 21
24.5
 31
0.0
  0
LINE
  5
7C
100
AcDbEntity
  8
0
  6
CONTINUOUS
 62
               7
100
AcDbLine
 10
38.499999997462766
 20
22.5
 30
0.0
 11
38.699999997462754
 21
22.5
 31
0.0
  0
ARC
  5
7D
100
AcDbEntity
  8
0
  6
CONTINUOUS
 62
               7
100
AcDbCircle
 10
38.699999997462754
 20
24.200000000000003
 30
0.0
 40
0.3
100
AcDbArc
 50
0.0
 51
90.0
  0
ARC
  5
7E
100
AcDbEntity
  8
0
  6
CONTINUOUS
 62
               7
100
AcDbCircle
 10
38.699999997462754
 20
22.799999999999997
 30
0.0
 40
0.3
100
AcDbArc
 50
270.0
 51
0.0
  0
CIRCLE
  5
7F
100
AcDbEntity
  8
0
  6
CONTINUOUS
 62
               7
100
AcDbCircle
 10
27.999999997462709
 20
24.5
 30
0.0
 40
2.0
  0
LINE
  5
80
100
AcDbEntity
  8
0
  6
CONTINUOUS
 62
               2
100
AcDbLine
 10
27.999999997462709
 20
21.5
 30
0.0
 11
27.999999997462709
 21
27.5
 31
0.0
  0
LINE
  5
81
100
AcDbEntity
  8
0
  6
CONTINUOUS
 62
               2
100
AcDbLine
 10
24.999999997462709
 20
24.5
 30
0.0
 11
30.999999997462709
 21
24.5
 31
0.0
  0
LINE
  5
82
100
AcDbEntity
  8
0
  6
CONTINUOUS
 62
               7
100
AcDbLine
 10
-3.0000000025372913
 20
0.0
 30
0.0
 11
49.999999997462709
 21
0.0
 31
0.0
  0
LINE
  5
83
100
AcDbEntity
  8
0
  6
CONTINUOUS
 62
               7
100
AcDbLine
 10
49.999999997462709
 20
-0.0000000136906095
 30
0.0
 11
49.999999997462709
 21
8.3000000000000114
 31
0.0
  0
LINE
  5
84
100
AcDbEntity
  8
0
  6
CONTINUOUS
 62
               7
100
AcDbLine
 10
41.999999997462709
 20
8.3000000000000114
 30
0.0
 11
41.999999997462709
 21
10.0
 31
0.0
  0
LINE
  5
85
100
AcDbEntity
  8
0
  6
CONTINUOUS
 62
               7
100
AcDbLine
 10
4.9999999974627087
 20
8.3000000000000114
 30
0.0
 11
4.9999999974627087
 21
9.0
 31
0.0
  0
LINE
  5
86
100
AcDbEntity
  8
0
  6
CONTINUOUS
 62
               7
100
AcDbLine
 10
-3.0000000025372913
 20
8.3000000000000114
 30
0.0
 11
49.999999997462709
 21
8.3000000000000114
 31
0.0
  0
LINE
  5
87
100
AcDbEntity
  8
0
  6
CONTINUOUS
 62
               7
100
AcDbLine
 10
-3.0000000025372913
 20
0.0
 30
0.0
 11
-3.0000000025372913
 21
8.3000000000000114
 31
0.0
  0
LINE
  5
88
100
AcDbEntity
  8
0
  6
CONTINUOUS
 62
               7
100
AcDbLine
 10
41.999999997462709
 20
9.5
 30
0.0
 11
37.999999997462766
 21
9.5
 31
0.0
  0
LINE
  5
89
100
AcDbEntity
  8
0
  6
CONTINUOUS
 62
               7
100
AcDbLine
 10
42.999999997462766
 20
10.0
 30
0.0
 11
42.999999997462766
 21
26.0
 31
0.0
  0
LINE
  5
8A
100
AcDbEntity
  8
0
  6
CONTINUOUS
 62
               7
100
AcDbLine
 10
37.999999997462766
 20
26.0
 30
0.0
 11
42.999999997462766
 21
26.0
 31
0.0
  0
LINE
  5
8B
100
AcDbEntity
  8
0
  6
CONTINUOUS
 62
               7
100
AcDbLine
 10
37.999999997462766
 20
10.0
 30
0.0
 11
42.999999997462766
 21
10.0
 31
0.0
  0
LINE
  5
8C
100
AcDbEntity
  8
0
  6
CONTINUOUS
 62
               7
100
AcDbLine
 10
38.499999997462766
 20
20.599999999999994
 30
0.0
 11
42.999999997462766
 21
20.599999999999994
 31
0.0
  0
LINE
  5
8D
100
AcDbEntity
  8
0
  6
CONTINUOUS
 62
               7
100
AcDbLine
 10
38.499999997462766
 20
15.400000000000006
 30
0.0
 11
42.999999997462766
 21
15.400000000000006
 31
0.0
  0
LINE
  5
8E
100
AcDbEntity
  8
0
  6
CONTINUOUS
 62
               7
100
AcDbLine
 10
17.499999997462766
 20
27.99999998630939
 30
0.0
 11
34.499999997462766
 21
27.99999998630939
 31
0.0
  0
LINE
  5
8F
100
AcDbEntity
  8
0
  6
CONTINUOUS
 62
               7
100
AcDbLine
 10
3.9999999974628224
 20
36.5
 30
0.0
 11
3.9999999974628224
 21
27.0
 31
0.0
  0
LINE
  5
90
100
AcDbEntity
  8
0
  6
CONTINUOUS
 62
               7
100
AcDbLine
 10
31.999999997462766
 20
30.5
 30
0.0
 11
31.999999997462766
 21
29.99999998630939
 31
0.0
  0
LINE
  5
91
100
AcDbEntity
  8
0
  6
CONTINUOUS
 62
               7
100
AcDbLine
 10
9.9999999974627656
 20
30.5
 30
0.0
 11
9.9999999974627656
 21
27.0
 31
0.0
  0
LINE
  5
92
100
AcDbEntity
  8
0
  6
CONTINUOUS
 62
               7
100
AcDbLine
 10
3.9999999974628224
 20
30.49999998630939
 30
0.0
 11
37.999999997462766
 21
30.49999998630939
 31
0.0
  0
LINE
  5
93
100
AcDbEntity
  8
0
  6
CONTINUOUS
 62
               7
100
AcDbLine
 10
3.9999999974628224
 20
36.499999986309462
 30
0.0
 11
37.999999997462766
 21
36.499999986309462
 31
0.0
  0
LINE
  5
94
100
AcDbEntity
  8
0
  6
CONTINUOUS
 62
               7
100
AcDbLine
 10
21.3999999974628
 20
29.699999986309393
 30
0.0
 11
17.599999997462788
 21
29.699999986309393
 31
0.0
  0
LINE
  5
95
100
AcDbEntity
  8
0
  6
CONTINUOUS
 62
               7
100
AcDbLine
 10
21.099999997462788
 20
29.99999998630939
 30
0.0
 11
17.8999999974628
 21
29.99999998630939
 31
0.0
  0
LINE
  5
96
100
AcDbEntity
  8
0
  6
CONTINUOUS
 62
               7
100
AcDbLine
 10
21.099999997462788
 20
29.99999998630939
 30
0.0
 11
21.3999999974628
 21
29.699999986309393
 31
0.0
  0
LINE
  5
97
100
AcDbEntity
  8
0
  6
CONTINUOUS
 62
               7
100
AcDbLine
 10
17.8999999974628
 20
29.99999998630939
 30
0.0
 11
17.599999997462788
 21
29.699999986309393
 31
0.0
  0
LINE
  5
98
100
AcDbEntity
  8
0
  6
CONTINUOUS
 62
               7
100
AcDbLine
 10
21.3999999974628
 20
29.699999986309393
 30
0.0
 11
21.3999999974628
 21
27.99999998630939
 31
0.0
  0
LINE
  5
99
100
AcDbEntity
  8
0
  6
CONTINUOUS
 62
               7
100
AcDbLine
 10
17.599999997462788
 20
29.699999986309393
 30
0.0
 11
17.599999997462788
 21
27.99999998630939
 31
0.0
  0
LINE
  5
9A
100
AcDbEntity
  8
0
  6
CONTINUOUS
 62
               7
100
AcDbLine
 10
34.3999999974628
 20
29.699999986309393
 30
0.0
 11
30.599999997462788
 21
29.699999986309393
 31
0.0
  0
LINE
  5
9B
100
AcDbEntity
  8
0
  6
CONTINUOUS
 62
               7
100
AcDbLine
 10
34.099999997462788
 20
29.99999998630939
 30
0.0
 11
30.8999999974628
 21
29.99999998630939
 31
0.0
  0
LINE
  5
9C
100
AcDbEntity
  8
0
  6
CONTINUOUS
 62
               7
100
AcDbLine
 10
34.099999997462788
 20
29.99999998630939
 30
0.0
 11
34.3999999974628
 21
29.699999986309393
 31
0.0
  0
LINE
  5
9D
100
AcDbEntity
  8
0
  6
CONTINUOUS
 62
               7
100
AcDbLine
 10
30.8999999974628
 20
29.99999998630939
 30
0.0
 11
30.599999997462788
 21
29.699999986309393
 31
0.0
  0
LINE
  5
9E
100
AcDbEntity
  8
0
  6
CONTINUOUS
 62
               7
100
AcDbLine
 10
34.3999999974628
 20
29.699999986309393
 30
0.0
 11
34.3999999974628
 21
27.99999998630939
 31
0.0
  0
LINE
  5
9F
100
AcDbEntity
  8
0
  6
CONTINUOUS
 62
               7
100
AcDbLine
 10
30.599999997462788
 20
29.699999986309393
 30
0.0
 11
30.599999997462788
 21
27.99999998630939
 31
0.0
  0
LINE
  5
A0
100
AcDbEntity
  8
0
  6
CONTINUOUS
 62
               7
100
AcDbLine
 10
17.499999997462766
 20
27.999999964237219
 30
0.0
 11
17.499999997462766
 21
27.0
 31
0.0
  0
LINE
  5
A1
100
AcDbEntity
  8
0
  6
CONTINUOUS
 62
               7
100
AcDbLine
 10
23.999999997462766
 20
29.699999986309393
 30
0.0
 11
23.999999997462766
 21
27.999999964237219
 31
0.0
  0
LINE
  5
A2
100
AcDbEntity
  8
0
  6
CONTINUOUS
 62
               7
100
AcDbLine
 10
27.999999997462766
 20
29.699999986309393
 30
0.0
 11
27.999999997462766
 21
27.999999964237219
 31
0.0
  0
LINE
  5
A3
100
AcDbEntity
  8
0
  6
CONTINUOUS
 62
               7
100
AcDbLine
 10
34.499999997462766
 20
27.999999964237219
 30
0.0
 11
34.499999997462766
 21
27.0
 31
0.0
  0
LINE
  5
A4
100
AcDbEntity
  8
0
  6
CONTINUOUS
 62
               7
100
AcDbLine
 10
23.999999997462766
 20
29.699999986309393
 30
0.0
 11
27.999999997462766
 21
29.699999986309393
 31
0.0
  0
LINE
  5
A5
100
AcDbEntity
  8
0
  6
CONTINUOUS
 62
               2
100
AcDbLine
 10
-16.500000002537234
 20
24.0
 30
0.0
 11
-11.500000002537234
 21
24.0
 31
0.0
  0
LINE
  5
A6
100
AcDbEntity
  8
0
  6
CONTINUOUS
 62
               2
100
AcDbLine
 10
-16.500000002537234
 20
12.0
 30
0.0
 11
-11.500000002537234
 21
12.0
 31
0.0
  0
LINE
  5
A7
100
AcDbEntity
  8
0
  6
CONTINUOUS
 62
               2
100
AcDbLine
 10
0.0
 20
-1.8286109321398101
 30
0.0
 11
0.0
 21
6.1998555955354036
 31
0.0
  0
LINE
  5
A8
100
AcDbEntity
  8
0
  6
CONTINUOUS
 62
               2
100
AcDbLine
 10
47.0
 20
-1.8286109321398101
 30
0.0
 11
47.0
 21
6.1998555955354036
 31
0.0
  0
ENDBLK
  5
A9
100
AcDbEntity
  8
0
100
AcDbBlockEnd
  0
BLOCK
  5
AA
100
AcDbEntity
  8
0
100
AcDbBlockBegin
  2
MGALGS4_5-2
 70
               0
 10
0.0
 20
0.0
 30
0.0
  3
MGALGS4_5-2
  1

  0
LINE
  5
AB
100
AcDbEntity
  8
0
  6
CONTINUOUS
 62
               2
100
AcDbLine
 10
-2.2055186855188254
 20
24.5
 30
0.0
 11
2.7944813144812031
 21
24.5
 31
0.0
  0
LINE
  5
AC
100
AcDbEntity
  8
0
  6
CONTINUOUS
 62
               2
100
AcDbLine
 10
-2.2055186855188254
 20
11.5
 30
0.0
 11
2.7944813144812031
 21
11.5
 31
0.0
  0
LINE
  5
AD
100
AcDbEntity
  8
0
  6
CONTINUOUS
 62
               7
100
AcDbLine
 10
5.0
 20
29.700000000000003
 30
0.0
 11
4.7138785240661036
 21
29.700000000000003
 31
0.0
  0
LINE
  5
AE
100
AcDbEntity
  8
0
  6
CONTINUOUS
 62
               7
100
AcDbLine
 10
-0.8999999999999773
 20
36.500000000000057
 30
0.0
 11
-0.8999999999999773
 21
26.5
 31
0.0
  0
ARC
  5
AF
100
AcDbEntity
  8
0
  6
CONTINUOUS
 62
               7
100
AcDbCircle
 10
5.7000000000000455
 20
29.5
 30
0.0
 40
1.0
100
AcDbArc
 50
89.999999999999943
 51
179.99999999999994
  0
LINE
  5
B0
100
AcDbEntity
  8
0
  6
CONTINUOUS
 62
               7
100
AcDbLine
 10
5.7000000000000455
 20
30.5
 30
0.0
 11
5.8000000000000682
 21
30.5
 31
0.0
  0
LINE
  5
B1
100
AcDbEntity
  8
0
  6
CONTINUOUS
 62
               7
100
AcDbLine
 10
5.8000000000000682
 20
36.500000000000057
 30
0.0
 11
5.8000000000000682
 21
30.5
 31
0.0
  0
LINE
  5
B2
100
AcDbEntity
  8
0
  6
CONTINUOUS
 62
               7
100
AcDbLine
 10
0.3004760263646631
 20
36.500000000000057
 30
0.0
 11
-0.8999999999999773
 21
36.500000000000057
 31
0.0
  0
LINE
  5
B3
100
AcDbEntity
  8
0
  6
CONTINUOUS
 62
               7
100
AcDbLine
 10
0.6000000000000227
 20
36.200000000000045
 30
0.0
 11
0.6000000000000227
 21
36.000000000000057
 31
0.0
  0
LINE
  5
B4
100
AcDbEntity
  8
0
  6
CONTINUOUS
 62
               7
100
AcDbLine
 10
3.8000000000000682
 20
36.200000000000045
 30
0.0
 11
3.8000000000000682
 21
36.000000000000057
 31
0.0
  0
LINE
  5
B5
100
AcDbEntity
  8
0
  6
CONTINUOUS
 62
               7
100
AcDbLine
 10
5.8000000000000682
 20
36.500000000000057
 30
0.0
 11
4.1006993865087225
 21
36.500000000000057
 31
0.0
  0
LINE
  5
B6
100
AcDbEntity
  8
0
  6
CONTINUOUS
 62
               7
100
AcDbLine
 10
4.3000000000000682
 20
35.500000000000057
 30
0.0
 11
4.3000000000000682
 21
33.900000000000063
 31
0.0
  0
LINE
  5
B7
100
AcDbEntity
  8
0
  6
CONTINUOUS
 62
               7
100
AcDbLine
 10
0.1000000000000227
 20
35.500000000000057
 30
0.0
 11
0.1000000000000227
 21
33.900000000000063
 31
0.0
  0
LINE
  5
B8
100
AcDbEntity
  8
0
  6
CONTINUOUS
 62
               7
100
AcDbLine
 10
0.6000000000000227
 20
36.000000000000057
 30
0.0
 11
0.1000000000000227
 21
35.500000000000057
 31
0.0
  0
LINE
  5
B9
100
AcDbEntity
  8
0
  6
CONTINUOUS
 62
               7
100
AcDbLine
 10
4.3000000000000682
 20
35.500000000000057
 30
0.0
 11
3.8000000000000682
 21
36.000000000000057
 31
0.0
  0
ARC
  5
BA
100
AcDbEntity
  8
0
  6
CONTINUOUS
 62
               7
100
AcDbCircle
 10
2.2000000000000455
 20
33.900000000000063
 30
0.0
 40
2.1000000111152071
100
AcDbArc
 50
179.99999999999994
 51
359.99999999999994
  0
ARC
  5
BB
100
AcDbEntity
  8
0
  6
CONTINUOUS
 62
               7
100
AcDbCircle
 10
4.1006993865087225
 20
36.199300613491431
 30
0.0
 40
0.3007001998472195
100
AcDbArc
 50
90.133262070800924
 51
179.86673792919814
  0
ARC
  5
BC
100
AcDbEntity
  8
0
  6
CONTINUOUS
 62
               7
100
AcDbCircle
 10
0.3004760263646631
 20
36.20047602636464
 30
0.0
 40
0.2995243519038812
100
AcDbArc
 50
359.90894124989592
 51
90.091058750103045
  0
LINE
  5
BD
100
AcDbEntity
  8
0
  6
CONTINUOUS
 62
               7
100
AcDbLine
 10
4.7000000000000455
 20
27.0
 30
0.0
 11
4.7000000000000455
 21
29.5
 31
0.0
  0
LINE
  5
BE
100
AcDbEntity
  8
0
  6
CONTINUOUS
 62
               7
100
AcDbLine
 10
-0.6999999999999318
 20
15.599999999999994
 30
0.0
 11
-0.6999999999999318
 21
20.400000000000006
 31
0.0
  0
LINE
  5
BF
100
AcDbEntity
  8
0
  6
CONTINUOUS
 62
               7
100
AcDbLine
 10
-0.6999999999999318
 20
20.400000000000006
 30
0.0
 11
-1.0
 21
20.700000000000017
 31
0.0
  0
LINE
  5
C0
100
AcDbEntity
  8
0
  6
CONTINUOUS
 62
               7
100
AcDbLine
 10
-0.6999999999999318
 20
15.599999999999994
 30
0.0
 11
-1.0
 21
15.299999999999983
 31
0.0
  0
ARC
  5
C1
100
AcDbEntity
  8
0
  6
CONTINUOUS
 62
               7
100
AcDbCircle
 10
2.5
 20
18.0
 30
0.0
 40
2.8999999999999999
100
AcDbArc
 50
139.06727542584409
 51
220.9327245741558
  0
LINE
  5
C2
100
AcDbEntity
  8
0
  6
CONTINUOUS
 62
               7
100
AcDbLine
 10
-1.0
 20
20.700000000000017
 30
0.0
 11
-1.0
 21
26.5
 31
0.0
  0
LINE
  5
C3
100
AcDbEntity
  8
0
  6
CONTINUOUS
 62
               7
100
AcDbLine
 10
-0.3999999999999773
 20
19.900000000000006
 30
0.0
 11
-0.3999999999999773
 21
27.0
 31
0.0
  0
LINE
  5
C4
100
AcDbEntity
  8
0
  6
CONTINUOUS
 62
               7
100
AcDbLine
 10
0.4433036198797709
 20
19.900000000000006
 30
0.0
 11
-0.3999999999999773
 21
19.900000000000006
 31
0.0
  0
LINE
  5
C5
100
AcDbEntity
  8
0
  6
CONTINUOUS
 62
               7
100
AcDbLine
 10
0.4433036198797709
 20
16.099999999999994
 30
0.0
 11
-0.3999999999999773
 21
16.099999999999994
 31
0.0
  0
LINE
  5
C6
100
AcDbEntity
  8
0
  6
CONTINUOUS
 62
               7
100
AcDbLine
 10
2.5
 20
21.099999999999994
 30
0.0
 11
-0.3999999999999773
 21
21.099999999999994
 31
0.0
  0
LINE
  5
C7
100
AcDbEntity
  8
0
  6
CONTINUOUS
 62
               7
100
AcDbLine
 10
2.5
 20
14.900000000000006
 30
0.0
 11
-0.3999999999999773
 21
14.900000000000006
 31
0.0
  0
CIRCLE
  5
C8
100
AcDbEntity
  8
0
  6
CONTINUOUS
 62
               7
100
AcDbCircle
 10
2.5
 20
18.0
 30
0.0
 40
2.7999999999999998
  0
LINE
  5
C9
100
AcDbEntity
  8
0
  6
CONTINUOUS
 62
               7
100
AcDbLine
 10
6.9000000000000909
 20
21.900000000000006
 30
0.0
 11
8.8000000000000682
 21
21.900000000000006
 31
0.0
  0
ARC
  5
CA
100
AcDbEntity
  8
0
  6
CONTINUOUS
 62
               7
100
AcDbCircle
 10
6.9000000000000909
 20
24.0
 30
0.0
 40
2.1000000000000001
100
AcDbArc
 50
90.0
 51
270.0
  0
LINE
  5
CB
100
AcDbEntity
  8
0
  6
CONTINUOUS
 62
               7
100
AcDbLine
 10
6.9000000000000909
 20
26.099999999999994
 30
0.0
 11
8.8000000000000682
 21
26.099999999999994
 31
0.0
  0
LINE
  5
CC
100
AcDbEntity
  8
0
  6
CONTINUOUS
 62
               7
100
AcDbLine
 10
6.9000000000000909
 20
14.099999999999994
 30
0.0
 11
8.8000000000000682
 21
14.099999999999994
 31
0.0
  0
LINE
  5
CD
100
AcDbEntity
  8
0
  6
CONTINUOUS
 62
               7
100
AcDbLine
 10
6.9000000000000909
 20
9.9000000000000057
 30
0.0
 11
8.8000000000000682
 21
9.9000000000000057
 31
0.0
  0
ARC
  5
CE
100
AcDbEntity
  8
0
  6
CONTINUOUS
 62
               7
100
AcDbCircle
 10
6.9000000000000909
 20
12.0
 30
0.0
 40
2.1000000000000001
100
AcDbArc
 50
90.0
 51
270.0
  0
LINE
  5
CF
100
AcDbEntity
  8
0
  6
CONTINUOUS
 62
               7
100
AcDbLine
 10
8.5
 20
27.0
 30
0.0
 11
9.0
 21
26.500000000000043
 31
0.0
  0
LINE
  5
D0
100
AcDbEntity
  8
0
  6
CONTINUOUS
 62
               7
100
AcDbLine
 10
8.8000000000000682
 20
26.5
 30
0.0
 11
8.3000000000000682
 21
26.999999999999986
 31
0.0
  0
LINE
  5
D1
100
AcDbEntity
  8
0
  6
CONTINUOUS
 62
               7
100
AcDbLine
 10
8.5
 20
9.0
 30
0.0
 11
9.0
 21
9.4999999999999716
 31
0.0
  0
LINE
  5
D2
100
AcDbEntity
  8
0
  6
CONTINUOUS
 62
               7
100
AcDbLine
 10
8.3000000000000682
 20
9.0
 30
0.0
 11
8.8000000000000682
 21
9.4999999999999716
 31
0.0
  0
LINE
  5
D3
100
AcDbEntity
  8
0
  6
CONTINUOUS
 62
               2
100
AcDbLine
 10
2.5
 20
9.5
 30
0.0
 11
2.5
 21
26.5
 31
0.0
  0
CIRCLE
  5
D4
100
AcDbEntity
  8
0
  6
CONTINUOUS
 62
               2
100
AcDbCircle
 10
2.5
 20
24.0
 30
0.0
 40
1.5
  0
CIRCLE
  5
D5
100
AcDbEntity
  8
0
  6
CONTINUOUS
 62
               7
100
AcDbCircle
 10
2.5
 20
24.0
 30
0.0
 40
1.25
  0
CIRCLE
  5
D6
100
AcDbEntity
  8
0
  6
CONTINUOUS
 62
               2
100
AcDbCircle
 10
2.5
 20
12.0
 30
0.0
 40
1.5
  0
CIRCLE
  5
D7
100
AcDbEntity
  8
0
  6
CONTINUOUS
 62
               7
100
AcDbCircle
 10
2.5
 20
12.0
 30
0.0
 40
1.25
  0
CIRCLE
  5
D8
100
AcDbEntity
  8
0
  6
CONTINUOUS
 62
               7
100
AcDbCircle
 10
2.5
 20
19.900000000000006
 30
0.0
 40
0.5
  0
LINE
  5
D9
100
AcDbEntity
  8
0
  6
CONTINUOUS
 62
               2
100
AcDbLine
 10
1.5
 20
19.900000000000006
 30
0.0
 11
3.5
 21
19.900000000000006
 31
0.0
  0
CIRCLE
  5
DA
100
AcDbEntity
  8
0
  6
CONTINUOUS
 62
               7
100
AcDbCircle
 10
2.5
 20
16.099999999999994
 30
0.0
 40
0.5
  0
LINE
  5
DB
100
AcDbEntity
  8
0
  6
CONTINUOUS
 62
               2
100
AcDbLine
 10
1.5
 20
16.099999999999994
 30
0.0
 11
3.5
 21
16.099999999999994
 31
0.0
  0
LINE
  5
DC
100
AcDbEntity
  8
0
  6
CONTINUOUS
 62
               7
100
AcDbLine
 10
5.1000000000000227
 20
27.000000011920918
 30
0.0
 11
5.1000000000000227
 21
28.0
 31
0.0
  0
LINE
  5
DD
100
AcDbEntity
  8
0
  6
CONTINUOUS
 62
               7
100
AcDbLine
 10
5.3000000000000682
 20
30.0
 30
0.0
 11
5.0
 21
29.700000000000017
 31
0.0
  0
LINE
  5
DE
100
AcDbEntity
  8
0
  6
CONTINUOUS
 62
               7
100
AcDbLine
 10
5.0
 20
29.700000000000017
 30
0.0
 11
5.0
 21
28.0
 31
0.0
  0
LINE
  5
DF
100
AcDbEntity
  8
0
  6
CONTINUOUS
 62
               7
100
AcDbLine
 10
8.5
 20
30.0
 30
0.0
 11
8.8000000000000682
 21
29.700000000000017
 31
0.0
  0
LINE
  5
E0
100
AcDbEntity
  8
0
  6
CONTINUOUS
 62
               7
100
AcDbLine
 10
8.8000000000000682
 20
29.700000000000017
 30
0.0
 11
8.8000000000000682
 21
28.0
 31
0.0
  0
LINE
  5
E1
100
AcDbEntity
  8
0
  6
CONTINUOUS
 62
               7
100
AcDbLine
 10
8.8000000000000682
 20
28.0
 30
0.0
 11
4.7000000000000455
 21
28.0
 31
0.0
  0
LINE
  5
E2
100
AcDbEntity
  8
0
  6
CONTINUOUS
 62
               7
100
AcDbLine
 10
8.5
 20
30.0
 30
0.0
 11
5.3000000000000682
 21
30.0
 31
0.0
  0
LINE
  5
E3
100
AcDbEntity
  8
0
  6
CONTINUOUS
 62
               7
100
AcDbLine
 10
8.8000000000000682
 20
29.700000000000017
 30
0.0
 11
5.0
 21
29.700000000000017
 31
0.0
  0
LINE
  5
E4
100
AcDbEntity
  8
0
  6
CONTINUOUS
 62
               7
100
AcDbLine
 10
8.7000000000000455
 20
28.0
 30
0.0
 11
8.7000000000000455
 21
27.0
 31
0.0
  0
LINE
  5
E5
100
AcDbEntity
  8
0
  6
CONTINUOUS
 62
               7
100
AcDbLine
 10
8.5
 20
9.0
 30
0.0
 11
-0.3999999999999773
 21
9.0
 31
0.0
  0
LINE
  5
E6
100
AcDbEntity
  8
0
  6
CONTINUOUS
 62
               7
100
AcDbLine
 10
-0.3999999999999773
 20
26.5
 30
0.0
 11
-1.0
 21
26.5
 31
0.0
  0
LINE
  5
E7
100
AcDbEntity
  8
0
  6
CONTINUOUS
 62
               7
100
AcDbLine
 10
9.0
 20
26.500000000000043
 30
0.0
 11
9.0
 21
9.4999999999999716
 31
0.0
  0
LINE
  5
E8
100
AcDbEntity
  8
0
  6
CENTER
 62
               2
100
AcDbLine
 10
-2.2055186855187685
 20
18.0
 30
0.0
 11
11.152440806123423
 21
18.0
 31
0.0
  0
LINE
  5
E9
100
AcDbEntity
  8
0
  6
CONTINUOUS
 62
               7
100
AcDbLine
 10
-1.0
 20
9.500000007980816
 30
0.0
 11
-1.0
 21
15.299999999999983
 31
0.0
  0
LINE
  5
EA
100
AcDbEntity
  8
0
  6
CONTINUOUS
 62
               7
100
AcDbLine
 10
-0.3999999999999773
 20
9.5
 30
0.0
 11
-1.0
 21
9.5
 31
0.0
  0
LINE
  5
EB
100
AcDbEntity
  8
0
  6
CONTINUOUS
 62
               7
100
AcDbLine
 10
-0.3999999999999773
 20
9.0
 30
0.0
 11
-0.3999999999999773
 21
16.099999999999994
 31
0.0
  0
LINE
  5
EC
100
AcDbEntity
  8
0
  6
CONTINUOUS
 62
               7
100
AcDbLine
 10
7.7660254903787518
 20
12.000000136720828
 30
0.0
 11
7.3330126744466497
 21
11.24999997661574
 31
0.0
  0
LINE
  5
ED
100
AcDbEntity
  8
0
  6
CONTINUOUS
 62
               7
100
AcDbLine
 10
6.4669873732144652
 20
11.249999856646781
 30
0.0
 11
6.0339745896870909
 21
12.000000035460715
 31
0.0
  0
LINE
  5
EE
100
AcDbEntity
  8
0
  6
CONTINUOUS
 62
               7
100
AcDbLine
 10
6.0339745096213164
 20
11.999999863279172
 30
0.0
 11
6.4669873255534185
 21
12.75000002338426
 31
0.0
  0
LINE
  5
EF
100
AcDbEntity
  8
0
  6
CONTINUOUS
 62
               7
100
AcDbLine
 10
7.3330126267857167
 20
12.750000143353219
 30
0.0
 11
7.766025410313091
 21
11.999999964539285
 31
0.0
  0
LINE
  5
F0
100
AcDbEntity
  8
0
  6
CONTINUOUS
 62
               7
100
AcDbLine
 10
6.4669871364070559
 20
12.750000006632391
 30
0.0
 11
7.3330127358664186
 21
12.749999987923545
 31
0.0
  0
LINE
  5
F1
100
AcDbEntity
  8
0
  6
CONTINUOUS
 62
               7
100
AcDbLine
 10
7.333012863593126
 20
11.249999993367595
 30
0.0
 11
6.4669872641336497
 21
11.250000012076455
 31
0.0
  0
CIRCLE
  5
F2
100
AcDbEntity
  8
0
  6
CONTINUOUS
 62
               7
100
AcDbCircle
 10
6.9000000000000909
 20
12.0
 30
0.0
 40
1.9000000000000148
  0
CIRCLE
  5
F3
100
AcDbEntity
  8
0
  6
CONTINUOUS
 62
               7
100
AcDbCircle
 10
6.9000000000000909
 20
12.0
 30
0.0
 40
1.6000000000000174
  0
LINE
  5
F4
100
AcDbEntity
  8
0
  6
CONTINUOUS
 62
               7
100
AcDbLine
 10
8.8000000000000682
 20
26.5
 30
0.0
 11
8.8000000000000682
 21
9.4999999999999716
 31
0.0
  0
CIRCLE
  5
F5
100
AcDbEntity
  8
0
  6
CONTINUOUS
 62
               7
100
AcDbCircle
 10
6.9000000000000909
 20
24.0
 30
0.0
 40
1.9000000000000148
  0
CIRCLE
  5
F6
100
AcDbEntity
  8
0
  6
CONTINUOUS
 62
               7
100
AcDbCircle
 10
6.9000000000000909
 20
24.0
 30
0.0
 40
1.6000000000000174
  0
LINE
  5
F7
100
AcDbEntity
  8
0
  6
CONTINUOUS
 62
               7
100
AcDbLine
 10
7.333012863593126
 20
24.750000006632405
 30
0.0
 11
6.4669872641336497
 21
24.749999987923545
 31
0.0
  0
LINE
  5
F8
100
AcDbEntity
  8
0
  6
CONTINUOUS
 62
               7
100
AcDbLine
 10
6.4669871364070559
 20
23.249999993367595
 30
0.0
 11
7.3330127358664186
 21
23.250000012076455
 31
0.0
  0
LINE
  5
F9
100
AcDbEntity
  8
0
  6
CONTINUOUS
 62
               7
100
AcDbLine
 10
7.3330126267857167
 20
23.249999856646781
 30
0.0
 11
7.766025410313091
 21
24.000000035460715
 31
0.0
  0
LINE
  5
FA
100
AcDbEntity
  8
0
  6
CONTINUOUS
 62
               7
100
AcDbLine
 10
6.0339745096213164
 20
24.000000136720814
 30
0.0
 11
6.4669873255534185
 21
23.24999997661574
 31
0.0
  0
LINE
  5
FB
100
AcDbEntity
  8
0
  6
CONTINUOUS
 62
               7
100
AcDbLine
 10
6.4669873732144652
 20
24.750000143353219
 30
0.0
 11
6.0339745896870909
 21
23.999999964539285
 31
0.0
  0
LINE
  5
FC
100
AcDbEntity
  8
0
  6
CONTINUOUS
 62
               7
100
AcDbLine
 10
7.7660254903787518
 20
23.999999863279186
 30
0.0
 11
7.3330126744466497
 21
24.75000002338426
 31
0.0
  0
CIRCLE
  5
FD
100
AcDbEntity
  8
0
  6
CONTINUOUS
 62
               7
100
AcDbCircle
 10
2.5
 20
18.0
 30
0.0
 40
1.0
  0
CIRCLE
  5
FE
100
AcDbEntity
  8
0
  6
CONTINUOUS
 62
               2
100
AcDbCircle
 10
2.5
 20
18.0
 30
0.0
 40
0.7
  0
ARC
  5
FF
100
AcDbEntity
  8
0
  6
CONTINUOUS
 62
               7
100
AcDbCircle
 10
2.5
 20
18.0
 30
0.0
 40
3.1000000000000001
100
AcDbArc
 50
270.0
 51
90.0
  0
LINE
  5
100
100
AcDbEntity
  8
0
  6
CONTINUOUS
 62
               7
100
AcDbLine
 10
8.5
 20
8.3000000000000114
 30
0.0
 11
8.5
 21
0.0
 31
0.0
  0
LINE
  5
101
100
AcDbEntity
  8
0
  6
CONTINUOUS
 62
               7
100
AcDbLine
 10
8.5
 20
0.0
 30
0.0
 11
-3.0
 21
0.0
 31
0.0
  0
LINE
  5
102
100
AcDbEntity
  8
0
  6
CONTINUOUS
 62
               7
100
AcDbLine
 10
-1.0
 20
11.000000007980816
 30
0.0
 11
-2.1999999999999318
 21
11.000000007980816
 31
0.0
  0
LINE
  5
103
100
AcDbEntity
  8
0
  6
CONTINUOUS
 62
               7
100
AcDbLine
 10
-3.0
 20
0.0
 30
0.0
 11
-3.0
 21
8.3000000000000114
 31
0.0
  0
LINE
  5
104
100
AcDbEntity
  8
0
  6
CONTINUOUS
 62
               7
100
AcDbLine
 10
4.8000000000000682
 20
9.0
 30
0.0
 11
4.8000000000000682
 21
8.3000000000000114
 31
0.0
  0
LINE
  5
105
100
AcDbEntity
  8
0
  6
CONTINUOUS
 62
               7
100
AcDbLine
 10
8.5
 20
8.3000000000000114
 30
0.0
 11
-3.0
 21
8.3000000000000114
 31
0.0
  0
LINE
  5
106
100
AcDbEntity
  8
0
  6
CONTINUOUS
 62
               7
100
AcDbLine
 10
3.5
 20
5.0
 30
0.0
 11
-3.0
 21
5.0
 31
0.0
  0
LINE
  5
107
100
AcDbEntity
  8
0
  6
CONTINUOUS
 62
               7
100
AcDbLine
 10
3.5
 20
5.0
 30
0.0
 11
3.5
 21
8.3000000000000114
 31
0.0
  0
CIRCLE
  5
108
100
AcDbEntity
  8
0
  6
CONTINUOUS
 62
               2
100
AcDbCircle
 10
6.0
 20
5.9999999999999858
 30
0.0
 40
1.25
  0
LINE
  5
109
100
AcDbEntity
  8
0
  6
CONTINUOUS
 62
               7
100
AcDbLine
 10
6.0000000186515763
 20
5.1339745794537919
 30
0.0
 11
5.2499999697702151
 21
5.5669873219498811
 31
0.0
  0
LINE
  5
10A
100
AcDbEntity
  8
0
  6
CONTINUOUS
 62
               7
100
AcDbLine
 10
6.7500000238419489
 20
5.5669873058795645
 30
0.0
 11
5.9999999642373041
 21
5.133974581956835
 31
0.0
  0
LINE
  5
10B
100
AcDbEntity
  8
0
  6
CONTINUOUS
 62
               7
100
AcDbLine
 10
6.7500000051903726
 20
6.4330127264257584
 30
0.0
 11
6.749999994467089
 21
5.5669872600069255
 31
0.0
  0
LINE
  5
10C
100
AcDbEntity
  8
0
  6
CONTINUOUS
 62
               7
100
AcDbLine
 10
5.9999999813485374
 20
6.8660254205461797
 30
0.0
 11
6.7500000302297849
 21
6.4330126780500905
 31
0.0
  0
LINE
  5
10D
100
AcDbEntity
  8
0
  6
CONTINUOUS
 62
               7
100
AcDbLine
 10
5.2499999761581648
 20
6.4330126941204071
 30
0.0
 11
6.0000000357628096
 21
6.8660254180431366
 31
0.0
  0
LINE
  5
10E
100
AcDbEntity
  8
0
  6
CONTINUOUS
 62
               7
100
AcDbLine
 10
5.2499999948097411
 20
5.5669872735742132
 30
0.0
 11
5.2500000055330247
 21
6.4330127399930461
 31
0.0
  0
CIRCLE
  5
10F
100
AcDbEntity
  8
0
  6
CONTINUOUS
 62
               7
100
AcDbCircle
 10
6.0
 20
5.9999999999999858
 30
0.0
 40
1.5
  0
LINE
  5
110
100
AcDbEntity
  8
0
  6
CONTINUOUS
 62
               7
100
AcDbLine
 10
-2.1999999999999318
 20
8.3000000000000114
 30
0.0
 11
-2.1999999999999318
 21
11.000000007980816
 31
0.0
  0
LINE
  5
111
100
AcDbEntity
  8
0
  6
CONTINUOUS
 62
               2
100
AcDbLine
 10
0.0
 20
24.0
 30
0.0
 11
5.0
 21
24.0
 31
0.0
  0
LINE
  5
112
100
AcDbEntity
  8
0
  6
CONTINUOUS
 62
               2
100
AcDbLine
 10
0.0
 20
12.0
 30
0.0
 11
5.0
 21
12.0
 31
0.0
  0
LINE
  5
113
100
AcDbEntity
  8
0
  6
CONTINUOUS
 62
               7
100
AcDbLine
 10
8.7000000000000455
 20
27.000000011920918
 30
0.0
 11
-0.3999999999999773
 21
27.0
 31
0.0
  0
LINE
  5
114
100
AcDbEntity
  8
0
  6
CONTINUOUS
 62
               2
100
AcDbLine
 10
2.2000000000000455
 20
28.900000000000063
 30
0.0
 11
2.2000000000000455
 21
38.900000000000063
 31
0.0
  0
LINE
  5
115
100
AcDbEntity
  8
0
  6
CONTINUOUS
 62
               2
100
AcDbLine
 10
0.0
 20
6.1998555955354036
 30
0.0
 11
0.0
 21
-1.6977621847653523
 31
0.0
  0
ENDBLK
  5
116
100
AcDbEntity
  8
0
100
AcDbBlockEnd
  0
BLOCK
  5
117
100
AcDbEntity
  8
0
100
AcDbBlockBegin
  2
MGALGS4_5-3
 70
               0
 10
0.0
 20
0.0
 30
0.0
  3
MGALGS4_5-3
  1

  0
LINE
  5
118
100
AcDbEntity
  8
0
  6
CONTINUOUS
 62
               2
100
AcDbLine
 10
2.2055186855188254
 20
24.5
 30
0.0
 11
-2.7944813144811746
 21
24.5
 31
0.0
  0
LINE
  5
119
100
AcDbEntity
  8
0
  6
CONTINUOUS
 62
               2
100
AcDbLine
 10
2.2055186855188254
 20
11.5
 30
0.0
 11
-2.7944813144811746
 21
11.5
 31
0.0
  0
LINE
  5
11A
100
AcDbEntity
  8
0
  6
CONTINUOUS
 62
               7
100
AcDbLine
 10
0.9000000000000341
 20
20.400000000000034
 30
0.0
 11
1.0
 21
20.500000000000028
 31
0.0
  0
LINE
  5
11B
100
AcDbEntity
  8
0
  6
CONTINUOUS
 62
               7
100
AcDbLine
 10
0.9000000000000341
 20
15.599999999999966
 30
0.0
 11
1.0
 21
15.499999999999972
 31
0.0
  0
LINE
  5
11C
100
AcDbEntity
  8
0
  6
CONTINUOUS
 62
               7
100
AcDbLine
 10
-6.8000000000000114
 20
21.0
 30
0.0
 11
-6.8000000000000114
 21
15.0
 31
0.0
  0
LINE
  5
11D
100
AcDbEntity
  8
0
  6
CONTINUOUS
 62
               7
100
AcDbLine
 10
-6.8000000000000114
 20
15.0
 30
0.0
 11
-6.465817132984796
 21
15.0
 31
0.0
  0
LINE
  5
11E
100
AcDbEntity
  8
0
  6
CONTINUOUS
 62
               7
100
AcDbLine
 10
-5.534182867015204
 20
15.0
 30
0.0
 11
-4.5
 21
15.0
 31
0.0
  0
LINE
  5
11F
100
AcDbEntity
  8
0
  6
CONTINUOUS
 62
               7
100
AcDbLine
 10
1.0
 20
15.499999999999972
 30
0.0
 11
1.0
 21
9.5
 31
0.0
  0
CIRCLE
  5
120
100
AcDbEntity
  8
0
  6
CONTINUOUS
 62
               7
100
AcDbCircle
 10
-6.5
 20
23.5
 30
0.0
 40
1.0
  0
LINE
  5
121
100
AcDbEntity
  8
0
  6
CONTINUOUS
 62
               7
100
AcDbLine
 10
-5.9343145750507347
 20
24.065685424949237
 30
0.0
 11
-7.0656854249492085
 21
22.934314575050763
 31
0.0
  0
LINE
  5
122
100
AcDbEntity
  8
0
  6
CONTINUOUS
 62
               7
100
AcDbLine
 10
-5.9343145750507347
 20
22.934314575050763
 30
0.0
 11
-7.0656854249492085
 21
24.065685424949237
 31
0.0
  0
CIRCLE
  5
123
100
AcDbEntity
  8
0
  6
CONTINUOUS
 62
               7
100
AcDbCircle
 10
-6.5
 20
12.5
 30
0.0
 40
1.0
  0
LINE
  5
124
100
AcDbEntity
  8
0
  6
CONTINUOUS
 62
               7
100
AcDbLine
 10
-5.9343145750507915
 20
13.065685424949237
 30
0.0
 11
-7.0656854249492085
 21
11.934314575050763
 31
0.0
  0
LINE
  5
125
100
AcDbEntity
  8
0
  6
CONTINUOUS
 62
               7
100
AcDbLine
 10
-5.9343145750507915
 20
11.934314575050763
 30
0.0
 11
-7.0656854249492085
 21
13.065685424949237
 31
0.0
  0
LINE
  5
126
100
AcDbEntity
  8
0
  6
CONTINUOUS
 62
               7
100
AcDbLine
 10
-9.0
 20
26.5
 30
0.0
 11
-8.5000000000001705
 21
27.0
 31
0.0
  0
LINE
  5
127
100
AcDbEntity
  8
0
  6
CONTINUOUS
 62
               7
100
AcDbLine
 10
-9.0
 20
9.5
 30
0.0
 11
-8.4999999999997158
 21
9.0
 31
0.0
  0
ARC
  5
128
100
AcDbEntity
  8
0
  6
CONTINUOUS
 62
               7
100
AcDbCircle
 10
-6.0
 20
14.800000000000011
 30
0.0
 40
0.5
100
AcDbArc
 50
11.536959032814943
 51
168.46304096718507
  0
LINE
  5
129
100
AcDbEntity
  8
0
  6
CONTINUOUS
 62
               7
100
AcDbLine
 10
-4.5
 20
20.599999999999994
 30
0.0
 11
-4.5
 21
26.5
 31
0.0
  0
LINE
  5
12A
100
AcDbEntity
  8
0
  6
CONTINUOUS
 62
               7
100
AcDbLine
 10
-4.8000000000000114
 20
9.0
 30
0.0
 11
-8.4999999999997158
 21
9.0
 31
0.0
  0
LINE
  5
12B
100
AcDbEntity
  8
0
  6
CONTINUOUS
 62
               7
100
AcDbLine
 10
-4.8000000000000114
 20
9.5
 30
0.0
 11
1.0
 21
9.5
 31
0.0
  0
LINE
  5
12C
100
AcDbEntity
  8
0
  6
CONTINUOUS
 62
               7
100
AcDbLine
 10
-9.0
 20
9.5
 30
0.0
 11
-9.0
 21
26.5
 31
0.0
  0
LINE
  5
12D
100
AcDbEntity
  8
0
  6
CONTINUOUS
 62
               7
100
AcDbLine
 10
-4.5
 20
9.5
 30
0.0
 11
-4.5
 21
15.400000000000006
 31
0.0
  0
LINE
  5
12E
100
AcDbEntity
  8
0
  6
CENTER
 62
               2
100
AcDbLine
 10
2.2055186855188254
 20
18.0
 30
0.0
 11
-10.217581787613142
 21
18.0
 31
0.0
  0
LINE
  5
12F
100
AcDbEntity
  8
0
  6
CONTINUOUS
 62
               7
100
AcDbLine
 10
1.0
 20
26.499999992019184
 30
0.0
 11
1.0
 21
20.500000000000028
 31
0.0
  0
LINE
  5
130
100
AcDbEntity
  8
0
  6
CONTINUOUS
 62
               7
100
AcDbLine
 10
-4.6999999999999886
 20
26.5
 30
0.0
 11
1.0
 21
26.5
 31
0.0
  0
LINE
  5
131
100
AcDbEntity
  8
0
  6
CONTINUOUS
 62
               7
100
AcDbLine
 10
-6.8000000000000114
 20
21.0
 30
0.0
 11
-6.465817132984796
 21
21.0
 31
0.0
  0
LINE
  5
132
100
AcDbEntity
  8
0
  6
CONTINUOUS
 62
               7
100
AcDbLine
 10
-5.534182867015204
 20
21.0
 30
0.0
 11
-4.5
 21
21.0
 31
0.0
  0
ARC
  5
133
100
AcDbEntity
  8
0
  6
CONTINUOUS
 62
               7
100
AcDbCircle
 10
-6.0
 20
21.199999999999989
 30
0.0
 40
0.5
100
AcDbArc
 50
191.53695903281493
 51
348.46304096718501
  0
LINE
  5
134
100
AcDbEntity
  8
0
  6
CONTINUOUS
 62
               7
100
AcDbLine
 10
-8.6999999999999886
 20
10.699999999999989
 30
0.0
 11
-8.6999999999999886
 21
25.300000000000011
 31
0.0
  0
LINE
  5
135
100
AcDbEntity
  8
0
  6
CONTINUOUS
 62
               7
100
AcDbLine
 10
-5.1999999999999886
 20
10.699999999999989
 30
0.0
 11
-8.6999999999999886
 21
10.699999999999989
 31
0.0
  0
LINE
  5
136
100
AcDbEntity
  8
0
  6
CONTINUOUS
 62
               7
100
AcDbLine
 10
-5.1999999999999886
 20
10.699999999999989
 30
0.0
 11
-5.1999999999999886
 21
14.900000000000006
 31
0.0
  0
LINE
  5
137
100
AcDbEntity
  8
0
  6
CONTINUOUS
 62
               7
100
AcDbLine
 10
-5.1999999999999886
 20
14.900000000000006
 30
0.0
 11
-7.1999999999999886
 21
14.900000000000006
 31
0.0
  0
LINE
  5
138
100
AcDbEntity
  8
0
  6
CONTINUOUS
 62
               7
100
AcDbLine
 10
-5.1999999999999886
 20
21.099999999999994
 30
0.0
 11
-7.1999999999999886
 21
21.099999999999994
 31
0.0
  0
LINE
  5
139
100
AcDbEntity
  8
0
  6
CONTINUOUS
 62
               7
100
AcDbLine
 10
-5.1999999999999886
 20
25.300000000000011
 30
0.0
 11
-5.1999999999999886
 21
21.099999999999994
 31
0.0
  0
LINE
  5
13A
100
AcDbEntity
  8
0
  6
CONTINUOUS
 62
               7
100
AcDbLine
 10
-5.1999999999999886
 20
25.300000000000011
 30
0.0
 11
-8.6999999999999886
 21
25.300000000000011
 31
0.0
  0
LINE
  5
13B
100
AcDbEntity
  8
0
  6
CONTINUOUS
 62
               7
100
AcDbLine
 10
-7.1999999999999886
 20
21.099999999999994
 30
0.0
 11
-7.1999999999999886
 21
14.900000000000006
 31
0.0
  0
LINE
  5
13C
100
AcDbEntity
  8
0
  6
CONTINUOUS
 62
               7
100
AcDbLine
 10
-5.1999999999999886
 20
21.400000000000006
 30
0.0
 11
-5.0
 21
21.400000000000006
 31
0.0
  0
LINE
  5
13D
100
AcDbEntity
  8
0
  6
CONTINUOUS
 62
               7
100
AcDbLine
 10
-5.0
 20
14.599999999999994
 30
0.0
 11
-5.0
 21
9.0
 31
0.0
  0
LINE
  5
13E
100
AcDbEntity
  8
0
  6
CONTINUOUS
 62
               7
100
AcDbLine
 10
-5.1999999999999886
 20
14.599999999999994
 30
0.0
 11
-5.0
 21
14.599999999999994
 31
0.0
  0
LINE
  5
13F
100
AcDbEntity
  8
0
  6
CONTINUOUS
 62
               7
100
AcDbLine
 10
-5.0
 20
21.400000000000006
 30
0.0
 11
-5.0
 21
27.0
 31
0.0
  0
LINE
  5
140
100
AcDbEntity
  8
0
  6
CONTINUOUS
 62
               7
100
AcDbLine
 10
-4.5
 20
15.400000000000006
 30
0.0
 11
-6.0
 21
15.400000000000006
 31
0.0
  0
LINE
  5
141
100
AcDbEntity
  8
0
  6
CONTINUOUS
 62
               7
100
AcDbLine
 10
-4.5
 20
20.599999999999994
 30
0.0
 11
-6.0
 21
20.599999999999994
 31
0.0
  0
LINE
  5
142
100
AcDbEntity
  8
0
  6
CONTINUOUS
 62
               7
100
AcDbLine
 10
-6.0
 20
15.400000000000006
 30
0.0
 11
-6.0
 21
20.599999999999994
 31
0.0
  0
LINE
  5
143
100
AcDbEntity
  8
0
  6
CONTINUOUS
 62
               7
100
AcDbLine
 10
-4.5
 20
10.0
 30
0.0
 11
0.9000000000000341
 21
10.0
 31
0.0
  0
LINE
  5
144
100
AcDbEntity
  8
0
  6
CONTINUOUS
 62
               7
100
AcDbLine
 10
-4.5
 20
26.0
 30
0.0
 11
0.9000000000000341
 21
26.0
 31
0.0
  0
LINE
  5
145
100
AcDbEntity
  8
0
  6
CONTINUOUS
 62
               7
100
AcDbLine
 10
0.9000000000000341
 20
26.0
 30
0.0
 11
0.9000000000000341
 21
10.0
 31
0.0
  0
LINE
  5
146
100
AcDbEntity
  8
0
  6
CONTINUOUS
 62
               2
100
AcDbLine
 10
-2.5
 20
15.0
 30
0.0
 11
-2.5
 21
21.0
 31
0.0
  0
LINE
  5
147
100
AcDbEntity
  8
0
  6
CONTINUOUS
 62
               7
100
AcDbLine
 10
-2.8660254903787177
 20
13.500000136720814
 30
0.0
 11
-2.4330126744466156
 21
12.749999976615726
 31
0.0
  0
LINE
  5
148
100
AcDbEntity
  8
0
  6
CONTINUOUS
 62
               7
100
AcDbLine
 10
-1.5669873732143742
 20
12.749999856646781
 30
0.0
 11
-1.1339745896869999
 21
13.500000035460715
 31
0.0
  0
LINE
  5
149
100
AcDbEntity
  8
0
  6
CONTINUOUS
 62
               7
100
AcDbLine
 10
-1.1339745096212823
 20
13.499999863279186
 30
0.0
 11
-1.5669873255533844
 21
14.250000023384274
 31
0.0
  0
LINE
  5
14A
100
AcDbEntity
  8
0
  6
CONTINUOUS
 62
               7
100
AcDbLine
 10
-2.4330126267856258
 20
14.250000143353219
 30
0.0
 11
-2.8660254103130001
 21
13.499999964539285
 31
0.0
  0
LINE
  5
14B
100
AcDbEntity
  8
0
  6
CONTINUOUS
 62
               7
100
AcDbLine
 10
-1.566987136406965
 20
14.250000006632405
 30
0.0
 11
-2.4330127358663844
 21
14.249999987923559
 31
0.0
  0
LINE
  5
14C
100
AcDbEntity
  8
0
  6
CONTINUOUS
 62
               7
100
AcDbLine
 10
-2.433012863593035
 20
12.749999993367595
 30
0.0
 11
-1.5669872641336156
 21
12.750000012076441
 31
0.0
  0
CIRCLE
  5
14D
100
AcDbEntity
  8
0
  6
CONTINUOUS
 62
               7
100
AcDbCircle
 10
-2.0
 20
13.5
 30
0.0
 40
1.9000000000000148
  0
CIRCLE
  5
14E
100
AcDbEntity
  8
0
  6
CONTINUOUS
 62
               7
100
AcDbCircle
 10
-2.0
 20
13.5
 30
0.0
 40
1.6000000000000174
  0
CIRCLE
  5
14F
100
AcDbEntity
  8
0
  6
CONTINUOUS
 62
               7
100
AcDbCircle
 10
-2.0
 20
13.5
 30
0.0
 40
2.1000000000000001
  0
LINE
  5
150
100
AcDbEntity
  8
0
  6
CONTINUOUS
 62
               7
100
AcDbLine
 10
-2.8660254903787177
 20
22.499999863279186
 30
0.0
 11
-2.4330126744466156
 21
23.250000023384274
 31
0.0
  0
LINE
  5
151
100
AcDbEntity
  8
0
  6
CONTINUOUS
 62
               7
100
AcDbLine
 10
-2.4330126267856258
 20
21.749999856646781
 30
0.0
 11
-2.8660254103130001
 21
22.500000035460715
 31
0.0
  0
CIRCLE
  5
152
100
AcDbEntity
  8
0
  6
CONTINUOUS
 62
               7
100
AcDbCircle
 10
-2.0
 20
22.5
 30
0.0
 40
1.9000000000000148
  0
CIRCLE
  5
153
100
AcDbEntity
  8
0
  6
CONTINUOUS
 62
               7
100
AcDbCircle
 10
-2.0
 20
22.5
 30
0.0
 40
1.6000000000000174
  0
CIRCLE
  5
154
100
AcDbEntity
  8
0
  6
CONTINUOUS
 62
               7
100
AcDbCircle
 10
-2.0
 20
22.5
 30
0.0
 40
2.1000000000000001
  0
LINE
  5
155
100
AcDbEntity
  8
0
  6
CONTINUOUS
 62
               7
100
AcDbLine
 10
-1.566987136406965
 20
21.749999993367595
 30
0.0
 11
-2.4330127358663844
 21
21.750000012076441
 31
0.0
  0
LINE
  5
156
100
AcDbEntity
  8
0
  6
CONTINUOUS
 62
               7
100
AcDbLine
 10
-2.433012863593035
 20
23.250000006632405
 30
0.0
 11
-1.5669872641336156
 21
23.249999987923559
 31
0.0
  0
LINE
  5
157
100
AcDbEntity
  8
0
  6
CONTINUOUS
 62
               7
100
AcDbLine
 10
-1.1339745096212823
 20
22.500000136720814
 30
0.0
 11
-1.5669873255533844
 21
21.749999976615726
 31
0.0
  0
LINE
  5
158
100
AcDbEntity
  8
0
  6
CONTINUOUS
 62
               7
100
AcDbLine
 10
-1.5669873732143742
 20
23.250000143353219
 30
0.0
 11
-1.1339745896869999
 21
22.499999964539285
 31
0.0
  0
CIRCLE
  5
159
100
AcDbEntity
  8
0
  6
CONTINUOUS
 62
               7
100
AcDbCircle
 10
-2.5
 20
18.0
 30
0.0
 40
1.25
  0
CIRCLE
  5
15A
100
AcDbEntity
  8
0
  6
CONTINUOUS
 62
               2
100
AcDbCircle
 10
-2.5
 20
18.0
 30
0.0
 40
1.5
  0
LINE
  5
15B
100
AcDbEntity
  8
0
  6
CONTINUOUS
 62
               7
100
AcDbLine
 10
1.0
 20
11.000000007980816
 30
0.0
 11
2.1999999999999886
 21
11.000000007980816
 31
0.0
  0
LINE
  5
15C
100
AcDbEntity
  8
0
  6
CONTINUOUS
 62
               7
100
AcDbLine
 10
-8.5
 20
8.3000000000000114
 30
0.0
 11
-8.5
 21
0.0
 31
0.0
  0
LINE
  5
15D
100
AcDbEntity
  8
0
  6
CONTINUOUS
 62
               7
100
AcDbLine
 10
-8.5
 20
0.0
 30
0.0
 11
3.0
 21
0.0
 31
0.0
  0
LINE
  5
15E
100
AcDbEntity
  8
0
  6
CONTINUOUS
 62
               7
100
AcDbLine
 10
-8.5
 20
8.3000000000000114
 30
0.0
 11
3.0
 21
8.3000000000000114
 31
0.0
  0
LINE
  5
15F
100
AcDbEntity
  8
0
  6
CONTINUOUS
 62
               2
100
AcDbLine
 10
-6.0
 20
8.2499999999999858
 30
0.0
 11
-6.0
 21
3.7499999999999858
 31
0.0
  0
CIRCLE
  5
160
100
AcDbEntity
  8
0
  6
CONTINUOUS
 62
               7
100
AcDbCircle
 10
-6.0
 20
5.9999999999999858
 30
0.0
 40
1.25
  0
LINE
  5
161
100
AcDbEntity
  8
0
  6
CONTINUOUS
 62
               2
100
AcDbLine
 10
-8.25
 20
5.9999999999999858
 30
0.0
 11
-3.75
 21
5.9999999999999858
 31
0.0
  0
LINE
  5
162
100
AcDbEntity
  8
0
  6
CONTINUOUS
 62
               7
100
AcDbLine
 10
-3.5
 20
5.0
 30
0.0
 11
3.0
 21
5.0
 31
0.0
  0
LINE
  5
163
100
AcDbEntity
  8
0
  6
CONTINUOUS
 62
               7
100
AcDbLine
 10
-3.5
 20
5.0
 30
0.0
 11
-3.5
 21
8.3000000000000114
 31
0.0
  0
CIRCLE
  5
164
100
AcDbEntity
  8
0
  6
CONTINUOUS
 62
               2
100
AcDbCircle
 10
-6.0
 20
5.9999999999999858
 30
0.0
 40
1.5
  0
LINE
  5
165
100
AcDbEntity
  8
0
  6
CONTINUOUS
 62
               7
100
AcDbLine
 10
-4.8000000000000114
 20
9.5
 30
0.0
 11
-4.8000000000000114
 21
8.3000000000000114
 31
0.0
  0
LINE
  5
166
100
AcDbEntity
  8
0
  6
CONTINUOUS
 62
               7
100
AcDbLine
 10
3.0
 20
0.0
 30
0.0
 11
3.0
 21
8.3000000000000114
 31
0.0
  0
LINE
  5
167
100
AcDbEntity
  8
0
  6
CONTINUOUS
 62
               7
100
AcDbLine
 10
2.1999999999999886
 20
8.3000000000000114
 30
0.0
 11
2.1999999999999886
 21
11.000000007980816
 31
0.0
  0
LINE
  5
168
100
AcDbEntity
  8
0
  6
CONTINUOUS
 62
               7
100
AcDbLine
 10
-8.6999999999999886
 20
27.0
 30
0.0
 11
-4.6999999999999886
 21
27.0
 31
0.0
  0
LINE
  5
169
100
AcDbEntity
  8
0
  6
CONTINUOUS
 62
               7
100
AcDbLine
 10
-8.8000000000000114
 20
29.699999999999989
 30
0.0
 11
-8.8000000000000114
 21
27.999999999999972
 31
0.0
  0
LINE
  5
16A
100
AcDbEntity
  8
0
  6
CONTINUOUS
 62
               7
100
AcDbLine
 10
-8.5
 20
29.999999999999972
 30
0.0
 11
-8.8000000000000114
 21
29.699999999999989
 31
0.0
  0
LINE
  5
16B
100
AcDbEntity
  8
0
  6
CONTINUOUS
 62
               7
100
AcDbLine
 10
-8.6999999999999886
 20
27.999999999999972
 30
0.0
 11
-8.6999999999999886
 21
27.0
 31
0.0
  0
LINE
  5
16C
100
AcDbEntity
  8
0
  6
CONTINUOUS
 62
               7
100
AcDbLine
 10
-5.0
 20
29.699999999999989
 30
0.0
 11
-5.0
 21
27.999999999999972
 31
0.0
  0
LINE
  5
16D
100
AcDbEntity
  8
0
  6
CONTINUOUS
 62
               7
100
AcDbLine
 10
-5.3000000000000114
 20
29.999999999999972
 30
0.0
 11
-5.0
 21
29.699999999999989
 31
0.0
  0
ARC
  5
16E
100
AcDbEntity
  8
0
  6
CONTINUOUS
 62
               7
100
AcDbCircle
 10
-5.6999999999999886
 20
29.5
 30
0.0
 40
1.0
100
AcDbArc
 50
0.0
 51
90.0
  0
LINE
  5
16F
100
AcDbEntity
  8
0
  6
CONTINUOUS
 62
               7
100
AcDbLine
 10
-5.6999999999999886
 20
30.5
 30
0.0
 11
-5.8000000000000114
 21
30.5
 31
0.0
  0
LINE
  5
170
100
AcDbEntity
  8
0
  6
CONTINUOUS
 62
               7
100
AcDbLine
 10
-5.8000000000000114
 20
36.500000000000057
 30
0.0
 11
-5.8000000000000114
 21
30.5
 31
0.0
  0
LINE
  5
171
100
AcDbEntity
  8
0
  6
CONTINUOUS
 62
               7
100
AcDbLine
 10
-0.3004760263646062
 20
36.500000000000057
 30
0.0
 11
0.8999999999999773
 21
36.500000000000057
 31
0.0
  0
LINE
  5
172
100
AcDbEntity
  8
0
  6
CONTINUOUS
 62
               7
100
AcDbLine
 10
-0.6000000000000227
 20
36.200000000000045
 30
0.0
 11
-0.6000000000000227
 21
36.000000000000057
 31
0.0
  0
LINE
  5
173
100
AcDbEntity
  8
0
  6
CONTINUOUS
 62
               7
100
AcDbLine
 10
-3.8000000000000114
 20
36.200000000000045
 30
0.0
 11
-3.8000000000000114
 21
36.000000000000057
 31
0.0
  0
LINE
  5
174
100
AcDbEntity
  8
0
  6
CONTINUOUS
 62
               7
100
AcDbLine
 10
-5.8000000000000114
 20
36.500000000000057
 30
0.0
 11
-4.1006993865086088
 21
36.500000000000057
 31
0.0
  0
LINE
  5
175
100
AcDbEntity
  8
0
  6
CONTINUOUS
 62
               7
100
AcDbLine
 10
-4.3000000000000114
 20
35.500000000000057
 30
0.0
 11
-4.3000000000000114
 21
33.900000000000063
 31
0.0
  0
LINE
  5
176
100
AcDbEntity
  8
0
  6
CONTINUOUS
 62
               7
100
AcDbLine
 10
-0.1000000000000227
 20
35.500000000000057
 30
0.0
 11
-0.1000000000000227
 21
33.900000000000063
 31
0.0
  0
LINE
  5
177
100
AcDbEntity
  8
0
  6
CONTINUOUS
 62
               7
100
AcDbLine
 10
-0.6000000000000227
 20
36.000000000000057
 30
0.0
 11
-0.1000000000000227
 21
35.500000000000057
 31
0.0
  0
LINE
  5
178
100
AcDbEntity
  8
0
  6
CONTINUOUS
 62
               7
100
AcDbLine
 10
-4.3000000000000114
 20
35.500000000000057
 30
0.0
 11
-3.8000000000000114
 21
36.000000000000057
 31
0.0
  0
ARC
  5
179
100
AcDbEntity
  8
0
  6
CONTINUOUS
 62
               7
100
AcDbCircle
 10
-2.1999999999999886
 20
33.900000000000063
 30
0.0
 40
2.1000000111152071
100
AcDbArc
 50
180.0
 51
0.0
  0
ARC
  5
17A
100
AcDbEntity
  8
0
  6
CONTINUOUS
 62
               7
100
AcDbCircle
 10
-4.1006993865086088
 20
36.199300613491431
 30
0.0
 40
0.3007001998472195
100
AcDbArc
 50
0.1332620708018593
 51
89.866737929199076
  0
ARC
  5
17B
100
AcDbEntity
  8
0
  6
CONTINUOUS
 62
               7
100
AcDbCircle
 10
-0.3004760263646062
 20
36.20047602636464
 30
0.0
 40
0.2995243519038812
100
AcDbArc
 50
89.908941249896955
 51
180.09105875010405
  0
LINE
  5
17C
100
AcDbEntity
  8
0
  6
CONTINUOUS
 62
               7
100
AcDbLine
 10
-5.0
 20
29.69999999999996
 30
0.0
 11
-4.7138785240660468
 21
29.69999999999996
 31
0.0
  0
LINE
  5
17D
100
AcDbEntity
  8
0
  6
CONTINUOUS
 62
               7
100
AcDbLine
 10
-4.6999999999999886
 20
26.5
 30
0.0
 11
-4.6999999999999886
 21
29.5
 31
0.0
  0
LINE
  5
17E
100
AcDbEntity
  8
0
  6
CONTINUOUS
 62
               7
100
AcDbLine
 10
0.8999999999999773
 20
36.500000000000057
 30
0.0
 11
0.8999999999999773
 21
26.5
 31
0.0
  0
LINE
  5
17F
100
AcDbEntity
  8
0
  6
CONTINUOUS
 62
               7
100
AcDbLine
 10
-5.0999999999999659
 20
27.0
 30
0.0
 11
-5.0999999999999659
 21
27.999999999999972
 31
0.0
  0
LINE
  5
180
100
AcDbEntity
  8
0
  6
CONTINUOUS
 62
               7
100
AcDbLine
 10
-8.8000000000000114
 20
27.999999999999972
 30
0.0
 11
-4.6999999999999886
 21
27.999999999999972
 31
0.0
  0
LINE
  5
181
100
AcDbEntity
  8
0
  6
CONTINUOUS
 62
               7
100
AcDbLine
 10
-8.5
 20
29.999999999999972
 30
0.0
 11
-5.3000000000000114
 21
29.999999999999972
 31
0.0
  0
LINE
  5
182
100
AcDbEntity
  8
0
  6
CONTINUOUS
 62
               7
100
AcDbLine
 10
-8.8000000000000114
 20
29.699999999999989
 30
0.0
 11
-5.0
 21
29.699999999999989
 31
0.0
  0
LINE
  5
183
100
AcDbEntity
  8
0
  6
CONTINUOUS
 62
               2
100
AcDbLine
 10
-2.1999999999999886
 20
28.900000000000063
 30
0.0
 11
-2.1999999999999886
 21
38.900000000000063
 31
0.0
  0
LINE
  5
184
100
AcDbEntity
  8
0
  6
CONTINUOUS
 62
               2
100
AcDbLine
 10
0.0
 20
6.1998555955354036
 30
0.0
 11
0.0
 21
-1.8286109267685546
 31
0.0
  0
ENDBLK
  5
185
100
AcDbEntity
  8
0
100
AcDbBlockEnd
  0
BLOCK
  5
186
100
AcDbEntity
  8
0
100
AcDbBlockBegin
  2
MGALGS4_5-4
 70
               0
 10
0.0
 20
0.0
 30
0.0
  3
MGALGS4_5-4
  1

  0
LINE
  5
187
100
AcDbEntity
  8
0
  6
CONTINUOUS
 62
               2
100
AcDbLine
 10
-5.4556801093679042
 20
-2.5
 30
0.0
 11
4.6539553758462375
 21
-2.5
 31
0.0
  0
LINE
  5
188
100
AcDbEntity
  8
0
  6
CONTINUOUS
 62
               7
100
AcDbLine
 10
-13.999999999999886
 20
-8.2999999999999972
 30
0.0
 11
0.0000000000000568
 21
-8.2999999999999972
 31
0.0
  0
LINE
  5
189
100
AcDbEntity
  8
0
  6
CONTINUOUS
 62
               7
100
AcDbLine
 10
0.9999999758562126
 20
-4.0
 30
0.0
 11
0.9999999758562126
 21
-5.0
 31
0.0
  0
LINE
  5
18A
100
AcDbEntity
  8
0
  6
CONTINUOUS
 62
               7
100
AcDbLine
 10
-5.9999999999998863
 20
-4.0
 30
0.0
 11
0.9999999758562126
 21
-4.0
 31
0.0
  0
LINE
  5
18B
100
AcDbEntity
  8
0
  6
CONTINUOUS
 62
               7
100
AcDbLine
 10
-3.6999999999998749
 20
-1.0
 30
0.0
 11
0.5000000000001421
 21
-1.0
 31
0.0
  0
LINE
  5
18C
100
AcDbEntity
  8
0
  6
CONTINUOUS
 62
               7
100
AcDbLine
 10
-13.999999999999886
 20
0.4000000000000057
 30
0.0
 11
-5.9999999999998863
 21
0.4000000000000057
 31
0.0
  0
LINE
  5
18D
100
AcDbEntity
  8
0
  6
CONTINUOUS
 62
               7
100
AcDbLine
 10
1.8000000000001251
 20
0.4000000000000057
 30
0.0
 11
1.8000000000001251
 21
-5.0
 31
0.0
  0
LINE
  5
18E
100
AcDbEntity
  8
0
  6
CONTINUOUS
 62
               7
100
AcDbLine
 10
-5.9999999999998863
 20
0.4000000000000057
 30
0.0
 11
-5.9999999999998863
 21
-4.0
 31
0.0
  0
LINE
  5
18F
100
AcDbEntity
  8
0
  6
CONTINUOUS
 62
               7
100
AcDbLine
 10
-13.999999999999886
 20
-8.7999999999999972
 30
0.0
 11
-0.0000000241437874
 21
-8.7999999999999972
 31
0.0
  0
LINE
  5
190
100
AcDbEntity
  8
0
  6
CONTINUOUS
 62
               7
100
AcDbLine
 10
-13.999999999999886
 20
0.4000000000000057
 30
0.0
 11
-13.999999999999886
 21
-8.7999999982303194
 31
0.0
  0
LINE
  5
191
100
AcDbEntity
  8
0
  6
CONTINUOUS
 62
               7
100
AcDbLine
 10
-5.1999999999998749
 20
0.4000000000000057
 30
0.0
 11
-5.1999999999998749
 21
-4.0
 31
0.0
  0
LINE
  5
192
100
AcDbEntity
  8
0
  6
CONTINUOUS
 62
               7
100
AcDbLine
 10
0.5000000000001421
 20
-0.5
 30
0.0
 11
1.8000000000001251
 21
-0.5
 31
0.0
  0
LINE
  5
193
100
AcDbEntity
  8
0
  6
CONTINUOUS
 62
               7
100
AcDbLine
 10
-3.6999999999998749
 20
-0.5
 30
0.0
 11
-5.1999999999998749
 21
-0.5
 31
0.0
  0
LINE
  5
194
100
AcDbEntity
  8
0
  6
CONTINUOUS
 62
               7
100
AcDbLine
 10
-5.1999999999998749
 20
0.4000000000000057
 30
0.0
 11
-5.9999999999998863
 21
0.4000000000000057
 31
0.0
  0
LINE
  5
195
100
AcDbEntity
  8
0
  6
CONTINUOUS
 62
               2
100
AcDbLine
 10
2.5000000000001137
 20
-3.3499999999999943
 30
0.0
 11
2.759807621135451
 21
-3.5
 31
0.0
  0
LINE
  5
196
100
AcDbEntity
  8
0
  6
CONTINUOUS
 62
               2
100
AcDbLine
 10
2.5000000000001137
 20
-1.6500000000000057
 30
0.0
 11
2.759807621135451
 21
-1.5
 31
0.0
  0
LINE
  5
197
100
AcDbEntity
  8
0
  6
CONTINUOUS
 62
               7
100
AcDbLine
 10
-3.6999999999998749
 20
-0.5
 30
0.0
 11
-3.6999999999998749
 21
-4.0
 31
0.0
  0
LINE
  5
198
100
AcDbEntity
  8
0
  6
CONTINUOUS
 62
               7
100
AcDbLine
 10
0.5000000000001421
 20
-0.5
 30
0.0
 11
0.5000000000001421
 21
-4.0
 31
0.0
  0
LINE
  5
199
100
AcDbEntity
  8
0
  6
CONTINUOUS
 62
               7
100
AcDbLine
 10
0.9999999758562126
 20
-4.5
 30
0.0
 11
1.8000000000001251
 21
-4.5
 31
0.0
  0
LINE
  5
19B
100
AcDbEntity
  8
0
  6
PHANTOM
 62
               2
100
AcDbLine
 10
-5.0699999999998795
 20
0.0
 30
0.0
 11
1.6500000000001194
 21
0.0
 31
0.0
  0
LINE
  5
19C
100
AcDbEntity
  8
0
  6
PHANTOM
 62
               2
100
AcDbLine
 10
-5.0699999999998795
 20
-0.2599999999999909
 30
0.0
 11
1.6700000000001296
 21
-0.2599999999999909
 31
0.0
  0
CIRCLE
  5
19D
100
AcDbEntity
  8
0
  6
CONTINUOUS
 62
               7
100
AcDbCircle
 10
1.6700000000001296
 20
-0.1299999999999955
 30
0.0
 40
0.129999999999999
  0
CIRCLE
  5
19E
100
AcDbEntity
  8
0
  6
CONTINUOUS
 62
               7
100
AcDbCircle
 10
-5.0699999999998795
 20
-0.1299999999999955
 30
0.0
 40
0.129999999999999
  0
LINE
  5
19F
100
AcDbEntity
  8
0
  6
CONTINUOUS
 62
               7
100
AcDbLine
 10
2.5000000000001137
 20
-3.5
 30
0.0
 11
4.0000000000000568
 21
-3.5
 31
0.0
  0
LINE
  5
1A0
100
AcDbEntity
  8
0
  6
CONTINUOUS
 62
               7
100
AcDbLine
 10
2.5000000000001137
 20
-1.5
 30
0.0
 11
4.0000000000000568
 21
-1.5
 31
0.0
  0
LINE
  5
1A1
100
AcDbEntity
  8
0
  6
PHANTOM
 62
               2
100
AcDbLine
 10
0.9999999758562126
 20
-4.7400000000000091
 30
0.0
 11
1.6700000000001296
 21
-4.7400000000000091
 31
0.0
  0
CIRCLE
  5
1A2
100
AcDbEntity
  8
0
  6
CONTINUOUS
 62
               7
100
AcDbCircle
 10
1.6700000000001296
 20
-4.8700000000000045
 30
0.0
 40
0.129999999999999
  0
LINE
  5
1A3
100
AcDbEntity
  8
0
  6
CONTINUOUS
 62
               7
100
AcDbLine
 10
2.5000000000001137
 20
-4.9000000000000057
 30
0.0
 11
2.5000000000001137
 21
-0.0999999999999943
 31
0.0
  0
LINE
  5
1A4
100
AcDbEntity
  8
0
  6
CONTINUOUS
 62
               7
100
AcDbLine
 10
1.8000000000001251
 20
0.4000000000000057
 30
0.0
 11
2.3000000000001251
 21
0.4000000000000057
 31
0.0
  0
LINE
  5
1A5
100
AcDbEntity
  8
0
  6
CONTINUOUS
 62
               7
100
AcDbLine
 10
2.3000000000001251
 20
-4.9000000000000057
 30
0.0
 11
2.5000000000001137
 21
-4.9000000000000057
 31
0.0
  0
LINE
  5
1A6
100
AcDbEntity
  8
0
  6
CONTINUOUS
 62
               7
100
AcDbLine
 10
2.3000000000001251
 20
-0.0999999999999943
 30
0.0
 11
2.5000000000001137
 21
-0.0999999999999943
 31
0.0
  0
LINE
  5
1A7
100
AcDbEntity
  8
0
  6
CONTINUOUS
 62
               7
100
AcDbLine
 10
2.3000000000001251
 20
-5.0
 30
0.0
 11
2.3000000000001251
 21
0.4000000000000057
 31
0.0
  0
LINE
  5
1A8
100
AcDbEntity
  8
0
  6
CONTINUOUS
 62
               7
100
AcDbLine
 10
1.8000000000001251
 20
-3.4205976319761078
 30
0.0
 11
2.3000000000001251
 21
-3.4205976319761078
 31
0.0
  0
LINE
  5
1A9
100
AcDbEntity
  8
0
  6
CONTINUOUS
 62
               7
100
AcDbLine
 10
1.8000000000001251
 20
-1.5794023680238922
 30
0.0
 11
2.3000000000001251
 21
-1.5794023680238922
 31
0.0
  0
LINE
  5
1AA
100
AcDbEntity
  8
0
  6
CONTINUOUS
 62
               2
100
AcDbLine
 10
2.3000000000001251
 20
-3.4205976319761078
 30
0.0
 11
1.8000000000001251
 21
-1.5794023680238922
 31
0.0
  0
LINE
  5
1AB
100
AcDbEntity
  8
0
  6
CONTINUOUS
 62
               2
100
AcDbLine
 10
2.3000000000001251
 20
-1.5794023680238922
 30
0.0
 11
1.8000000000001251
 21
-3.4205976319761078
 31
0.0
  0
LINE
  5
1AC
100
AcDbEntity
  8
0
  6
CONTINUOUS
 62
               7
100
AcDbLine
 10
-0.0000000241438443
 20
-5.0
 30
0.0
 11
-0.0000000241438443
 21
-8.9999999863094047
 31
0.0
  0
LINE
  5
1AD
100
AcDbEntity
  8
0
  6
CONTINUOUS
 62
               7
100
AcDbLine
 10
4.0000000000000568
 20
1.0
 30
0.0
 11
4.0000000000000568
 21
-5.0
 31
0.0
  0
LINE
  5
1AE
100
AcDbEntity
  8
0
  6
CONTINUOUS
 62
               7
100
AcDbLine
 10
3.5
 20
0.0
 30
0.0
 11
3.5
 21
2.9999999999999716
 31
0.0
  0
ARC
  5
1AF
100
AcDbEntity
  8
0
  6
CONTINUOUS
 62
               7
100
AcDbCircle
 10
0.0
 20
0.0
 30
0.0
 40
3.5
100
AcDbArc
 50
334.62306647484769
 51
0.0
  0
LINE
  5
1B0
100
AcDbEntity
  8
0
  6
CONTINUOUS
 62
               2
100
AcDbLine
 10
-2.7000000000000171
 20
0.0
 30
0.0
 11
2.7000000000000171
 21
0.0
 31
0.0
  0
LINE
  5
1B1
100
AcDbEntity
  8
0
  6
CONTINUOUS
 62
               2
100
AcDbLine
 10
0.0
 20
2.7000000000000171
 30
0.0
 11
0.0
 21
-2.7000000000000171
 31
0.0
  0
LINE
  5
1B2
100
AcDbEntity
  8
0
  6
CONTINUOUS
 62
               7
100
AcDbLine
 10
-3.0
 20
-1.0
 30
0.0
 11
-3.0
 21
2.9999999999999716
 31
0.0
  0
ARC
  5
1B3
100
AcDbEntity
  8
0
  6
CONTINUOUS
 62
               7
100
AcDbCircle
 10
0.0
 20
0.0
 30
0.0
 40
1.7
100
AcDbArc
 50
342.89536482335632
 51
216.03187907247073
  0
LINE
  5
1B4
100
AcDbEntity
  8
0
  6
CONTINUOUS
 62
               2
100
AcDbLine
 10
10.999999997462766
 20
0.4999999999999716
 30
0.0
 11
10.999999997462766
 21
5.4999999999999716
 31
0.0
  0
LINE
  5
1B5
100
AcDbEntity
  8
0
  6
CONTINUOUS
 62
               2
100
AcDbLine
 10
26.999999997462766
 20
0.4999999999999716
 30
0.0
 11
26.999999997462766
 21
5.4999999999999716
 31
0.0
  0
LINE
  5
1B6
100
AcDbEntity
  8
0
  6
CONTINUOUS
 62
               7
100
AcDbLine
 10
4.0000000000000568
 20
1.0
 30
0.0
 11
42.0
 21
1.0
 31
0.0
  0
LINE
  5
1B7
100
AcDbEntity
  8
0
  6
CONTINUOUS
 62
               7
100
AcDbLine
 10
38.000000000000057
 20
-4.5
 30
0.0
 11
42.999999997462737
 21
-4.5
 31
0.0
  0
LINE
  5
1B8
100
AcDbEntity
  8
0
  6
CONTINUOUS
 62
               7
100
AcDbLine
 10
38.000000001754472
 20
-8.6999999999999886
 30
0.0
 11
38.500000001754472
 21
-8.6999999999999886
 31
0.0
  0
LINE
  5
1B9
100
AcDbEntity
  8
0
  6
CONTINUOUS
 62
               7
100
AcDbLine
 10
38.000000001754472
 20
-5.1999999999999886
 30
0.0
 11
38.500000001754472
 21
-5.1999999999999886
 31
0.0
  0
LINE
  5
1BA
100
AcDbEntity
  8
0
  6
CONTINUOUS
 62
               7
100
AcDbLine
 10
39.000000000000057
 20
-7.2000000000000171
 30
0.0
 11
39.000000000000057
 21
-5.7999999999999829
 31
0.0
  0
LINE
  5
1BB
100
AcDbEntity
  8
0
  6
CONTINUOUS
 62
               7
100
AcDbLine
 10
38.500000000000057
 20
-5.5
 30
0.0
 11
38.700000000000045
 21
-5.5
 31
0.0
  0
LINE
  5
1BC
100
AcDbEntity
  8
0
  6
CONTINUOUS
 62
               7
100
AcDbLine
 10
38.500000000000057
 20
-7.5
 30
0.0
 11
38.700000000000045
 21
-7.5
 31
0.0
  0
ARC
  5
1BD
100
AcDbEntity
  8
0
  6
CONTINUOUS
 62
               7
100
AcDbCircle
 10
38.700000000000045
 20
-5.7999999999999829
 30
0.0
 40
0.3
100
AcDbArc
 50
0.0
 51
90.0
  0
ARC
  5
1BE
100
AcDbEntity
  8
0
  6
CONTINUOUS
 62
               7
100
AcDbCircle
 10
38.700000000000045
 20
-7.2000000000000171
 30
0.0
 40
0.3
100
AcDbArc
 50
270.0
 51
0.0
  0
LINE
  5
1BF
100
AcDbEntity
  8
0
  6
CONTINUOUS
 62
               7
100
AcDbLine
 10
38.500000000000057
 20
-8.6999999999999886
 30
0.0
 11
38.500000000000057
 21
-5.1999999999999886
 31
0.0
  0
CIRCLE
  5
1C0
100
AcDbEntity
  8
0
  6
CONTINUOUS
 62
               7
100
AcDbCircle
 10
47.0
 20
0.0
 30
0.0
 40
1.7
  0
LINE
  5
1C1
100
AcDbEntity
  8
0
  6
CONTINUOUS
 62
               7
100
AcDbLine
 10
-3.0
 20
2.9999999999999716
 30
0.0
 11
50.0
 21
2.9999999999999716
 31
0.0
  0
LINE
  5
1C2
100
AcDbEntity
  8
0
  6
CONTINUOUS
 62
               7
100
AcDbLine
 10
5.0
 20
1.0
 30
0.0
 11
5.0
 21
2.2000000000000171
 31
0.0
  0
LINE
  5
1C3
100
AcDbEntity
  8
0
  6
CONTINUOUS
 62
               7
100
AcDbLine
 10
42.0
 20
0.9000000000000057
 30
0.0
 11
42.0
 21
2.2000000000000171
 31
0.0
  0
LINE
  5
1C4
100
AcDbEntity
  8
0
  6
CONTINUOUS
 62
               7
100
AcDbLine
 10
50.0
 20
-8.5
 30
0.0
 11
50.0
 21
2.9999999999999716
 31
0.0
  0
LINE
  5
1C5
100
AcDbEntity
  8
0
  6
CONTINUOUS
 62
               7
100
AcDbLine
 10
43.5
 20
0.0
 30
0.0
 11
43.5
 21
2.9999999999999716
 31
0.0
  0
LINE
  5
1C6
100
AcDbEntity
  8
0
  6
CONTINUOUS
 62
               7
100
AcDbLine
 10
47.0
 20
-3.5
 30
0.0
 11
50.0
 21
-3.5
 31
0.0
  0
ARC
  5
1C7
100
AcDbEntity
  8
0
  6
CONTINUOUS
 62
               7
100
AcDbCircle
 10
47.0
 20
0.0
 30
0.0
 40
3.5
100
AcDbArc
 50
180.0
 51
270.0
  0
LINE
  5
1C8
100
AcDbEntity
  8
0
  6
CONTINUOUS
 62
               2
100
AcDbLine
 10
49.699999999999989
 20
0.0
 30
0.0
 11
44.300000000000011
 21
0.0
 31
0.0
  0
LINE
  5
1C9
100
AcDbEntity
  8
0
  6
CONTINUOUS
 62
               2
100
AcDbLine
 10
47.0
 20
2.7000000000000171
 30
0.0
 11
47.0
 21
-2.7000000000000171
 31
0.0
  0
LINE
  5
1CA
100
AcDbEntity
  8
0
  6
CONTINUOUS
 62
               7
100
AcDbLine
 10
38.500000000000057
 20
-8.5
 30
0.0
 11
50.0
 21
-8.5
 31
0.0
  0
LINE
  5
1CB
100
AcDbEntity
  8
0
  6
CONTINUOUS
 62
               7
100
AcDbLine
 10
42.999999997462737
 20
-6.0
 30
0.0
 11
42.999999997462737
 21
0.9000000000000057
 31
0.0
  0
LINE
  5
1CC
100
AcDbEntity
  8
0
  6
CONTINUOUS
 62
               7
100
AcDbLine
 10
38.000000000000057
 20
0.9000000000000057
 30
0.0
 11
42.999999997462737
 21
0.9000000000000057
 31
0.0
  0
LINE
  5
1CD
100
AcDbEntity
  8
0
  6
CONTINUOUS
 62
               7
100
AcDbLine
 10
39.000000000000057
 20
-6.0
 30
0.0
 11
42.999999997462737
 21
-6.0
 31
0.0
  0
LINE
  5
1CE
100
AcDbEntity
  8
0
  6
CONTINUOUS
 62
               7
100
AcDbLine
 10
5.0
 20
2.2000000000000171
 30
0.0
 11
42.0
 21
2.2000000000000171
 31
0.0
  0
LINE
  5
1CF
100
AcDbEntity
  8
0
  6
CONTINUOUS
 62
               7
100
AcDbLine
 10
-0.0000000241438443
 20
-5.0000000136906237
 30
0.0
 11
4.0000000000000568
 21
-5.0000000136906237
 31
0.0
  0
CIRCLE
  5
1D0
100
AcDbEntity
  8
0
  6
CONTINUOUS
 62
               7
100
AcDbCircle
 10
7.0000000000000568
 20
-2.1999999999999602
 30
0.0
 40
1.6000000000000174
  0
LINE
  5
1D1
100
AcDbEntity
  8
0
  6
CONTINUOUS
 62
               7
100
AcDbLine
 10
6.2499998566468662
 20
-2.6330126267856144
 30
0.0
 11
7.0000000354608005
 21
-3.0660254103129887
 31
0.0
  0
LINE
  5
1D2
100
AcDbEntity
  8
0
  6
CONTINUOUS
 62
               7
100
AcDbLine
 10
6.2499999933676804
 20
-1.7669871364069252
 30
0.0
 11
6.250000012076498
 21
-2.6330127358663447
 31
0.0
  0
LINE
  5
1D3
100
AcDbEntity
  8
0
  6
CONTINUOUS
 62
               7
100
AcDbLine
 10
7.0000001367209279
 20
-1.3339745096212994
 30
0.0
 11
6.2499999766158112
 21
-1.7669873255533446
 31
0.0
  0
LINE
  5
1D4
100
AcDbEntity
  8
0
  6
CONTINUOUS
 62
               7
100
AcDbLine
 10
7.7500001433533043
 20
-1.7669873732143344
 30
0.0
 11
6.99999996453937
 21
-1.3339745896869601
 31
0.0
  0
LINE
  5
1D5
100
AcDbEntity
  8
0
  6
CONTINUOUS
 62
               7
100
AcDbLine
 10
7.7500000066324901
 20
-2.6330128635930237
 30
0.0
 11
7.7499999879236157
 21
-1.7669872641335758
 31
0.0
  0
LINE
  5
1D6
100
AcDbEntity
  8
0
  6
CONTINUOUS
 62
               7
100
AcDbLine
 10
6.9999998632792426
 20
-3.0660254903786495
 30
0.0
 11
7.7500000233843593
 21
-2.6330126744466043
 31
0.0
  0
LINE
  5
1D7
100
AcDbEntity
  8
0
  6
CONTINUOUS
 62
               7
100
AcDbLine
 10
4.0000000000000568
 20
-3.7999999999999829
 30
0.0
 11
5.7183994382024821
 21
-3.7999999999999829
 31
0.0
  0
LINE
  5
1D8
100
AcDbEntity
  8
0
  6
CONTINUOUS
 62
               7
100
AcDbLine
 10
4.0000000000000568
 20
-0.5999999999999659
 30
0.0
 11
5.7183994382024252
 21
-0.5999999999999659
 31
0.0
  0
CIRCLE
  5
1D9
100
AcDbEntity
  8
0
  6
CONTINUOUS
 62
               7
100
AcDbCircle
 10
7.0000000000000568
 20
-2.1999999999999602
 30
0.0
 40
2.0499999999999998
  0
CIRCLE
  5
1DA
100
AcDbEntity
  8
0
  6
CONTINUOUS
 62
               7
100
AcDbCircle
 10
7.0000000000000568
 20
-2.1999999999999602
 30
0.0
 40
1.9000000000000148
  0
LINE
  5
1DB
100
AcDbEntity
  8
0
  6
CONTINUOUS
 62
               7
100
AcDbLine
 10
17.500000000000057
 20
-8.6999999999999886
 30
0.0
 11
18.891723746970229
 21
-8.6999999999999886
 31
0.0
  0
CIRCLE
  5
1DC
100
AcDbEntity
  8
0
  6
CONTINUOUS
 62
               7
100
AcDbCircle
 10
19.500000000000057
 20
-6.8999999999999773
 30
0.0
 40
1.6000000000000174
  0
ARC
  5
1DD
100
AcDbEntity
  8
0
  6
CONTINUOUS
 62
               7
100
AcDbCircle
 10
19.500000000000057
 20
-6.8999999999999773
 30
0.0
 40
1.9000000000000148
100
AcDbArc
 50
122.63689750355353
 51
57.363102496446466
  0
LINE
  5
1DE
100
AcDbEntity
  8
0
  6
CONTINUOUS
 62
               7
100
AcDbLine
 10
17.500000000000057
 20
-5.2999999999999829
 30
0.0
 11
17.500000000000057
 21
-8.6999999999999886
 31
0.0
  0
LINE
  5
1DF
100
AcDbEntity
  8
0
  6
CONTINUOUS
 62
               7
100
AcDbLine
 10
19.500000136720928
 20
-7.7660254903786381
 30
0.0
 11
18.749999976615811
 21
-7.3330126744465929
 31
0.0
  0
LINE
  5
1E0
100
AcDbEntity
  8
0
  6
CONTINUOUS
 62
               7
100
AcDbLine
 10
18.749999856646866
 20
-6.4669873732143515
 30
0.0
 11
19.500000035460801
 21
-6.0339745896869772
 31
0.0
  0
LINE
  5
1E1
100
AcDbEntity
  8
0
  6
CONTINUOUS
 62
               7
100
AcDbLine
 10
19.499999863279243
 20
-6.0339745096213164
 30
0.0
 11
20.250000023384359
 21
-6.4669873255533616
 31
0.0
  0
LINE
  5
1E2
100
AcDbEntity
  8
0
  6
CONTINUOUS
 62
               7
100
AcDbLine
 10
20.250000143353304
 20
-7.3330126267856031
 30
0.0
 11
19.49999996453937
 21
-7.7660254103129773
 31
0.0
  0
LINE
  5
1E3
100
AcDbEntity
  8
0
  6
CONTINUOUS
 62
               7
100
AcDbLine
 10
20.25000000663249
 20
-6.4669871364069422
 30
0.0
 11
20.249999987923616
 21
-7.3330127358663617
 31
0.0
  0
LINE
  5
1E4
100
AcDbEntity
  8
0
  6
CONTINUOUS
 62
               7
100
AcDbLine
 10
18.74999999336768
 20
-7.3330128635930123
 30
0.0
 11
18.750000012076498
 21
-6.4669872641335928
 31
0.0
  0
LINE
  5
1E5
100
AcDbEntity
  8
0
  6
CONTINUOUS
 62
               7
100
AcDbLine
 10
0.0000000000000568
 20
-8.5
 30
0.0
 11
17.500000000000057
 21
-8.5
 31
0.0
  0
LINE
  5
1E6
100
AcDbEntity
  8
0
  6
CONTINUOUS
 62
               7
100
AcDbLine
 10
33.108276253029942
 20
-8.6999999999999886
 30
0.0
 11
34.500000000000057
 21
-8.6999999999999886
 31
0.0
  0
LINE
  5
1E7
100
AcDbEntity
  8
0
  6
CONTINUOUS
 62
               7
100
AcDbLine
 10
28.000000000000057
 20
-5.2999999999999829
 30
0.0
 11
28.000000000000057
 21
-8.6999999999999886
 31
0.0
  0
LINE
  5
1E8
100
AcDbEntity
  8
0
  6
CONTINUOUS
 62
               7
100
AcDbLine
 10
24.000000000000057
 20
-5.2999999999999829
 30
0.0
 11
24.000000000000057
 21
-8.6999999999999886
 31
0.0
  0
LINE
  5
1E9
100
AcDbEntity
  8
0
  6
CONTINUOUS
 62
               7
100
AcDbLine
 10
33.25000000663249
 20
-7.3330128635930123
 30
0.0
 11
33.249999987923616
 21
-6.4669872641335928
 31
0.0
  0
LINE
  5
1EA
100
AcDbEntity
  8
0
  6
CONTINUOUS
 62
               7
100
AcDbLine
 10
31.74999999336768
 20
-6.4669871364069422
 30
0.0
 11
31.750000012076498
 21
-7.3330127358663617
 31
0.0
  0
LINE
  5
1EB
100
AcDbEntity
  8
0
  6
CONTINUOUS
 62
               7
100
AcDbLine
 10
31.749999856646866
 20
-7.3330126267856031
 30
0.0
 11
32.500000035460801
 21
-7.7660254103129773
 31
0.0
  0
LINE
  5
1EC
100
AcDbEntity
  8
0
  6
CONTINUOUS
 62
               7
100
AcDbLine
 10
32.500000136720928
 20
-6.0339745096213164
 30
0.0
 11
31.749999976615811
 21
-6.4669873255533616
 31
0.0
  0
LINE
  5
1ED
100
AcDbEntity
  8
0
  6
CONTINUOUS
 62
               7
100
AcDbLine
 10
33.250000143353304
 20
-6.4669873732143515
 30
0.0
 11
32.49999996453937
 21
-6.0339745896869772
 31
0.0
  0
LINE
  5
1EE
100
AcDbEntity
  8
0
  6
CONTINUOUS
 62
               7
100
AcDbLine
 10
32.499999863279243
 20
-7.7660254903786381
 30
0.0
 11
33.250000023384359
 21
-7.3330126744465929
 31
0.0
  0
LINE
  5
1EF
100
AcDbEntity
  8
0
  6
CONTINUOUS
 62
               7
100
AcDbLine
 10
34.500000000000057
 20
-8.5
 30
0.0
 11
38.000000000000057
 21
-8.5
 31
0.0
  0
LINE
  5
1F0
100
AcDbEntity
  8
0
  6
CONTINUOUS
 62
               7
100
AcDbLine
 10
0.0000000000000568
 20
-9.0
 30
0.0
 11
38.000000000000057
 21
-9.0
 31
0.0
  0
LINE
  5
1F1
100
AcDbEntity
  8
0
  6
CONTINUOUS
 62
               7
100
AcDbLine
 10
20.108276253029942
 20
-8.6999999999999886
 30
0.0
 11
31.891723746970115
 21
-8.6999999999999886
 31
0.0
  0
CIRCLE
  5
1F2
100
AcDbEntity
  8
0
  6
CONTINUOUS
 62
               7
100
AcDbCircle
 10
35.000000000000057
 20
-2.1999999999999602
 30
0.0
 40
1.9000000000000148
  0
CIRCLE
  5
1F3
100
AcDbEntity
  8
0
  6
CONTINUOUS
 62
               7
100
AcDbCircle
 10
35.000000000000057
 20
-2.1999999999999602
 30
0.0
 40
2.0499999999999998
  0
CIRCLE
  5
1F4
100
AcDbEntity
  8
0
  6
CONTINUOUS
 62
               7
100
AcDbCircle
 10
35.000000000000057
 20
-2.1999999999999602
 30
0.0
 40
1.6000000000000174
  0
LINE
  5
1F5
100
AcDbEntity
  8
0
  6
CONTINUOUS
 62
               7
100
AcDbLine
 10
35.000000136720928
 20
-3.0660254903786495
 30
0.0
 11
34.249999976615811
 21
-2.6330126744466043
 31
0.0
  0
LINE
  5
1F6
100
AcDbEntity
  8
0
  6
CONTINUOUS
 62
               7
100
AcDbLine
 10
34.24999999336768
 20
-2.6330128635930237
 30
0.0
 11
34.250000012076498
 21
-1.7669872641335758
 31
0.0
  0
LINE
  5
1F7
100
AcDbEntity
  8
0
  6
CONTINUOUS
 62
               7
100
AcDbLine
 10
34.249999856646866
 20
-1.7669873732143344
 30
0.0
 11
35.000000035460801
 21
-1.3339745896869601
 31
0.0
  0
LINE
  5
1F8
100
AcDbEntity
  8
0
  6
CONTINUOUS
 62
               7
100
AcDbLine
 10
34.999999863279243
 20
-1.3339745096212994
 30
0.0
 11
35.750000023384359
 21
-1.7669873255533446
 31
0.0
  0
LINE
  5
1F9
100
AcDbEntity
  8
0
  6
CONTINUOUS
 62
               7
100
AcDbLine
 10
35.75000000663249
 20
-1.7669871364069252
 30
0.0
 11
35.749999987923616
 21
-2.6330127358663447
 31
0.0
  0
LINE
  5
1FA
100
AcDbEntity
  8
0
  6
CONTINUOUS
 62
               7
100
AcDbLine
 10
35.750000143353304
 20
-2.6330126267856144
 30
0.0
 11
34.99999996453937
 21
-3.0660254103129887
 31
0.0
  0
LINE
  5
1FB
100
AcDbEntity
  8
0
  6
CONTINUOUS
 62
               7
100
AcDbLine
 10
-0.0000000241438443
 20
-5.2999999999999829
 30
0.0
 11
38.000000000000057
 21
-5.2999999999999829
 31
0.0
  0
LINE
  5
1FC
100
AcDbEntity
  8
0
  6
CONTINUOUS
 62
               7
100
AcDbLine
 10
34.500000000000057
 20
-5.2999999999999829
 30
0.0
 11
34.500000000000057
 21
-8.6999999999999886
 31
0.0
  0
CIRCLE
  5
1FD
100
AcDbEntity
  8
0
  6
CONTINUOUS
 62
               7
100
AcDbCircle
 10
32.500000000000057
 20
-6.8999999999999773
 30
0.0
 40
1.6000000000000174
  0
LINE
  5
1FE
100
AcDbEntity
  8
0
  6
CONTINUOUS
 62
               7
100
AcDbLine
 10
36.281600561797745
 20
-0.5999999999999659
 30
0.0
 11
38.000000000000057
 21
-0.5999999999999659
 31
0.0
  0
LINE
  5
1FF
100
AcDbEntity
  8
0
  6
CONTINUOUS
 62
               7
100
AcDbLine
 10
36.281600561797688
 20
-3.7999999999999829
 30
0.0
 11
38.000000000000057
 21
-3.7999999999999829
 31
0.0
  0
LINE
  5
200
100
AcDbEntity
  8
0
  6
CONTINUOUS
 62
               7
100
AcDbLine
 10
8.2816005617976884
 20
-0.5999999999999659
 30
0.0
 11
33.718399438202425
 21
-0.5999999999999659
 31
0.0
  0
LINE
  5
201
100
AcDbEntity
  8
0
  6
CONTINUOUS
 62
               7
100
AcDbLine
 10
8.2816005617976884
 20
-3.7999999999999829
 30
0.0
 11
33.718399438202482
 21
-3.7999999999999829
 31
0.0
  0
ARC
  5
202
100
AcDbEntity
  8
0
  6
CONTINUOUS
 62
               7
100
AcDbCircle
 10
32.500000000000057
 20
-6.8999999999999773
 30
0.0
 40
1.9000000000000148
100
AcDbArc
 50
122.63689750355353
 51
57.363102496446466
  0
LINE
  5
203
100
AcDbEntity
  8
0
  6
CONTINUOUS
 62
               7
100
AcDbLine
 10
4.0000000000000568
 20
0.9000000000000341
 30
0.0
 11
38.000000000000057
 21
0.9000000000000341
 31
0.0
  0
LINE
  5
204
100
AcDbEntity
  8
0
  6
CONTINUOUS
 62
               7
100
AcDbLine
 10
38.000000000000057
 20
1.0
 30
0.0
 11
38.000000000000057
 21
-9.0
 31
0.0
  0
LINE
  5
205
100
AcDbEntity
  8
0
  6
CONTINUOUS
 62
               2
100
AcDbLine
 10
-16.499999999999886
 20
-2.5000000000000284
 30
0.0
 11
-11.499999999999886
 21
-2.5000000000000284
 31
0.0
  0
ENDBLK
  5
206
100
AcDbEntity
  8
0
100
AcDbBlockEnd
  0
BLOCK
  5
207
100
AcDbEntity
  8
0
100
AcDbBlockBegin
  2
MGALGS4_5-5
 70
               0
 10
0.0
 20
0.0
 30
0.0
  3
MGALGS4_5-5
  1

  0
CIRCLE
  5
208
100
AcDbEntity
  8
0
  6
CONTINUOUS
 62
               7
100
AcDbCircle
 10
-5.0699999999999363
 20
0.1299999999999955
 30
0.0
 40
0.129999999999999
  0
LINE
  5
209
100
AcDbEntity
  8
0
  6
PHANTOM
 62
               2
100
AcDbLine
 10
-5.0699999999999363
 20
0.259999999999998
 30
0.0
 11
-3.0
 21
0.259999999999998
 31
0.0
  0
LINE
  5
20A
100
AcDbEntity
  8
0
  6
PHANTOM
 62
               2
100
AcDbLine
 10
-5.0699999999999363
 20
0.0
 30
0.0
 11
-3.0
 21
0.0
 31
0.0
  0
LINE
  5
20B
100
AcDbEntity
  8
0
  6
CONTINUOUS
 62
               7
100
AcDbLine
 10
-3.6999999999999318
 20
0.5
 30
0.0
 11
-3.6999999999999318
 21
4.0
 31
0.0
  0
LINE
  5
20C
100
AcDbEntity
  8
0
  6
CONTINUOUS
 62
               7
100
AcDbLine
 10
-5.1999999999999318
 20
-0.3999999999999986
 30
0.0
 11
-5.9999999999999432
 21
-0.3999999999999986
 31
0.0
  0
LINE
  5
20D
100
AcDbEntity
  8
0
  6
CONTINUOUS
 62
               7
100
AcDbLine
 10
-3.6999999999999318
 20
0.5
 30
0.0
 11
-5.1999999999999318
 21
0.5
 31
0.0
  0
LINE
  5
20E
100
AcDbEntity
  8
0
  6
CONTINUOUS
 62
               7
100
AcDbLine
 10
-5.1999999999999318
 20
-0.3999999999999986
 30
0.0
 11
-5.1999999999999318
 21
4.0
 31
0.0
  0
LINE
  5
20F
100
AcDbEntity
  8
0
  6
CONTINUOUS
 62
               7
100
AcDbLine
 10
-13.999999999999943
 20
-0.3999999999999915
 30
0.0
 11
-13.999999999999943
 21
8.7999999982303194
 31
0.0
  0
LINE
  5
210
100
AcDbEntity
  8
0
  6
CONTINUOUS
 62
               7
100
AcDbLine
 10
-13.999999999999943
 20
8.7999999999999972
 30
0.0
 11
-0.0000000241438443
 21
8.7999999999999972
 31
0.0
  0
LINE
  5
211
100
AcDbEntity
  8
0
  6
CONTINUOUS
 62
               7
100
AcDbLine
 10
-5.9999999999999432
 20
-0.3999999999999986
 30
0.0
 11
-5.9999999999999432
 21
4.0
 31
0.0
  0
LINE
  5
212
100
AcDbEntity
  8
0
  6
CONTINUOUS
 62
               7
100
AcDbLine
 10
-13.999999999999943
 20
-0.3999999999999915
 30
0.0
 11
-5.9999999999999432
 21
-0.3999999999999915
 31
0.0
  0
LINE
  5
213
100
AcDbEntity
  8
0
  6
CONTINUOUS
 62
               7
100
AcDbLine
 10
-3.6999999999999318
 20
1.0
 30
0.0
 11
-3.0
 21
1.0
 31
0.0
  0
LINE
  5
214
100
AcDbEntity
  8
0
  6
CONTINUOUS
 62
               7
100
AcDbLine
 10
-5.9999999999999432
 20
4.0
 30
0.0
 11
-3.0
 21
4.0
 31
0.0
  0
LINE
  5
215
100
AcDbEntity
  8
0
  6
CONTINUOUS
 62
               7
100
AcDbLine
 10
-13.999999999999943
 20
8.2999999999999972
 30
0.0
 11
-3.0
 21
8.2999999999999972
 31
0.0
  0
LINE
  5
216
100
AcDbEntity
  8
0
  6
CONTINUOUS
 62
               2
100
AcDbLine
 10
-7.0850258552228809
 20
2.5
 30
0.0
 11
-1.6967866083419665
 21
2.5
 31
0.0
  0
LINE
  5
217
100
AcDbEntity
  8
0
  6
CONTINUOUS
 62
               7
100
AcDbLine
 10
30.500000004768367
 20
2.5773502697635351
 30
0.0
 11
31.500000016689313
 21
3.1547005464721423
 31
0.0
  0
LINE
  5
218
100
AcDbEntity
  8
0
  6
CONTINUOUS
 62
               7
100
AcDbLine
 10
30.500000001887173
 20
1.4226497352268623
 30
0.0
 11
30.500000001336019
 21
2.577350287689427
 31
0.0
  0
LINE
  5
219
100
AcDbEntity
  8
0
  6
CONTINUOUS
 62
               7
100
AcDbLine
 10
31.499999997118806
 20
0.8452994654633272
 30
0.0
 11
30.499999984646706
 21
1.4226497412172918
 31
0.0
  0
LINE
  5
21A
100
AcDbEntity
  8
0
  6
CONTINUOUS
 62
               7
100
AcDbLine
 10
32.499999995231633
 20
1.4226497302364649
 30
0.0
 11
31.499999983310687
 21
0.8452994535278577
 31
0.0
  0
LINE
  5
21B
100
AcDbEntity
  8
0
  6
CONTINUOUS
 62
               7
100
AcDbLine
 10
32.499999998112827
 20
2.5773502647731377
 30
0.0
 11
32.499999998663981
 21
1.422649712310573
 31
0.0
  0
LINE
  5
21C
100
AcDbEntity
  8
0
  6
CONTINUOUS
 62
               7
100
AcDbLine
 10
31.500000002881194
 20
3.1547005345366728
 30
0.0
 11
32.500000015353294
 21
2.5773502587827153
 31
0.0
  0
CIRCLE
  5
21D
100
AcDbEntity
  8
0
  6
CONTINUOUS
 62
               7
100
AcDbCircle
 10
31.5
 20
2.0
 30
0.0
 40
2.6000000000000001
  0
CIRCLE
  5
21E
100
AcDbEntity
  8
0
  6
CONTINUOUS
 62
               7
100
AcDbCircle
 10
31.5
 20
2.0
 30
0.0
 40
3.5
  0
LINE
  5
21F
100
AcDbEntity
  8
0
  6
CONTINUOUS
 62
               7
100
AcDbLine
 10
14.500000004768367
 20
2.5773502697635351
 30
0.0
 11
15.500000016689313
 21
3.1547005464721423
 31
0.0
  0
LINE
  5
220
100
AcDbEntity
  8
0
  6
CONTINUOUS
 62
               7
100
AcDbLine
 10
14.500000001887173
 20
1.4226497352268623
 30
0.0
 11
14.500000001336019
 21
2.577350287689427
 31
0.0
  0
LINE
  5
221
100
AcDbEntity
  8
0
  6
CONTINUOUS
 62
               7
100
AcDbLine
 10
15.499999997118806
 20
0.8452994654633272
 30
0.0
 11
14.499999984646706
 21
1.4226497412172918
 31
0.0
  0
LINE
  5
222
100
AcDbEntity
  8
0
  6
CONTINUOUS
 62
               7
100
AcDbLine
 10
16.499999995231633
 20
1.4226497302364649
 30
0.0
 11
15.499999983310687
 21
0.8452994535278577
 31
0.0
  0
LINE
  5
223
100
AcDbEntity
  8
0
  6
CONTINUOUS
 62
               7
100
AcDbLine
 10
16.499999998112827
 20
2.5773502647731377
 30
0.0
 11
16.499999998663981
 21
1.422649712310573
 31
0.0
  0
LINE
  5
224
100
AcDbEntity
  8
0
  6
CONTINUOUS
 62
               7
100
AcDbLine
 10
15.500000002881194
 20
3.1547005345366728
 30
0.0
 11
16.500000015353294
 21
2.5773502587827153
 31
0.0
  0
CIRCLE
  5
225
100
AcDbEntity
  8
0
  6
CONTINUOUS
 62
               7
100
AcDbCircle
 10
15.5
 20
2.0
 30
0.0
 40
2.6000000000000001
  0
CIRCLE
  5
226
100
AcDbEntity
  8
0
  6
CONTINUOUS
 62
               7
100
AcDbCircle
 10
15.5
 20
2.0
 30
0.0
 40
3.5
  0
CIRCLE
  5
227
100
AcDbEntity
  8
0
  6
CONTINUOUS
 62
               7
100
AcDbCircle
 10
15.5
 20
2.0
 30
0.0
 40
4.25
  0
CIRCLE
  5
228
100
AcDbEntity
  8
0
  6
CONTINUOUS
 62
               7
100
AcDbCircle
 10
31.5
 20
2.0
 30
0.0
 40
4.25
  0
CIRCLE
  5
229
100
AcDbEntity
  8
0
  6
CONTINUOUS
 62
               7
100
AcDbCircle
 10
0.0
 20
0.0
 30
0.0
 40
1.7
  0
LINE
  5
22A
100
AcDbEntity
  8
0
  6
CONTINUOUS
 62
               7
100
AcDbLine
 10
-3.0
 20
8.5
 30
0.0
 11
-3.0
 21
-3.0
 31
0.0
  0
LINE
  5
22B
100
AcDbEntity
  8
0
  6
CONTINUOUS
 62
               7
100
AcDbLine
 10
-3.0
 20
8.5
 30
0.0
 11
50.0
 21
8.5
 31
0.0
  0
LINE
  5
22C
100
AcDbEntity
  8
0
  6
CONTINUOUS
 62
               2
100
AcDbLine
 10
0.0
 20
-2.7000000000000028
 30
0.0
 11
0.0
 21
2.7000000000000028
 31
0.0
  0
LINE
  5
22D
100
AcDbEntity
  8
0
  6
CONTINUOUS
 62
               2
100
AcDbLine
 10
-2.7000000000000171
 20
0.0
 30
0.0
 11
2.7000000000000171
 21
0.0
 31
0.0
  0
LINE
  5
22E
100
AcDbEntity
  8
0
  6
CONTINUOUS
 62
               2
100
AcDbLine
 10
47.0
 20
-2.7000000000000028
 30
0.0
 11
47.0
 21
2.7000000000000028
 31
0.0
  0
LINE
  5
22F
100
AcDbEntity
  8
0
  6
CONTINUOUS
 62
               2
100
AcDbLine
 10
49.700000000000017
 20
0.0
 30
0.0
 11
44.299999999999983
 21
0.0
 31
0.0
  0
LINE
  5
230
100
AcDbEntity
  8
0
  6
CONTINUOUS
 62
               7
100
AcDbLine
 10
50.0
 20
8.5
 30
0.0
 11
50.0
 21
-3.0
 31
0.0
  0
LINE
  5
231
100
AcDbEntity
  8
0
  6
CONTINUOUS
 62
               7
100
AcDbLine
 10
-3.0
 20
-3.0
 30
0.0
 11
50.0
 21
-3.0
 31
0.0
  0
CIRCLE
  5
232
100
AcDbEntity
  8
0
  6
CONTINUOUS
 62
               7
100
AcDbCircle
 10
47.0
 20
0.0
 30
0.0
 40
1.7
  0
LINE
  5
233
100
AcDbEntity
  8
0
  6
CONTINUOUS
 62
               7
100
AcDbLine
 10
38.500000000000057
 20
8.6999999999999886
 30
0.0
 11
38.500000000000057
 21
8.5
 31
0.0
  0
LINE
  5
234
100
AcDbEntity
  8
0
  6
CONTINUOUS
 62
               7
100
AcDbLine
 10
38.000000001754472
 20
8.6999999999999886
 30
0.0
 11
38.500000001754472
 21
8.6999999999999886
 31
0.0
  0
LINE
  5
235
100
AcDbEntity
  8
0
  6
CONTINUOUS
 62
               7
100
AcDbLine
 10
0.0000000000000568
 20
9.0
 30
0.0
 11
38.000000000000057
 21
9.0
 31
0.0
  0
LINE
  5
236
100
AcDbEntity
  8
0
  6
CONTINUOUS
 62
               7
100
AcDbLine
 10
38.000000000000057
 20
8.5
 30
0.0
 11
38.000000000000057
 21
9.0
 31
0.0
  0
LINE
  5
237
100
AcDbEntity
  8
0
  6
CONTINUOUS
 62
               7
100
AcDbLine
 10
-0.0000000241438443
 20
8.5
 30
0.0
 11
-0.0000000241438443
 21
8.9999999863093905
 31
0.0
  0
LINE
  5
238
100
AcDbEntity
  8
0
  6
CONTINUOUS
 62
               2
100
AcDbLine
 10
44.5
 20
6.0
 30
0.0
 11
49.5
 21
6.0
 31
0.0
  0
LINE
  5
239
100
AcDbEntity
  8
0
  6
CONTINUOUS
 62
               2
100
AcDbLine
 10
47.0
 20
3.5
 30
0.0
 11
47.0
 21
8.5
 31
0.0
  0
CIRCLE
  5
23A
100
AcDbEntity
  8
0
  6
CONTINUOUS
 62
               7
100
AcDbCircle
 10
47.0
 20
6.0
 30
0.0
 40
1.5
  0
LINE
  5
23B
100
AcDbEntity
  8
0
  6
CONTINUOUS
 62
               2
100
AcDbLine
 10
-2.5
 20
6.0
 30
0.0
 11
2.5
 21
6.0
 31
0.0
  0
LINE
  5
23C
100
AcDbEntity
  8
0
  6
CONTINUOUS
 62
               2
100
AcDbLine
 10
0.0
 20
3.5
 30
0.0
 11
0.0
 21
8.5
 31
0.0
  0
CIRCLE
  5
23D
100
AcDbEntity
  8
0
  6
CONTINUOUS
 62
               7
100
AcDbCircle
 10
0.0
 20
6.0
 30
0.0
 40
1.5
  0
LINE
  5
23E
100
AcDbEntity
  8
0
  6
CONTINUOUS
 62
               2
100
AcDbLine
 10
-16.499999999999943
 20
2.5
 30
0.0
 11
-11.499999999999943
 21
2.5
 31
0.0
  0
ENDBLK
  5
23F
100
AcDbEntity
  8
0
100
AcDbBlockEnd
  0
BLOCK
  5
240
100
AcDbEntity
  8
0
100
AcDbBlockBegin
  2
MGALGS4_5-6
 70
               0
 10
0.0
 20
0.0
 30
0.0
  3
MGALGS4_5-6
  1

  0
LINE
  5
241
100
AcDbEntity
  8
0
  6
CONTINUOUS
 62
               7
100
AcDbLine
 10
-13.999999999999943
 20
-21.299999999999997
 30
0.0
 11
-7.6999999999998749
 21
-21.299999999999997
 31
0.0
  0
LINE
  5
242
100
AcDbEntity
  8
0
  6
CONTINUOUS
 62
               7
100
AcDbLine
 10
-13.999999999999943
 20
-14.699999999999989
 30
0.0
 11
-7.6999999999998749
 21
-14.699999999999989
 31
0.0
  0
LINE
  5
243
100
AcDbEntity
  8
0
  6
CONTINUOUS
 62
               7
100
AcDbLine
 10
-7.6999999999998749
 20
-19.899999999999991
 30
0.0
 11
-5.9999999999998863
 21
-19.899999999999991
 31
0.0
  0
LINE
  5
244
100
AcDbEntity
  8
0
  6
CONTINUOUS
 62
               7
100
AcDbLine
 10
-7.6999999999998749
 20
-16.099999999999994
 30
0.0
 11
-5.9999999999998863
 21
-16.099999999999994
 31
0.0
  0
LINE
  5
245
100
AcDbEntity
  8
0
  6
CONTINUOUS
 62
               7
100
AcDbLine
 10
3.5000000000000568
 20
-14.699999999999989
 30
0.0
 11
3.5000000000000568
 21
-17.0
 31
0.0
  0
LINE
  5
246
100
AcDbEntity
  8
0
  6
CONTINUOUS
 62
               7
100
AcDbLine
 10
3.0000000000000568
 20
-17.0
 30
0.0
 11
3.0000000000000568
 21
-15.799999999999997
 31
0.0
  0
LINE
  5
247
100
AcDbEntity
  8
0
  6
CONTINUOUS
 62
               7
100
AcDbLine
 10
3.5000000000000568
 20
-14.699999999999989
 30
0.0
 11
4.0000000000000568
 21
-14.699999999999989
 31
0.0
  0
LINE
  5
248
100
AcDbEntity
  8
0
  6
CONTINUOUS
 62
               7
100
AcDbLine
 10
3.5000000000000568
 20
-16.5
 30
0.0
 11
4.0000000000000568
 21
-16.5
 31
0.0
  0
LINE
  5
249
100
AcDbEntity
  8
0
  6
CONTINUOUS
 62
               7
100
AcDbLine
 10
3.5000000000000568
 20
-15.5
 30
0.0
 11
3.3000000000000682
 21
-15.5
 31
0.0
  0
ARC
  5
24A
100
AcDbEntity
  8
0
  6
CONTINUOUS
 62
               7
100
AcDbCircle
 10
3.3000000000000682
 20
-15.799999999999997
 30
0.0
 40
0.3
100
AcDbArc
 50
90.0
 51
180.0
  0
LINE
  5
24B
100
AcDbEntity
  8
0
  6
CONTINUOUS
 62
               7
100
AcDbLine
 10
3.5000000000000568
 20
-19.0
 30
0.0
 11
3.5000000000000568
 21
-21.299999999999997
 31
0.0
  0
LINE
  5
24C
100
AcDbEntity
  8
0
  6
CONTINUOUS
 62
               7
100
AcDbLine
 10
3.0000000000000568
 20
-20.200000000000003
 30
0.0
 11
3.0000000000000568
 21
-19.0
 31
0.0
  0
LINE
  5
24D
100
AcDbEntity
  8
0
  6
CONTINUOUS
 62
               7
100
AcDbLine
 10
3.5000000000000568
 20
-21.299999999999997
 30
0.0
 11
4.0000000000000568
 21
-21.299999999999997
 31
0.0
  0
LINE
  5
24E
100
AcDbEntity
  8
0
  6
CONTINUOUS
 62
               7
100
AcDbLine
 10
3.5000000000000568
 20
-19.5
 30
0.0
 11
4.0000000000000568
 21
-19.5
 31
0.0
  0
ARC
  5
24F
100
AcDbEntity
  8
0
  6
CONTINUOUS
 62
               7
100
AcDbCircle
 10
3.3000000000000682
 20
-20.200000000000003
 30
0.0
 40
0.3
100
AcDbArc
 50
180.0
 51
270.0
  0
LINE
  5
250
100
AcDbEntity
  8
0
  6
CONTINUOUS
 62
               7
100
AcDbLine
 10
3.5000000000000568
 20
-20.5
 30
0.0
 11
3.3000000000000682
 21
-20.5
 31
0.0
  0
CIRCLE
  5
251
100
AcDbEntity
  8
0
  6
CONTINUOUS
 62
               7
100
AcDbCircle
 10
-5.0699999999998795
 20
-15.629999999999995
 30
0.0
 40
0.129999999999999
  0
CIRCLE
  5
252
100
AcDbEntity
  8
0
  6
CONTINUOUS
 62
               7
100
AcDbCircle
 10
1.6700000000001296
 20
-15.629999999999995
 30
0.0
 40
0.129999999999999
  0
LINE
  5
253
100
AcDbEntity
  8
0
  6
PHANTOM
 62
               2
100
AcDbLine
 10
-5.0699999999998795
 20
-15.760000000000005
 30
0.0
 11
1.6700000000001296
 21
-15.760000000000005
 31
0.0
  0
LINE
  5
254
100
AcDbEntity
  8
0
  6
PHANTOM
 62
               2
100
AcDbLine
 10
-5.0699999999998795
 20
-15.5
 30
0.0
 11
1.6500000000001194
 21
-15.5
 31
0.0
  0
CIRCLE
  5
255
100
AcDbEntity
  8
0
  6
CONTINUOUS
 62
               7
100
AcDbCircle
 10
-5.0699999999998795
 20
-20.370000000000005
 30
0.0
 40
0.129999999999999
  0
CIRCLE
  5
256
100
AcDbEntity
  8
0
  6
CONTINUOUS
 62
               7
100
AcDbCircle
 10
1.6700000000001296
 20
-20.370000000000005
 30
0.0
 40
0.129999999999999
  0
LINE
  5
257
100
AcDbEntity
  8
0
  6
PHANTOM
 62
               2
100
AcDbLine
 10
-5.0699999999998795
 20
-20.239999999999995
 30
0.0
 11
1.6700000000001296
 21
-20.239999999999995
 31
0.0
  0
LINE
  5
258
100
AcDbEntity
  8
0
  6
PHANTOM
 62
               2
100
AcDbLine
 10
-5.0699999999998795
 20
-20.5
 30
0.0
 11
1.6500000000001194
 21
-20.5
 31
0.0
  0
LINE
  5
259
100
AcDbEntity
  8
0
  6
CONTINUOUS
 62
               7
100
AcDbLine
 10
1.8000000000001251
 20
-15.25
 30
0.0
 11
1.8000000000001251
 21
-20.75
 31
0.0
  0
LINE
  5
25A
100
AcDbEntity
  8
0
  6
CONTINUOUS
 62
               7
100
AcDbLine
 10
-5.1999999999998749
 20
-15.100000000000009
 30
0.0
 11
-5.1999999999998749
 21
-20.899999999999991
 31
0.0
  0
LINE
  5
25B
100
AcDbEntity
  8
0
  6
CONTINUOUS
 62
               7
100
AcDbLine
 10
0.5000000000001421
 20
-16.0
 30
0.0
 11
1.8000000000001251
 21
-16.0
 31
0.0
  0
LINE
  5
25C
100
AcDbEntity
  8
0
  6
CONTINUOUS
 62
               7
100
AcDbLine
 10
-3.6999999999998465
 20
-16.0
 30
0.0
 11
-5.1999999999998749
 21
-16.0
 31
0.0
  0
LINE
  5
25D
100
AcDbEntity
  8
0
  6
CONTINUOUS
 62
               7
100
AcDbLine
 10
-5.1999999999998749
 20
-15.100000000000009
 30
0.0
 11
-5.9999999999998863
 21
-15.100000000000009
 31
0.0
  0
LINE
  5
25E
100
AcDbEntity
  8
0
  6
CONTINUOUS
 62
               7
100
AcDbLine
 10
-3.6999999999998465
 20
-16.0
 30
0.0
 11
-3.6999999999998465
 21
-20.0
 31
0.0
  0
LINE
  5
25F
100
AcDbEntity
  8
0
  6
CONTINUOUS
 62
               7
100
AcDbLine
 10
0.5000000000001421
 20
-16.0
 30
0.0
 11
0.5000000000001421
 21
-20.0
 31
0.0
  0
LINE
  5
260
100
AcDbEntity
  8
0
  6
CONTINUOUS
 62
               7
100
AcDbLine
 10
-7.6999999999998749
 20
-16.5
 30
0.0
 11
-5.9999999999998863
 21
-16.5
 31
0.0
  0
LINE
  5
261
100
AcDbEntity
  8
0
  6
CONTINUOUS
 62
               2
100
AcDbLine
 10
2.5000000000001137
 20
-18.850000000000009
 30
0.0
 11
2.759807621135451
 21
-19.0
 31
0.0
  0
LINE
  5
262
100
AcDbEntity
  8
0
  6
CONTINUOUS
 62
               2
100
AcDbLine
 10
2.5000000000001137
 20
-17.149999999999991
 30
0.0
 11
2.759807621135451
 21
-17.0
 31
0.0
  0
LINE
  5
263
100
AcDbEntity
  8
0
  6
CONTINUOUS
 62
               7
100
AcDbLine
 10
-5.1999999999998749
 20
-20.899999999999991
 30
0.0
 11
-5.9999999999998863
 21
-20.899999999999991
 31
0.0
  0
LINE
  5
264
100
AcDbEntity
  8
0
  6
CONTINUOUS
 62
               7
100
AcDbLine
 10
-3.6999999999998465
 20
-20.0
 30
0.0
 11
-5.1999999999998749
 21
-20.0
 31
0.0
  0
LINE
  5
265
100
AcDbEntity
  8
0
  6
CONTINUOUS
 62
               7
100
AcDbLine
 10
0.5000000000001421
 20
-20.0
 30
0.0
 11
1.8000000000001251
 21
-20.0
 31
0.0
  0
LINE
  5
266
100
AcDbEntity
  8
0
  6
CONTINUOUS
 62
               7
100
AcDbLine
 10
2.5000000000001137
 20
-17.0
 30
0.0
 11
4.0000000000000568
 21
-17.0
 31
0.0
  0
LINE
  5
267
100
AcDbEntity
  8
0
  6
CONTINUOUS
 62
               7
100
AcDbLine
 10
2.5000000000001137
 20
-19.0
 30
0.0
 11
4.0000000000000568
 21
-19.0
 31
0.0
  0
LINE
  5
268
100
AcDbEntity
  8
0
  6
CONTINUOUS
 62
               7
100
AcDbLine
 10
-9.6999999999998749
 20
-15.200000000000003
 30
0.0
 11
-7.6999999999998749
 21
-15.200000000000003
 31
0.0
  0
LINE
  5
269
100
AcDbEntity
  8
0
  6
CONTINUOUS
 62
               7
100
AcDbLine
 10
-9.6999999999998749
 20
-20.799999999999997
 30
0.0
 11
-7.6999999999998749
 21
-20.799999999999997
 31
0.0
  0
LINE
  5
26A
100
AcDbEntity
  8
0
  6
CONTINUOUS
 62
               7
100
AcDbLine
 10
-7.6999999999998749
 20
-21.299999999999997
 30
0.0
 11
-7.6999999999998749
 21
-14.699999999999989
 31
0.0
  0
LINE
  5
26B
100
AcDbEntity
  8
0
  6
CONTINUOUS
 62
               7
100
AcDbLine
 10
-9.6999999999998749
 20
-15.200000000000003
 30
0.0
 11
-9.6999999999998749
 21
-20.799999999999997
 31
0.0
  0
LINE
  5
26C
100
AcDbEntity
  8
0
  6
CONTINUOUS
 62
               7
100
AcDbLine
 10
-7.6999999999998749
 20
-19.5
 30
0.0
 11
-5.9999999999998863
 21
-19.5
 31
0.0
  0
LINE
  5
26D
100
AcDbEntity
  8
0
  6
CONTINUOUS
 62
               7
100
AcDbLine
 10
-3.6999999999998465
 20
-16.5
 30
0.0
 11
0.5000000000001421
 21
-16.5
 31
0.0
  0
LINE
  5
26E
100
AcDbEntity
  8
0
  6
CONTINUOUS
 62
               7
100
AcDbLine
 10
-3.6999999999998465
 20
-19.5
 30
0.0
 11
0.5000000000001421
 21
-19.5
 31
0.0
  0
LINE
  5
26F
100
AcDbEntity
  8
0
  6
CONTINUOUS
 62
               7
100
AcDbLine
 10
-5.9999999999998863
 20
-14.535898384862236
 30
0.0
 11
0.9999999783935039
 21
-14.535898384862236
 31
0.0
  0
LINE
  5
270
100
AcDbEntity
  8
0
  6
CONTINUOUS
 62
               7
100
AcDbLine
 10
-5.9999999999998863
 20
-21.464101615137764
 30
0.0
 11
0.9999999783935039
 21
-21.464101615137764
 31
0.0
  0
LINE
  5
271
100
AcDbEntity
  8
0
  6
CONTINUOUS
 62
               7
100
AcDbLine
 10
2.5000000000001137
 20
-20.400000000000006
 30
0.0
 11
2.5000000000001137
 21
-15.599999999999994
 31
0.0
  0
LINE
  5
272
100
AcDbEntity
  8
0
  6
CONTINUOUS
 62
               7
100
AcDbLine
 10
0.9999999783935039
 20
-14.599999999999994
 30
0.0
 11
4.0000000000000568
 21
-14.599999999999994
 31
0.0
  0
LINE
  5
273
100
AcDbEntity
  8
0
  6
CONTINUOUS
 62
               7
100
AcDbLine
 10
0.9999999783935039
 20
-21.400000000000006
 30
0.0
 11
4.0000000000000568
 21
-21.400000000000006
 31
0.0
  0
LINE
  5
274
100
AcDbEntity
  8
0
  6
CONTINUOUS
 62
               7
100
AcDbLine
 10
1.8000000000001251
 20
-15.25
 30
0.0
 11
2.3000000000000966
 21
-15.25
 31
0.0
  0
LINE
  5
275
100
AcDbEntity
  8
0
  6
CONTINUOUS
 62
               7
100
AcDbLine
 10
1.8000000000001251
 20
-20.75
 30
0.0
 11
2.3000000000000966
 21
-20.75
 31
0.0
  0
LINE
  5
276
100
AcDbEntity
  8
0
  6
CONTINUOUS
 62
               7
100
AcDbLine
 10
2.3000000000000966
 20
-20.75
 30
0.0
 11
2.3000000000000966
 21
-15.25
 31
0.0
  0
LINE
  5
277
100
AcDbEntity
  8
0
  6
CONTINUOUS
 62
               7
100
AcDbLine
 10
2.3000000000000966
 20
-15.599999999999994
 30
0.0
 11
2.5000000000001137
 21
-15.599999999999994
 31
0.0
  0
LINE
  5
278
100
AcDbEntity
  8
0
  6
CONTINUOUS
 62
               7
100
AcDbLine
 10
2.3000000000000966
 20
-20.400000000000006
 30
0.0
 11
2.5000000000001137
 21
-20.400000000000006
 31
0.0
  0
LINE
  5
279
100
AcDbEntity
  8
0
  6
CONTINUOUS
 62
               7
100
AcDbLine
 10
0.9999999783935039
 20
-16.0
 30
0.0
 11
0.9999999783935039
 21
-8.9999999754709563
 31
0.0
  0
LINE
  5
27A
100
AcDbEntity
  8
0
  6
CONTINUOUS
 62
               7
100
AcDbLine
 10
0.9999999783935039
 20
-26.999999975470956
 30
0.0
 11
0.9999999783935039
 21
-20.0
 31
0.0
  0
LINE
  5
27B
100
AcDbEntity
  8
0
  6
CONTINUOUS
 62
               7
100
AcDbLine
 10
-5.9999999999998863
 20
-27.0
 30
0.0
 11
-5.9999999999998863
 21
-9.0
 31
0.0
  0
LINE
  5
27C
100
AcDbEntity
  8
0
  6
CONTINUOUS
 62
               7
100
AcDbLine
 10
-13.999999999999943
 20
-9.0
 30
0.0
 11
-13.999999999999943
 21
-27.0
 31
0.0
  0
LINE
  5
27D
100
AcDbEntity
  8
0
  6
CONTINUOUS
 62
               2
100
AcDbLine
 10
8.9500000000000455
 20
-11.5
 30
0.0
 11
13.050000000000068
 21
-11.5
 31
0.0
  0
LINE
  5
27E
100
AcDbEntity
  8
0
  6
CONTINUOUS
 62
               2
100
AcDbLine
 10
11.000000000000057
 20
-10.224104550016236
 30
0.0
 11
11.000000000000057
 21
-13.549999999999983
 31
0.0
  0
LINE
  5
27F
100
AcDbEntity
  8
0
  6
CONTINUOUS
 62
               2
100
AcDbLine
 10
24.950000000000045
 20
-11.5
 30
0.0
 11
29.050000000000068
 21
-11.5
 31
0.0
  0
LINE
  5
280
100
AcDbEntity
  8
0
  6
CONTINUOUS
 62
               2
100
AcDbLine
 10
27.000000000000057
 20
-10.224104550016236
 30
0.0
 11
27.000000000000057
 21
-13.549999999999983
 31
0.0
  0
ARC
  5
281
100
AcDbEntity
  8
0
  6
CONTINUOUS
 62
               7
100
AcDbCircle
 10
19.000000000000057
 20
-11.75
 30
0.0
 40
1.5
100
AcDbArc
 50
0.0
 51
29.999999647995612
  0
ARC
  5
282
100
AcDbEntity
  8
0
  6
CONTINUOUS
 62
               7
100
AcDbCircle
 10
19.000000000000057
 20
-11.75
 30
0.0
 40
1.5
100
AcDbArc
 50
150.00000035200438
 51
180.0
  0
LINE
  5
283
100
AcDbEntity
  8
0
  6
CONTINUOUS
 62
               7
100
AcDbLine
 10
20.500000000000057
 20
-11.75
 30
0.0
 11
20.500000000000057
 21
-12.25
 31
0.0
  0
LINE
  5
284
100
AcDbEntity
  8
0
  6
CONTINUOUS
 62
               7
100
AcDbLine
 10
17.500000000000057
 20
-11.75
 30
0.0
 11
17.500000000000057
 21
-12.25
 31
0.0
  0
ARC
  5
285
100
AcDbEntity
  8
0
  6
CONTINUOUS
 62
               7
100
AcDbCircle
 10
19.000000000000057
 20
-12.25
 30
0.0
 40
1.5
100
AcDbArc
 50
180.0
 51
0.0
  0
CIRCLE
  5
286
100
AcDbEntity
  8
0
  6
CONTINUOUS
 62
               7
100
AcDbCircle
 10
19.000000000000057
 20
-24.0
 30
0.0
 40
1.5
  0
LINE
  5
287
100
AcDbEntity
  8
0
  6
CONTINUOUS
 62
               7
100
AcDbLine
 10
4.0000000000000568
 20
-20.400000000000006
 30
0.0
 11
38.000000000000057
 21
-20.400000000000006
 31
0.0
  0
LINE
  5
288
100
AcDbEntity
  8
0
  6
CONTINUOUS
 62
               7
100
AcDbLine
 10
4.0000000000000568
 20
-20.700000000000017
 30
0.0
 11
38.000000000000057
 21
-20.700000000000017
 31
0.0
  0
LINE
  5
289
100
AcDbEntity
  8
0
  6
CONTINUOUS
 62
               7
100
AcDbLine
 10
4.0000000000000568
 20
-15.599999999999994
 30
0.0
 11
38.000000000000057
 21
-15.599999999999994
 31
0.0
  0
LINE
  5
28A
100
AcDbEntity
  8
0
  6
CONTINUOUS
 62
               7
100
AcDbLine
 10
4.0000000000000568
 20
-15.299999999999983
 30
0.0
 11
38.000000000000057
 21
-15.299999999999983
 31
0.0
  0
LINE
  5
28B
100
AcDbEntity
  8
0
  6
CONTINUOUS
 62
               2
100
AcDbLine
 10
24.950000000000045
 20
-24.5
 30
0.0
 11
29.050000000000068
 21
-24.5
 31
0.0
  0
LINE
  5
28C
100
AcDbEntity
  8
0
  6
CONTINUOUS
 62
               2
100
AcDbLine
 10
27.000000000000057
 20
-26.549999999999983
 30
0.0
 11
27.000000000000057
 21
-22.450000000000017
 31
0.0
  0
CIRCLE
  5
28D
100
AcDbEntity
  8
0
  6
CONTINUOUS
 62
               7
100
AcDbCircle
 10
27.000000000000057
 20
-24.5
 30
0.0
 40
1.05
  0
CIRCLE
  5
28E
100
AcDbEntity
  8
0
  6
CONTINUOUS
 62
               2
100
AcDbCircle
 10
27.000000000000057
 20
-24.5
 30
0.0
 40
1.25
  0
ARC
  5
28F
100
AcDbEntity
  8
0
  6
CONTINUOUS
 62
               7
100
AcDbCircle
 10
27.000000000000057
 20
-11.5
 30
0.0
 40
1.05
100
AcDbArc
 50
151.56311034639265
 51
28.436889653607345
  0
ARC
  5
290
100
AcDbEntity
  8
0
  6
CONTINUOUS
 62
               2
100
AcDbCircle
 10
27.000000000000057
 20
-11.5
 30
0.0
 40
1.25
100
AcDbArc
 50
156.4218219209335
 51
23.578178079066532
  0
ARC
  5
291
100
AcDbEntity
  8
0
  6
CONTINUOUS
 62
               7
100
AcDbCircle
 10
11.000000000000057
 20
-11.5
 30
0.0
 40
1.05
100
AcDbArc
 50
151.56311034639265
 51
28.436889653607345
  0
ARC
  5
292
100
AcDbEntity
  8
0
  6
CONTINUOUS
 62
               2
100
AcDbCircle
 10
11.000000000000057
 20
-11.5
 30
0.0
 40
1.25
100
AcDbArc
 50
156.4218219209335
 51
23.578178079066532
  0
LINE
  5
293
100
AcDbEntity
  8
0
  6
CONTINUOUS
 62
               2
100
AcDbLine
 10
8.9500000000000455
 20
-24.5
 30
0.0
 11
13.050000000000068
 21
-24.5
 31
0.0
  0
LINE
  5
294
100
AcDbEntity
  8
0
  6
CONTINUOUS
 62
               2
100
AcDbLine
 10
11.000000000000057
 20
-26.549999999999983
 30
0.0
 11
11.000000000000057
 21
-22.450000000000017
 31
0.0
  0
CIRCLE
  5
295
100
AcDbEntity
  8
0
  6
CONTINUOUS
 62
               7
100
AcDbCircle
 10
11.000000000000057
 20
-24.5
 30
0.0
 40
1.05
  0
CIRCLE
  5
296
100
AcDbEntity
  8
0
  6
CONTINUOUS
 62
               2
100
AcDbCircle
 10
11.000000000000057
 20
-24.5
 30
0.0
 40
1.25
  0
LINE
  5
297
100
AcDbEntity
  8
0
  6
CONTINUOUS
 62
               2
100
AcDbLine
 10
19.000000000000057
 20
-10.224104550016236
 30
0.0
 11
19.000000000000057
 21
-14.549999999999983
 31
0.0
  0
LINE
  5
298
100
AcDbEntity
  8
0
  6
CONTINUOUS
 62
               2
100
AcDbLine
 10
21.300000000000068
 20
-12.0
 30
0.0
 11
16.700000000000045
 21
-12.0
 31
0.0
  0
LINE
  5
299
100
AcDbEntity
  8
0
  6
CONTINUOUS
 62
               2
100
AcDbLine
 10
19.000000000000057
 20
-21.700000000000017
 30
0.0
 11
19.000000000000057
 21
-26.299999999999997
 31
0.0
  0
LINE
  5
29A
100
AcDbEntity
  8
0
  6
CONTINUOUS
 62
               2
100
AcDbLine
 10
21.300000000000068
 20
-24.0
 30
0.0
 11
16.700000000000045
 21
-24.0
 31
0.0
  0
LINE
  5
29B
100
AcDbEntity
  8
0
  6
CONTINUOUS
 62
               7
100
AcDbLine
 10
3.9999999758561557
 20
-9.5000000136905953
 30
0.0
 11
5.0
 21
-9.5000000136905953
 31
0.0
  0
LINE
  5
29C
100
AcDbEntity
  8
0
  6
CENTER
 62
               2
100
AcDbLine
 10
-16.566477573777803
 20
-18.0
 30
0.0
 11
45.179379972791168
 21
-18.0
 31
0.0
  0
LINE
  5
29D
100
AcDbEntity
  8
0
  6
CONTINUOUS
 62
               7
100
AcDbLine
 10
3.9999999758561557
 20
-26.499999986309405
 30
0.0
 11
38.000000000000057
 21
-26.499999986309405
 31
0.0
  0
LINE
  5
29E
100
AcDbEntity
  8
0
  6
CONTINUOUS
 62
               7
100
AcDbLine
 10
4.0000000000000568
 20
-36.49999998630949
 30
0.0
 11
4.0000000000000568
 21
-9.5000000136905953
 31
0.0
  0
LINE
  5
29F
100
AcDbEntity
  8
0
  6
CONTINUOUS
 62
               7
100
AcDbLine
 10
38.000000000000057
 20
-36.49999998630949
 30
0.0
 11
38.000000000000057
 21
-11.000000007980816
 31
0.0
  0
LINE
  5
2A0
100
AcDbEntity
  8
0
  6
CONTINUOUS
 62
               7
100
AcDbLine
 10
-13.999999999999943
 20
-9.0
 30
0.0
 11
5.0
 21
-9.0
 31
0.0
  0
LINE
  5
2A1
100
AcDbEntity
  8
0
  6
CONTINUOUS
 62
               7
100
AcDbLine
 10
5.0
 20
-11.000000007980816
 30
0.0
 11
42.0
 21
-11.000000007980816
 31
0.0
  0
LINE
  5
2A2
100
AcDbEntity
  8
0
  6
CONTINUOUS
 62
               7
100
AcDbLine
 10
-3.0
 20
0.0
 30
0.0
 11
50.0
 21
0.0
 31
0.0
  0
LINE
  5
2A3
100
AcDbEntity
  8
0
  6
CONTINUOUS
 62
               7
100
AcDbLine
 10
5.0
 20
-8.3000000000000114
 30
0.0
 11
5.0
 21
-11.000000007980816
 31
0.0
  0
LINE
  5
2A4
100
AcDbEntity
  8
0
  6
CONTINUOUS
 62
               7
100
AcDbLine
 10
42.0
 20
-8.3000000000000114
 30
0.0
 11
42.0
 21
-11.000000007980816
 31
0.0
  0
LINE
  5
2A5
100
AcDbEntity
  8
0
  6
CONTINUOUS
 62
               7
100
AcDbLine
 10
-3.0
 20
-8.3000000000000114
 30
0.0
 11
50.0
 21
-8.3000000000000114
 31
0.0
  0
LINE
  5
2A6
100
AcDbEntity
  8
0
  6
CONTINUOUS
 62
               7
100
AcDbLine
 10
-3.0
 20
-5.0
 30
0.0
 11
3.5
 21
-5.0
 31
0.0
  0
LINE
  5
2A7
100
AcDbEntity
  8
0
  6
CONTINUOUS
 62
               7
100
AcDbLine
 10
50.0
 20
0.0000000136905953
 30
0.0
 11
50.0
 21
-8.3000000000000114
 31
0.0
  0
LINE
  5
2A8
100
AcDbEntity
  8
0
  6
CONTINUOUS
 62
               7
100
AcDbLine
 10
-3.0
 20
0.0
 30
0.0
 11
-3.0
 21
-8.3000000000000114
 31
0.0
  0
LINE
  5
2A9
100
AcDbEntity
  8
0
  6
CONTINUOUS
 62
               7
100
AcDbLine
 10
3.5
 20
-4.9999999863094047
 30
0.0
 11
3.5
 21
-8.3000000000000114
 31
0.0
  0
LINE
  5
2AA
100
AcDbEntity
  8
0
  6
CONTINUOUS
 62
               2
100
AcDbLine
 10
13.800000000000011
 20
-5.9999999999999716
 30
0.0
 11
17.199999999999989
 21
-5.9999999999999716
 31
0.0
  0
LINE
  5
2AB
100
AcDbEntity
  8
0
  6
CONTINUOUS
 62
               2
100
AcDbLine
 10
15.5
 20
-4.2999999999999829
 30
0.0
 11
15.5
 21
-7.6999999999999886
 31
0.0
  0
LINE
  5
2AC
100
AcDbEntity
  8
0
  6
CONTINUOUS
 62
               2
100
AcDbLine
 10
31.5
 20
-4.2999999999999829
 30
0.0
 11
31.5
 21
-7.6999999999999886
 31
0.0
  0
LINE
  5
2AD
100
AcDbEntity
  8
0
  6
CONTINUOUS
 62
               2
100
AcDbLine
 10
29.800000000000011
 20
-5.9999999999999716
 30
0.0
 11
33.199999999999989
 21
-5.9999999999999716
 31
0.0
  0
LINE
  5
2AE
100
AcDbEntity
  8
0
  6
CONTINUOUS
 62
               7
100
AcDbLine
 10
43.000000000000057
 20
-10.0
 30
0.0
 11
43.000000000000057
 21
-26.0
 31
0.0
  0
LINE
  5
2AF
100
AcDbEntity
  8
0
  6
CONTINUOUS
 62
               7
100
AcDbLine
 10
38.000000000000057
 20
-26.0
 30
0.0
 11
43.000000000000057
 21
-26.0
 31
0.0
  0
LINE
  5
2B0
100
AcDbEntity
  8
0
  6
CONTINUOUS
 62
               7
100
AcDbLine
 10
43.5
 20
-4.9999999863094047
 30
0.0
 11
43.5
 21
-8.3000000000000114
 31
0.0
  0
LINE
  5
2B1
100
AcDbEntity
  8
0
  6
CONTINUOUS
 62
               7
100
AcDbLine
 10
50.0
 20
-5.0
 30
0.0
 11
43.5
 21
-5.0
 31
0.0
  0
LINE
  5
2B2
100
AcDbEntity
  8
0
  6
CONTINUOUS
 62
               7
100
AcDbLine
 10
42.0
 20
-10.0
 30
0.0
 11
43.000000000000057
 21
-10.0
 31
0.0
  0
CIRCLE
  5
2B3
100
AcDbEntity
  8
0
  6
CONTINUOUS
 62
               7
100
AcDbCircle
 10
15.5
 20
-5.9999999999999716
 30
0.0
 40
1.1000000000000001
  0
CIRCLE
  5
2B4
100
AcDbEntity
  8
0
  6
CONTINUOUS
 62
               7
100
AcDbCircle
 10
31.5
 20
-5.9999999999999716
 30
0.0
 40
1.1000000000000001
  0
LINE
  5
2B5
100
AcDbEntity
  8
0
  6
CONTINUOUS
 62
               7
100
AcDbLine
 10
-13.999999999999943
 20
-27.000000000000028
 30
0.0
 11
4.0000000000000568
 21
-27.000000000000028
 31
0.0
  0
LINE
  5
2B6
100
AcDbEntity
  8
0
  6
CONTINUOUS
 62
               7
100
AcDbLine
 10
10.0
 20
-26.499999986309405
 30
0.0
 11
10.0
 21
-30.499999986309405
 31
0.0
  0
LINE
  5
2B7
100
AcDbEntity
  8
0
  6
CONTINUOUS
 62
               7
100
AcDbLine
 10
32.0
 20
-26.499999986309405
 30
0.0
 11
32.0
 21
-30.499999986309405
 31
0.0
  0
LINE
  5
2B8
100
AcDbEntity
  8
0
  6
CONTINUOUS
 62
               7
100
AcDbLine
 10
28.0
 20
-29.699999986309422
 30
0.0
 11
24.0
 21
-29.699999986309422
 31
0.0
  0
LINE
  5
2B9
100
AcDbEntity
  8
0
  6
CONTINUOUS
 62
               7
100
AcDbLine
 10
28.0
 20
-27.000000000000028
 30
0.0
 11
28.0
 21
-29.699999986309422
 31
0.0
  0
LINE
  5
2BA
100
AcDbEntity
  8
0
  6
CONTINUOUS
 62
               7
100
AcDbLine
 10
24.0
 20
-27.000000000000028
 30
0.0
 11
24.0
 21
-29.699999986309422
 31
0.0
  0
LINE
  5
2BB
100
AcDbEntity
  8
0
  6
CONTINUOUS
 62
               7
100
AcDbLine
 10
30.900000000000034
 20
-29.999999986309405
 30
0.0
 11
30.600000000000023
 21
-29.699999986309422
 31
0.0
  0
LINE
  5
2BC
100
AcDbEntity
  8
0
  6
CONTINUOUS
 62
               7
100
AcDbLine
 10
32.0
 20
-29.999999986309405
 30
0.0
 11
30.900000000000034
 21
-29.999999986309405
 31
0.0
  0
LINE
  5
2BD
100
AcDbEntity
  8
0
  6
CONTINUOUS
 62
               7
100
AcDbLine
 10
32.0
 20
-29.699999986309422
 30
0.0
 11
30.600000000000023
 21
-29.699999986309422
 31
0.0
  0
LINE
  5
2BE
100
AcDbEntity
  8
0
  6
CONTINUOUS
 62
               7
100
AcDbLine
 10
30.600000000000023
 20
-29.699999986309422
 30
0.0
 11
30.600000000000023
 21
-27.999999986309405
 31
0.0
  0
LINE
  5
2BF
100
AcDbEntity
  8
0
  6
CONTINUOUS
 62
               7
100
AcDbLine
 10
32.0
 20
-27.999999986309405
 30
0.0
 11
17.5
 21
-27.999999986309405
 31
0.0
  0
LINE
  5
2C0
100
AcDbEntity
  8
0
  6
CONTINUOUS
 62
               7
100
AcDbLine
 10
17.5
 20
-27.999999964237219
 30
0.0
 11
17.5
 21
-27.000000000000028
 31
0.0
  0
LINE
  5
2C1
100
AcDbEntity
  8
0
  6
CONTINUOUS
 62
               7
100
AcDbLine
 10
17.600000000000023
 20
-29.699999986309422
 30
0.0
 11
17.600000000000023
 21
-27.999999986309405
 31
0.0
  0
LINE
  5
2C2
100
AcDbEntity
  8
0
  6
CONTINUOUS
 62
               7
100
AcDbLine
 10
17.899999999999977
 20
-29.999999986309405
 30
0.0
 11
17.600000000000023
 21
-29.699999986309422
 31
0.0
  0
LINE
  5
2C3
100
AcDbEntity
  8
0
  6
CONTINUOUS
 62
               7
100
AcDbLine
 10
17.600000000000023
 20
-29.699999986309422
 30
0.0
 11
21.399999999999977
 21
-29.699999986309422
 31
0.0
  0
LINE
  5
2C4
100
AcDbEntity
  8
0
  6
CONTINUOUS
 62
               7
100
AcDbLine
 10
21.399999999999977
 20
-29.699999986309422
 30
0.0
 11
21.399999999999977
 21
-27.999999986309405
 31
0.0
  0
LINE
  5
2C5
100
AcDbEntity
  8
0
  6
CONTINUOUS
 62
               7
100
AcDbLine
 10
17.899999999999977
 20
-29.999999986309405
 30
0.0
 11
21.099999999999966
 21
-29.999999986309405
 31
0.0
  0
LINE
  5
2C6
100
AcDbEntity
  8
0
  6
CONTINUOUS
 62
               7
100
AcDbLine
 10
21.099999999999966
 20
-29.999999986309405
 30
0.0
 11
21.399999999999977
 21
-29.699999986309422
 31
0.0
  0
LINE
  5
2C7
100
AcDbEntity
  8
0
  6
CONTINUOUS
 62
               7
100
AcDbLine
 10
10.0
 20
-27.000000000000028
 30
0.0
 11
32.0
 21
-27.000000000000028
 31
0.0
  0
LINE
  5
2C8
100
AcDbEntity
  8
0
  6
CONTINUOUS
 62
               7
100
AcDbLine
 10
10.0
 20
-30.499999986309405
 30
0.0
 11
32.0
 21
-30.499999986309405
 31
0.0
  0
LINE
  5
2C9
100
AcDbEntity
  8
0
  6
CONTINUOUS
 62
               7
100
AcDbLine
 10
4.0000000235398261
 20
-36.49999998630949
 30
0.0
 11
37.999999987777073
 21
-36.49999998630949
 31
0.0
  0
LINE
  5
2CA
100
AcDbEntity
  8
0
  6
CONTINUOUS
 62
               2
100
AcDbLine
 10
0.0
 20
-6.3348955231868729
 30
0.0
 11
0.0
 21
1.4225792252741485
 31
0.0
  0
LINE
  5
2CB
100
AcDbEntity
  8
0
  6
CONTINUOUS
 62
               2
100
AcDbLine
 10
47.0
 20
-6.3348955231868729
 30
0.0
 11
47.0
 21
1.4225792252741485
 31
0.0
  0
LINE
  5
2CC
100
AcDbEntity
  8
0
  6
CONTINUOUS
 62
               2
100
AcDbLine
 10
-16.499999999999943
 20
-12.0
 30
0.0
 11
-11.499999999999943
 21
-12.0
 31
0.0
  0
LINE
  5
2CD
100
AcDbEntity
  8
0
  6
CONTINUOUS
 62
               2
100
AcDbLine
 10
-16.499999999999943
 20
-24.0
 30
0.0
 11
-11.499999999999943
 21
-24.0
 31
0.0
  0
ENDBLK
  5
2CE
100
AcDbEntity
  8
0
100
AcDbBlockEnd
  0
BLOCK
  5
2CF
100
AcDbEntity
  8
0
100
AcDbBlockBegin
  2
MGALGS4_5-7
 70
               0
 10
0.0
 20
0.0
 30
0.0
  3
MGALGS4_5-7
  1

  0
LINE
  5
2D0
100
AcDbEntity
  8
0
  6
CONTINUOUS
 62
               2
100
AcDbLine
 10
0.0
 20
-1.8286109321398101
 30
0.0
 11
0.0
 21
6.1998555955354036
 31
0.0
  0
LINE
  5
2D1
100
AcDbEntity
  8
0
  6
CONTINUOUS
 62
               2
100
AcDbLine
 10
47.0
 20
-1.8286109321398101
 30
0.0
 11
47.0
 21
6.1998555955354036
 31
0.0
  0
LINE
  5
2D2
100
AcDbEntity
  8
0
  6
CONTINUOUS
 62
               2
100
AcDbLine
 10
63.500000002537234
 20
12.0
 30
0.0
 11
58.500000002537234
 21
12.0
 31
0.0
  0
LINE
  5
2D3
100
AcDbEntity
  8
0
  6
CONTINUOUS
 62
               2
100
AcDbLine
 10
63.500000002537234
 20
24.0
 30
0.0
 11
58.500000002537234
 21
24.0
 31
0.0
  0
LINE
  5
2D4
100
AcDbEntity
  8
0
  6
CONTINUOUS
 62
               7
100
AcDbLine
 10
23.000000002537234
 20
29.699999986309393
 30
0.0
 11
19.000000002537234
 21
29.699999986309393
 31
0.0
  0
LINE
  5
2D5
100
AcDbEntity
  8
0
  6
CONTINUOUS
 62
               7
100
AcDbLine
 10
12.500000002537234
 20
27.999999964237219
 30
0.0
 11
12.500000002537234
 21
27.0
 31
0.0
  0
LINE
  5
2D6
100
AcDbEntity
  8
0
  6
CONTINUOUS
 62
               7
100
AcDbLine
 10
19.000000002537234
 20
29.699999986309393
 30
0.0
 11
19.000000002537234
 21
27.999999964237219
 31
0.0
  0
LINE
  5
2D7
100
AcDbEntity
  8
0
  6
CONTINUOUS
 62
               7
100
AcDbLine
 10
23.000000002537234
 20
29.699999986309393
 30
0.0
 11
23.000000002537234
 21
27.999999964237219
 31
0.0
  0
LINE
  5
2D8
100
AcDbEntity
  8
0
  6
CONTINUOUS
 62
               7
100
AcDbLine
 10
29.500000002537234
 20
27.999999964237219
 30
0.0
 11
29.500000002537234
 21
27.0
 31
0.0
  0
LINE
  5
2D9
100
AcDbEntity
  8
0
  6
CONTINUOUS
 62
               7
100
AcDbLine
 10
16.400000002537212
 20
29.699999986309393
 30
0.0
 11
16.400000002537212
 21
27.99999998630939
 31
0.0
  0
LINE
  5
2DA
100
AcDbEntity
  8
0
  6
CONTINUOUS
 62
               7
100
AcDbLine
 10
12.6000000025372
 20
29.699999986309393
 30
0.0
 11
12.6000000025372
 21
27.99999998630939
 31
0.0
  0
LINE
  5
2DB
100
AcDbEntity
  8
0
  6
CONTINUOUS
 62
               7
100
AcDbLine
 10
16.1000000025372
 20
29.99999998630939
 30
0.0
 11
16.400000002537212
 21
29.699999986309393
 31
0.0
  0
LINE
  5
2DC
100
AcDbEntity
  8
0
  6
CONTINUOUS
 62
               7
100
AcDbLine
 10
12.900000002537212
 20
29.99999998630939
 30
0.0
 11
12.6000000025372
 21
29.699999986309393
 31
0.0
  0
LINE
  5
2DD
100
AcDbEntity
  8
0
  6
CONTINUOUS
 62
               7
100
AcDbLine
 10
12.900000002537212
 20
29.99999998630939
 30
0.0
 11
16.1000000025372
 21
29.99999998630939
 31
0.0
  0
LINE
  5
2DE
100
AcDbEntity
  8
0
  6
CONTINUOUS
 62
               7
100
AcDbLine
 10
12.6000000025372
 20
29.699999986309393
 30
0.0
 11
16.400000002537212
 21
29.699999986309393
 31
0.0
  0
LINE
  5
2DF
100
AcDbEntity
  8
0
  6
CONTINUOUS
 62
               7
100
AcDbLine
 10
29.400000002537212
 20
29.699999986309393
 30
0.0
 11
29.400000002537212
 21
27.99999998630939
 31
0.0
  0
LINE
  5
2E0
100
AcDbEntity
  8
0
  6
CONTINUOUS
 62
               7
100
AcDbLine
 10
25.6000000025372
 20
29.699999986309393
 30
0.0
 11
25.6000000025372
 21
27.99999998630939
 31
0.0
  0
LINE
  5
2E1
100
AcDbEntity
  8
0
  6
CONTINUOUS
 62
               7
100
AcDbLine
 10
29.1000000025372
 20
29.99999998630939
 30
0.0
 11
29.400000002537212
 21
29.699999986309393
 31
0.0
  0
LINE
  5
2E2
100
AcDbEntity
  8
0
  6
CONTINUOUS
 62
               7
100
AcDbLine
 10
25.900000002537212
 20
29.99999998630939
 30
0.0
 11
25.6000000025372
 21
29.699999986309393
 31
0.0
  0
LINE
  5
2E3
100
AcDbEntity
  8
0
  6
CONTINUOUS
 62
               7
100
AcDbLine
 10
25.900000002537212
 20
29.99999998630939
 30
0.0
 11
29.1000000025372
 21
29.99999998630939
 31
0.0
  0
LINE
  5
2E4
100
AcDbEntity
  8
0
  6
CONTINUOUS
 62
               7
100
AcDbLine
 10
25.6000000025372
 20
29.699999986309393
 30
0.0
 11
29.400000002537212
 21
29.699999986309393
 31
0.0
  0
LINE
  5
2E5
100
AcDbEntity
  8
0
  6
CONTINUOUS
 62
               7
100
AcDbLine
 10
43.000000002537178
 20
36.499999986309462
 30
0.0
 11
9.0000000025372344
 21
36.499999986309462
 31
0.0
  0
LINE
  5
2E6
100
AcDbEntity
  8
0
  6
CONTINUOUS
 62
               7
100
AcDbLine
 10
43.000000002537178
 20
30.49999998630939
 30
0.0
 11
9.0000000025372344
 21
30.49999998630939
 31
0.0
  0
LINE
  5
2E7
100
AcDbEntity
  8
0
  6
CONTINUOUS
 62
               7
100
AcDbLine
 10
37.000000002537234
 20
30.5
 30
0.0
 11
37.000000002537234
 21
27.0
 31
0.0
  0
LINE
  5
2E8
100
AcDbEntity
  8
0
  6
CONTINUOUS
 62
               7
100
AcDbLine
 10
15.000000002537234
 20
30.5
 30
0.0
 11
15.000000002537234
 21
29.99999998630939
 31
0.0
  0
LINE
  5
2E9
100
AcDbEntity
  8
0
  6
CONTINUOUS
 62
               7
100
AcDbLine
 10
43.000000002537178
 20
36.5
 30
0.0
 11
43.000000002537178
 21
27.0
 31
0.0
  0
LINE
  5
2EA
100
AcDbEntity
  8
0
  6
CONTINUOUS
 62
               7
100
AcDbLine
 10
29.500000002537234
 20
27.99999998630939
 30
0.0
 11
12.500000002537234
 21
27.99999998630939
 31
0.0
  0
LINE
  5
2EB
100
AcDbEntity
  8
0
  6
CONTINUOUS
 62
               7
100
AcDbLine
 10
8.5000000025372344
 20
15.400000000000006
 30
0.0
 11
4.0000000025372344
 21
15.400000000000006
 31
0.0
  0
LINE
  5
2EC
100
AcDbEntity
  8
0
  6
CONTINUOUS
 62
               7
100
AcDbLine
 10
8.5000000025372344
 20
20.599999999999994
 30
0.0
 11
4.0000000025372344
 21
20.599999999999994
 31
0.0
  0
LINE
  5
2ED
100
AcDbEntity
  8
0
  6
CONTINUOUS
 62
               7
100
AcDbLine
 10
9.0000000025372344
 20
10.0
 30
0.0
 11
4.0000000025372344
 21
10.0
 31
0.0
  0
LINE
  5
2EE
100
AcDbEntity
  8
0
  6
CONTINUOUS
 62
               7
100
AcDbLine
 10
9.0000000025372344
 20
26.0
 30
0.0
 11
4.0000000025372344
 21
26.0
 31
0.0
  0
LINE
  5
2EF
100
AcDbEntity
  8
0
  6
CONTINUOUS
 62
               7
100
AcDbLine
 10
4.0000000025372344
 20
10.0
 30
0.0
 11
4.0000000025372344
 21
26.0
 31
0.0
  0
LINE
  5
2F0
100
AcDbEntity
  8
0
  6
CONTINUOUS
 62
               7
100
AcDbLine
 10
5.0000000025372913
 20
9.5
 30
0.0
 11
9.0000000025372344
 21
9.5
 31
0.0
  0
LINE
  5
2F1
100
AcDbEntity
  8
0
  6
CONTINUOUS
 62
               7
100
AcDbLine
 10
50.000000002537291
 20
0.0
 30
0.0
 11
50.000000002537291
 21
8.3000000000000114
 31
0.0
  0
LINE
  5
2F2
100
AcDbEntity
  8
0
  6
CONTINUOUS
 62
               7
100
AcDbLine
 10
50.000000002537291
 20
8.3000000000000114
 30
0.0
 11
-2.9999999974627087
 21
8.3000000000000114
 31
0.0
  0
LINE
  5
2F3
100
AcDbEntity
  8
0
  6
CONTINUOUS
 62
               7
100
AcDbLine
 10
42.000000002537291
 20
8.3000000000000114
 30
0.0
 11
42.000000002537291
 21
9.0
 31
0.0
  0
LINE
  5
2F4
100
AcDbEntity
  8
0
  6
CONTINUOUS
 62
               7
100
AcDbLine
 10
5.0000000025372913
 20
8.3000000000000114
 30
0.0
 11
5.0000000025372913
 21
10.0
 31
0.0
  0
LINE
  5
2F5
100
AcDbEntity
  8
0
  6
CONTINUOUS
 62
               7
100
AcDbLine
 10
-2.9999999974627087
 20
-0.0000000136906095
 30
0.0
 11
-2.9999999974627087
 21
8.3000000000000114
 31
0.0
  0
LINE
  5
2F6
100
AcDbEntity
  8
0
  6
CONTINUOUS
 62
               7
100
AcDbLine
 10
50.000000002537291
 20
0.0
 30
0.0
 11
-2.9999999974627087
 21
0.0
 31
0.0
  0
LINE
  5
2F7
100
AcDbEntity
  8
0
  6
CONTINUOUS
 62
               2
100
AcDbLine
 10
22.000000002537291
 20
24.5
 30
0.0
 11
16.000000002537291
 21
24.5
 31
0.0
  0
LINE
  5
2F8
100
AcDbEntity
  8
0
  6
CONTINUOUS
 62
               2
100
AcDbLine
 10
19.000000002537291
 20
21.5
 30
0.0
 11
19.000000002537291
 21
27.5
 31
0.0
  0
CIRCLE
  5
2F9
100
AcDbEntity
  8
0
  6
CONTINUOUS
 62
               7
100
AcDbCircle
 10
19.000000002537291
 20
24.5
 30
0.0
 40
2.0
  0
ARC
  5
2FA
100
AcDbEntity
  8
0
  6
CONTINUOUS
 62
               7
100
AcDbCircle
 10
8.3000000025372458
 20
22.799999999999997
 30
0.0
 40
0.3
100
AcDbArc
 50
180.0
 51
270.0
  0
ARC
  5
2FB
100
AcDbEntity
  8
0
  6
CONTINUOUS
 62
               7
100
AcDbCircle
 10
8.3000000025372458
 20
24.200000000000003
 30
0.0
 40
0.3
100
AcDbArc
 50
90.0
 51
180.0
  0
LINE
  5
2FC
100
AcDbEntity
  8
0
  6
CONTINUOUS
 62
               7
100
AcDbLine
 10
8.5000000025372344
 20
22.5
 30
0.0
 11
8.3000000025372458
 21
22.5
 31
0.0
  0
LINE
  5
2FD
100
AcDbEntity
  8
0
  6
CONTINUOUS
 62
               7
100
AcDbLine
 10
8.5000000025372344
 20
24.5
 30
0.0
 11
8.3000000025372458
 21
24.5
 31
0.0
  0
LINE
  5
2FE
100
AcDbEntity
  8
0
  6
CONTINUOUS
 62
               7
100
AcDbLine
 10
8.0000000025372344
 20
22.799999999999997
 30
0.0
 11
8.0000000025372344
 21
24.200000000000003
 31
0.0
  0
LINE
  5
2FF
100
AcDbEntity
  8
0
  6
CONTINUOUS
 62
               7
100
AcDbLine
 10
9.0000000025372344
 20
25.300000000000011
 30
0.0
 11
8.5000000025372344
 21
25.300000000000011
 31
0.0
  0
LINE
  5
300
100
AcDbEntity
  8
0
  6
CONTINUOUS
 62
               7
100
AcDbLine
 10
8.0000000025372344
 20
13.200000000000003
 30
0.0
 11
8.0000000025372344
 21
11.799999999999997
 31
0.0
  0
ARC
  5
301
100
AcDbEntity
  8
0
  6
CONTINUOUS
 62
               7
100
AcDbCircle
 10
8.3000000025372458
 20
11.799999999999997
 30
0.0
 40
0.3
100
AcDbArc
 50
180.0
 51
270.0
  0
ARC
  5
302
100
AcDbEntity
  8
0
  6
CONTINUOUS
 62
               7
100
AcDbCircle
 10
8.3000000025372458
 20
13.200000000000003
 30
0.0
 40
0.3
100
AcDbArc
 50
90.0
 51
180.0
  0
LINE
  5
303
100
AcDbEntity
  8
0
  6
CONTINUOUS
 62
               7
100
AcDbLine
 10
8.5000000025372344
 20
13.5
 30
0.0
 11
8.3000000025372458
 21
13.5
 31
0.0
  0
LINE
  5
304
100
AcDbEntity
  8
0
  6
CONTINUOUS
 62
               7
100
AcDbLine
 10
8.5000000025372344
 20
11.5
 30
0.0
 11
8.3000000025372458
 21
11.5
 31
0.0
  0
LINE
  5
305
100
AcDbEntity
  8
0
  6
CONTINUOUS
 62
               7
100
AcDbLine
 10
9.0000000025372344
 20
10.699999999999989
 30
0.0
 11
8.5000000025372344
 21
10.699999999999989
 31
0.0
  0
LINE
  5
306
100
AcDbEntity
  8
0
  6
CONTINUOUS
 62
               7
100
AcDbLine
 10
8.5000000025372344
 20
10.699999999999989
 30
0.0
 11
8.5000000025372344
 21
25.300000000000011
 31
0.0
  0
LINE
  5
307
100
AcDbEntity
  8
0
  6
CONTINUOUS
 62
               2
100
AcDbLine
 10
22.000000002537291
 20
11.5
 30
0.0
 11
16.000000002537291
 21
11.5
 31
0.0
  0
LINE
  5
308
100
AcDbEntity
  8
0
  6
CONTINUOUS
 62
               2
100
AcDbLine
 10
19.000000002537291
 20
14.5
 30
0.0
 11
19.000000002537291
 21
8.5
 31
0.0
  0
CIRCLE
  5
309
100
AcDbEntity
  8
0
  6
CONTINUOUS
 62
               7
100
AcDbCircle
 10
19.000000002537291
 20
11.5
 30
0.0
 40
2.0
  0
LINE
  5
30A
100
AcDbEntity
  8
0
  6
CONTINUOUS
 62
               2
100
AcDbLine
 10
38.000000002537291
 20
24.5
 30
0.0
 11
32.000000002537291
 21
24.5
 31
0.0
  0
LINE
  5
30B
100
AcDbEntity
  8
0
  6
CONTINUOUS
 62
               2
100
AcDbLine
 10
35.000000002537291
 20
21.5
 30
0.0
 11
35.000000002537291
 21
27.5
 31
0.0
  0
CIRCLE
  5
30C
100
AcDbEntity
  8
0
  6
CONTINUOUS
 62
               7
100
AcDbCircle
 10
35.000000002537291
 20
24.5
 30
0.0
 40
2.0
  0
LINE
  5
30D
100
AcDbEntity
  8
0
  6
CONTINUOUS
 62
               2
100
AcDbLine
 10
42.500000002537291
 20
24.0
 30
0.0
 11
37.500000002537291
 21
24.0
 31
0.0
  0
LINE
  5
30E
100
AcDbEntity
  8
0
  6
CONTINUOUS
 62
               7
100
AcDbLine
 10
61.000000002537234
 20
26.5
 30
0.0
 11
9.0000000025372344
 21
26.5
 31
0.0
  0
LINE
  5
30F
100
AcDbEntity
  8
0
  6
CONTINUOUS
 62
               7
100
AcDbLine
 10
61.000000002537234
 20
9.5
 30
0.0
 11
9.0000000025372344
 21
9.5
 31
0.0
  0
LINE
  5
310
100
AcDbEntity
  8
0
  6
CONTINUOUS
 62
               2
100
AcDbLine
 10
42.500000002537291
 20
12.0
 30
0.0
 11
37.500000002537291
 21
12.0
 31
0.0
  0
LINE
  5
311
100
AcDbEntity
  8
0
  6
CONTINUOUS
 62
               2
100
AcDbLine
 10
24.000000002537234
 20
20.5
 30
0.0
 11
24.000000002537234
 21
15.5
 31
0.0
  0
ARC
  5
312
100
AcDbEntity
  8
0
  6
CONTINUOUS
 62
               7
100
AcDbCircle
 10
24.500000002537234
 20
18.0
 30
0.0
 40
1.5
100
AcDbArc
 50
270.0
 51
90.0
  0
LINE
  5
313
100
AcDbEntity
  8
0
  6
CONTINUOUS
 62
               7
100
AcDbLine
 10
47.000000002537234
 20
27.0
 30
0.0
 11
47.000000002537234
 21
9.0
 31
0.0
  0
LINE
  5
314
100
AcDbEntity
  8
0
  6
CENTER
 62
               2
100
AcDbLine
 10
63.566477576315094
 20
18.0
 30
0.0
 11
1.8206200297461237
 21
18.0
 31
0.0
  0
LINE
  5
315
100
AcDbEntity
  8
0
  6
CONTINUOUS
 62
               7
100
AcDbLine
 10
9.0000000025372344
 20
36.499999986309462
 30
0.0
 11
9.0000000025372344
 21
9.0
 31
0.0
  0
LINE
  5
316
100
AcDbEntity
  8
0
  6
CONTINUOUS
 62
               7
100
AcDbLine
 10
61.000000002537234
 20
27.0
 30
0.0
 11
9.0000000025372344
 21
27.0
 31
0.0
  0
LINE
  5
317
100
AcDbEntity
  8
0
  6
CONTINUOUS
 62
               2
100
AcDbLine
 10
26.500000002537291
 20
24.0
 30
0.0
 11
21.500000002537291
 21
24.0
 31
0.0
  0
CIRCLE
  5
318
100
AcDbEntity
  8
0
  6
CONTINUOUS
 62
               2
100
AcDbCircle
 10
24.000000002537291
 20
24.0
 30
0.0
 40
1.5
  0
LINE
  5
319
100
AcDbEntity
  8
0
  6
CONTINUOUS
 62
               2
100
AcDbLine
 10
24.000000002537291
 20
26.5
 30
0.0
 11
24.000000002537291
 21
21.5
 31
0.0
  0
CIRCLE
  5
31A
100
AcDbEntity
  8
0
  6
CONTINUOUS
 62
               7
100
AcDbCircle
 10
24.000000002537291
 20
24.0
 30
0.0
 40
1.25
  0
CIRCLE
  5
31B
100
AcDbEntity
  8
0
  6
CONTINUOUS
 62
               7
100
AcDbCircle
 10
40.000000002537234
 20
18.0
 30
0.0
 40
1.5
  0
LINE
  5
31C
100
AcDbEntity
  8
0
  6
CONTINUOUS
 62
               2
100
AcDbLine
 10
40.000000002537234
 20
20.5
 30
0.0
 11
40.000000002537234
 21
15.5
 31
0.0
  0
ARC
  5
31D
100
AcDbEntity
  8
0
  6
CONTINUOUS
 62
               7
100
AcDbCircle
 10
23.500000002537234
 20
18.0
 30
0.0
 40
1.5
100
AcDbArc
 50
90.0
 51
270.0
  0
LINE
  5
31E
100
AcDbEntity
  8
0
  6
CONTINUOUS
 62
               7
100
AcDbLine
 10
24.500000002537234
 20
16.5
 30
0.0
 11
23.500000002537234
 21
16.5
 31
0.0
  0
LINE
  5
31F
100
AcDbEntity
  8
0
  6
CONTINUOUS
 62
               7
100
AcDbLine
 10
24.500000002537234
 20
19.5
 30
0.0
 11
23.500000002537234
 21
19.5
 31
0.0
  0
CIRCLE
  5
320
100
AcDbEntity
  8
0
  6
CONTINUOUS
 62
               2
100
AcDbCircle
 10
40.000000002537291
 20
24.0
 30
0.0
 40
1.5
  0
LINE
  5
321
100
AcDbEntity
  8
0
  6
CONTINUOUS
 62
               2
100
AcDbLine
 10
40.000000002537291
 20
26.5
 30
0.0
 11
40.000000002537291
 21
21.5
 31
0.0
  0
CIRCLE
  5
322
100
AcDbEntity
  8
0
  6
CONTINUOUS
 62
               7
100
AcDbCircle
 10
40.000000002537291
 20
24.0
 30
0.0
 40
1.25
  0
LINE
  5
323
100
AcDbEntity
  8
0
  6
CONTINUOUS
 62
               2
100
AcDbLine
 10
26.500000002537291
 20
12.0
 30
0.0
 11
21.500000002537291
 21
12.0
 31
0.0
  0
CIRCLE
  5
324
100
AcDbEntity
  8
0
  6
CONTINUOUS
 62
               2
100
AcDbCircle
 10
24.000000002537291
 20
12.0
 30
0.0
 40
1.5
  0
LINE
  5
325
100
AcDbEntity
  8
0
  6
CONTINUOUS
 62
               2
100
AcDbLine
 10
24.000000002537291
 20
9.5
 30
0.0
 11
24.000000002537291
 21
14.5
 31
0.0
  0
CIRCLE
  5
326
100
AcDbEntity
  8
0
  6
CONTINUOUS
 62
               7
100
AcDbCircle
 10
24.000000002537291
 20
12.0
 30
0.0
 40
1.25
  0
LINE
  5
327
100
AcDbEntity
  8
0
  6
CONTINUOUS
 62
               2
100
AcDbLine
 10
35.000000002537291
 20
14.5
 30
0.0
 11
35.000000002537291
 21
8.5
 31
0.0
  0
LINE
  5
328
100
AcDbEntity
  8
0
  6
CONTINUOUS
 62
               2
100
AcDbLine
 10
38.000000002537291
 20
11.5
 30
0.0
 11
32.000000002537291
 21
11.5
 31
0.0
  0
CIRCLE
  5
329
100
AcDbEntity
  8
0
  6
CONTINUOUS
 62
               7
100
AcDbCircle
 10
35.000000002537291
 20
11.5
 30
0.0
 40
2.0
  0
CIRCLE
  5
32A
100
AcDbEntity
  8
0
  6
CONTINUOUS
 62
               2
100
AcDbCircle
 10
40.000000002537291
 20
12.0
 30
0.0
 40
1.5
  0
LINE
  5
32B
100
AcDbEntity
  8
0
  6
CONTINUOUS
 62
               2
100
AcDbLine
 10
40.000000002537291
 20
9.5
 30
0.0
 11
40.000000002537291
 21
14.5
 31
0.0
  0
CIRCLE
  5
32C
100
AcDbEntity
  8
0
  6
CONTINUOUS
 62
               7
100
AcDbCircle
 10
40.000000002537291
 20
12.0
 30
0.0
 40
1.25
  0
LINE
  5
32D
100
AcDbEntity
  8
0
  6
CONTINUOUS
 62
               7
100
AcDbLine
 10
61.000000002537234
 20
9.0
 30
0.0
 11
9.0000000025372344
 21
9.0
 31
0.0
  0
LINE
  5
32E
100
AcDbEntity
  8
0
  6
CONTINUOUS
 62
               7
100
AcDbLine
 10
61.000000002537234
 20
9.0
 30
0.0
 11
61.000000002537234
 21
27.0
 31
0.0
  0
LINE
  5
32F
100
AcDbEntity
  8
0
  6
CONTINUOUS
 62
               7
100
AcDbLine
 10
59.40000000253724
 20
25.900000000000006
 30
0.0
 11
59.400000002537212
 21
22.099999999999994
 31
0.0
  0
LINE
  5
330
100
AcDbEntity
  8
0
  6
CONTINUOUS
 62
               7
100
AcDbLine
 10
59.700000002537223
 20
25.599999999999994
 30
0.0
 11
59.700000002537223
 21
22.400000000000006
 31
0.0
  0
LINE
  5
331
100
AcDbEntity
  8
0
  6
CONTINUOUS
 62
               7
100
AcDbLine
 10
57.700000002537223
 20
26.099999999999994
 30
0.0
 11
57.700000002537223
 21
21.900000000000006
 31
0.0
  0
LINE
  5
332
100
AcDbEntity
  8
0
  6
CONTINUOUS
 62
               7
100
AcDbLine
 10
59.700000002537223
 20
25.599999999999994
 30
0.0
 11
59.40000000253724
 21
25.900000000000006
 31
0.0
  0
LINE
  5
333
100
AcDbEntity
  8
0
  6
CONTINUOUS
 62
               7
100
AcDbLine
 10
59.700000002537223
 20
22.400000000000006
 30
0.0
 11
59.400000002537212
 21
22.099999999999994
 31
0.0
  0
LINE
  5
334
100
AcDbEntity
  8
0
  6
CONTINUOUS
 62
               7
100
AcDbLine
 10
59.40000000253724
 20
25.900000000000006
 30
0.0
 11
57.700000002537223
 21
25.900000000000006
 31
0.0
  0
LINE
  5
335
100
AcDbEntity
  8
0
  6
CONTINUOUS
 62
               7
100
AcDbLine
 10
59.400000002537212
 20
22.099999999999994
 30
0.0
 11
57.700000002537223
 21
22.099999999999994
 31
0.0
  0
LINE
  5
336
100
AcDbEntity
  8
0
  6
CONTINUOUS
 62
               7
100
AcDbLine
 10
61.000000002537234
 20
21.900000000000006
 30
0.0
 11
57.700000002537223
 21
21.900000000000006
 31
0.0
  0
LINE
  5
337
100
AcDbEntity
  8
0
  6
CONTINUOUS
 62
               7
100
AcDbLine
 10
61.000000002537234
 20
26.099999999999994
 30
0.0
 11
57.700000002537223
 21
26.099999999999994
 31
0.0
  0
LINE
  5
338
100
AcDbEntity
  8
0
  6
CONTINUOUS
 62
               7
100
AcDbLine
 10
59.400000002537212
 20
13.899999999999999
 30
0.0
 11
57.700000002537223
 21
13.899999999999999
 31
0.0
  0
LINE
  5
339
100
AcDbEntity
  8
0
  6
CONTINUOUS
 62
               7
100
AcDbLine
 10
59.40000000253724
 20
10.100000000000001
 30
0.0
 11
57.700000002537223
 21
10.100000000000001
 31
0.0
  0
LINE
  5
33A
100
AcDbEntity
  8
0
  6
CONTINUOUS
 62
               7
100
AcDbLine
 10
59.700000002537223
 20
13.600000000000001
 30
0.0
 11
59.400000002537212
 21
13.899999999999999
 31
0.0
  0
LINE
  5
33B
100
AcDbEntity
  8
0
  6
CONTINUOUS
 62
               7
100
AcDbLine
 10
59.700000002537223
 20
10.399999999999999
 30
0.0
 11
59.40000000253724
 21
10.100000000000001
 31
0.0
  0
LINE
  5
33C
100
AcDbEntity
  8
0
  6
CONTINUOUS
 62
               7
100
AcDbLine
 10
59.700000002537223
 20
10.399999999999999
 30
0.0
 11
59.700000002537223
 21
13.600000000000001
 31
0.0
  0
LINE
  5
33D
100
AcDbEntity
  8
0
  6
CONTINUOUS
 62
               7
100
AcDbLine
 10
59.40000000253724
 20
10.100000000000001
 30
0.0
 11
59.400000002537212
 21
13.899999999999999
 31
0.0
  0
LINE
  5
33E
100
AcDbEntity
  8
0
  6
CONTINUOUS
 62
               7
100
AcDbLine
 10
61.000000002537234
 20
14.100000000000001
 30
0.0
 11
57.700000002537223
 21
14.100000000000001
 31
0.0
  0
LINE
  5
33F
100
AcDbEntity
  8
0
  6
CONTINUOUS
 62
               7
100
AcDbLine
 10
61.000000002537234
 20
9.8999999999999986
 30
0.0
 11
57.700000002537223
 21
9.8999999999999986
 31
0.0
  0
LINE
  5
340
100
AcDbEntity
  8
0
  6
CONTINUOUS
 62
               7
100
AcDbLine
 10
57.700000002537223
 20
9.8999999999999986
 30
0.0
 11
57.700000002537223
 21
14.100000000000001
 31
0.0
  0
ENDBLK
  5
341
100
AcDbEntity
  8
0
100
AcDbBlockEnd
  0
BLOCK
  5
342
100
AcDbEntity
  8
0
100
AcDbBlockBegin
  2
MGALGS4_5-8
 70
               0
 10
0.0
 20
0.0
 30
0.0
  3
MGALGS4_5-8
  1

  0
LINE
  5
343
100
AcDbEntity
  8
0
  6
CONTINUOUS
 62
               2
100
AcDbLine
 10
0.0
 20
6.1998555955354036
 30
0.0
 11
0.0
 21
-1.8286109267685546
 31
0.0
  0
LINE
  5
344
100
AcDbEntity
  8
0
  6
CONTINUOUS
 62
               2
100
AcDbLine
 10
2.1999999999999886
 20
28.900000000000063
 30
0.0
 11
2.1999999999999886
 21
38.900000000000063
 31
0.0
  0
LINE
  5
345
100
AcDbEntity
  8
0
  6
CONTINUOUS
 62
               7
100
AcDbLine
 10
8.8000000000000114
 20
29.699999999999989
 30
0.0
 11
5.0
 21
29.699999999999989
 31
0.0
  0
LINE
  5
346
100
AcDbEntity
  8
0
  6
CONTINUOUS
 62
               7
100
AcDbLine
 10
8.5
 20
29.999999999999972
 30
0.0
 11
5.3000000000000114
 21
29.999999999999972
 31
0.0
  0
LINE
  5
347
100
AcDbEntity
  8
0
  6
CONTINUOUS
 62
               7
100
AcDbLine
 10
8.8000000000000114
 20
27.999999999999972
 30
0.0
 11
4.6999999999999886
 21
27.999999999999972
 31
0.0
  0
LINE
  5
348
100
AcDbEntity
  8
0
  6
CONTINUOUS
 62
               7
100
AcDbLine
 10
5.0999999999999659
 20
27.0
 30
0.0
 11
5.0999999999999659
 21
27.999999999999972
 31
0.0
  0
LINE
  5
349
100
AcDbEntity
  8
0
  6
CONTINUOUS
 62
               7
100
AcDbLine
 10
-0.8999999999999773
 20
36.500000000000057
 30
0.0
 11
-0.8999999999999773
 21
26.5
 31
0.0
  0
LINE
  5
34A
100
AcDbEntity
  8
0
  6
CONTINUOUS
 62
               7
100
AcDbLine
 10
4.6999999999999886
 20
26.5
 30
0.0
 11
4.6999999999999886
 21
29.5
 31
0.0
  0
LINE
  5
34B
100
AcDbEntity
  8
0
  6
CONTINUOUS
 62
               7
100
AcDbLine
 10
5.0
 20
29.69999999999996
 30
0.0
 11
4.7138785240660468
 21
29.69999999999996
 31
0.0
  0
ARC
  5
34C
100
AcDbEntity
  8
0
  6
CONTINUOUS
 62
               7
100
AcDbCircle
 10
0.3004760263646062
 20
36.20047602636464
 30
0.0
 40
0.2995243519038812
100
AcDbArc
 50
359.90894124989592
 51
90.091058750103045
  0
ARC
  5
34D
100
AcDbEntity
  8
0
  6
CONTINUOUS
 62
               7
100
AcDbCircle
 10
4.1006993865086088
 20
36.199300613491431
 30
0.0
 40
0.3007001998472195
100
AcDbArc
 50
90.133262070800924
 51
179.86673792919814
  0
ARC
  5
34E
100
AcDbEntity
  8
0
  6
CONTINUOUS
 62
               7
100
AcDbCircle
 10
2.1999999999999886
 20
33.900000000000063
 30
0.0
 40
2.1000000111152071
100
AcDbArc
 50
180.0
 51
0.0
  0
LINE
  5
34F
100
AcDbEntity
  8
0
  6
CONTINUOUS
 62
               7
100
AcDbLine
 10
4.3000000000000114
 20
35.500000000000057
 30
0.0
 11
3.8000000000000114
 21
36.000000000000057
 31
0.0
  0
LINE
  5
350
100
AcDbEntity
  8
0
  6
CONTINUOUS
 62
               7
100
AcDbLine
 10
0.6000000000000227
 20
36.000000000000057
 30
0.0
 11
0.1000000000000227
 21
35.500000000000057
 31
0.0
  0
LINE
  5
351
100
AcDbEntity
  8
0
  6
CONTINUOUS
 62
               7
100
AcDbLine
 10
0.1000000000000227
 20
35.500000000000057
 30
0.0
 11
0.1000000000000227
 21
33.900000000000063
 31
0.0
  0
LINE
  5
352
100
AcDbEntity
  8
0
  6
CONTINUOUS
 62
               7
100
AcDbLine
 10
4.3000000000000114
 20
35.500000000000057
 30
0.0
 11
4.3000000000000114
 21
33.900000000000063
 31
0.0
  0
LINE
  5
353
100
AcDbEntity
  8
0
  6
CONTINUOUS
 62
               7
100
AcDbLine
 10
5.8000000000000114
 20
36.500000000000057
 30
0.0
 11
4.1006993865086088
 21
36.500000000000057
 31
0.0
  0
LINE
  5
354
100
AcDbEntity
  8
0
  6
CONTINUOUS
 62
               7
100
AcDbLine
 10
3.8000000000000114
 20
36.200000000000045
 30
0.0
 11
3.8000000000000114
 21
36.000000000000057
 31
0.0
  0
LINE
  5
355
100
AcDbEntity
  8
0
  6
CONTINUOUS
 62
               7
100
AcDbLine
 10
0.6000000000000227
 20
36.200000000000045
 30
0.0
 11
0.6000000000000227
 21
36.000000000000057
 31
0.0
  0
LINE
  5
356
100
AcDbEntity
  8
0
  6
CONTINUOUS
 62
               7
100
AcDbLine
 10
0.3004760263646062
 20
36.500000000000057
 30
0.0
 11
-0.8999999999999773
 21
36.500000000000057
 31
0.0
  0
LINE
  5
357
100
AcDbEntity
  8
0
  6
CONTINUOUS
 62
               7
100
AcDbLine
 10
5.8000000000000114
 20
36.500000000000057
 30
0.0
 11
5.8000000000000114
 21
30.5
 31
0.0
  0
LINE
  5
358
100
AcDbEntity
  8
0
  6
CONTINUOUS
 62
               7
100
AcDbLine
 10
5.6999999999999886
 20
30.5
 30
0.0
 11
5.8000000000000114
 21
30.5
 31
0.0
  0
ARC
  5
359
100
AcDbEntity
  8
0
  6
CONTINUOUS
 62
               7
100
AcDbCircle
 10
5.6999999999999886
 20
29.5
 30
0.0
 40
1.0
100
AcDbArc
 50
90.0
 51
180.0
  0
LINE
  5
35A
100
AcDbEntity
  8
0
  6
CONTINUOUS
 62
               7
100
AcDbLine
 10
5.3000000000000114
 20
29.999999999999972
 30
0.0
 11
5.0
 21
29.699999999999989
 31
0.0
  0
LINE
  5
35B
100
AcDbEntity
  8
0
  6
CONTINUOUS
 62
               7
100
AcDbLine
 10
5.0
 20
29.699999999999989
 30
0.0
 11
5.0
 21
27.999999999999972
 31
0.0
  0
LINE
  5
35C
100
AcDbEntity
  8
0
  6
CONTINUOUS
 62
               7
100
AcDbLine
 10
8.6999999999999886
 20
27.999999999999972
 30
0.0
 11
8.6999999999999886
 21
27.0
 31
0.0
  0
LINE
  5
35D
100
AcDbEntity
  8
0
  6
CONTINUOUS
 62
               7
100
AcDbLine
 10
8.5
 20
29.999999999999972
 30
0.0
 11
8.8000000000000114
 21
29.699999999999989
 31
0.0
  0
LINE
  5
35E
100
AcDbEntity
  8
0
  6
CONTINUOUS
 62
               7
100
AcDbLine
 10
8.8000000000000114
 20
29.699999999999989
 30
0.0
 11
8.8000000000000114
 21
27.999999999999972
 31
0.0
  0
LINE
  5
35F
100
AcDbEntity
  8
0
  6
CONTINUOUS
 62
               7
100
AcDbLine
 10
8.6999999999999886
 20
27.0
 30
0.0
 11
4.6999999999999886
 21
27.0
 31
0.0
  0
LINE
  5
360
100
AcDbEntity
  8
0
  6
CONTINUOUS
 62
               7
100
AcDbLine
 10
-2.1999999999999886
 20
8.3000000000000114
 30
0.0
 11
-2.1999999999999886
 21
11.000000007980816
 31
0.0
  0
LINE
  5
361
100
AcDbEntity
  8
0
  6
CONTINUOUS
 62
               7
100
AcDbLine
 10
-3.0
 20
0.0
 30
0.0
 11
-3.0
 21
8.3000000000000114
 31
0.0
  0
LINE
  5
362
100
AcDbEntity
  8
0
  6
CONTINUOUS
 62
               7
100
AcDbLine
 10
4.8000000000000114
 20
9.5
 30
0.0
 11
4.8000000000000114
 21
8.3000000000000114
 31
0.0
  0
CIRCLE
  5
363
100
AcDbEntity
  8
0
  6
CONTINUOUS
 62
               2
100
AcDbCircle
 10
6.0
 20
5.9999999999999858
 30
0.0
 40
1.5
  0
LINE
  5
364
100
AcDbEntity
  8
0
  6
CONTINUOUS
 62
               7
100
AcDbLine
 10
3.5
 20
5.0
 30
0.0
 11
3.5
 21
8.3000000000000114
 31
0.0
  0
LINE
  5
365
100
AcDbEntity
  8
0
  6
CONTINUOUS
 62
               7
100
AcDbLine
 10
3.5
 20
5.0
 30
0.0
 11
-3.0
 21
5.0
 31
0.0
  0
LINE
  5
366
100
AcDbEntity
  8
0
  6
CONTINUOUS
 62
               2
100
AcDbLine
 10
8.25
 20
5.9999999999999858
 30
0.0
 11
3.75
 21
5.9999999999999858
 31
0.0
  0
CIRCLE
  5
367
100
AcDbEntity
  8
0
  6
CONTINUOUS
 62
               7
100
AcDbCircle
 10
6.0
 20
5.9999999999999858
 30
0.0
 40
1.25
  0
LINE
  5
368
100
AcDbEntity
  8
0
  6
CONTINUOUS
 62
               2
100
AcDbLine
 10
6.0
 20
8.2499999999999858
 30
0.0
 11
6.0
 21
3.7499999999999858
 31
0.0
  0
LINE
  5
369
100
AcDbEntity
  8
0
  6
CONTINUOUS
 62
               7
100
AcDbLine
 10
8.5
 20
8.3000000000000114
 30
0.0
 11
-3.0
 21
8.3000000000000114
 31
0.0
  0
LINE
  5
36A
100
AcDbEntity
  8
0
  6
CONTINUOUS
 62
               7
100
AcDbLine
 10
8.5
 20
0.0
 30
0.0
 11
-3.0
 21
0.0
 31
0.0
  0
LINE
  5
36B
100
AcDbEntity
  8
0
  6
CONTINUOUS
 62
               7
100
AcDbLine
 10
8.5
 20
8.3000000000000114
 30
0.0
 11
8.5
 21
0.0
 31
0.0
  0
LINE
  5
36C
100
AcDbEntity
  8
0
  6
CONTINUOUS
 62
               7
100
AcDbLine
 10
-1.0
 20
11.000000007980816
 30
0.0
 11
-2.1999999999999886
 21
11.000000007980816
 31
0.0
  0
CIRCLE
  5
36D
100
AcDbEntity
  8
0
  6
CONTINUOUS
 62
               2
100
AcDbCircle
 10
2.5
 20
18.0
 30
0.0
 40
1.5
  0
CIRCLE
  5
36E
100
AcDbEntity
  8
0
  6
CONTINUOUS
 62
               7
100
AcDbCircle
 10
2.5
 20
18.0
 30
0.0
 40
1.25
  0
LINE
  5
36F
100
AcDbEntity
  8
0
  6
CONTINUOUS
 62
               7
100
AcDbLine
 10
1.5669873732143742
 20
23.250000143353219
 30
0.0
 11
1.1339745896869999
 21
22.499999964539285
 31
0.0
  0
LINE
  5
370
100
AcDbEntity
  8
0
  6
CONTINUOUS
 62
               7
100
AcDbLine
 10
1.1339745096212823
 20
22.500000136720814
 30
0.0
 11
1.5669873255533844
 21
21.749999976615726
 31
0.0
  0
LINE
  5
371
100
AcDbEntity
  8
0
  6
CONTINUOUS
 62
               7
100
AcDbLine
 10
2.433012863593035
 20
23.250000006632405
 30
0.0
 11
1.5669872641336156
 21
23.249999987923559
 31
0.0
  0
LINE
  5
372
100
AcDbEntity
  8
0
  6
CONTINUOUS
 62
               7
100
AcDbLine
 10
1.566987136406965
 20
21.749999993367595
 30
0.0
 11
2.4330127358663844
 21
21.750000012076441
 31
0.0
  0
CIRCLE
  5
373
100
AcDbEntity
  8
0
  6
CONTINUOUS
 62
               7
100
AcDbCircle
 10
2.0
 20
22.5
 30
0.0
 40
2.1000000000000001
  0
CIRCLE
  5
374
100
AcDbEntity
  8
0
  6
CONTINUOUS
 62
               7
100
AcDbCircle
 10
2.0
 20
22.5
 30
0.0
 40
1.6000000000000174
  0
CIRCLE
  5
375
100
AcDbEntity
  8
0
  6
CONTINUOUS
 62
               7
100
AcDbCircle
 10
2.0
 20
22.5
 30
0.0
 40
1.9000000000000148
  0
LINE
  5
376
100
AcDbEntity
  8
0
  6
CONTINUOUS
 62
               7
100
AcDbLine
 10
2.4330126267856258
 20
21.749999856646781
 30
0.0
 11
2.8660254103130001
 21
22.500000035460715
 31
0.0
  0
LINE
  5
377
100
AcDbEntity
  8
0
  6
CONTINUOUS
 62
               7
100
AcDbLine
 10
2.8660254903787177
 20
22.499999863279186
 30
0.0
 11
2.4330126744466156
 21
23.250000023384274
 31
0.0
  0
CIRCLE
  5
378
100
AcDbEntity
  8
0
  6
CONTINUOUS
 62
               7
100
AcDbCircle
 10
2.0
 20
13.5
 30
0.0
 40
2.1000000000000001
  0
CIRCLE
  5
379
100
AcDbEntity
  8
0
  6
CONTINUOUS
 62
               7
100
AcDbCircle
 10
2.0
 20
13.5
 30
0.0
 40
1.6000000000000174
  0
CIRCLE
  5
37A
100
AcDbEntity
  8
0
  6
CONTINUOUS
 62
               7
100
AcDbCircle
 10
2.0
 20
13.5
 30
0.0
 40
1.9000000000000148
  0
LINE
  5
37B
100
AcDbEntity
  8
0
  6
CONTINUOUS
 62
               7
100
AcDbLine
 10
2.433012863593035
 20
12.749999993367595
 30
0.0
 11
1.5669872641336156
 21
12.750000012076441
 31
0.0
  0
LINE
  5
37C
100
AcDbEntity
  8
0
  6
CONTINUOUS
 62
               7
100
AcDbLine
 10
1.566987136406965
 20
14.250000006632405
 30
0.0
 11
2.4330127358663844
 21
14.249999987923559
 31
0.0
  0
LINE
  5
37D
100
AcDbEntity
  8
0
  6
CONTINUOUS
 62
               7
100
AcDbLine
 10
2.4330126267856258
 20
14.250000143353219
 30
0.0
 11
2.8660254103130001
 21
13.499999964539285
 31
0.0
  0
LINE
  5
37E
100
AcDbEntity
  8
0
  6
CONTINUOUS
 62
               7
100
AcDbLine
 10
1.1339745096212823
 20
13.499999863279186
 30
0.0
 11
1.5669873255533844
 21
14.250000023384274
 31
0.0
  0
LINE
  5
37F
100
AcDbEntity
  8
0
  6
CONTINUOUS
 62
               7
100
AcDbLine
 10
1.5669873732143742
 20
12.749999856646781
 30
0.0
 11
1.1339745896869999
 21
13.500000035460715
 31
0.0
  0
LINE
  5
380
100
AcDbEntity
  8
0
  6
CONTINUOUS
 62
               7
100
AcDbLine
 10
2.8660254903787177
 20
13.500000136720814
 30
0.0
 11
2.4330126744466156
 21
12.749999976615726
 31
0.0
  0
LINE
  5
381
100
AcDbEntity
  8
0
  6
CONTINUOUS
 62
               2
100
AcDbLine
 10
2.5
 20
15.0
 30
0.0
 11
2.5
 21
21.0
 31
0.0
  0
LINE
  5
382
100
AcDbEntity
  8
0
  6
CONTINUOUS
 62
               7
100
AcDbLine
 10
-0.9000000000000341
 20
26.0
 30
0.0
 11
-0.9000000000000341
 21
10.0
 31
0.0
  0
LINE
  5
383
100
AcDbEntity
  8
0
  6
CONTINUOUS
 62
               7
100
AcDbLine
 10
4.5
 20
26.0
 30
0.0
 11
-0.9000000000000341
 21
26.0
 31
0.0
  0
LINE
  5
384
100
AcDbEntity
  8
0
  6
CONTINUOUS
 62
               7
100
AcDbLine
 10
4.5
 20
10.0
 30
0.0
 11
-0.9000000000000341
 21
10.0
 31
0.0
  0
LINE
  5
385
100
AcDbEntity
  8
0
  6
CONTINUOUS
 62
               7
100
AcDbLine
 10
6.0
 20
15.400000000000006
 30
0.0
 11
6.0
 21
20.599999999999994
 31
0.0
  0
LINE
  5
386
100
AcDbEntity
  8
0
  6
CONTINUOUS
 62
               7
100
AcDbLine
 10
4.5
 20
20.599999999999994
 30
0.0
 11
6.0
 21
20.599999999999994
 31
0.0
  0
LINE
  5
387
100
AcDbEntity
  8
0
  6
CONTINUOUS
 62
               7
100
AcDbLine
 10
4.5
 20
15.400000000000006
 30
0.0
 11
6.0
 21
15.400000000000006
 31
0.0
  0
LINE
  5
388
100
AcDbEntity
  8
0
  6
CONTINUOUS
 62
               7
100
AcDbLine
 10
5.0
 20
21.400000000000006
 30
0.0
 11
5.0
 21
27.0
 31
0.0
  0
LINE
  5
389
100
AcDbEntity
  8
0
  6
CONTINUOUS
 62
               7
100
AcDbLine
 10
5.1999999999999886
 20
14.599999999999994
 30
0.0
 11
5.0
 21
14.599999999999994
 31
0.0
  0
LINE
  5
38A
100
AcDbEntity
  8
0
  6
CONTINUOUS
 62
               7
100
AcDbLine
 10
5.0
 20
14.599999999999994
 30
0.0
 11
5.0
 21
9.0
 31
0.0
  0
LINE
  5
38B
100
AcDbEntity
  8
0
  6
CONTINUOUS
 62
               7
100
AcDbLine
 10
5.1999999999999886
 20
21.400000000000006
 30
0.0
 11
5.0
 21
21.400000000000006
 31
0.0
  0
LINE
  5
38C
100
AcDbEntity
  8
0
  6
CONTINUOUS
 62
               7
100
AcDbLine
 10
7.1999999999999886
 20
21.099999999999994
 30
0.0
 11
7.1999999999999886
 21
14.900000000000006
 31
0.0
  0
LINE
  5
38D
100
AcDbEntity
  8
0
  6
CONTINUOUS
 62
               7
100
AcDbLine
 10
5.1999999999999886
 20
25.300000000000011
 30
0.0
 11
8.6999999999999886
 21
25.300000000000011
 31
0.0
  0
LINE
  5
38E
100
AcDbEntity
  8
0
  6
CONTINUOUS
 62
               7
100
AcDbLine
 10
5.1999999999999886
 20
25.300000000000011
 30
0.0
 11
5.1999999999999886
 21
21.099999999999994
 31
0.0
  0
LINE
  5
38F
100
AcDbEntity
  8
0
  6
CONTINUOUS
 62
               7
100
AcDbLine
 10
5.1999999999999886
 20
21.099999999999994
 30
0.0
 11
7.1999999999999886
 21
21.099999999999994
 31
0.0
  0
LINE
  5
390
100
AcDbEntity
  8
0
  6
CONTINUOUS
 62
               7
100
AcDbLine
 10
5.1999999999999886
 20
14.900000000000006
 30
0.0
 11
7.1999999999999886
 21
14.900000000000006
 31
0.0
  0
LINE
  5
391
100
AcDbEntity
  8
0
  6
CONTINUOUS
 62
               7
100
AcDbLine
 10
5.1999999999999886
 20
10.699999999999989
 30
0.0
 11
5.1999999999999886
 21
14.900000000000006
 31
0.0
  0
LINE
  5
392
100
AcDbEntity
  8
0
  6
CONTINUOUS
 62
               7
100
AcDbLine
 10
5.1999999999999886
 20
10.699999999999989
 30
0.0
 11
8.6999999999999886
 21
10.699999999999989
 31
0.0
  0
LINE
  5
393
100
AcDbEntity
  8
0
  6
CONTINUOUS
 62
               7
100
AcDbLine
 10
8.6999999999999886
 20
10.699999999999989
 30
0.0
 11
8.6999999999999886
 21
25.300000000000011
 31
0.0
  0
ARC
  5
394
100
AcDbEntity
  8
0
  6
CONTINUOUS
 62
               7
100
AcDbCircle
 10
6.0
 20
21.199999999999989
 30
0.0
 40
0.5
100
AcDbArc
 50
191.53695903281499
 51
348.46304096718507
  0
LINE
  5
395
100
AcDbEntity
  8
0
  6
CONTINUOUS
 62
               7
100
AcDbLine
 10
5.534182867015204
 20
21.0
 30
0.0
 11
4.5
 21
21.0
 31
0.0
  0
LINE
  5
396
100
AcDbEntity
  8
0
  6
CONTINUOUS
 62
               7
100
AcDbLine
 10
6.8000000000000114
 20
21.0
 30
0.0
 11
6.465817132984796
 21
21.0
 31
0.0
  0
LINE
  5
397
100
AcDbEntity
  8
0
  6
CONTINUOUS
 62
               7
100
AcDbLine
 10
4.6999999999999886
 20
26.5
 30
0.0
 11
-1.0
 21
26.5
 31
0.0
  0
LINE
  5
398
100
AcDbEntity
  8
0
  6
CONTINUOUS
 62
               7
100
AcDbLine
 10
-1.0
 20
26.499999992019184
 30
0.0
 11
-1.0
 21
20.500000000000028
 31
0.0
  0
LINE
  5
399
100
AcDbEntity
  8
0
  6
CENTER
 62
               2
100
AcDbLine
 10
-2.2055186855188254
 20
18.0
 30
0.0
 11
10.217581787613142
 21
18.0
 31
0.0
  0
LINE
  5
39A
100
AcDbEntity
  8
0
  6
CONTINUOUS
 62
               7
100
AcDbLine
 10
4.5
 20
9.5
 30
0.0
 11
4.5
 21
15.400000000000006
 31
0.0
  0
LINE
  5
39B
100
AcDbEntity
  8
0
  6
CONTINUOUS
 62
               7
100
AcDbLine
 10
9.0
 20
9.5
 30
0.0
 11
9.0
 21
26.5
 31
0.0
  0
LINE
  5
39C
100
AcDbEntity
  8
0
  6
CONTINUOUS
 62
               7
100
AcDbLine
 10
4.8000000000000114
 20
9.5
 30
0.0
 11
-1.0
 21
9.5
 31
0.0
  0
LINE
  5
39D
100
AcDbEntity
  8
0
  6
CONTINUOUS
 62
               7
100
AcDbLine
 10
4.8000000000000114
 20
9.0
 30
0.0
 11
8.4999999999997158
 21
9.0
 31
0.0
  0
LINE
  5
39E
100
AcDbEntity
  8
0
  6
CONTINUOUS
 62
               7
100
AcDbLine
 10
4.5
 20
20.599999999999994
 30
0.0
 11
4.5
 21
26.5
 31
0.0
  0
ARC
  5
39F
100
AcDbEntity
  8
0
  6
CONTINUOUS
 62
               7
100
AcDbCircle
 10
6.0
 20
14.800000000000011
 30
0.0
 40
0.5
100
AcDbArc
 50
11.536959032814933
 51
168.46304096718507
  0
LINE
  5
3A0
100
AcDbEntity
  8
0
  6
CONTINUOUS
 62
               7
100
AcDbLine
 10
9.0
 20
9.5
 30
0.0
 11
8.4999999999997158
 21
9.0
 31
0.0
  0
LINE
  5
3A1
100
AcDbEntity
  8
0
  6
CONTINUOUS
 62
               7
100
AcDbLine
 10
9.0
 20
26.5
 30
0.0
 11
8.5000000000001705
 21
27.0
 31
0.0
  0
LINE
  5
3A2
100
AcDbEntity
  8
0
  6
CONTINUOUS
 62
               7
100
AcDbLine
 10
5.9343145750507915
 20
11.934314575050763
 30
0.0
 11
7.0656854249492085
 21
13.065685424949237
 31
0.0
  0
LINE
  5
3A3
100
AcDbEntity
  8
0
  6
CONTINUOUS
 62
               7
100
AcDbLine
 10
5.9343145750507915
 20
13.065685424949237
 30
0.0
 11
7.0656854249492085
 21
11.934314575050763
 31
0.0
  0
CIRCLE
  5
3A4
100
AcDbEntity
  8
0
  6
CONTINUOUS
 62
               7
100
AcDbCircle
 10
6.5
 20
12.5
 30
0.0
 40
1.0
  0
LINE
  5
3A5
100
AcDbEntity
  8
0
  6
CONTINUOUS
 62
               7
100
AcDbLine
 10
5.9343145750507347
 20
22.934314575050763
 30
0.0
 11
7.0656854249492085
 21
24.065685424949237
 31
0.0
  0
LINE
  5
3A6
100
AcDbEntity
  8
0
  6
CONTINUOUS
 62
               7
100
AcDbLine
 10
5.9343145750507347
 20
24.065685424949237
 30
0.0
 11
7.0656854249492085
 21
22.934314575050763
 31
0.0
  0
CIRCLE
  5
3A7
100
AcDbEntity
  8
0
  6
CONTINUOUS
 62
               7
100
AcDbCircle
 10
6.5
 20
23.5
 30
0.0
 40
1.0
  0
LINE
  5
3A8
100
AcDbEntity
  8
0
  6
CONTINUOUS
 62
               7
100
AcDbLine
 10
-1.0
 20
15.499999999999972
 30
0.0
 11
-1.0
 21
9.5
 31
0.0
  0
LINE
  5
3A9
100
AcDbEntity
  8
0
  6
CONTINUOUS
 62
               7
100
AcDbLine
 10
5.534182867015204
 20
15.0
 30
0.0
 11
4.5
 21
15.0
 31
0.0
  0
LINE
  5
3AA
100
AcDbEntity
  8
0
  6
CONTINUOUS
 62
               7
100
AcDbLine
 10
6.8000000000000114
 20
15.0
 30
0.0
 11
6.465817132984796
 21
15.0
 31
0.0
  0
LINE
  5
3AB
100
AcDbEntity
  8
0
  6
CONTINUOUS
 62
               7
100
AcDbLine
 10
6.8000000000000114
 20
21.0
 30
0.0
 11
6.8000000000000114
 21
15.0
 31
0.0
  0
LINE
  5
3AC
100
AcDbEntity
  8
0
  6
CONTINUOUS
 62
               7
100
AcDbLine
 10
-0.9000000000000341
 20
15.599999999999966
 30
0.0
 11
-1.0
 21
15.499999999999972
 31
0.0
  0
LINE
  5
3AD
100
AcDbEntity
  8
0
  6
CONTINUOUS
 62
               7
100
AcDbLine
 10
-0.9000000000000341
 20
20.400000000000034
 30
0.0
 11
-1.0
 21
20.500000000000028
 31
0.0
  0
LINE
  5
3AE
100
AcDbEntity
  8
0
  6
CONTINUOUS
 62
               2
100
AcDbLine
 10
-2.2055186855188254
 20
11.5
 30
0.0
 11
2.7944813144811746
 21
11.5
 31
0.0
  0
LINE
  5
3AF
100
AcDbEntity
  8
0
  6
CONTINUOUS
 62
               2
100
AcDbLine
 10
-2.2055186855188254
 20
24.5
 30
0.0
 11
2.7944813144811746
 21
24.5
 31
0.0
  0
ENDBLK
  5
3B0
100
AcDbEntity
  8
0
100
AcDbBlockEnd
  0
BLOCK
  5
3B1
100
AcDbEntity
  8
0
100
AcDbBlockBegin
  2
MGALGS4_5-9
 70
               0
 10
0.0
 20
0.0
 30
0.0
  3
MGALGS4_5-9
  1

  0
LINE
  5
3B2
100
AcDbEntity
  8
0
  6
CONTINUOUS
 62
               2
100
AcDbLine
 10
0.0
 20
6.1998555955354036
 30
0.0
 11
0.0
 21
-1.6977621847653523
 31
0.0
  0
LINE
  5
3B3
100
AcDbEntity
  8
0
  6
CONTINUOUS
 62
               2
100
AcDbLine
 10
-2.2000000000000455
 20
28.900000000000063
 30
0.0
 11
-2.2000000000000455
 21
38.900000000000063
 31
0.0
  0
LINE
  5
3B4
100
AcDbEntity
  8
0
  6
CONTINUOUS
 62
               7
100
AcDbLine
 10
-8.7000000000000455
 20
27.000000011920918
 30
0.0
 11
0.3999999999999773
 21
27.0
 31
0.0
  0
LINE
  5
3B5
100
AcDbEntity
  8
0
  6
CONTINUOUS
 62
               2
100
AcDbLine
 10
0.0
 20
12.0
 30
0.0
 11
-5.0
 21
12.0
 31
0.0
  0
LINE
  5
3B6
100
AcDbEntity
  8
0
  6
CONTINUOUS
 62
               2
100
AcDbLine
 10
0.0
 20
24.0
 30
0.0
 11
-5.0
 21
24.0
 31
0.0
  0
LINE
  5
3B7
100
AcDbEntity
  8
0
  6
CONTINUOUS
 62
               7
100
AcDbLine
 10
2.1999999999999318
 20
8.3000000000000114
 30
0.0
 11
2.1999999999999318
 21
11.000000007980816
 31
0.0
  0
CIRCLE
  5
3B8
100
AcDbEntity
  8
0
  6
CONTINUOUS
 62
               7
100
AcDbCircle
 10
-6.0
 20
5.9999999999999858
 30
0.0
 40
1.5
  0
LINE
  5
3B9
100
AcDbEntity
  8
0
  6
CONTINUOUS
 62
               7
100
AcDbLine
 10
-5.2499999948097411
 20
5.5669872735742132
 30
0.0
 11
-5.2500000055330247
 21
6.4330127399930461
 31
0.0
  0
LINE
  5
3BA
100
AcDbEntity
  8
0
  6
CONTINUOUS
 62
               7
100
AcDbLine
 10
-5.2499999761581648
 20
6.4330126941204071
 30
0.0
 11
-6.0000000357628096
 21
6.8660254180431366
 31
0.0
  0
LINE
  5
3BB
100
AcDbEntity
  8
0
  6
CONTINUOUS
 62
               7
100
AcDbLine
 10
-5.9999999813485374
 20
6.8660254205461797
 30
0.0
 11
-6.7500000302297849
 21
6.4330126780500905
 31
0.0
  0
LINE
  5
3BC
100
AcDbEntity
  8
0
  6
CONTINUOUS
 62
               7
100
AcDbLine
 10
-6.7500000051903726
 20
6.4330127264257584
 30
0.0
 11
-6.749999994467089
 21
5.5669872600069255
 31
0.0
  0
LINE
  5
3BD
100
AcDbEntity
  8
0
  6
CONTINUOUS
 62
               7
100
AcDbLine
 10
-6.7500000238419489
 20
5.5669873058795645
 30
0.0
 11
-5.9999999642373041
 21
5.133974581956835
 31
0.0
  0
LINE
  5
3BE
100
AcDbEntity
  8
0
  6
CONTINUOUS
 62
               7
100
AcDbLine
 10
-6.0000000186515763
 20
5.1339745794537919
 30
0.0
 11
-5.2499999697702151
 21
5.5669873219498811
 31
0.0
  0
CIRCLE
  5
3BF
100
AcDbEntity
  8
0
  6
CONTINUOUS
 62
               2
100
AcDbCircle
 10
-6.0
 20
5.9999999999999858
 30
0.0
 40
1.25
  0
LINE
  5
3C0
100
AcDbEntity
  8
0
  6
CONTINUOUS
 62
               7
100
AcDbLine
 10
-3.5
 20
5.0
 30
0.0
 11
-3.5
 21
8.3000000000000114
 31
0.0
  0
LINE
  5
3C1
100
AcDbEntity
  8
0
  6
CONTINUOUS
 62
               7
100
AcDbLine
 10
-3.5
 20
5.0
 30
0.0
 11
3.0
 21
5.0
 31
0.0
  0
LINE
  5
3C2
100
AcDbEntity
  8
0
  6
CONTINUOUS
 62
               7
100
AcDbLine
 10
-8.5
 20
8.3000000000000114
 30
0.0
 11
3.0
 21
8.3000000000000114
 31
0.0
  0
LINE
  5
3C3
100
AcDbEntity
  8
0
  6
CONTINUOUS
 62
               7
100
AcDbLine
 10
-4.8000000000000682
 20
9.0
 30
0.0
 11
-4.8000000000000682
 21
8.3000000000000114
 31
0.0
  0
LINE
  5
3C4
100
AcDbEntity
  8
0
  6
CONTINUOUS
 62
               7
100
AcDbLine
 10
3.0
 20
0.0
 30
0.0
 11
3.0
 21
8.3000000000000114
 31
0.0
  0
LINE
  5
3C5
100
AcDbEntity
  8
0
  6
CONTINUOUS
 62
               7
100
AcDbLine
 10
1.0
 20
11.000000007980816
 30
0.0
 11
2.1999999999999318
 21
11.000000007980816
 31
0.0
  0
LINE
  5
3C6
100
AcDbEntity
  8
0
  6
CONTINUOUS
 62
               7
100
AcDbLine
 10
-8.5
 20
0.0
 30
0.0
 11
3.0
 21
0.0
 31
0.0
  0
LINE
  5
3C7
100
AcDbEntity
  8
0
  6
CONTINUOUS
 62
               7
100
AcDbLine
 10
-8.5
 20
8.3000000000000114
 30
0.0
 11
-8.5
 21
0.0
 31
0.0
  0
ARC
  5
3C8
100
AcDbEntity
  8
0
  6
CONTINUOUS
 62
               7
100
AcDbCircle
 10
-2.5
 20
18.0
 30
0.0
 40
3.1000000000000001
100
AcDbArc
 50
90.0
 51
270.0
  0
CIRCLE
  5
3C9
100
AcDbEntity
  8
0
  6
CONTINUOUS
 62
               2
100
AcDbCircle
 10
-2.5
 20
18.0
 30
0.0
 40
0.7
  0
CIRCLE
  5
3CA
100
AcDbEntity
  8
0
  6
CONTINUOUS
 62
               7
100
AcDbCircle
 10
-2.5
 20
18.0
 30
0.0
 40
1.0
  0
LINE
  5
3CB
100
AcDbEntity
  8
0
  6
CONTINUOUS
 62
               7
100
AcDbLine
 10
-7.7660254903787518
 20
23.999999863279186
 30
0.0
 11
-7.3330126744466497
 21
24.75000002338426
 31
0.0
  0
LINE
  5
3CC
100
AcDbEntity
  8
0
  6
CONTINUOUS
 62
               7
100
AcDbLine
 10
-6.4669873732144652
 20
24.750000143353219
 30
0.0
 11
-6.0339745896870909
 21
23.999999964539285
 31
0.0
  0
LINE
  5
3CD
100
AcDbEntity
  8
0
  6
CONTINUOUS
 62
               7
100
AcDbLine
 10
-6.0339745096213164
 20
24.000000136720814
 30
0.0
 11
-6.4669873255534185
 21
23.24999997661574
 31
0.0
  0
LINE
  5
3CE
100
AcDbEntity
  8
0
  6
CONTINUOUS
 62
               7
100
AcDbLine
 10
-7.3330126267857167
 20
23.249999856646781
 30
0.0
 11
-7.766025410313091
 21
24.000000035460715
 31
0.0
  0
LINE
  5
3CF
100
AcDbEntity
  8
0
  6
CONTINUOUS
 62
               7
100
AcDbLine
 10
-6.4669871364070559
 20
23.249999993367595
 30
0.0
 11
-7.3330127358664186
 21
23.250000012076455
 31
0.0
  0
LINE
  5
3D0
100
AcDbEntity
  8
0
  6
CONTINUOUS
 62
               7
100
AcDbLine
 10
-7.333012863593126
 20
24.750000006632405
 30
0.0
 11
-6.4669872641336497
 21
24.749999987923545
 31
0.0
  0
CIRCLE
  5
3D1
100
AcDbEntity
  8
0
  6
CONTINUOUS
 62
               7
100
AcDbCircle
 10
-6.9000000000000909
 20
24.0
 30
0.0
 40
1.6000000000000174
  0
CIRCLE
  5
3D2
100
AcDbEntity
  8
0
  6
CONTINUOUS
 62
               7
100
AcDbCircle
 10
-6.9000000000000909
 20
24.0
 30
0.0
 40
1.9000000000000148
  0
LINE
  5
3D3
100
AcDbEntity
  8
0
  6
CONTINUOUS
 62
               7
100
AcDbLine
 10
-8.8000000000000682
 20
26.5
 30
0.0
 11
-8.8000000000000682
 21
9.4999999999999716
 31
0.0
  0
CIRCLE
  5
3D4
100
AcDbEntity
  8
0
  6
CONTINUOUS
 62
               7
100
AcDbCircle
 10
-6.9000000000000909
 20
12.0
 30
0.0
 40
1.6000000000000174
  0
CIRCLE
  5
3D5
100
AcDbEntity
  8
0
  6
CONTINUOUS
 62
               7
100
AcDbCircle
 10
-6.9000000000000909
 20
12.0
 30
0.0
 40
1.9000000000000148
  0
LINE
  5
3D6
100
AcDbEntity
  8
0
  6
CONTINUOUS
 62
               7
100
AcDbLine
 10
-7.333012863593126
 20
11.249999993367595
 30
0.0
 11
-6.4669872641336497
 21
11.250000012076455
 31
0.0
  0
LINE
  5
3D7
100
AcDbEntity
  8
0
  6
CONTINUOUS
 62
               7
100
AcDbLine
 10
-6.4669871364070559
 20
12.750000006632391
 30
0.0
 11
-7.3330127358664186
 21
12.749999987923545
 31
0.0
  0
LINE
  5
3D8
100
AcDbEntity
  8
0
  6
CONTINUOUS
 62
               7
100
AcDbLine
 10
-7.3330126267857167
 20
12.750000143353219
 30
0.0
 11
-7.766025410313091
 21
11.999999964539285
 31
0.0
  0
LINE
  5
3D9
100
AcDbEntity
  8
0
  6
CONTINUOUS
 62
               7
100
AcDbLine
 10
-6.0339745096213164
 20
11.999999863279172
 30
0.0
 11
-6.4669873255534185
 21
12.75000002338426
 31
0.0
  0
LINE
  5
3DA
100
AcDbEntity
  8
0
  6
CONTINUOUS
 62
               7
100
AcDbLine
 10
-6.4669873732144652
 20
11.249999856646781
 30
0.0
 11
-6.0339745896870909
 21
12.000000035460715
 31
0.0
  0
LINE
  5
3DB
100
AcDbEntity
  8
0
  6
CONTINUOUS
 62
               7
100
AcDbLine
 10
-7.7660254903787518
 20
12.000000136720828
 30
0.0
 11
-7.3330126744466497
 21
11.24999997661574
 31
0.0
  0
LINE
  5
3DC
100
AcDbEntity
  8
0
  6
CONTINUOUS
 62
               7
100
AcDbLine
 10
0.3999999999999773
 20
9.0
 30
0.0
 11
0.3999999999999773
 21
16.099999999999994
 31
0.0
  0
LINE
  5
3DD
100
AcDbEntity
  8
0
  6
CONTINUOUS
 62
               7
100
AcDbLine
 10
0.3999999999999773
 20
9.5
 30
0.0
 11
1.0
 21
9.5
 31
0.0
  0
LINE
  5
3DE
100
AcDbEntity
  8
0
  6
CONTINUOUS
 62
               7
100
AcDbLine
 10
1.0
 20
9.500000007980816
 30
0.0
 11
1.0
 21
15.299999999999983
 31
0.0
  0
LINE
  5
3DF
100
AcDbEntity
  8
0
  6
CENTER
 62
               2
100
AcDbLine
 10
2.2055186855187685
 20
18.0
 30
0.0
 11
-11.152440806123423
 21
18.0
 31
0.0
  0
LINE
  5
3E0
100
AcDbEntity
  8
0
  6
CONTINUOUS
 62
               7
100
AcDbLine
 10
-9.0
 20
26.500000000000043
 30
0.0
 11
-9.0
 21
9.4999999999999716
 31
0.0
  0
LINE
  5
3E1
100
AcDbEntity
  8
0
  6
CONTINUOUS
 62
               7
100
AcDbLine
 10
0.3999999999999773
 20
26.5
 30
0.0
 11
1.0
 21
26.5
 31
0.0
  0
LINE
  5
3E2
100
AcDbEntity
  8
0
  6
CONTINUOUS
 62
               7
100
AcDbLine
 10
-8.5
 20
9.0
 30
0.0
 11
0.3999999999999773
 21
9.0
 31
0.0
  0
LINE
  5
3E3
100
AcDbEntity
  8
0
  6
CONTINUOUS
 62
               7
100
AcDbLine
 10
-8.7000000000000455
 20
28.0
 30
0.0
 11
-8.7000000000000455
 21
27.0
 31
0.0
  0
LINE
  5
3E4
100
AcDbEntity
  8
0
  6
CONTINUOUS
 62
               7
100
AcDbLine
 10
-8.8000000000000682
 20
29.700000000000017
 30
0.0
 11
-5.0
 21
29.700000000000017
 31
0.0
  0
LINE
  5
3E5
100
AcDbEntity
  8
0
  6
CONTINUOUS
 62
               7
100
AcDbLine
 10
-8.5
 20
30.0
 30
0.0
 11
-5.3000000000000682
 21
30.0
 31
0.0
  0
LINE
  5
3E6
100
AcDbEntity
  8
0
  6
CONTINUOUS
 62
               7
100
AcDbLine
 10
-8.8000000000000682
 20
28.0
 30
0.0
 11
-4.7000000000000455
 21
28.0
 31
0.0
  0
LINE
  5
3E7
100
AcDbEntity
  8
0
  6
CONTINUOUS
 62
               7
100
AcDbLine
 10
-8.8000000000000682
 20
29.700000000000017
 30
0.0
 11
-8.8000000000000682
 21
28.0
 31
0.0
  0
LINE
  5
3E8
100
AcDbEntity
  8
0
  6
CONTINUOUS
 62
               7
100
AcDbLine
 10
-8.5
 20
30.0
 30
0.0
 11
-8.8000000000000682
 21
29.700000000000017
 31
0.0
  0
LINE
  5
3E9
100
AcDbEntity
  8
0
  6
CONTINUOUS
 62
               7
100
AcDbLine
 10
-5.0
 20
29.700000000000017
 30
0.0
 11
-5.0
 21
28.0
 31
0.0
  0
LINE
  5
3EA
100
AcDbEntity
  8
0
  6
CONTINUOUS
 62
               7
100
AcDbLine
 10
-5.3000000000000682
 20
30.0
 30
0.0
 11
-5.0
 21
29.700000000000017
 31
0.0
  0
LINE
  5
3EB
100
AcDbEntity
  8
0
  6
CONTINUOUS
 62
               7
100
AcDbLine
 10
-5.1000000000000227
 20
27.000000011920918
 30
0.0
 11
-5.1000000000000227
 21
28.0
 31
0.0
  0
LINE
  5
3EC
100
AcDbEntity
  8
0
  6
CONTINUOUS
 62
               2
100
AcDbLine
 10
-1.5
 20
16.099999999999994
 30
0.0
 11
-3.5
 21
16.099999999999994
 31
0.0
  0
CIRCLE
  5
3ED
100
AcDbEntity
  8
0
  6
CONTINUOUS
 62
               7
100
AcDbCircle
 10
-2.5
 20
16.099999999999994
 30
0.0
 40
0.5
  0
LINE
  5
3EE
100
AcDbEntity
  8
0
  6
CONTINUOUS
 62
               2
100
AcDbLine
 10
-1.5
 20
19.900000000000006
 30
0.0
 11
-3.5
 21
19.900000000000006
 31
0.0
  0
CIRCLE
  5
3EF
100
AcDbEntity
  8
0
  6
CONTINUOUS
 62
               7
100
AcDbCircle
 10
-2.5
 20
19.900000000000006
 30
0.0
 40
0.5
  0
CIRCLE
  5
3F0
100
AcDbEntity
  8
0
  6
CONTINUOUS
 62
               7
100
AcDbCircle
 10
-2.5
 20
12.0
 30
0.0
 40
1.25
  0
CIRCLE
  5
3F1
100
AcDbEntity
  8
0
  6
CONTINUOUS
 62
               2
100
AcDbCircle
 10
-2.5
 20
12.0
 30
0.0
 40
1.5
  0
CIRCLE
  5
3F2
100
AcDbEntity
  8
0
  6
CONTINUOUS
 62
               7
100
AcDbCircle
 10
-2.5
 20
24.0
 30
0.0
 40
1.25
  0
CIRCLE
  5
3F3
100
AcDbEntity
  8
0
  6
CONTINUOUS
 62
               2
100
AcDbCircle
 10
-2.5
 20
24.0
 30
0.0
 40
1.5
  0
LINE
  5
3F4
100
AcDbEntity
  8
0
  6
CONTINUOUS
 62
               2
100
AcDbLine
 10
-2.5
 20
9.5
 30
0.0
 11
-2.5
 21
26.5
 31
0.0
  0
LINE
  5
3F5
100
AcDbEntity
  8
0
  6
CONTINUOUS
 62
               7
100
AcDbLine
 10
-8.3000000000000682
 20
9.0
 30
0.0
 11
-8.8000000000000682
 21
9.4999999999999716
 31
0.0
  0
LINE
  5
3F6
100
AcDbEntity
  8
0
  6
CONTINUOUS
 62
               7
100
AcDbLine
 10
-8.5
 20
9.0
 30
0.0
 11
-9.0
 21
9.4999999999999716
 31
0.0
  0
LINE
  5
3F7
100
AcDbEntity
  8
0
  6
CONTINUOUS
 62
               7
100
AcDbLine
 10
-8.8000000000000682
 20
26.5
 30
0.0
 11
-8.3000000000000682
 21
26.999999999999986
 31
0.0
  0
LINE
  5
3F8
100
AcDbEntity
  8
0
  6
CONTINUOUS
 62
               7
100
AcDbLine
 10
-8.5
 20
27.0
 30
0.0
 11
-9.0
 21
26.500000000000043
 31
0.0
  0
ARC
  5
3F9
100
AcDbEntity
  8
0
  6
CONTINUOUS
 62
               7
100
AcDbCircle
 10
-6.9000000000000909
 20
12.0
 30
0.0
 40
2.1000000000000001
100
AcDbArc
 50
270.0
 51
90.0
  0
LINE
  5
3FA
100
AcDbEntity
  8
0
  6
CONTINUOUS
 62
               7
100
AcDbLine
 10
-6.9000000000000909
 20
9.9000000000000057
 30
0.0
 11
-8.8000000000000682
 21
9.9000000000000057
 31
0.0
  0
LINE
  5
3FB
100
AcDbEntity
  8
0
  6
CONTINUOUS
 62
               7
100
AcDbLine
 10
-6.9000000000000909
 20
14.099999999999994
 30
0.0
 11
-8.8000000000000682
 21
14.099999999999994
 31
0.0
  0
LINE
  5
3FC
100
AcDbEntity
  8
0
  6
CONTINUOUS
 62
               7
100
AcDbLine
 10
-6.9000000000000909
 20
26.099999999999994
 30
0.0
 11
-8.8000000000000682
 21
26.099999999999994
 31
0.0
  0
ARC
  5
3FD
100
AcDbEntity
  8
0
  6
CONTINUOUS
 62
               7
100
AcDbCircle
 10
-6.9000000000000909
 20
24.0
 30
0.0
 40
2.1000000000000001
100
AcDbArc
 50
270.0
 51
90.0
  0
LINE
  5
3FE
100
AcDbEntity
  8
0
  6
CONTINUOUS
 62
               7
100
AcDbLine
 10
-6.9000000000000909
 20
21.900000000000006
 30
0.0
 11
-8.8000000000000682
 21
21.900000000000006
 31
0.0
  0
CIRCLE
  5
3FF
100
AcDbEntity
  8
0
  6
CONTINUOUS
 62
               7
100
AcDbCircle
 10
-2.5
 20
18.0
 30
0.0
 40
2.7999999999999998
  0
LINE
  5
400
100
AcDbEntity
  8
0
  6
CONTINUOUS
 62
               7
100
AcDbLine
 10
-2.5
 20
14.900000000000006
 30
0.0
 11
0.3999999999999773
 21
14.900000000000006
 31
0.0
  0
LINE
  5
401
100
AcDbEntity
  8
0
  6
CONTINUOUS
 62
               7
100
AcDbLine
 10
-2.5
 20
21.099999999999994
 30
0.0
 11
0.3999999999999773
 21
21.099999999999994
 31
0.0
  0
LINE
  5
402
100
AcDbEntity
  8
0
  6
CONTINUOUS
 62
               7
100
AcDbLine
 10
-0.4433036198797709
 20
16.099999999999994
 30
0.0
 11
0.3999999999999773
 21
16.099999999999994
 31
0.0
  0
LINE
  5
403
100
AcDbEntity
  8
0
  6
CONTINUOUS
 62
               7
100
AcDbLine
 10
-0.4433036198797709
 20
19.900000000000006
 30
0.0
 11
0.3999999999999773
 21
19.900000000000006
 31
0.0
  0
LINE
  5
404
100
AcDbEntity
  8
0
  6
CONTINUOUS
 62
               7
100
AcDbLine
 10
0.3999999999999773
 20
19.900000000000006
 30
0.0
 11
0.3999999999999773
 21
27.0
 31
0.0
  0
LINE
  5
405
100
AcDbEntity
  8
0
  6
CONTINUOUS
 62
               7
100
AcDbLine
 10
1.0
 20
20.700000000000017
 30
0.0
 11
1.0
 21
26.5
 31
0.0
  0
ARC
  5
406
100
AcDbEntity
  8
0
  6
CONTINUOUS
 62
               7
100
AcDbCircle
 10
-2.5
 20
18.0
 30
0.0
 40
2.8999999999999999
100
AcDbArc
 50
319.06727542584417
 51
40.932724574155898
  0
LINE
  5
407
100
AcDbEntity
  8
0
  6
CONTINUOUS
 62
               7
100
AcDbLine
 10
0.6999999999999318
 20
15.599999999999994
 30
0.0
 11
1.0
 21
15.299999999999983
 31
0.0
  0
LINE
  5
408
100
AcDbEntity
  8
0
  6
CONTINUOUS
 62
               7
100
AcDbLine
 10
0.6999999999999318
 20
20.400000000000006
 30
0.0
 11
1.0
 21
20.700000000000017
 31
0.0
  0
LINE
  5
409
100
AcDbEntity
  8
0
  6
CONTINUOUS
 62
               7
100
AcDbLine
 10
0.6999999999999318
 20
15.599999999999994
 30
0.0
 11
0.6999999999999318
 21
20.400000000000006
 31
0.0
  0
LINE
  5
40A
100
AcDbEntity
  8
0
  6
CONTINUOUS
 62
               7
100
AcDbLine
 10
-4.7000000000000455
 20
27.0
 30
0.0
 11
-4.7000000000000455
 21
29.5
 31
0.0
  0
ARC
  5
40B
100
AcDbEntity
  8
0
  6
CONTINUOUS
 62
               7
100
AcDbCircle
 10
-0.3004760263646631
 20
36.20047602636464
 30
0.0
 40
0.2995243519038812
100
AcDbArc
 50
89.908941249896955
 51
180.09105875010405
  0
ARC
  5
40C
100
AcDbEntity
  8
0
  6
CONTINUOUS
 62
               7
100
AcDbCircle
 10
-4.1006993865087225
 20
36.199300613491431
 30
0.0
 40
0.3007001998472195
100
AcDbArc
 50
0.1332620708018593
 51
89.866737929199076
  0
ARC
  5
40D
100
AcDbEntity
  8
0
  6
CONTINUOUS
 62
               7
100
AcDbCircle
 10
-2.2000000000000455
 20
33.900000000000063
 30
0.0
 40
2.1000000111152071
100
AcDbArc
 50
180.00000000000006
 51
0.0000000000000509
  0
LINE
  5
40E
100
AcDbEntity
  8
0
  6
CONTINUOUS
 62
               7
100
AcDbLine
 10
-4.3000000000000682
 20
35.500000000000057
 30
0.0
 11
-3.8000000000000682
 21
36.000000000000057
 31
0.0
  0
LINE
  5
40F
100
AcDbEntity
  8
0
  6
CONTINUOUS
 62
               7
100
AcDbLine
 10
-0.6000000000000227
 20
36.000000000000057
 30
0.0
 11
-0.1000000000000227
 21
35.500000000000057
 31
0.0
  0
LINE
  5
410
100
AcDbEntity
  8
0
  6
CONTINUOUS
 62
               7
100
AcDbLine
 10
-0.1000000000000227
 20
35.500000000000057
 30
0.0
 11
-0.1000000000000227
 21
33.900000000000063
 31
0.0
  0
LINE
  5
411
100
AcDbEntity
  8
0
  6
CONTINUOUS
 62
               7
100
AcDbLine
 10
-4.3000000000000682
 20
35.500000000000057
 30
0.0
 11
-4.3000000000000682
 21
33.900000000000063
 31
0.0
  0
LINE
  5
412
100
AcDbEntity
  8
0
  6
CONTINUOUS
 62
               7
100
AcDbLine
 10
-5.8000000000000682
 20
36.500000000000057
 30
0.0
 11
-4.1006993865087225
 21
36.500000000000057
 31
0.0
  0
LINE
  5
413
100
AcDbEntity
  8
0
  6
CONTINUOUS
 62
               7
100
AcDbLine
 10
-3.8000000000000682
 20
36.200000000000045
 30
0.0
 11
-3.8000000000000682
 21
36.000000000000057
 31
0.0
  0
LINE
  5
414
100
AcDbEntity
  8
0
  6
CONTINUOUS
 62
               7
100
AcDbLine
 10
-0.6000000000000227
 20
36.200000000000045
 30
0.0
 11
-0.6000000000000227
 21
36.000000000000057
 31
0.0
  0
LINE
  5
415
100
AcDbEntity
  8
0
  6
CONTINUOUS
 62
               7
100
AcDbLine
 10
-0.3004760263646631
 20
36.500000000000057
 30
0.0
 11
0.8999999999999773
 21
36.500000000000057
 31
0.0
  0
LINE
  5
416
100
AcDbEntity
  8
0
  6
CONTINUOUS
 62
               7
100
AcDbLine
 10
-5.8000000000000682
 20
36.500000000000057
 30
0.0
 11
-5.8000000000000682
 21
30.5
 31
0.0
  0
LINE
  5
417
100
AcDbEntity
  8
0
  6
CONTINUOUS
 62
               7
100
AcDbLine
 10
-5.7000000000000455
 20
30.5
 30
0.0
 11
-5.8000000000000682
 21
30.5
 31
0.0
  0
ARC
  5
418
100
AcDbEntity
  8
0
  6
CONTINUOUS
 62
               7
100
AcDbCircle
 10
-5.7000000000000455
 20
29.5
 30
0.0
 40
1.0
100
AcDbArc
 50
0.0000000000000509
 51
90.000000000000057
  0
LINE
  5
419
100
AcDbEntity
  8
0
  6
CONTINUOUS
 62
               7
100
AcDbLine
 10
0.8999999999999773
 20
36.500000000000057
 30
0.0
 11
0.8999999999999773
 21
26.5
 31
0.0
  0
LINE
  5
41A
100
AcDbEntity
  8
0
  6
CONTINUOUS
 62
               7
100
AcDbLine
 10
-5.0
 20
29.700000000000003
 30
0.0
 11
-4.7138785240661036
 21
29.700000000000003
 31
0.0
  0
LINE
  5
41B
100
AcDbEntity
  8
0
  6
CONTINUOUS
 62
               2
100
AcDbLine
 10
2.2055186855188254
 20
11.5
 30
0.0
 11
-2.7944813144812031
 21
11.5
 31
0.0
  0
LINE
  5
41C
100
AcDbEntity
  8
0
  6
CONTINUOUS
 62
               2
100
AcDbLine
 10
2.2055186855188254
 20
24.5
 30
0.0
 11
-2.7944813144812031
 21
24.5
 31
0.0
  0
ENDBLK
  5
41D
100
AcDbEntity
  8
0
100
AcDbBlockEnd
  0
BLOCK
  5
41E
100
AcDbEntity
  8
0
100
AcDbBlockBegin
  2
MGALGS4_5-10
 70
               0
 10
0.0
 20
0.0
 30
0.0
  3
MGALGS4_5-10
  1

  0
LINE
  5
41F
100
AcDbEntity
  8
0
  6
CONTINUOUS
 62
               2
100
AcDbLine
 10
63.499999999999886
 20
-2.5000000000000284
 30
0.0
 11
58.499999999999886
 21
-2.5000000000000284
 31
0.0
  0
LINE
  5
420
100
AcDbEntity
  8
0
  6
CONTINUOUS
 62
               7
100
AcDbLine
 10
8.9999999999999432
 20
1.0
 30
0.0
 11
8.9999999999999432
 21
-9.0
 31
0.0
  0
LINE
  5
421
100
AcDbEntity
  8
0
  6
CONTINUOUS
 62
               7
100
AcDbLine
 10
42.999999999999943
 20
0.9000000000000341
 30
0.0
 11
8.9999999999999432
 21
0.9000000000000341
 31
0.0
  0
ARC
  5
422
100
AcDbEntity
  8
0
  6
CONTINUOUS
 62
               7
100
AcDbCircle
 10
14.499999999999943
 20
-6.8999999999999773
 30
0.0
 40
1.9000000000000148
100
AcDbArc
 50
122.63689750355353
 51
57.363102496446466
  0
LINE
  5
423
100
AcDbEntity
  8
0
  6
CONTINUOUS
 62
               7
100
AcDbLine
 10
38.718399438202312
 20
-3.7999999999999829
 30
0.0
 11
13.281600561797518
 21
-3.7999999999999829
 31
0.0
  0
LINE
  5
424
100
AcDbEntity
  8
0
  6
CONTINUOUS
 62
               7
100
AcDbLine
 10
38.718399438202312
 20
-0.5999999999999659
 30
0.0
 11
13.281600561797575
 21
-0.5999999999999659
 31
0.0
  0
LINE
  5
425
100
AcDbEntity
  8
0
  6
CONTINUOUS
 62
               7
100
AcDbLine
 10
10.718399438202312
 20
-3.7999999999999829
 30
0.0
 11
8.9999999999999432
 21
-3.7999999999999829
 31
0.0
  0
LINE
  5
426
100
AcDbEntity
  8
0
  6
CONTINUOUS
 62
               7
100
AcDbLine
 10
10.718399438202255
 20
-0.5999999999999659
 30
0.0
 11
8.9999999999999432
 21
-0.5999999999999659
 31
0.0
  0
CIRCLE
  5
427
100
AcDbEntity
  8
0
  6
CONTINUOUS
 62
               7
100
AcDbCircle
 10
14.499999999999943
 20
-6.8999999999999773
 30
0.0
 40
1.6000000000000174
  0
LINE
  5
428
100
AcDbEntity
  8
0
  6
CONTINUOUS
 62
               7
100
AcDbLine
 10
12.499999999999943
 20
-5.2999999999999829
 30
0.0
 11
12.499999999999943
 21
-8.6999999999999886
 31
0.0
  0
LINE
  5
429
100
AcDbEntity
  8
0
  6
CONTINUOUS
 62
               7
100
AcDbLine
 10
47.000000024143844
 20
-5.2999999999999829
 30
0.0
 11
8.9999999999999432
 21
-5.2999999999999829
 31
0.0
  0
LINE
  5
42A
100
AcDbEntity
  8
0
  6
CONTINUOUS
 62
               7
100
AcDbLine
 10
11.249999856646696
 20
-2.6330126267856144
 30
0.0
 11
12.00000003546063
 21
-3.0660254103129887
 31
0.0
  0
LINE
  5
42B
100
AcDbEntity
  8
0
  6
CONTINUOUS
 62
               7
100
AcDbLine
 10
11.24999999336751
 20
-1.7669871364069252
 30
0.0
 11
11.250000012076384
 21
-2.6330127358663447
 31
0.0
  0
LINE
  5
42C
100
AcDbEntity
  8
0
  6
CONTINUOUS
 62
               7
100
AcDbLine
 10
12.000000136720757
 20
-1.3339745096212994
 30
0.0
 11
11.249999976615641
 21
-1.7669873255533446
 31
0.0
  0
LINE
  5
42D
100
AcDbEntity
  8
0
  6
CONTINUOUS
 62
               7
100
AcDbLine
 10
12.750000143353134
 20
-1.7669873732143344
 30
0.0
 11
11.999999964539199
 21
-1.3339745896869601
 31
0.0
  0
LINE
  5
42E
100
AcDbEntity
  8
0
  6
CONTINUOUS
 62
               7
100
AcDbLine
 10
12.75000000663232
 20
-2.6330128635930237
 30
0.0
 11
12.749999987923502
 21
-1.7669872641335758
 31
0.0
  0
LINE
  5
42F
100
AcDbEntity
  8
0
  6
CONTINUOUS
 62
               7
100
AcDbLine
 10
11.999999863279072
 20
-3.0660254903786495
 30
0.0
 11
12.750000023384189
 21
-2.6330126744466043
 31
0.0
  0
CIRCLE
  5
430
100
AcDbEntity
  8
0
  6
CONTINUOUS
 62
               7
100
AcDbCircle
 10
11.999999999999943
 20
-2.1999999999999602
 30
0.0
 40
1.6000000000000174
  0
CIRCLE
  5
431
100
AcDbEntity
  8
0
  6
CONTINUOUS
 62
               7
100
AcDbCircle
 10
11.999999999999943
 20
-2.1999999999999602
 30
0.0
 40
2.0499999999999998
  0
CIRCLE
  5
432
100
AcDbEntity
  8
0
  6
CONTINUOUS
 62
               7
100
AcDbCircle
 10
11.999999999999943
 20
-2.1999999999999602
 30
0.0
 40
1.9000000000000148
  0
LINE
  5
433
100
AcDbEntity
  8
0
  6
CONTINUOUS
 62
               7
100
AcDbLine
 10
26.891723746970058
 20
-8.6999999999999886
 30
0.0
 11
15.108276253029885
 21
-8.6999999999999886
 31
0.0
  0
LINE
  5
434
100
AcDbEntity
  8
0
  6
CONTINUOUS
 62
               7
100
AcDbLine
 10
46.999999999999943
 20
-9.0
 30
0.0
 11
8.9999999999999432
 21
-9.0
 31
0.0
  0
LINE
  5
435
100
AcDbEntity
  8
0
  6
CONTINUOUS
 62
               7
100
AcDbLine
 10
12.499999999999943
 20
-8.5
 30
0.0
 11
8.9999999999999432
 21
-8.5
 31
0.0
  0
LINE
  5
436
100
AcDbEntity
  8
0
  6
CONTINUOUS
 62
               7
100
AcDbLine
 10
14.500000136720757
 20
-7.7660254903786381
 30
0.0
 11
13.749999976615641
 21
-7.3330126744465929
 31
0.0
  0
LINE
  5
437
100
AcDbEntity
  8
0
  6
CONTINUOUS
 62
               7
100
AcDbLine
 10
13.749999856646696
 20
-6.4669873732143515
 30
0.0
 11
14.50000003546063
 21
-6.0339745896869772
 31
0.0
  0
LINE
  5
438
100
AcDbEntity
  8
0
  6
CONTINUOUS
 62
               7
100
AcDbLine
 10
14.499999863279072
 20
-6.0339745096213164
 30
0.0
 11
15.250000023384189
 21
-6.4669873255533616
 31
0.0
  0
LINE
  5
439
100
AcDbEntity
  8
0
  6
CONTINUOUS
 62
               7
100
AcDbLine
 10
15.250000143353134
 20
-7.3330126267856031
 30
0.0
 11
14.499999964539199
 21
-7.7660254103129773
 31
0.0
  0
LINE
  5
43A
100
AcDbEntity
  8
0
  6
CONTINUOUS
 62
               7
100
AcDbLine
 10
15.25000000663232
 20
-6.4669871364069422
 30
0.0
 11
15.249999987923502
 21
-7.3330127358663617
 31
0.0
  0
LINE
  5
43B
100
AcDbEntity
  8
0
  6
CONTINUOUS
 62
               7
100
AcDbLine
 10
13.74999999336751
 20
-7.3330128635930123
 30
0.0
 11
13.750000012076384
 21
-6.4669872641335928
 31
0.0
  0
LINE
  5
43C
100
AcDbEntity
  8
0
  6
CONTINUOUS
 62
               7
100
AcDbLine
 10
22.999999999999943
 20
-5.2999999999999829
 30
0.0
 11
22.999999999999943
 21
-8.6999999999999886
 31
0.0
  0
LINE
  5
43D
100
AcDbEntity
  8
0
  6
CONTINUOUS
 62
               7
100
AcDbLine
 10
18.999999999999943
 20
-5.2999999999999829
 30
0.0
 11
18.999999999999943
 21
-8.6999999999999886
 31
0.0
  0
LINE
  5
43E
100
AcDbEntity
  8
0
  6
CONTINUOUS
 62
               7
100
AcDbLine
 10
13.891723746970058
 20
-8.6999999999999886
 30
0.0
 11
12.499999999999943
 21
-8.6999999999999886
 31
0.0
  0
LINE
  5
43F
100
AcDbEntity
  8
0
  6
CONTINUOUS
 62
               7
100
AcDbLine
 10
46.999999999999943
 20
-8.5
 30
0.0
 11
29.499999999999943
 21
-8.5
 31
0.0
  0
LINE
  5
440
100
AcDbEntity
  8
0
  6
CONTINUOUS
 62
               7
100
AcDbLine
 10
28.25000000663232
 20
-7.3330128635930123
 30
0.0
 11
28.249999987923502
 21
-6.4669872641335928
 31
0.0
  0
LINE
  5
441
100
AcDbEntity
  8
0
  6
CONTINUOUS
 62
               7
100
AcDbLine
 10
26.74999999336751
 20
-6.4669871364069422
 30
0.0
 11
26.750000012076384
 21
-7.3330127358663617
 31
0.0
  0
LINE
  5
442
100
AcDbEntity
  8
0
  6
CONTINUOUS
 62
               7
100
AcDbLine
 10
26.749999856646696
 20
-7.3330126267856031
 30
0.0
 11
27.50000003546063
 21
-7.7660254103129773
 31
0.0
  0
LINE
  5
443
100
AcDbEntity
  8
0
  6
CONTINUOUS
 62
               7
100
AcDbLine
 10
27.500000136720757
 20
-6.0339745096213164
 30
0.0
 11
26.749999976615641
 21
-6.4669873255533616
 31
0.0
  0
LINE
  5
444
100
AcDbEntity
  8
0
  6
CONTINUOUS
 62
               7
100
AcDbLine
 10
28.250000143353134
 20
-6.4669873732143515
 30
0.0
 11
27.499999964539199
 21
-6.0339745896869772
 31
0.0
  0
LINE
  5
445
100
AcDbEntity
  8
0
  6
CONTINUOUS
 62
               7
100
AcDbLine
 10
27.499999863279072
 20
-7.7660254903786381
 30
0.0
 11
28.250000023384189
 21
-7.3330126744465929
 31
0.0
  0
LINE
  5
446
100
AcDbEntity
  8
0
  6
CONTINUOUS
 62
               7
100
AcDbLine
 10
29.499999999999943
 20
-5.2999999999999829
 30
0.0
 11
29.499999999999943
 21
-8.6999999999999886
 31
0.0
  0
ARC
  5
447
100
AcDbEntity
  8
0
  6
CONTINUOUS
 62
               7
100
AcDbCircle
 10
27.499999999999943
 20
-6.8999999999999773
 30
0.0
 40
1.9000000000000148
100
AcDbArc
 50
122.63689750355353
 51
57.363102496446466
  0
CIRCLE
  5
448
100
AcDbEntity
  8
0
  6
CONTINUOUS
 62
               7
100
AcDbCircle
 10
27.499999999999943
 20
-6.8999999999999773
 30
0.0
 40
1.6000000000000174
  0
LINE
  5
449
100
AcDbEntity
  8
0
  6
CONTINUOUS
 62
               7
100
AcDbLine
 10
29.499999999999943
 20
-8.6999999999999886
 30
0.0
 11
28.108276253029771
 21
-8.6999999999999886
 31
0.0
  0
CIRCLE
  5
44A
100
AcDbEntity
  8
0
  6
CONTINUOUS
 62
               7
100
AcDbCircle
 10
39.999999999999943
 20
-2.1999999999999602
 30
0.0
 40
1.9000000000000148
  0
CIRCLE
  5
44B
100
AcDbEntity
  8
0
  6
CONTINUOUS
 62
               7
100
AcDbCircle
 10
39.999999999999943
 20
-2.1999999999999602
 30
0.0
 40
2.0499999999999998
  0
LINE
  5
44C
100
AcDbEntity
  8
0
  6
CONTINUOUS
 62
               7
100
AcDbLine
 10
42.999999999999943
 20
-0.5999999999999659
 30
0.0
 11
41.281600561797575
 21
-0.5999999999999659
 31
0.0
  0
LINE
  5
44D
100
AcDbEntity
  8
0
  6
CONTINUOUS
 62
               7
100
AcDbLine
 10
42.999999999999943
 20
-3.7999999999999829
 30
0.0
 11
41.281600561797518
 21
-3.7999999999999829
 31
0.0
  0
LINE
  5
44E
100
AcDbEntity
  8
0
  6
CONTINUOUS
 62
               7
100
AcDbLine
 10
40.000000136720757
 20
-3.0660254903786495
 30
0.0
 11
39.249999976615641
 21
-2.6330126744466043
 31
0.0
  0
LINE
  5
44F
100
AcDbEntity
  8
0
  6
CONTINUOUS
 62
               7
100
AcDbLine
 10
39.24999999336751
 20
-2.6330128635930237
 30
0.0
 11
39.250000012076384
 21
-1.7669872641335758
 31
0.0
  0
LINE
  5
450
100
AcDbEntity
  8
0
  6
CONTINUOUS
 62
               7
100
AcDbLine
 10
39.249999856646696
 20
-1.7669873732143344
 30
0.0
 11
40.00000003546063
 21
-1.3339745896869601
 31
0.0
  0
LINE
  5
451
100
AcDbEntity
  8
0
  6
CONTINUOUS
 62
               7
100
AcDbLine
 10
39.999999863279072
 20
-1.3339745096212994
 30
0.0
 11
40.750000023384189
 21
-1.7669873255533446
 31
0.0
  0
LINE
  5
452
100
AcDbEntity
  8
0
  6
CONTINUOUS
 62
               7
100
AcDbLine
 10
40.75000000663232
 20
-1.7669871364069252
 30
0.0
 11
40.749999987923502
 21
-2.6330127358663447
 31
0.0
  0
LINE
  5
453
100
AcDbEntity
  8
0
  6
CONTINUOUS
 62
               7
100
AcDbLine
 10
40.750000143353134
 20
-2.6330126267856144
 30
0.0
 11
39.999999964539199
 21
-3.0660254103129887
 31
0.0
  0
CIRCLE
  5
454
100
AcDbEntity
  8
0
  6
CONTINUOUS
 62
               7
100
AcDbCircle
 10
39.999999999999943
 20
-2.1999999999999602
 30
0.0
 40
1.6000000000000174
  0
LINE
  5
455
100
AcDbEntity
  8
0
  6
CONTINUOUS
 62
               7
100
AcDbLine
 10
47.000000024143844
 20
-5.0000000136906237
 30
0.0
 11
42.999999999999943
 21
-5.0000000136906237
 31
0.0
  0
LINE
  5
456
100
AcDbEntity
  8
0
  6
CONTINUOUS
 62
               7
100
AcDbLine
 10
42.0
 20
2.2000000000000171
 30
0.0
 11
5.0
 21
2.2000000000000171
 31
0.0
  0
LINE
  5
457
100
AcDbEntity
  8
0
  6
CONTINUOUS
 62
               7
100
AcDbLine
 10
7.9999999999999432
 20
-6.0
 30
0.0
 11
4.0000000025372628
 21
-6.0
 31
0.0
  0
LINE
  5
458
100
AcDbEntity
  8
0
  6
CONTINUOUS
 62
               7
100
AcDbLine
 10
8.9999999999999432
 20
0.9000000000000057
 30
0.0
 11
4.0000000025372628
 21
0.9000000000000057
 31
0.0
  0
LINE
  5
459
100
AcDbEntity
  8
0
  6
CONTINUOUS
 62
               7
100
AcDbLine
 10
4.0000000025372628
 20
-6.0
 30
0.0
 11
4.0000000025372628
 21
0.9000000000000057
 31
0.0
  0
LINE
  5
45A
100
AcDbEntity
  8
0
  6
CONTINUOUS
 62
               7
100
AcDbLine
 10
8.4999999999999432
 20
-8.5
 30
0.0
 11
-3.0
 21
-8.5
 31
0.0
  0
LINE
  5
45B
100
AcDbEntity
  8
0
  6
CONTINUOUS
 62
               2
100
AcDbLine
 10
0.0
 20
2.7000000000000171
 30
0.0
 11
0.0
 21
-2.7000000000000171
 31
0.0
  0
LINE
  5
45C
100
AcDbEntity
  8
0
  6
CONTINUOUS
 62
               2
100
AcDbLine
 10
-2.6999999999999886
 20
0.0
 30
0.0
 11
2.6999999999999886
 21
0.0
 31
0.0
  0
ARC
  5
45D
100
AcDbEntity
  8
0
  6
CONTINUOUS
 62
               7
100
AcDbCircle
 10
0.0
 20
0.0
 30
0.0
 40
3.5
100
AcDbArc
 50
270.0
 51
0.0
  0
LINE
  5
45E
100
AcDbEntity
  8
0
  6
CONTINUOUS
 62
               7
100
AcDbLine
 10
0.0
 20
-3.5
 30
0.0
 11
-3.0
 21
-3.5
 31
0.0
  0
LINE
  5
45F
100
AcDbEntity
  8
0
  6
CONTINUOUS
 62
               7
100
AcDbLine
 10
3.5
 20
0.0
 30
0.0
 11
3.5
 21
2.9999999999999716
 31
0.0
  0
LINE
  5
460
100
AcDbEntity
  8
0
  6
CONTINUOUS
 62
               7
100
AcDbLine
 10
-3.0
 20
-8.5
 30
0.0
 11
-3.0
 21
2.9999999999999716
 31
0.0
  0
LINE
  5
461
100
AcDbEntity
  8
0
  6
CONTINUOUS
 62
               7
100
AcDbLine
 10
5.0
 20
0.9000000000000057
 30
0.0
 11
5.0
 21
2.2000000000000171
 31
0.0
  0
LINE
  5
462
100
AcDbEntity
  8
0
  6
CONTINUOUS
 62
               7
100
AcDbLine
 10
42.0
 20
1.0
 30
0.0
 11
42.0
 21
2.2000000000000171
 31
0.0
  0
LINE
  5
463
100
AcDbEntity
  8
0
  6
CONTINUOUS
 62
               7
100
AcDbLine
 10
50.0
 20
2.9999999999999716
 30
0.0
 11
-3.0
 21
2.9999999999999716
 31
0.0
  0
CIRCLE
  5
464
100
AcDbEntity
  8
0
  6
CONTINUOUS
 62
               7
100
AcDbCircle
 10
0.0
 20
0.0
 30
0.0
 40
1.7
  0
LINE
  5
465
100
AcDbEntity
  8
0
  6
CONTINUOUS
 62
               7
100
AcDbLine
 10
8.4999999999999432
 20
-8.6999999999999886
 30
0.0
 11
8.4999999999999432
 21
-5.1999999999999886
 31
0.0
  0
ARC
  5
466
100
AcDbEntity
  8
0
  6
CONTINUOUS
 62
               7
100
AcDbCircle
 10
8.2999999999999545
 20
-7.2000000000000171
 30
0.0
 40
0.3
100
AcDbArc
 50
180.0
 51
270.0
  0
ARC
  5
467
100
AcDbEntity
  8
0
  6
CONTINUOUS
 62
               7
100
AcDbCircle
 10
8.2999999999999545
 20
-5.7999999999999829
 30
0.0
 40
0.3
100
AcDbArc
 50
90.0
 51
180.0
  0
LINE
  5
468
100
AcDbEntity
  8
0
  6
CONTINUOUS
 62
               7
100
AcDbLine
 10
8.4999999999999432
 20
-7.5
 30
0.0
 11
8.2999999999999545
 21
-7.5
 31
0.0
  0
LINE
  5
469
100
AcDbEntity
  8
0
  6
CONTINUOUS
 62
               7
100
AcDbLine
 10
8.4999999999999432
 20
-5.5
 30
0.0
 11
8.2999999999999545
 21
-5.5
 31
0.0
  0
LINE
  5
46A
100
AcDbEntity
  8
0
  6
CONTINUOUS
 62
               7
100
AcDbLine
 10
7.9999999999999432
 20
-7.2000000000000171
 30
0.0
 11
7.9999999999999432
 21
-5.7999999999999829
 31
0.0
  0
LINE
  5
46B
100
AcDbEntity
  8
0
  6
CONTINUOUS
 62
               7
100
AcDbLine
 10
8.9999999982455279
 20
-5.1999999999999886
 30
0.0
 11
8.4999999982455279
 21
-5.1999999999999886
 31
0.0
  0
LINE
  5
46C
100
AcDbEntity
  8
0
  6
CONTINUOUS
 62
               7
100
AcDbLine
 10
8.9999999982455279
 20
-8.6999999999999886
 30
0.0
 11
8.4999999982455279
 21
-8.6999999999999886
 31
0.0
  0
LINE
  5
46D
100
AcDbEntity
  8
0
  6
CONTINUOUS
 62
               7
100
AcDbLine
 10
8.9999999999999432
 20
-4.5
 30
0.0
 11
4.0000000025372628
 21
-4.5
 31
0.0
  0
LINE
  5
46E
100
AcDbEntity
  8
0
  6
CONTINUOUS
 62
               7
100
AcDbLine
 10
42.999999999999943
 20
1.0
 30
0.0
 11
5.0
 21
1.0
 31
0.0
  0
LINE
  5
46F
100
AcDbEntity
  8
0
  6
CONTINUOUS
 62
               2
100
AcDbLine
 10
20.000000002537234
 20
0.4999999999999716
 30
0.0
 11
20.000000002537234
 21
5.4999999999999716
 31
0.0
  0
LINE
  5
470
100
AcDbEntity
  8
0
  6
CONTINUOUS
 62
               2
100
AcDbLine
 10
36.000000002537234
 20
0.4999999999999716
 30
0.0
 11
36.000000002537234
 21
5.4999999999999716
 31
0.0
  0
ARC
  5
471
100
AcDbEntity
  8
0
  6
CONTINUOUS
 62
               7
100
AcDbCircle
 10
47.0
 20
0.0
 30
0.0
 40
1.7
100
AcDbArc
 50
323.9681209275293
 51
197.10463517664363
  0
LINE
  5
472
100
AcDbEntity
  8
0
  6
CONTINUOUS
 62
               7
100
AcDbLine
 10
50.0
 20
-1.0
 30
0.0
 11
50.0
 21
2.9999999999999716
 31
0.0
  0
LINE
  5
473
100
AcDbEntity
  8
0
  6
CONTINUOUS
 62
               2
100
AcDbLine
 10
47.0
 20
2.7000000000000171
 30
0.0
 11
47.0
 21
-2.7000000000000171
 31
0.0
  0
LINE
  5
474
100
AcDbEntity
  8
0
  6
CONTINUOUS
 62
               2
100
AcDbLine
 10
49.700000000000017
 20
0.0
 30
0.0
 11
44.299999999999983
 21
0.0
 31
0.0
  0
ARC
  5
475
100
AcDbEntity
  8
0
  6
CONTINUOUS
 62
               7
100
AcDbCircle
 10
47.0
 20
0.0
 30
0.0
 40
3.5
100
AcDbArc
 50
180.0
 51
205.37693352515225
  0
LINE
  5
476
100
AcDbEntity
  8
0
  6
CONTINUOUS
 62
               7
100
AcDbLine
 10
43.5
 20
0.0
 30
0.0
 11
43.5
 21
2.9999999999999716
 31
0.0
  0
LINE
  5
477
100
AcDbEntity
  8
0
  6
CONTINUOUS
 62
               7
100
AcDbLine
 10
42.999999999999943
 20
1.0
 30
0.0
 11
42.999999999999943
 21
-5.0
 31
0.0
  0
LINE
  5
478
100
AcDbEntity
  8
0
  6
CONTINUOUS
 62
               7
100
AcDbLine
 10
47.000000024143844
 20
-5.0
 30
0.0
 11
47.000000024143844
 21
-8.9999999863094047
 31
0.0
  0
LINE
  5
479
100
AcDbEntity
  8
0
  6
CONTINUOUS
 62
               2
100
AcDbLine
 10
44.699999999999875
 20
-1.5794023680238922
 30
0.0
 11
45.199999999999875
 21
-3.4205976319761078
 31
0.0
  0
LINE
  5
47A
100
AcDbEntity
  8
0
  6
CONTINUOUS
 62
               2
100
AcDbLine
 10
44.699999999999875
 20
-3.4205976319761078
 30
0.0
 11
45.199999999999875
 21
-1.5794023680238922
 31
0.0
  0
LINE
  5
47B
100
AcDbEntity
  8
0
  6
CONTINUOUS
 62
               7
100
AcDbLine
 10
45.199999999999875
 20
-1.5794023680238922
 30
0.0
 11
44.699999999999875
 21
-1.5794023680238922
 31
0.0
  0
LINE
  5
47C
100
AcDbEntity
  8
0
  6
CONTINUOUS
 62
               7
100
AcDbLine
 10
45.199999999999875
 20
-3.4205976319761078
 30
0.0
 11
44.699999999999875
 21
-3.4205976319761078
 31
0.0
  0
LINE
  5
47D
100
AcDbEntity
  8
0
  6
CONTINUOUS
 62
               7
100
AcDbLine
 10
44.699999999999875
 20
-5.0
 30
0.0
 11
44.699999999999875
 21
0.4000000000000057
 31
0.0
  0
LINE
  5
47E
100
AcDbEntity
  8
0
  6
CONTINUOUS
 62
               7
100
AcDbLine
 10
44.699999999999875
 20
-0.0999999999999943
 30
0.0
 11
44.499999999999886
 21
-0.0999999999999943
 31
0.0
  0
LINE
  5
47F
100
AcDbEntity
  8
0
  6
CONTINUOUS
 62
               7
100
AcDbLine
 10
44.699999999999875
 20
-4.9000000000000057
 30
0.0
 11
44.499999999999886
 21
-4.9000000000000057
 31
0.0
  0
LINE
  5
480
100
AcDbEntity
  8
0
  6
CONTINUOUS
 62
               7
100
AcDbLine
 10
45.199999999999875
 20
0.4000000000000057
 30
0.0
 11
44.699999999999875
 21
0.4000000000000057
 31
0.0
  0
LINE
  5
481
100
AcDbEntity
  8
0
  6
CONTINUOUS
 62
               7
100
AcDbLine
 10
44.499999999999886
 20
-4.9000000000000057
 30
0.0
 11
44.499999999999886
 21
-0.0999999999999943
 31
0.0
  0
CIRCLE
  5
482
100
AcDbEntity
  8
0
  6
CONTINUOUS
 62
               7
100
AcDbCircle
 10
45.32999999999987
 20
-4.8700000000000045
 30
0.0
 40
0.129999999999999
  0
LINE
  5
483
100
AcDbEntity
  8
0
  6
PHANTOM
 62
               2
100
AcDbLine
 10
46.000000024143787
 20
-4.7400000000000091
 30
0.0
 11
45.32999999999987
 21
-4.7400000000000091
 31
0.0
  0
LINE
  5
484
100
AcDbEntity
  8
0
  6
CONTINUOUS
 62
               7
100
AcDbLine
 10
44.499999999999886
 20
-1.5
 30
0.0
 11
42.999999999999943
 21
-1.5
 31
0.0
  0
LINE
  5
485
100
AcDbEntity
  8
0
  6
CONTINUOUS
 62
               7
100
AcDbLine
 10
44.499999999999886
 20
-3.5
 30
0.0
 11
42.999999999999943
 21
-3.5
 31
0.0
  0
CIRCLE
  5
486
100
AcDbEntity
  8
0
  6
CONTINUOUS
 62
               7
100
AcDbCircle
 10
52.069999999999879
 20
-0.1299999999999955
 30
0.0
 40
0.129999999999999
  0
CIRCLE
  5
487
100
AcDbEntity
  8
0
  6
CONTINUOUS
 62
               7
100
AcDbCircle
 10
45.32999999999987
 20
-0.1299999999999955
 30
0.0
 40
0.129999999999999
  0
LINE
  5
488
100
AcDbEntity
  8
0
  6
PHANTOM
 62
               2
100
AcDbLine
 10
52.069999999999879
 20
-0.2599999999999909
 30
0.0
 11
45.32999999999987
 21
-0.2599999999999909
 31
0.0
  0
LINE
  5
489
100
AcDbEntity
  8
0
  6
PHANTOM
 62
               2
100
AcDbLine
 10
52.069999999999879
 20
0.0
 30
0.0
 11
45.349999999999881
 21
0.0
 31
0.0
  0
LINE
  5
48A
100
AcDbEntity
  8
0
  6
CONTINUOUS
 62
               7
100
AcDbLine
 10
46.000000024143787
 20
-4.5
 30
0.0
 11
45.199999999999875
 21
-4.5
 31
0.0
  0
LINE
  5
48B
100
AcDbEntity
  8
0
  6
CONTINUOUS
 62
               7
100
AcDbLine
 10
46.499999999999858
 20
-0.5
 30
0.0
 11
46.499999999999858
 21
-4.0
 31
0.0
  0
LINE
  5
48C
100
AcDbEntity
  8
0
  6
CONTINUOUS
 62
               7
100
AcDbLine
 10
50.699999999999875
 20
-0.5
 30
0.0
 11
50.699999999999875
 21
-4.0
 31
0.0
  0
LINE
  5
48D
100
AcDbEntity
  8
0
  6
CONTINUOUS
 62
               2
100
AcDbLine
 10
44.499999999999886
 20
-1.6500000000000057
 30
0.0
 11
44.240192378864549
 21
-1.5
 31
0.0
  0
LINE
  5
48E
100
AcDbEntity
  8
0
  6
CONTINUOUS
 62
               2
100
AcDbLine
 10
44.499999999999886
 20
-3.3499999999999943
 30
0.0
 11
44.240192378864549
 21
-3.5
 31
0.0
  0
LINE
  5
48F
100
AcDbEntity
  8
0
  6
CONTINUOUS
 62
               7
100
AcDbLine
 10
52.199999999999875
 20
0.4000000000000057
 30
0.0
 11
52.999999999999886
 21
0.4000000000000057
 31
0.0
  0
LINE
  5
490
100
AcDbEntity
  8
0
  6
CONTINUOUS
 62
               7
100
AcDbLine
 10
50.699999999999875
 20
-0.5
 30
0.0
 11
52.199999999999875
 21
-0.5
 31
0.0
  0
LINE
  5
491
100
AcDbEntity
  8
0
  6
CONTINUOUS
 62
               7
100
AcDbLine
 10
46.499999999999858
 20
-0.5
 30
0.0
 11
45.199999999999875
 21
-0.5
 31
0.0
  0
LINE
  5
492
100
AcDbEntity
  8
0
  6
CONTINUOUS
 62
               7
100
AcDbLine
 10
52.199999999999875
 20
0.4000000000000057
 30
0.0
 11
52.199999999999875
 21
-4.0
 31
0.0
  0
LINE
  5
493
100
AcDbEntity
  8
0
  6
CONTINUOUS
 62
               7
100
AcDbLine
 10
60.999999999999886
 20
0.4000000000000057
 30
0.0
 11
60.999999999999886
 21
-8.7999999982303194
 31
0.0
  0
LINE
  5
494
100
AcDbEntity
  8
0
  6
CONTINUOUS
 62
               7
100
AcDbLine
 10
60.999999999999886
 20
-8.7999999999999972
 30
0.0
 11
47.000000024143787
 21
-8.7999999999999972
 31
0.0
  0
LINE
  5
495
100
AcDbEntity
  8
0
  6
CONTINUOUS
 62
               7
100
AcDbLine
 10
52.999999999999886
 20
0.4000000000000057
 30
0.0
 11
52.999999999999886
 21
-4.0
 31
0.0
  0
LINE
  5
496
100
AcDbEntity
  8
0
  6
CONTINUOUS
 62
               7
100
AcDbLine
 10
45.199999999999875
 20
0.4000000000000057
 30
0.0
 11
45.199999999999875
 21
-5.0
 31
0.0
  0
LINE
  5
497
100
AcDbEntity
  8
0
  6
CONTINUOUS
 62
               7
100
AcDbLine
 10
60.999999999999886
 20
0.4000000000000057
 30
0.0
 11
52.999999999999886
 21
0.4000000000000057
 31
0.0
  0
LINE
  5
498
100
AcDbEntity
  8
0
  6
CONTINUOUS
 62
               7
100
AcDbLine
 10
50.699999999999875
 20
-1.0
 30
0.0
 11
46.499999999999858
 21
-1.0
 31
0.0
  0
LINE
  5
499
100
AcDbEntity
  8
0
  6
CONTINUOUS
 62
               7
100
AcDbLine
 10
52.999999999999886
 20
-4.0
 30
0.0
 11
46.000000024143787
 21
-4.0
 31
0.0
  0
LINE
  5
49A
100
AcDbEntity
  8
0
  6
CONTINUOUS
 62
               7
100
AcDbLine
 10
46.000000024143787
 20
-4.0
 30
0.0
 11
46.000000024143787
 21
-5.0
 31
0.0
  0
LINE
  5
49B
100
AcDbEntity
  8
0
  6
CONTINUOUS
 62
               7
100
AcDbLine
 10
60.999999999999886
 20
-8.2999999999999972
 30
0.0
 11
46.999999999999943
 21
-8.2999999999999972
 31
0.0
  0
LINE
  5
49C
100
AcDbEntity
  8
0
  6
CONTINUOUS
 62
               2
100
AcDbLine
 10
52.455680109367904
 20
-2.5
 30
0.0
 11
42.346044624153762
 21
-2.5
 31
0.0
  0
ENDBLK
  5
49D
100
AcDbEntity
  8
0
100
AcDbBlockEnd
  0
BLOCK
  5
49E
100
AcDbEntity
  8
0
100
AcDbBlockBegin
  2
MGALGS4_5-11
 70
               0
 10
0.0
 20
0.0
 30
0.0
  3
MGALGS4_5-11
  1

  0
LINE
  5
49F
100
AcDbEntity
  8
0
  6
CONTINUOUS
 62
               2
100
AcDbLine
 10
63.499999999999943
 20
2.5
 30
0.0
 11
58.499999999999943
 21
2.5
 31
0.0
  0
CIRCLE
  5
4A0
100
AcDbEntity
  8
0
  6
CONTINUOUS
 62
               7
100
AcDbCircle
 10
47.0
 20
6.0
 30
0.0
 40
1.5
  0
LINE
  5
4A1
100
AcDbEntity
  8
0
  6
CONTINUOUS
 62
               2
100
AcDbLine
 10
47.0
 20
3.5
 30
0.0
 11
47.0
 21
8.5
 31
0.0
  0
LINE
  5
4A2
100
AcDbEntity
  8
0
  6
CONTINUOUS
 62
               2
100
AcDbLine
 10
49.5
 20
6.0
 30
0.0
 11
44.5
 21
6.0
 31
0.0
  0
CIRCLE
  5
4A3
100
AcDbEntity
  8
0
  6
CONTINUOUS
 62
               7
100
AcDbCircle
 10
0.0
 20
6.0
 30
0.0
 40
1.5
  0
LINE
  5
4A4
100
AcDbEntity
  8
0
  6
CONTINUOUS
 62
               2
100
AcDbLine
 10
0.0
 20
3.5
 30
0.0
 11
0.0
 21
8.5
 31
0.0
  0
LINE
  5
4A5
100
AcDbEntity
  8
0
  6
CONTINUOUS
 62
               2
100
AcDbLine
 10
2.5
 20
6.0
 30
0.0
 11
-2.5
 21
6.0
 31
0.0
  0
LINE
  5
4A6
100
AcDbEntity
  8
0
  6
CONTINUOUS
 62
               7
100
AcDbLine
 10
47.000000024143844
 20
8.5
 30
0.0
 11
47.000000024143844
 21
8.9999999863093905
 31
0.0
  0
LINE
  5
4A7
100
AcDbEntity
  8
0
  6
CONTINUOUS
 62
               7
100
AcDbLine
 10
8.9999999999999432
 20
8.5
 30
0.0
 11
8.9999999999999432
 21
9.0
 31
0.0
  0
LINE
  5
4A8
100
AcDbEntity
  8
0
  6
CONTINUOUS
 62
               7
100
AcDbLine
 10
46.999999999999943
 20
9.0
 30
0.0
 11
8.9999999999999432
 21
9.0
 31
0.0
  0
LINE
  5
4A9
100
AcDbEntity
  8
0
  6
CONTINUOUS
 62
               7
100
AcDbLine
 10
8.9999999982455279
 20
8.6999999999999886
 30
0.0
 11
8.4999999982455279
 21
8.6999999999999886
 31
0.0
  0
LINE
  5
4AA
100
AcDbEntity
  8
0
  6
CONTINUOUS
 62
               7
100
AcDbLine
 10
8.4999999999999432
 20
8.6999999999999886
 30
0.0
 11
8.4999999999999432
 21
8.5
 31
0.0
  0
CIRCLE
  5
4AB
100
AcDbEntity
  8
0
  6
CONTINUOUS
 62
               7
100
AcDbCircle
 10
0.0
 20
0.0
 30
0.0
 40
1.7
  0
LINE
  5
4AC
100
AcDbEntity
  8
0
  6
CONTINUOUS
 62
               7
100
AcDbLine
 10
50.0
 20
-3.0
 30
0.0
 11
-3.0
 21
-3.0
 31
0.0
  0
LINE
  5
4AD
100
AcDbEntity
  8
0
  6
CONTINUOUS
 62
               7
100
AcDbLine
 10
-3.0
 20
8.5
 30
0.0
 11
-3.0
 21
-3.0
 31
0.0
  0
LINE
  5
4AE
100
AcDbEntity
  8
0
  6
CONTINUOUS
 62
               2
100
AcDbLine
 10
-2.7000000000000171
 20
0.0
 30
0.0
 11
2.7000000000000171
 21
0.0
 31
0.0
  0
LINE
  5
4AF
100
AcDbEntity
  8
0
  6
CONTINUOUS
 62
               2
100
AcDbLine
 10
0.0
 20
-2.7000000000000028
 30
0.0
 11
0.0
 21
2.7000000000000028
 31
0.0
  0
LINE
  5
4B0
100
AcDbEntity
  8
0
  6
CONTINUOUS
 62
               2
100
AcDbLine
 10
49.700000000000017
 20
0.0
 30
0.0
 11
44.299999999999983
 21
0.0
 31
0.0
  0
LINE
  5
4B1
100
AcDbEntity
  8
0
  6
CONTINUOUS
 62
               2
100
AcDbLine
 10
47.0
 20
-2.7000000000000028
 30
0.0
 11
47.0
 21
2.7000000000000028
 31
0.0
  0
LINE
  5
4B2
100
AcDbEntity
  8
0
  6
CONTINUOUS
 62
               7
100
AcDbLine
 10
50.0
 20
8.5
 30
0.0
 11
-3.0
 21
8.5
 31
0.0
  0
LINE
  5
4B3
100
AcDbEntity
  8
0
  6
CONTINUOUS
 62
               7
100
AcDbLine
 10
50.0
 20
8.5
 30
0.0
 11
50.0
 21
-3.0
 31
0.0
  0
CIRCLE
  5
4B4
100
AcDbEntity
  8
0
  6
CONTINUOUS
 62
               7
100
AcDbCircle
 10
47.0
 20
0.0
 30
0.0
 40
1.7
  0
CIRCLE
  5
4B5
100
AcDbEntity
  8
0
  6
CONTINUOUS
 62
               7
100
AcDbCircle
 10
15.5
 20
2.0
 30
0.0
 40
4.25
  0
CIRCLE
  5
4B6
100
AcDbEntity
  8
0
  6
CONTINUOUS
 62
               7
100
AcDbCircle
 10
31.5
 20
2.0
 30
0.0
 40
4.25
  0
CIRCLE
  5
4B7
100
AcDbEntity
  8
0
  6
CONTINUOUS
 62
               7
100
AcDbCircle
 10
31.5
 20
2.0
 30
0.0
 40
3.5
  0
CIRCLE
  5
4B8
100
AcDbEntity
  8
0
  6
CONTINUOUS
 62
               7
100
AcDbCircle
 10
31.5
 20
2.0
 30
0.0
 40
2.6000000000000001
  0
LINE
  5
4B9
100
AcDbEntity
  8
0
  6
CONTINUOUS
 62
               7
100
AcDbLine
 10
31.499999997118806
 20
3.1547005345366728
 30
0.0
 11
30.499999984646706
 21
2.5773502587827153
 31
0.0
  0
LINE
  5
4BA
100
AcDbEntity
  8
0
  6
CONTINUOUS
 62
               7
100
AcDbLine
 10
30.500000001887173
 20
2.5773502647731377
 30
0.0
 11
30.500000001336019
 21
1.422649712310573
 31
0.0
  0
LINE
  5
4BB
100
AcDbEntity
  8
0
  6
CONTINUOUS
 62
               7
100
AcDbLine
 10
30.500000004768367
 20
1.4226497302364649
 30
0.0
 11
31.500000016689313
 21
0.8452994535278577
 31
0.0
  0
LINE
  5
4BC
100
AcDbEntity
  8
0
  6
CONTINUOUS
 62
               7
100
AcDbLine
 10
31.500000002881194
 20
0.8452994654633272
 30
0.0
 11
32.500000015353294
 21
1.4226497412172918
 31
0.0
  0
LINE
  5
4BD
100
AcDbEntity
  8
0
  6
CONTINUOUS
 62
               7
100
AcDbLine
 10
32.499999998112827
 20
1.4226497352268623
 30
0.0
 11
32.499999998663981
 21
2.577350287689427
 31
0.0
  0
LINE
  5
4BE
100
AcDbEntity
  8
0
  6
CONTINUOUS
 62
               7
100
AcDbLine
 10
32.499999995231633
 20
2.5773502697635351
 30
0.0
 11
31.499999983310687
 21
3.1547005464721423
 31
0.0
  0
CIRCLE
  5
4BF
100
AcDbEntity
  8
0
  6
CONTINUOUS
 62
               7
100
AcDbCircle
 10
15.5
 20
2.0
 30
0.0
 40
3.5
  0
CIRCLE
  5
4C0
100
AcDbEntity
  8
0
  6
CONTINUOUS
 62
               7
100
AcDbCircle
 10
15.5
 20
2.0
 30
0.0
 40
2.6000000000000001
  0
LINE
  5
4C1
100
AcDbEntity
  8
0
  6
CONTINUOUS
 62
               7
100
AcDbLine
 10
15.499999997118806
 20
3.1547005345366728
 30
0.0
 11
14.499999984646706
 21
2.5773502587827153
 31
0.0
  0
LINE
  5
4C2
100
AcDbEntity
  8
0
  6
CONTINUOUS
 62
               7
100
AcDbLine
 10
14.500000001887173
 20
2.5773502647731377
 30
0.0
 11
14.500000001336019
 21
1.422649712310573
 31
0.0
  0
LINE
  5
4C3
100
AcDbEntity
  8
0
  6
CONTINUOUS
 62
               7
100
AcDbLine
 10
14.500000004768367
 20
1.4226497302364649
 30
0.0
 11
15.500000016689313
 21
0.8452994535278577
 31
0.0
  0
LINE
  5
4C4
100
AcDbEntity
  8
0
  6
CONTINUOUS
 62
               7
100
AcDbLine
 10
15.500000002881194
 20
0.8452994654633272
 30
0.0
 11
16.500000015353294
 21
1.4226497412172918
 31
0.0
  0
LINE
  5
4C5
100
AcDbEntity
  8
0
  6
CONTINUOUS
 62
               7
100
AcDbLine
 10
16.499999998112827
 20
1.4226497352268623
 30
0.0
 11
16.499999998663981
 21
2.577350287689427
 31
0.0
  0
LINE
  5
4C6
100
AcDbEntity
  8
0
  6
CONTINUOUS
 62
               7
100
AcDbLine
 10
16.499999995231633
 20
2.5773502697635351
 30
0.0
 11
15.499999983310687
 21
3.1547005464721423
 31
0.0
  0
LINE
  5
4C7
100
AcDbEntity
  8
0
  6
CONTINUOUS
 62
               2
100
AcDbLine
 10
54.085025855222881
 20
2.5
 30
0.0
 11
48.696786608341966
 21
2.5
 31
0.0
  0
LINE
  5
4C8
100
AcDbEntity
  8
0
  6
CONTINUOUS
 62
               7
100
AcDbLine
 10
60.999999999999943
 20
8.2999999999999972
 30
0.0
 11
50.0
 21
8.2999999999999972
 31
0.0
  0
LINE
  5
4C9
100
AcDbEntity
  8
0
  6
CONTINUOUS
 62
               7
100
AcDbLine
 10
52.999999999999943
 20
4.0
 30
0.0
 11
50.0
 21
4.0
 31
0.0
  0
LINE
  5
4CA
100
AcDbEntity
  8
0
  6
CONTINUOUS
 62
               7
100
AcDbLine
 10
50.699999999999932
 20
1.0
 30
0.0
 11
50.0
 21
1.0
 31
0.0
  0
LINE
  5
4CB
100
AcDbEntity
  8
0
  6
CONTINUOUS
 62
               7
100
AcDbLine
 10
60.999999999999943
 20
-0.3999999999999915
 30
0.0
 11
52.999999999999943
 21
-0.3999999999999915
 31
0.0
  0
LINE
  5
4CC
100
AcDbEntity
  8
0
  6
CONTINUOUS
 62
               7
100
AcDbLine
 10
52.999999999999943
 20
-0.3999999999999986
 30
0.0
 11
52.999999999999943
 21
4.0
 31
0.0
  0
LINE
  5
4CD
100
AcDbEntity
  8
0
  6
CONTINUOUS
 62
               7
100
AcDbLine
 10
60.999999999999943
 20
8.7999999999999972
 30
0.0
 11
47.000000024143844
 21
8.7999999999999972
 31
0.0
  0
LINE
  5
4CE
100
AcDbEntity
  8
0
  6
CONTINUOUS
 62
               7
100
AcDbLine
 10
60.999999999999943
 20
-0.3999999999999915
 30
0.0
 11
60.999999999999943
 21
8.7999999982303194
 31
0.0
  0
LINE
  5
4CF
100
AcDbEntity
  8
0
  6
CONTINUOUS
 62
               7
100
AcDbLine
 10
52.199999999999932
 20
-0.3999999999999986
 30
0.0
 11
52.199999999999932
 21
4.0
 31
0.0
  0
LINE
  5
4D0
100
AcDbEntity
  8
0
  6
CONTINUOUS
 62
               7
100
AcDbLine
 10
50.699999999999932
 20
0.5
 30
0.0
 11
52.199999999999932
 21
0.5
 31
0.0
  0
LINE
  5
4D1
100
AcDbEntity
  8
0
  6
CONTINUOUS
 62
               7
100
AcDbLine
 10
52.199999999999932
 20
-0.3999999999999986
 30
0.0
 11
52.999999999999943
 21
-0.3999999999999986
 31
0.0
  0
LINE
  5
4D2
100
AcDbEntity
  8
0
  6
CONTINUOUS
 62
               7
100
AcDbLine
 10
50.699999999999932
 20
0.5
 30
0.0
 11
50.699999999999932
 21
4.0
 31
0.0
  0
LINE
  5
4D3
100
AcDbEntity
  8
0
  6
PHANTOM
 62
               2
100
AcDbLine
 10
52.069999999999936
 20
0.0
 30
0.0
 11
50.0
 21
0.0
 31
0.0
  0
LINE
  5
4D4
100
AcDbEntity
  8
0
  6
PHANTOM
 62
               2
100
AcDbLine
 10
52.069999999999936
 20
0.259999999999998
 30
0.0
 11
50.0
 21
0.259999999999998
 31
0.0
  0
CIRCLE
  5
4D5
100
AcDbEntity
  8
0
  6
CONTINUOUS
 62
               7
100
AcDbCircle
 10
52.069999999999936
 20
0.1299999999999955
 30
0.0
 40
0.129999999999999
  0
ENDBLK
  5
4D6
100
AcDbEntity
  8
0
100
AcDbBlockEnd
  0
BLOCK
  5
4D7
100
AcDbEntity
  8
0
100
AcDbBlockBegin
  2
MGALGS4_5-12
 70
               0
 10
0.0
 20
0.0
 30
0.0
  3
MGALGS4_5-12
  1

  0
LINE
  5
4D8
100
AcDbEntity
  8
0
  6
CONTINUOUS
 62
               2
100
AcDbLine
 10
0.0
 20
-6.3348955231868729
 30
0.0
 11
0.0
 21
1.4225792252741485
 31
0.0
  0
LINE
  5
4D9
100
AcDbEntity
  8
0
  6
CONTINUOUS
 62
               2
100
AcDbLine
 10
47.0
 20
-6.3348955231868729
 30
0.0
 11
47.0
 21
1.4225792252741485
 31
0.0
  0
LINE
  5
4DA
100
AcDbEntity
  8
0
  6
CONTINUOUS
 62
               7
100
AcDbLine
 10
42.999999976460174
 20
-36.49999998630949
 30
0.0
 11
9.0000000122229267
 21
-36.49999998630949
 31
0.0
  0
LINE
  5
4DB
100
AcDbEntity
  8
0
  6
CONTINUOUS
 62
               7
100
AcDbLine
 10
37.0
 20
-30.499999986309405
 30
0.0
 11
15.0
 21
-30.499999986309405
 31
0.0
  0
LINE
  5
4DC
100
AcDbEntity
  8
0
  6
CONTINUOUS
 62
               7
100
AcDbLine
 10
37.0
 20
-27.000000000000028
 30
0.0
 11
15.0
 21
-27.000000000000028
 31
0.0
  0
LINE
  5
4DD
100
AcDbEntity
  8
0
  6
CONTINUOUS
 62
               7
100
AcDbLine
 10
25.900000000000034
 20
-29.999999986309405
 30
0.0
 11
25.600000000000023
 21
-29.699999986309422
 31
0.0
  0
LINE
  5
4DE
100
AcDbEntity
  8
0
  6
CONTINUOUS
 62
               7
100
AcDbLine
 10
29.100000000000023
 20
-29.999999986309405
 30
0.0
 11
25.900000000000034
 21
-29.999999986309405
 31
0.0
  0
LINE
  5
4DF
100
AcDbEntity
  8
0
  6
CONTINUOUS
 62
               7
100
AcDbLine
 10
25.600000000000023
 20
-29.699999986309422
 30
0.0
 11
25.600000000000023
 21
-27.999999986309405
 31
0.0
  0
LINE
  5
4E0
100
AcDbEntity
  8
0
  6
CONTINUOUS
 62
               7
100
AcDbLine
 10
29.399999999999977
 20
-29.699999986309422
 30
0.0
 11
25.600000000000023
 21
-29.699999986309422
 31
0.0
  0
LINE
  5
4E1
100
AcDbEntity
  8
0
  6
CONTINUOUS
 62
               7
100
AcDbLine
 10
29.100000000000023
 20
-29.999999986309405
 30
0.0
 11
29.399999999999977
 21
-29.699999986309422
 31
0.0
  0
LINE
  5
4E2
100
AcDbEntity
  8
0
  6
CONTINUOUS
 62
               7
100
AcDbLine
 10
29.399999999999977
 20
-29.699999986309422
 30
0.0
 11
29.399999999999977
 21
-27.999999986309405
 31
0.0
  0
LINE
  5
4E3
100
AcDbEntity
  8
0
  6
CONTINUOUS
 62
               7
100
AcDbLine
 10
29.5
 20
-27.999999964237219
 30
0.0
 11
29.5
 21
-27.000000000000028
 31
0.0
  0
LINE
  5
4E4
100
AcDbEntity
  8
0
  6
CONTINUOUS
 62
               7
100
AcDbLine
 10
15.0
 20
-27.999999986309405
 30
0.0
 11
29.5
 21
-27.999999986309405
 31
0.0
  0
LINE
  5
4E5
100
AcDbEntity
  8
0
  6
CONTINUOUS
 62
               7
100
AcDbLine
 10
16.399999999999977
 20
-29.699999986309422
 30
0.0
 11
16.399999999999977
 21
-27.999999986309405
 31
0.0
  0
LINE
  5
4E6
100
AcDbEntity
  8
0
  6
CONTINUOUS
 62
               7
100
AcDbLine
 10
15.0
 20
-29.699999986309422
 30
0.0
 11
16.399999999999977
 21
-29.699999986309422
 31
0.0
  0
LINE
  5
4E7
100
AcDbEntity
  8
0
  6
CONTINUOUS
 62
               7
100
AcDbLine
 10
15.0
 20
-29.999999986309405
 30
0.0
 11
16.099999999999966
 21
-29.999999986309405
 31
0.0
  0
LINE
  5
4E8
100
AcDbEntity
  8
0
  6
CONTINUOUS
 62
               7
100
AcDbLine
 10
16.099999999999966
 20
-29.999999986309405
 30
0.0
 11
16.399999999999977
 21
-29.699999986309422
 31
0.0
  0
LINE
  5
4E9
100
AcDbEntity
  8
0
  6
CONTINUOUS
 62
               7
100
AcDbLine
 10
23.0
 20
-27.000000000000028
 30
0.0
 11
23.0
 21
-29.699999986309422
 31
0.0
  0
LINE
  5
4EA
100
AcDbEntity
  8
0
  6
CONTINUOUS
 62
               7
100
AcDbLine
 10
19.0
 20
-27.000000000000028
 30
0.0
 11
19.0
 21
-29.699999986309422
 31
0.0
  0
LINE
  5
4EB
100
AcDbEntity
  8
0
  6
CONTINUOUS
 62
               7
100
AcDbLine
 10
19.0
 20
-29.699999986309422
 30
0.0
 11
23.0
 21
-29.699999986309422
 31
0.0
  0
LINE
  5
4EC
100
AcDbEntity
  8
0
  6
CONTINUOUS
 62
               7
100
AcDbLine
 10
15.0
 20
-26.499999986309405
 30
0.0
 11
15.0
 21
-30.499999986309405
 31
0.0
  0
LINE
  5
4ED
100
AcDbEntity
  8
0
  6
CONTINUOUS
 62
               7
100
AcDbLine
 10
37.0
 20
-26.499999986309405
 30
0.0
 11
37.0
 21
-30.499999986309405
 31
0.0
  0
LINE
  5
4EE
100
AcDbEntity
  8
0
  6
CONTINUOUS
 62
               7
100
AcDbLine
 10
60.999999999999943
 20
-27.000000000000028
 30
0.0
 11
42.999999999999943
 21
-27.000000000000028
 31
0.0
  0
CIRCLE
  5
4EF
100
AcDbEntity
  8
0
  6
CONTINUOUS
 62
               7
100
AcDbCircle
 10
15.5
 20
-5.9999999999999716
 30
0.0
 40
1.1000000000000001
  0
CIRCLE
  5
4F0
100
AcDbEntity
  8
0
  6
CONTINUOUS
 62
               7
100
AcDbCircle
 10
31.5
 20
-5.9999999999999716
 30
0.0
 40
1.1000000000000001
  0
LINE
  5
4F1
100
AcDbEntity
  8
0
  6
CONTINUOUS
 62
               7
100
AcDbLine
 10
5.0
 20
-10.0
 30
0.0
 11
3.9999999999999432
 21
-10.0
 31
0.0
  0
LINE
  5
4F2
100
AcDbEntity
  8
0
  6
CONTINUOUS
 62
               7
100
AcDbLine
 10
-3.0
 20
-5.0
 30
0.0
 11
3.5
 21
-5.0
 31
0.0
  0
LINE
  5
4F3
100
AcDbEntity
  8
0
  6
CONTINUOUS
 62
               7
100
AcDbLine
 10
3.5
 20
-4.9999999863094047
 30
0.0
 11
3.5
 21
-8.3000000000000114
 31
0.0
  0
LINE
  5
4F4
100
AcDbEntity
  8
0
  6
CONTINUOUS
 62
               7
100
AcDbLine
 10
8.9999999999999432
 20
-26.0
 30
0.0
 11
3.9999999999999432
 21
-26.0
 31
0.0
  0
LINE
  5
4F5
100
AcDbEntity
  8
0
  6
CONTINUOUS
 62
               7
100
AcDbLine
 10
3.9999999999999432
 20
-10.0
 30
0.0
 11
3.9999999999999432
 21
-26.0
 31
0.0
  0
LINE
  5
4F6
100
AcDbEntity
  8
0
  6
CONTINUOUS
 62
               2
100
AcDbLine
 10
17.199999999999989
 20
-5.9999999999999716
 30
0.0
 11
13.800000000000011
 21
-5.9999999999999716
 31
0.0
  0
LINE
  5
4F7
100
AcDbEntity
  8
0
  6
CONTINUOUS
 62
               2
100
AcDbLine
 10
15.5
 20
-4.2999999999999829
 30
0.0
 11
15.5
 21
-7.6999999999999886
 31
0.0
  0
LINE
  5
4F8
100
AcDbEntity
  8
0
  6
CONTINUOUS
 62
               2
100
AcDbLine
 10
31.5
 20
-4.2999999999999829
 30
0.0
 11
31.5
 21
-7.6999999999999886
 31
0.0
  0
LINE
  5
4F9
100
AcDbEntity
  8
0
  6
CONTINUOUS
 62
               2
100
AcDbLine
 10
33.199999999999989
 20
-5.9999999999999716
 30
0.0
 11
29.800000000000011
 21
-5.9999999999999716
 31
0.0
  0
LINE
  5
4FA
100
AcDbEntity
  8
0
  6
CONTINUOUS
 62
               7
100
AcDbLine
 10
43.5
 20
-4.9999999863094047
 30
0.0
 11
43.5
 21
-8.3000000000000114
 31
0.0
  0
LINE
  5
4FB
100
AcDbEntity
  8
0
  6
CONTINUOUS
 62
               7
100
AcDbLine
 10
50.0
 20
0.0
 30
0.0
 11
50.0
 21
-8.3000000000000114
 31
0.0
  0
LINE
  5
4FC
100
AcDbEntity
  8
0
  6
CONTINUOUS
 62
               7
100
AcDbLine
 10
-3.0
 20
0.0000000136905953
 30
0.0
 11
-3.0
 21
-8.3000000000000114
 31
0.0
  0
LINE
  5
4FD
100
AcDbEntity
  8
0
  6
CONTINUOUS
 62
               7
100
AcDbLine
 10
50.0
 20
-5.0
 30
0.0
 11
43.5
 21
-5.0
 31
0.0
  0
LINE
  5
4FE
100
AcDbEntity
  8
0
  6
CONTINUOUS
 62
               7
100
AcDbLine
 10
50.0
 20
-8.3000000000000114
 30
0.0
 11
-3.0
 21
-8.3000000000000114
 31
0.0
  0
LINE
  5
4FF
100
AcDbEntity
  8
0
  6
CONTINUOUS
 62
               7
100
AcDbLine
 10
5.0
 20
-8.3000000000000114
 30
0.0
 11
5.0
 21
-11.000000007980816
 31
0.0
  0
LINE
  5
500
100
AcDbEntity
  8
0
  6
CONTINUOUS
 62
               7
100
AcDbLine
 10
42.0
 20
-8.3000000000000114
 30
0.0
 11
42.0
 21
-11.000000007980816
 31
0.0
  0
LINE
  5
501
100
AcDbEntity
  8
0
  6
CONTINUOUS
 62
               7
100
AcDbLine
 10
50.0
 20
0.0
 30
0.0
 11
-3.0
 21
0.0
 31
0.0
  0
LINE
  5
502
100
AcDbEntity
  8
0
  6
CONTINUOUS
 62
               7
100
AcDbLine
 10
42.0
 20
-11.000000007980816
 30
0.0
 11
5.0
 21
-11.000000007980816
 31
0.0
  0
LINE
  5
503
100
AcDbEntity
  8
0
  6
CONTINUOUS
 62
               7
100
AcDbLine
 10
60.999999999999943
 20
-9.0
 30
0.0
 11
42.0
 21
-9.0
 31
0.0
  0
LINE
  5
504
100
AcDbEntity
  8
0
  6
CONTINUOUS
 62
               7
100
AcDbLine
 10
8.9999999999999432
 20
-36.49999998630949
 30
0.0
 11
8.9999999999999432
 21
-11.000000007980816
 31
0.0
  0
LINE
  5
505
100
AcDbEntity
  8
0
  6
CONTINUOUS
 62
               7
100
AcDbLine
 10
42.999999999999943
 20
-36.49999998630949
 30
0.0
 11
42.999999999999943
 21
-9.5000000136905953
 31
0.0
  0
LINE
  5
506
100
AcDbEntity
  8
0
  6
CONTINUOUS
 62
               7
100
AcDbLine
 10
43.000000024143844
 20
-26.499999986309405
 30
0.0
 11
8.9999999999999432
 21
-26.499999986309405
 31
0.0
  0
LINE
  5
507
100
AcDbEntity
  8
0
  6
CENTER
 62
               2
100
AcDbLine
 10
63.566477573777803
 20
-18.0
 30
0.0
 11
1.8206200272088324
 21
-18.0
 31
0.0
  0
LINE
  5
508
100
AcDbEntity
  8
0
  6
CONTINUOUS
 62
               7
100
AcDbLine
 10
43.000000024143844
 20
-9.5000000136905953
 30
0.0
 11
42.0
 21
-9.5000000136905953
 31
0.0
  0
LINE
  5
509
100
AcDbEntity
  8
0
  6
CONTINUOUS
 62
               2
100
AcDbLine
 10
25.699999999999932
 20
-24.0
 30
0.0
 11
30.299999999999955
 21
-24.0
 31
0.0
  0
LINE
  5
50A
100
AcDbEntity
  8
0
  6
CONTINUOUS
 62
               2
100
AcDbLine
 10
27.999999999999943
 20
-21.700000000000017
 30
0.0
 11
27.999999999999943
 21
-26.299999999999997
 31
0.0
  0
LINE
  5
50B
100
AcDbEntity
  8
0
  6
CONTINUOUS
 62
               2
100
AcDbLine
 10
25.699999999999932
 20
-12.0
 30
0.0
 11
30.299999999999955
 21
-12.0
 31
0.0
  0
LINE
  5
50C
100
AcDbEntity
  8
0
  6
CONTINUOUS
 62
               2
100
AcDbLine
 10
27.999999999999943
 20
-10.224104550016236
 30
0.0
 11
27.999999999999943
 21
-14.549999999999983
 31
0.0
  0
CIRCLE
  5
50D
100
AcDbEntity
  8
0
  6
CONTINUOUS
 62
               2
100
AcDbCircle
 10
35.999999999999943
 20
-24.5
 30
0.0
 40
1.25
  0
CIRCLE
  5
50E
100
AcDbEntity
  8
0
  6
CONTINUOUS
 62
               7
100
AcDbCircle
 10
35.999999999999943
 20
-24.5
 30
0.0
 40
1.05
  0
LINE
  5
50F
100
AcDbEntity
  8
0
  6
CONTINUOUS
 62
               2
100
AcDbLine
 10
35.999999999999943
 20
-26.549999999999983
 30
0.0
 11
35.999999999999943
 21
-22.450000000000017
 31
0.0
  0
LINE
  5
510
100
AcDbEntity
  8
0
  6
CONTINUOUS
 62
               2
100
AcDbLine
 10
38.049999999999955
 20
-24.5
 30
0.0
 11
33.949999999999932
 21
-24.5
 31
0.0
  0
ARC
  5
511
100
AcDbEntity
  8
0
  6
CONTINUOUS
 62
               2
100
AcDbCircle
 10
35.999999999999943
 20
-11.5
 30
0.0
 40
1.25
100
AcDbArc
 50
156.42182192093347
 51
23.578178079066483
  0
ARC
  5
512
100
AcDbEntity
  8
0
  6
CONTINUOUS
 62
               7
100
AcDbCircle
 10
35.999999999999943
 20
-11.5
 30
0.0
 40
1.05
100
AcDbArc
 50
151.56311034639265
 51
28.436889653607345
  0
ARC
  5
513
100
AcDbEntity
  8
0
  6
CONTINUOUS
 62
               2
100
AcDbCircle
 10
19.999999999999943
 20
-11.5
 30
0.0
 40
1.25
100
AcDbArc
 50
156.42182192093347
 51
23.578178079066483
  0
ARC
  5
514
100
AcDbEntity
  8
0
  6
CONTINUOUS
 62
               7
100
AcDbCircle
 10
19.999999999999943
 20
-11.5
 30
0.0
 40
1.05
100
AcDbArc
 50
151.56311034639265
 51
28.436889653607345
  0
CIRCLE
  5
515
100
AcDbEntity
  8
0
  6
CONTINUOUS
 62
               2
100
AcDbCircle
 10
19.999999999999943
 20
-24.5
 30
0.0
 40
1.25
  0
CIRCLE
  5
516
100
AcDbEntity
  8
0
  6
CONTINUOUS
 62
               7
100
AcDbCircle
 10
19.999999999999943
 20
-24.5
 30
0.0
 40
1.05
  0
LINE
  5
517
100
AcDbEntity
  8
0
  6
CONTINUOUS
 62
               2
100
AcDbLine
 10
19.999999999999943
 20
-26.549999999999983
 30
0.0
 11
19.999999999999943
 21
-22.450000000000017
 31
0.0
  0
LINE
  5
518
100
AcDbEntity
  8
0
  6
CONTINUOUS
 62
               2
100
AcDbLine
 10
22.049999999999955
 20
-24.5
 30
0.0
 11
17.949999999999932
 21
-24.5
 31
0.0
  0
LINE
  5
519
100
AcDbEntity
  8
0
  6
CONTINUOUS
 62
               7
100
AcDbLine
 10
42.999999999999943
 20
-15.299999999999983
 30
0.0
 11
8.9999999999999432
 21
-15.299999999999983
 31
0.0
  0
LINE
  5
51A
100
AcDbEntity
  8
0
  6
CONTINUOUS
 62
               7
100
AcDbLine
 10
42.999999999999943
 20
-15.599999999999994
 30
0.0
 11
8.9999999999999432
 21
-15.599999999999994
 31
0.0
  0
LINE
  5
51B
100
AcDbEntity
  8
0
  6
CONTINUOUS
 62
               7
100
AcDbLine
 10
42.999999999999943
 20
-20.700000000000017
 30
0.0
 11
8.9999999999999432
 21
-20.700000000000017
 31
0.0
  0
LINE
  5
51C
100
AcDbEntity
  8
0
  6
CONTINUOUS
 62
               7
100
AcDbLine
 10
42.999999999999943
 20
-20.400000000000006
 30
0.0
 11
8.9999999999999432
 21
-20.400000000000006
 31
0.0
  0
CIRCLE
  5
51D
100
AcDbEntity
  8
0
  6
CONTINUOUS
 62
               7
100
AcDbCircle
 10
27.999999999999943
 20
-24.0
 30
0.0
 40
1.5
  0
ARC
  5
51E
100
AcDbEntity
  8
0
  6
CONTINUOUS
 62
               7
100
AcDbCircle
 10
27.999999999999943
 20
-12.25
 30
0.0
 40
1.5
100
AcDbArc
 50
180.0
 51
0.0
  0
LINE
  5
51F
100
AcDbEntity
  8
0
  6
CONTINUOUS
 62
               7
100
AcDbLine
 10
29.499999999999943
 20
-11.75
 30
0.0
 11
29.499999999999943
 21
-12.25
 31
0.0
  0
LINE
  5
520
100
AcDbEntity
  8
0
  6
CONTINUOUS
 62
               7
100
AcDbLine
 10
26.499999999999943
 20
-11.75
 30
0.0
 11
26.499999999999943
 21
-12.25
 31
0.0
  0
ARC
  5
521
100
AcDbEntity
  8
0
  6
CONTINUOUS
 62
               7
100
AcDbCircle
 10
27.999999999999943
 20
-11.75
 30
0.0
 40
1.5
100
AcDbArc
 50
0.0
 51
29.999999647995612
  0
ARC
  5
522
100
AcDbEntity
  8
0
  6
CONTINUOUS
 62
               7
100
AcDbCircle
 10
27.999999999999943
 20
-11.75
 30
0.0
 40
1.5
100
AcDbArc
 50
150.00000035200438
 51
180.0
  0
LINE
  5
523
100
AcDbEntity
  8
0
  6
CONTINUOUS
 62
               2
100
AcDbLine
 10
19.999999999999943
 20
-10.224104550016236
 30
0.0
 11
19.999999999999943
 21
-13.549999999999983
 31
0.0
  0
LINE
  5
524
100
AcDbEntity
  8
0
  6
CONTINUOUS
 62
               2
100
AcDbLine
 10
22.049999999999955
 20
-11.5
 30
0.0
 11
17.949999999999932
 21
-11.5
 31
0.0
  0
LINE
  5
525
100
AcDbEntity
  8
0
  6
CONTINUOUS
 62
               2
100
AcDbLine
 10
35.999999999999943
 20
-10.224104550016236
 30
0.0
 11
35.999999999999943
 21
-13.549999999999983
 31
0.0
  0
LINE
  5
526
100
AcDbEntity
  8
0
  6
CONTINUOUS
 62
               2
100
AcDbLine
 10
38.049999999999955
 20
-11.5
 30
0.0
 11
33.949999999999932
 21
-11.5
 31
0.0
  0
LINE
  5
527
100
AcDbEntity
  8
0
  6
CONTINUOUS
 62
               7
100
AcDbLine
 10
60.999999999999943
 20
-9.0
 30
0.0
 11
60.999999999999943
 21
-27.0
 31
0.0
  0
LINE
  5
528
100
AcDbEntity
  8
0
  6
CONTINUOUS
 62
               7
100
AcDbLine
 10
52.999999999999886
 20
-27.0
 30
0.0
 11
52.999999999999886
 21
-9.0
 31
0.0
  0
LINE
  5
529
100
AcDbEntity
  8
0
  6
CONTINUOUS
 62
               7
100
AcDbLine
 10
46.000000021606496
 20
-26.999999975470956
 30
0.0
 11
46.000000021606496
 21
-20.0
 31
0.0
  0
LINE
  5
52A
100
AcDbEntity
  8
0
  6
CONTINUOUS
 62
               7
100
AcDbLine
 10
46.000000021606496
 20
-16.0
 30
0.0
 11
46.000000021606496
 21
-8.9999999754709563
 31
0.0
  0
LINE
  5
52B
100
AcDbEntity
  8
0
  6
CONTINUOUS
 62
               7
100
AcDbLine
 10
44.699999999999903
 20
-20.400000000000006
 30
0.0
 11
44.499999999999886
 21
-20.400000000000006
 31
0.0
  0
LINE
  5
52C
100
AcDbEntity
  8
0
  6
CONTINUOUS
 62
               7
100
AcDbLine
 10
44.699999999999903
 20
-15.599999999999994
 30
0.0
 11
44.499999999999886
 21
-15.599999999999994
 31
0.0
  0
LINE
  5
52D
100
AcDbEntity
  8
0
  6
CONTINUOUS
 62
               7
100
AcDbLine
 10
44.699999999999903
 20
-20.75
 30
0.0
 11
44.699999999999903
 21
-15.25
 31
0.0
  0
LINE
  5
52E
100
AcDbEntity
  8
0
  6
CONTINUOUS
 62
               7
100
AcDbLine
 10
45.199999999999875
 20
-20.75
 30
0.0
 11
44.699999999999903
 21
-20.75
 31
0.0
  0
LINE
  5
52F
100
AcDbEntity
  8
0
  6
CONTINUOUS
 62
               7
100
AcDbLine
 10
45.199999999999875
 20
-15.25
 30
0.0
 11
44.699999999999903
 21
-15.25
 31
0.0
  0
LINE
  5
530
100
AcDbEntity
  8
0
  6
CONTINUOUS
 62
               7
100
AcDbLine
 10
46.000000021606496
 20
-21.400000000000006
 30
0.0
 11
42.999999999999943
 21
-21.400000000000006
 31
0.0
  0
LINE
  5
531
100
AcDbEntity
  8
0
  6
CONTINUOUS
 62
               7
100
AcDbLine
 10
46.000000021606496
 20
-14.599999999999994
 30
0.0
 11
42.999999999999943
 21
-14.599999999999994
 31
0.0
  0
LINE
  5
532
100
AcDbEntity
  8
0
  6
CONTINUOUS
 62
               7
100
AcDbLine
 10
44.499999999999886
 20
-20.400000000000006
 30
0.0
 11
44.499999999999886
 21
-15.599999999999994
 31
0.0
  0
LINE
  5
533
100
AcDbEntity
  8
0
  6
CONTINUOUS
 62
               7
100
AcDbLine
 10
52.999999999999886
 20
-21.464101615137764
 30
0.0
 11
46.000000021606496
 21
-21.464101615137764
 31
0.0
  0
LINE
  5
534
100
AcDbEntity
  8
0
  6
CONTINUOUS
 62
               7
100
AcDbLine
 10
52.999999999999886
 20
-14.535898384862236
 30
0.0
 11
46.000000021606496
 21
-14.535898384862236
 31
0.0
  0
LINE
  5
535
100
AcDbEntity
  8
0
  6
CONTINUOUS
 62
               7
100
AcDbLine
 10
50.699999999999847
 20
-19.5
 30
0.0
 11
46.499999999999858
 21
-19.5
 31
0.0
  0
LINE
  5
536
100
AcDbEntity
  8
0
  6
CONTINUOUS
 62
               7
100
AcDbLine
 10
50.699999999999847
 20
-16.5
 30
0.0
 11
46.499999999999858
 21
-16.5
 31
0.0
  0
LINE
  5
537
100
AcDbEntity
  8
0
  6
CONTINUOUS
 62
               7
100
AcDbLine
 10
54.699999999999875
 20
-19.5
 30
0.0
 11
52.999999999999886
 21
-19.5
 31
0.0
  0
LINE
  5
538
100
AcDbEntity
  8
0
  6
CONTINUOUS
 62
               7
100
AcDbLine
 10
56.699999999999875
 20
-15.200000000000003
 30
0.0
 11
56.699999999999875
 21
-20.799999999999997
 31
0.0
  0
LINE
  5
539
100
AcDbEntity
  8
0
  6
CONTINUOUS
 62
               7
100
AcDbLine
 10
54.699999999999875
 20
-21.299999999999997
 30
0.0
 11
54.699999999999875
 21
-14.699999999999989
 31
0.0
  0
LINE
  5
53A
100
AcDbEntity
  8
0
  6
CONTINUOUS
 62
               7
100
AcDbLine
 10
56.699999999999875
 20
-20.799999999999997
 30
0.0
 11
54.699999999999875
 21
-20.799999999999997
 31
0.0
  0
LINE
  5
53B
100
AcDbEntity
  8
0
  6
CONTINUOUS
 62
               7
100
AcDbLine
 10
56.699999999999875
 20
-15.200000000000003
 30
0.0
 11
54.699999999999875
 21
-15.200000000000003
 31
0.0
  0
LINE
  5
53C
100
AcDbEntity
  8
0
  6
CONTINUOUS
 62
               7
100
AcDbLine
 10
44.499999999999886
 20
-19.0
 30
0.0
 11
42.999999999999943
 21
-19.0
 31
0.0
  0
LINE
  5
53D
100
AcDbEntity
  8
0
  6
CONTINUOUS
 62
               7
100
AcDbLine
 10
44.499999999999886
 20
-17.0
 30
0.0
 11
42.999999999999943
 21
-17.0
 31
0.0
  0
LINE
  5
53E
100
AcDbEntity
  8
0
  6
CONTINUOUS
 62
               7
100
AcDbLine
 10
46.499999999999858
 20
-20.0
 30
0.0
 11
45.199999999999875
 21
-20.0
 31
0.0
  0
LINE
  5
53F
100
AcDbEntity
  8
0
  6
CONTINUOUS
 62
               7
100
AcDbLine
 10
50.699999999999847
 20
-20.0
 30
0.0
 11
52.199999999999875
 21
-20.0
 31
0.0
  0
LINE
  5
540
100
AcDbEntity
  8
0
  6
CONTINUOUS
 62
               7
100
AcDbLine
 10
52.199999999999875
 20
-20.899999999999991
 30
0.0
 11
52.999999999999886
 21
-20.899999999999991
 31
0.0
  0
LINE
  5
541
100
AcDbEntity
  8
0
  6
CONTINUOUS
 62
               2
100
AcDbLine
 10
44.499999999999886
 20
-17.149999999999991
 30
0.0
 11
44.240192378864549
 21
-17.0
 31
0.0
  0
LINE
  5
542
100
AcDbEntity
  8
0
  6
CONTINUOUS
 62
               2
100
AcDbLine
 10
44.499999999999886
 20
-18.850000000000009
 30
0.0
 11
44.240192378864549
 21
-19.0
 31
0.0
  0
LINE
  5
543
100
AcDbEntity
  8
0
  6
CONTINUOUS
 62
               7
100
AcDbLine
 10
54.699999999999875
 20
-16.5
 30
0.0
 11
52.999999999999886
 21
-16.5
 31
0.0
  0
LINE
  5
544
100
AcDbEntity
  8
0
  6
CONTINUOUS
 62
               7
100
AcDbLine
 10
46.499999999999858
 20
-16.0
 30
0.0
 11
46.499999999999858
 21
-20.0
 31
0.0
  0
LINE
  5
545
100
AcDbEntity
  8
0
  6
CONTINUOUS
 62
               7
100
AcDbLine
 10
50.699999999999847
 20
-16.0
 30
0.0
 11
50.699999999999847
 21
-20.0
 31
0.0
  0
LINE
  5
546
100
AcDbEntity
  8
0
  6
CONTINUOUS
 62
               7
100
AcDbLine
 10
52.199999999999875
 20
-15.100000000000009
 30
0.0
 11
52.999999999999886
 21
-15.100000000000009
 31
0.0
  0
LINE
  5
547
100
AcDbEntity
  8
0
  6
CONTINUOUS
 62
               7
100
AcDbLine
 10
50.699999999999847
 20
-16.0
 30
0.0
 11
52.199999999999875
 21
-16.0
 31
0.0
  0
LINE
  5
548
100
AcDbEntity
  8
0
  6
CONTINUOUS
 62
               7
100
AcDbLine
 10
46.499999999999858
 20
-16.0
 30
0.0
 11
45.199999999999875
 21
-16.0
 31
0.0
  0
LINE
  5
549
100
AcDbEntity
  8
0
  6
CONTINUOUS
 62
               7
100
AcDbLine
 10
52.199999999999875
 20
-15.100000000000009
 30
0.0
 11
52.199999999999875
 21
-20.899999999999991
 31
0.0
  0
LINE
  5
54A
100
AcDbEntity
  8
0
  6
CONTINUOUS
 62
               7
100
AcDbLine
 10
45.199999999999875
 20
-15.25
 30
0.0
 11
45.199999999999875
 21
-20.75
 31
0.0
  0
LINE
  5
54B
100
AcDbEntity
  8
0
  6
PHANTOM
 62
               2
100
AcDbLine
 10
52.069999999999879
 20
-20.5
 30
0.0
 11
45.349999999999881
 21
-20.5
 31
0.0
  0
LINE
  5
54C
100
AcDbEntity
  8
0
  6
PHANTOM
 62
               2
100
AcDbLine
 10
52.069999999999879
 20
-20.239999999999995
 30
0.0
 11
45.32999999999987
 21
-20.239999999999995
 31
0.0
  0
CIRCLE
  5
54D
100
AcDbEntity
  8
0
  6
CONTINUOUS
 62
               7
100
AcDbCircle
 10
45.32999999999987
 20
-20.370000000000005
 30
0.0
 40
0.129999999999999
  0
CIRCLE
  5
54E
100
AcDbEntity
  8
0
  6
CONTINUOUS
 62
               7
100
AcDbCircle
 10
52.069999999999879
 20
-20.370000000000005
 30
0.0
 40
0.129999999999999
  0
LINE
  5
54F
100
AcDbEntity
  8
0
  6
PHANTOM
 62
               2
100
AcDbLine
 10
52.069999999999879
 20
-15.5
 30
0.0
 11
45.349999999999881
 21
-15.5
 31
0.0
  0
LINE
  5
550
100
AcDbEntity
  8
0
  6
PHANTOM
 62
               2
100
AcDbLine
 10
52.069999999999879
 20
-15.760000000000005
 30
0.0
 11
45.32999999999987
 21
-15.760000000000005
 31
0.0
  0
CIRCLE
  5
551
100
AcDbEntity
  8
0
  6
CONTINUOUS
 62
               7
100
AcDbCircle
 10
45.32999999999987
 20
-15.629999999999995
 30
0.0
 40
0.129999999999999
  0
CIRCLE
  5
552
100
AcDbEntity
  8
0
  6
CONTINUOUS
 62
               7
100
AcDbCircle
 10
52.069999999999879
 20
-15.629999999999995
 30
0.0
 40
0.129999999999999
  0
LINE
  5
553
100
AcDbEntity
  8
0
  6
CONTINUOUS
 62
               7
100
AcDbLine
 10
43.499999999999943
 20
-20.5
 30
0.0
 11
43.699999999999932
 21
-20.5
 31
0.0
  0
ARC
  5
554
100
AcDbEntity
  8
0
  6
CONTINUOUS
 62
               7
100
AcDbCircle
 10
43.699999999999932
 20
-20.200000000000003
 30
0.0
 40
0.3
100
AcDbArc
 50
270.0
 51
0.0
  0
LINE
  5
555
100
AcDbEntity
  8
0
  6
CONTINUOUS
 62
               7
100
AcDbLine
 10
43.499999999999943
 20
-19.5
 30
0.0
 11
42.999999999999943
 21
-19.5
 31
0.0
  0
LINE
  5
556
100
AcDbEntity
  8
0
  6
CONTINUOUS
 62
               7
100
AcDbLine
 10
43.499999999999943
 20
-21.299999999999997
 30
0.0
 11
42.999999999999943
 21
-21.299999999999997
 31
0.0
  0
LINE
  5
557
100
AcDbEntity
  8
0
  6
CONTINUOUS
 62
               7
100
AcDbLine
 10
43.999999999999943
 20
-20.200000000000003
 30
0.0
 11
43.999999999999943
 21
-19.0
 31
0.0
  0
LINE
  5
558
100
AcDbEntity
  8
0
  6
CONTINUOUS
 62
               7
100
AcDbLine
 10
43.499999999999943
 20
-19.0
 30
0.0
 11
43.499999999999943
 21
-21.299999999999997
 31
0.0
  0
ARC
  5
559
100
AcDbEntity
  8
0
  6
CONTINUOUS
 62
               7
100
AcDbCircle
 10
43.699999999999932
 20
-15.799999999999997
 30
0.0
 40
0.3
100
AcDbArc
 50
0.0
 51
90.0
  0
LINE
  5
55A
100
AcDbEntity
  8
0
  6
CONTINUOUS
 62
               7
100
AcDbLine
 10
43.499999999999943
 20
-15.5
 30
0.0
 11
43.699999999999932
 21
-15.5
 31
0.0
  0
LINE
  5
55B
100
AcDbEntity
  8
0
  6
CONTINUOUS
 62
               7
100
AcDbLine
 10
43.499999999999943
 20
-16.5
 30
0.0
 11
42.999999999999943
 21
-16.5
 31
0.0
  0
LINE
  5
55C
100
AcDbEntity
  8
0
  6
CONTINUOUS
 62
               7
100
AcDbLine
 10
43.499999999999943
 20
-14.699999999999989
 30
0.0
 11
42.999999999999943
 21
-14.699999999999989
 31
0.0
  0
LINE
  5
55D
100
AcDbEntity
  8
0
  6
CONTINUOUS
 62
               7
100
AcDbLine
 10
43.999999999999943
 20
-17.0
 30
0.0
 11
43.999999999999943
 21
-15.799999999999997
 31
0.0
  0
LINE
  5
55E
100
AcDbEntity
  8
0
  6
CONTINUOUS
 62
               7
100
AcDbLine
 10
43.499999999999943
 20
-14.699999999999989
 30
0.0
 11
43.499999999999943
 21
-17.0
 31
0.0
  0
LINE
  5
55F
100
AcDbEntity
  8
0
  6
CONTINUOUS
 62
               7
100
AcDbLine
 10
54.699999999999875
 20
-16.099999999999994
 30
0.0
 11
52.999999999999886
 21
-16.099999999999994
 31
0.0
  0
LINE
  5
560
100
AcDbEntity
  8
0
  6
CONTINUOUS
 62
               7
100
AcDbLine
 10
54.699999999999875
 20
-19.899999999999991
 30
0.0
 11
52.999999999999886
 21
-19.899999999999991
 31
0.0
  0
LINE
  5
561
100
AcDbEntity
  8
0
  6
CONTINUOUS
 62
               7
100
AcDbLine
 10
60.999999999999943
 20
-14.699999999999989
 30
0.0
 11
54.699999999999875
 21
-14.699999999999989
 31
0.0
  0
LINE
  5
562
100
AcDbEntity
  8
0
  6
CONTINUOUS
 62
               7
100
AcDbLine
 10
60.999999999999943
 20
-21.299999999999997
 30
0.0
 11
54.699999999999875
 21
-21.299999999999997
 31
0.0
  0
LINE
  5
563
100
AcDbEntity
  8
0
  6
CONTINUOUS
 62
               2
100
AcDbLine
 10
63.499999999999943
 20
-12.0
 30
0.0
 11
58.499999999999943
 21
-12.0
 31
0.0
  0
LINE
  5
564
100
AcDbEntity
  8
0
  6
CONTINUOUS
 62
               2
100
AcDbLine
 10
63.499999999999943
 20
-24.0
 30
0.0
 11
58.499999999999943
 21
-24.0
 31
0.0
  0
ENDBLK
  5
565
100
AcDbEntity
  8
0
100
AcDbBlockEnd
  0
BLOCK
  5
566
100
AcDbEntity
  8
0
100
AcDbBlockBegin
  2
MGALGS4_5-13
 70
               0
 10
0.0
 20
0.0
 30
0.0
  3
MGALGS4_5-13
  1

  0
LINE
  5
567
100
AcDbEntity
  8
0
  6
CONTINUOUS
 62
               4
100
AcDbLine
 10
0.0
 20
0.0
 30
0.0
 11
22.0
 21
0.0
 31
0.0
  0
LINE
  5
568
100
AcDbEntity
  8
0
  6
CONTINUOUS
 62
               4
100
AcDbLine
 10
4.6999999999999318
 20
-4.6000000000000227
 30
0.0
 11
22.0
 21
-4.6000000000000227
 31
0.0
  0
LINE
  5
569
100
AcDbEntity
  8
0
  6
CONTINUOUS
 62
               4
100
AcDbLine
 10
22.0
 20
0.0
 30
0.0
 11
22.0
 21
-4.6000000000000227
 31
0.0
  0
LINE
  5
56A
100
AcDbEntity
  8
0
  6
CONTINUOUS
 62
               4
100
AcDbLine
 10
0.0
 20
-1.8000000000000682
 30
0.0
 11
0.0
 21
0.0
 31
0.0
  0
LINE
  5
56B
100
AcDbEntity
  8
0
  6
CONTINUOUS
 62
               4
100
AcDbLine
 10
4.6999999999999318
 20
-3.0400000000000773
 30
0.0
 11
4.6999999999999318
 21
-4.6000000000000227
 31
0.0
  0
LINE
  5
56C
100
AcDbEntity
  8
0
  6
CONTINUOUS
 62
               4
100
AcDbLine
 10
0.0
 20
-1.8000000000000682
 30
0.0
 11
4.25
 21
-1.8000000000000682
 31
0.0
  0
LINE
  5
56D
100
AcDbEntity
  8
0
  6
CENTER
 62
               2
100
AcDbLine
 10
2.0
 20
0.8000000000000682
 30
0.0
 11
2.0
 21
-5.42999999999995
 31
0.0
  0
LINE
  5
56E
100
AcDbEntity
  8
0
  6
CONTINUOUS
 62
               4
100
AcDbLine
 10
4.25
 20
-1.8000000000000682
 30
0.0
 11
4.25
 21
-3.0400000000000773
 31
0.0
  0
LINE
  5
56F
100
AcDbEntity
  8
0
  6
CONTINUOUS
 62
               4
100
AcDbLine
 10
4.0
 20
-1.8000000000000682
 30
0.0
 11
4.0
 21
-2.6000000000000227
 31
0.0
  0
LINE
  5
570
100
AcDbEntity
  8
0
  6
CONTINUOUS
 62
               4
100
AcDbLine
 10
0.0
 20
-1.8000000000000682
 30
0.0
 11
0.0
 21
-2.6000000000000227
 31
0.0
  0
LINE
  5
571
100
AcDbEntity
  8
0
  6
CONTINUOUS
 62
               4
100
AcDbLine
 10
0.0
 20
-2.6000000000000227
 30
0.0
 11
4.0
 21
-2.6000000000000227
 31
0.0
  0
LINE
  5
572
100
AcDbEntity
  8
0
  6
CONTINUOUS
 62
               4
100
AcDbLine
 10
4.1999999999999318
 20
-1.8000000000000682
 30
0.0
 11
4.1999999999999318
 21
-3.8000000000000682
 31
0.0
  0
LINE
  5
573
100
AcDbEntity
  8
0
  6
CONTINUOUS
 62
               4
100
AcDbLine
 10
4.1999999999999318
 20
-3.8000000000000682
 30
0.0
 11
4.6999999999999318
 21
-3.8000000000000682
 31
0.0
  0
LINE
  5
574
100
AcDbEntity
  8
0
  6
CONTINUOUS
 62
               4
100
AcDbLine
 10
4.25
 20
-3.0400000000000773
 30
0.0
 11
4.6999999999999318
 21
-3.0400000000000773
 31
0.0
  0
LINE
  5
575
100
AcDbEntity
  8
0
  6
CONTINUOUS
 62
               4
100
AcDbLine
 10
30.5
 20
-1.0
 30
0.0
 11
30.5
 21
-3.6000000000000227
 31
0.0
  0
LINE
  5
576
100
AcDbEntity
  8
0
  6
CENTER
 62
               2
100
AcDbLine
 10
28.769999999999982
 20
-1.8500000000000227
 30
0.0
 11
40.699999999999932
 21
-1.8500000000000227
 31
0.0
  0
LINE
  5
577
100
AcDbEntity
  8
0
  6
CENTER
 62
               2
100
AcDbLine
 10
28.819999999999936
 20
-2.75
 30
0.0
 11
40.75
 21
-2.75
 31
0.0
  0
LINE
  5
578
100
AcDbEntity
  8
0
  6
CONTINUOUS
 62
               4
100
AcDbLine
 10
40.5
 20
-1.6000000000000227
 30
0.0
 11
40.5
 21
-2.1000000000000227
 31
0.0
  0
LINE
  5
579
100
AcDbEntity
  8
0
  6
CONTINUOUS
 62
               4
100
AcDbLine
 10
40.5
 20
-2.5
 30
0.0
 11
40.5
 21
-3.0
 31
0.0
  0
LINE
  5
57A
100
AcDbEntity
  8
0
  6
CONTINUOUS
 62
               4
100
AcDbLine
 10
37.5
 20
-1.3999999999999773
 30
0.0
 11
37.5
 21
-3.1999999999999318
 31
0.0
  0
LINE
  5
57B
100
AcDbEntity
  8
0
  6
CONTINUOUS
 62
               4
100
AcDbLine
 10
30.5
 20
-3.1999999999999318
 30
0.0
 11
34.5
 21
-3.1999999999999318
 31
0.0
  0
LINE
  5
57C
100
AcDbEntity
  8
0
  6
CONTINUOUS
 62
               4
100
AcDbLine
 10
30.5
 20
-2.3000000000000682
 30
0.0
 11
33.980000000000018
 21
-2.3000000000000682
 31
0.0
  0
LINE
  5
57D
100
AcDbEntity
  8
0
  6
CONTINUOUS
 62
               4
100
AcDbLine
 10
35.480000000000018
 20
-2.3000000000000682
 30
0.0
 11
37.5
 21
-2.3000000000000682
 31
0.0
  0
LINE
  5
57E
100
AcDbEntity
  8
0
  6
CONTINUOUS
 62
               4
100
AcDbLine
 10
36.0
 20
-3.1999999999999318
 30
0.0
 11
37.5
 21
-3.1999999999999318
 31
0.0
  0
LINE
  5
57F
100
AcDbEntity
  8
0
  6
CONTINUOUS
 62
               4
100
AcDbLine
 10
30.5
 20
-1.3999999999999773
 30
0.0
 11
33.459999999999923
 21
-1.3999999999999773
 31
0.0
  0
LINE
  5
580
100
AcDbEntity
  8
0
  6
CONTINUOUS
 62
               4
100
AcDbLine
 10
34.959999999999923
 20
-1.3999999999999773
 30
0.0
 11
37.5
 21
-1.3999999999999773
 31
0.0
  0
LINE
  5
581
100
AcDbEntity
  8
0
  6
CONTINUOUS
 62
               4
100
AcDbLine
 10
37.5
 20
-1.6000000000000227
 30
0.0
 11
40.5
 21
-1.6000000000000227
 31
0.0
  0
LINE
  5
582
100
AcDbEntity
  8
0
  6
CONTINUOUS
 62
               4
100
AcDbLine
 10
37.5
 20
-2.1000000000000227
 30
0.0
 11
40.5
 21
-2.1000000000000227
 31
0.0
  0
LINE
  5
583
100
AcDbEntity
  8
0
  6
CONTINUOUS
 62
               4
100
AcDbLine
 10
37.5
 20
-2.5
 30
0.0
 11
40.5
 21
-2.5
 31
0.0
  0
LINE
  5
584
100
AcDbEntity
  8
0
  6
CONTINUOUS
 62
               4
100
AcDbLine
 10
37.5
 20
-3.0
 30
0.0
 11
40.5
 21
-3.0
 31
0.0
  0
LINE
  5
585
100
AcDbEntity
  8
0
  6
CONTINUOUS
 62
               2
100
AcDbLine
 10
34.230000000000018
 20
-0.1299999999999955
 30
0.0
 11
36.730000000000018
 21
-4.4599999999999227
 31
0.0
  0
LINE
  5
586
100
AcDbEntity
  8
0
  6
CENTER
 62
               2
100
AcDbLine
 10
20.67999999999995
 20
-2.3000000000000682
 30
0.0
 11
30.5
 21
-2.3000000000000682
 31
0.0
  0
LINE
  5
587
100
AcDbEntity
  8
0
  6
CONTINUOUS
 62
               2
100
AcDbLine
 10
32.730000000000018
 20
-0.1299999999999955
 30
0.0
 11
35.230000000000018
 21
-4.4599999999999227
 31
0.0
  0
LINE
  5
588
100
AcDbEntity
  8
0
  6
CONTINUOUS
 62
               2
100
AcDbLine
 10
25.25
 20
-0.1299999999999955
 30
0.0
 11
27.75
 21
-4.4599999999999227
 31
0.0
  0
LINE
  5
589
100
AcDbEntity
  8
0
  6
CONTINUOUS
 62
               2
100
AcDbLine
 10
23.75
 20
-0.1299999999999955
 30
0.0
 11
26.25
 21
-4.4599999999999227
 31
0.0
  0
LINE
  5
58A
100
AcDbEntity
  8
0
  6
CONTINUOUS
 62
               4
100
AcDbLine
 10
0.9700000000000273
 20
-4.0
 30
0.0
 11
3.0199999999999818
 21
-4.0
 31
0.0
  0
LINE
  5
58B
100
AcDbEntity
  8
0
  6
CONTINUOUS
 62
               4
100
AcDbLine
 10
3.0199999999999818
 20
-4.0
 30
0.0
 11
3.25
 21
-3.7699999999999818
 31
0.0
  0
LINE
  5
58C
100
AcDbEntity
  8
0
  6
CONTINUOUS
 62
               4
100
AcDbLine
 10
0.9700000000000273
 20
-4.0
 30
0.0
 11
0.75
 21
-3.7699999999999818
 31
0.0
  0
LINE
  5
58D
100
AcDbEntity
  8
0
  6
CONTINUOUS
 62
               4
100
AcDbLine
 10
0.75
 20
-2.5900000000000318
 30
0.0
 11
0.75
 21
-3.7699999999999818
 31
0.0
  0
LINE
  5
58E
100
AcDbEntity
  8
0
  6
CONTINUOUS
 62
               2
100
AcDbLine
 10
0.9700000000000273
 20
-2.5900000000000318
 30
0.0
 11
0.9700000000000273
 21
-4.0
 31
0.0
  0
LINE
  5
58F
100
AcDbEntity
  8
0
  6
CONTINUOUS
 62
               2
100
AcDbLine
 10
3.0199999999999818
 20
-2.5900000000000318
 30
0.0
 11
3.0199999999999818
 21
-4.0
 31
0.0
  0
LINE
  5
590
100
AcDbEntity
  8
0
  6
CONTINUOUS
 62
               4
100
AcDbLine
 10
3.25
 20
-2.5900000000000318
 30
0.0
 11
3.25
 21
-3.7699999999999818
 31
0.0
  0
LINE
  5
591
100
AcDbEntity
  8
0
  6
CONTINUOUS
 62
               4
100
AcDbLine
 10
0.75
 20
-3.7699999999999818
 30
0.0
 11
3.25
 21
-3.7699999999999818
 31
0.0
  0
LINE
  5
592
100
AcDbEntity
  8
0
  6
CONTINUOUS
 62
               4
100
AcDbLine
 10
0.75
 20
0.5
 30
0.0
 11
0.75
 21
0.0
 31
0.0
  0
LINE
  5
593
100
AcDbEntity
  8
0
  6
CONTINUOUS
 62
               2
100
AcDbLine
 10
0.9700000000000273
 20
0.5
 30
0.0
 11
0.9700000000000273
 21
0.0
 31
0.0
  0
LINE
  5
594
100
AcDbEntity
  8
0
  6
CONTINUOUS
 62
               2
100
AcDbLine
 10
3.0199999999999818
 20
0.5
 30
0.0
 11
3.0199999999999818
 21
0.0
 31
0.0
  0
LINE
  5
595
100
AcDbEntity
  8
0
  6
CONTINUOUS
 62
               4
100
AcDbLine
 10
3.25
 20
0.5
 30
0.0
 11
3.25
 21
0.0
 31
0.0
  0
LINE
  5
596
100
AcDbEntity
  8
0
  6
CONTINUOUS
 62
               4
100
AcDbLine
 10
0.75
 20
0.5
 30
0.0
 11
3.25
 21
0.5
 31
0.0
  0
LINE
  5
597
100
AcDbEntity
  8
0
  6
CONTINUOUS
 62
               4
100
AcDbLine
 10
0.0
 20
-1.0
 30
0.0
 11
22.0
 21
-1.0
 31
0.0
  0
LINE
  5
598
100
AcDbEntity
  8
0
  6
CONTINUOUS
 62
               4
100
AcDbLine
 10
0.0
 20
-0.4499999999999318
 30
0.0
 11
22.0
 21
-0.4499999999999318
 31
0.0
  0
LINE
  5
599
100
AcDbEntity
  8
0
  6
CONTINUOUS
 62
               4
100
AcDbLine
 10
22.0
 20
-1.0
 30
0.0
 11
24.25
 21
-1.0
 31
0.0
  0
LINE
  5
59A
100
AcDbEntity
  8
0
  6
CONTINUOUS
 62
               4
100
AcDbLine
 10
22.0
 20
-3.6000000000000227
 30
0.0
 11
25.75
 21
-3.6000000000000227
 31
0.0
  0
LINE
  5
59B
100
AcDbEntity
  8
0
  6
CONTINUOUS
 62
               4
100
AcDbLine
 10
25.75
 20
-1.0
 30
0.0
 11
30.5
 21
-1.0
 31
0.0
  0
LINE
  5
59C
100
AcDbEntity
  8
0
  6
CONTINUOUS
 62
               4
100
AcDbLine
 10
27.25
 20
-3.6000000000000227
 30
0.0
 11
30.5
 21
-3.6000000000000227
 31
0.0
  0
ENDBLK
  5
59D
100
AcDbEntity
  8
0
100
AcDbBlockEnd
  0
BLOCK
  5
59E
100
AcDbEntity
  8
0
100
AcDbBlockBegin
  2
MGALGS4_5-14
 70
               0
 10
0.0
 20
0.0
 30
0.0
  3
MGALGS4_5-14
  1

  0
LINE
  5
59F
100
AcDbEntity
  8
0
  6
CENTER
 62
               2
100
AcDbLine
 10
0.0
 20
2.0500000000000682
 30
0.0
 11
0.0
 21
-6.6599999999999682
 31
0.0
  0
LINE
  5
5A0
100
AcDbEntity
  8
0
  6
CONTINUOUS
 62
               4
100
AcDbLine
 10
-2.0499999999999545
 20
-1.0
 30
0.0
 11
-2.0499999999999545
 21
-2.5500000000000682
 31
0.0
  0
LINE
  5
5A1
100
AcDbEntity
  8
0
  6
CONTINUOUS
 62
               4
100
AcDbLine
 10
-2.0499999999999545
 20
-1.0
 30
0.0
 11
-1.5
 21
-0.4499999999999318
 31
0.0
  0
LINE
  5
5A2
100
AcDbEntity
  8
0
  6
CONTINUOUS
 62
               4
100
AcDbLine
 10
-1.5
 20
0.0
 30
0.0
 11
-1.5
 21
-0.4499999999999318
 31
0.0
  0
LINE
  5
5A3
100
AcDbEntity
  8
0
  6
CONTINUOUS
 62
               4
100
AcDbLine
 10
-1.5
 20
0.0
 30
0.0
 11
1.5
 21
0.0
 31
0.0
  0
LINE
  5
5A4
100
AcDbEntity
  8
0
  6
CONTINUOUS
 62
               4
100
AcDbLine
 10
1.5
 20
0.0
 30
0.0
 11
1.5
 21
-0.4499999999999318
 31
0.0
  0
LINE
  5
5A5
100
AcDbEntity
  8
0
  6
CONTINUOUS
 62
               4
100
AcDbLine
 10
2.0499999999999545
 20
-1.0
 30
0.0
 11
1.5
 21
-0.4499999999999318
 31
0.0
  0
LINE
  5
5A6
100
AcDbEntity
  8
0
  6
CONTINUOUS
 62
               4
100
AcDbLine
 10
2.0499999999999545
 20
-1.0
 30
0.0
 11
2.0499999999999545
 21
-2.5500000000000682
 31
0.0
  0
LINE
  5
5A7
100
AcDbEntity
  8
0
  6
CONTINUOUS
 62
               4
100
AcDbLine
 10
-2.0499999999999545
 20
-1.8000000000000682
 30
0.0
 11
2.0499999999999545
 21
-1.8000000000000682
 31
0.0
  0
LINE
  5
5A8
100
AcDbEntity
  8
0
  6
CONTINUOUS
 62
               4
100
AcDbLine
 10
-2.0499999999999545
 20
-2.5900000000000318
 30
0.0
 11
2.0499999999999545
 21
-2.5900000000000318
 31
0.0
  0
LINE
  5
5A9
100
AcDbEntity
  8
0
  6
CONTINUOUS
 62
               4
100
AcDbLine
 10
-1.0199999999999818
 20
-4.0
 30
0.0
 11
1.0199999999999818
 21
-4.0
 31
0.0
  0
LINE
  5
5AA
100
AcDbEntity
  8
0
  6
CONTINUOUS
 62
               4
100
AcDbLine
 10
1.0199999999999818
 20
-4.0
 30
0.0
 11
1.25
 21
-3.7699999999999818
 31
0.0
  0
LINE
  5
5AB
100
AcDbEntity
  8
0
  6
CONTINUOUS
 62
               4
100
AcDbLine
 10
-1.0199999999999818
 20
-4.0
 30
0.0
 11
-1.25
 21
-3.7699999999999818
 31
0.0
  0
LINE
  5
5AC
100
AcDbEntity
  8
0
  6
CONTINUOUS
 62
               4
100
AcDbLine
 10
-1.25
 20
-2.5900000000000318
 30
0.0
 11
-1.25
 21
-3.7699999999999818
 31
0.0
  0
LINE
  5
5AD
100
AcDbEntity
  8
0
  6
CONTINUOUS
 62
               2
100
AcDbLine
 10
-1.0199999999999818
 20
-2.5900000000000318
 30
0.0
 11
-1.0199999999999818
 21
-4.0
 31
0.0
  0
LINE
  5
5AE
100
AcDbEntity
  8
0
  6
CONTINUOUS
 62
               2
100
AcDbLine
 10
1.0199999999999818
 20
-2.5900000000000318
 30
0.0
 11
1.0199999999999818
 21
-4.0
 31
0.0
  0
LINE
  5
5AF
100
AcDbEntity
  8
0
  6
CONTINUOUS
 62
               4
100
AcDbLine
 10
1.25
 20
-2.5900000000000318
 30
0.0
 11
1.25
 21
-3.7699999999999818
 31
0.0
  0
LINE
  5
5B0
100
AcDbEntity
  8
0
  6
CONTINUOUS
 62
               4
100
AcDbLine
 10
-1.25
 20
-3.7699999999999818
 30
0.0
 11
1.25
 21
-3.7699999999999818
 31
0.0
  0
LINE
  5
5B1
100
AcDbEntity
  8
0
  6
CONTINUOUS
 62
               4
100
AcDbLine
 10
-1.25
 20
0.5
 30
0.0
 11
-1.25
 21
0.0
 31
0.0
  0
LINE
  5
5B2
100
AcDbEntity
  8
0
  6
CONTINUOUS
 62
               2
100
AcDbLine
 10
-1.0199999999999818
 20
0.5
 30
0.0
 11
-1.0199999999999818
 21
0.0
 31
0.0
  0
LINE
  5
5B3
100
AcDbEntity
  8
0
  6
CONTINUOUS
 62
               2
100
AcDbLine
 10
1.0199999999999818
 20
0.5
 30
0.0
 11
1.0199999999999818
 21
0.0
 31
0.0
  0
LINE
  5
5B4
100
AcDbEntity
  8
0
  6
CONTINUOUS
 62
               4
100
AcDbLine
 10
1.25
 20
0.5
 30
0.0
 11
1.25
 21
0.0
 31
0.0
  0
LINE
  5
5B5
100
AcDbEntity
  8
0
  6
CONTINUOUS
 62
               4
100
AcDbLine
 10
-1.25
 20
0.5
 30
0.0
 11
1.25
 21
0.5
 31
0.0
  0
ARC
  5
5B6
100
AcDbEntity
  8
0
  6
CONTINUOUS
 62
               4
100
AcDbCircle
 10
0.0000022888195872
 20
-2.5499977111803673
 30
0.0
 40
2.0500022888209148
100
AcDbArc
 50
180.00006397051652
 51
269.99993602948348
  0
ARC
  5
5B7
100
AcDbEntity
  8
0
  6
CONTINUOUS
 62
               4
100
AcDbCircle
 10
-0.0000022888195872
 20
-2.5499977111803673
 30
0.0
 40
2.0500022888209148
100
AcDbArc
 50
270.00006397051652
 51
359.99993602948348
  0
ENDBLK
  5
5B8
100
AcDbEntity
  8
0
100
AcDbBlockEnd
  0
BLOCK
  5
5B9
100
AcDbEntity
  8
0
100
AcDbBlockBegin
  2
MGALGS4_5-15
 70
               0
 10
0.0
 20
0.0
 30
0.0
  3
MGALGS4_5-15
  1

  0
LINE
  5
5BA
100
AcDbEntity
  8
0
  6
CENTER
 62
               2
100
AcDbLine
 10
-2.8000000000000682
 20
0.0
 30
0.0
 11
27.399999999999977
 21
0.0
 31
0.0
  0
LINE
  5
5BB
100
AcDbEntity
  8
0
  6
CONTINUOUS
 62
               4
100
AcDbLine
 10
0.0
 20
-1.5
 30
0.0
 11
22.0
 21
-1.5
 31
0.0
  0
LINE
  5
5BC
100
AcDbEntity
  8
0
  6
CONTINUOUS
 62
               4
100
AcDbLine
 10
0.0
 20
1.5
 30
0.0
 11
22.0
 21
1.5
 31
0.0
  0
LINE
  5
5BD
100
AcDbEntity
  8
0
  6
CONTINUOUS
 62
               4
100
AcDbLine
 10
0.0
 20
-2.0500000000000114
 30
0.0
 11
22.0
 21
-2.0500000000000114
 31
0.0
  0
LINE
  5
5BE
100
AcDbEntity
  8
0
  6
CONTINUOUS
 62
               4
100
AcDbLine
 10
0.0
 20
2.0500000000000114
 30
0.0
 11
22.0
 21
2.0500000000000114
 31
0.0
  0
LINE
  5
5BF
100
AcDbEntity
  8
0
  6
CONTINUOUS
 62
               4
100
AcDbLine
 10
0.0
 20
2.0500000000000114
 30
0.0
 11
0.0
 21
-2.0500000000000114
 31
0.0
  0
LINE
  5
5C0
100
AcDbEntity
  8
0
  6
CONTINUOUS
 62
               4
100
AcDbLine
 10
22.0
 20
2.0500000000000114
 30
0.0
 11
22.0
 21
-2.0500000000000114
 31
0.0
  0
LINE
  5
5C1
100
AcDbEntity
  8
0
  6
CENTER
 62
               2
100
AcDbLine
 10
2.0
 20
2.8300000000000409
 30
0.0
 11
2.0
 21
-2.75
 31
0.0
  0
LINE
  5
5C2
100
AcDbEntity
  8
0
  6
CONTINUOUS
 62
               4
100
AcDbLine
 10
0.9499999999999318
 20
-0.7100000000000364
 30
0.0
 11
2.67999999999995
 21
1.0199999999999818
 31
0.0
  0
LINE
  5
5C3
100
AcDbEntity
  8
0
  6
CONTINUOUS
 62
               4
100
AcDbLine
 10
1.3000000000000682
 20
-1.0600000000000023
 30
0.0
 11
2.9399999999999409
 21
0.5600000000000023
 31
0.0
  0
LINE
  5
5C4
100
AcDbEntity
  8
0
  6
CONTINUOUS
 62
               2
100
AcDbLine
 10
23.080000000000041
 20
2.1599999999999682
 30
0.0
 11
25.580000000000041
 21
-2.1599999999999682
 31
0.0
  0
LINE
  5
5C5
100
AcDbEntity
  8
0
  6
CONTINUOUS
 62
               4
100
AcDbLine
 10
22.0
 20
1.3000000000000114
 30
0.0
 11
23.580000000000041
 21
1.3000000000000114
 31
0.0
  0
LINE
  5
5C6
100
AcDbEntity
  8
0
  6
CONTINUOUS
 62
               4
100
AcDbLine
 10
22.0
 20
-1.3000000000000114
 30
0.0
 11
25.090000000000032
 21
-1.3000000000000114
 31
0.0
  0
CIRCLE
  5
5C7
100
AcDbEntity
  8
0
  6
CONTINUOUS
 62
               4
100
AcDbCircle
 10
2.0000152587890625
 20
0.0
 30
0.0
 40
1.25
  0
CIRCLE
  5
5C8
100
AcDbEntity
  8
0
  6
CONTINUOUS
 62
               4
100
AcDbCircle
 10
2.0000152587890625
 20
0.0
 30
0.0
 40
1.3999996185302734
  0
ENDBLK
  5
5C9
100
AcDbEntity
  8
0
100
AcDbBlockEnd
  0
BLOCK
  5
5CA
100
AcDbEntity
  8
0
100
AcDbBlockBegin
  2
MGALGS4_5-16
 70
               0
 10
0.0
 20
0.0
 30
0.0
  3
MGALGS4_5-16
  1

  0
LINE
  5
5CB
100
AcDbEntity
  8
0
  6
CONTINUOUS
 62
               4
100
AcDbLine
 10
20.699999999999822
 20
12.149999999999972
 30
0.0
 11
20.699999999999822
 21
15.399999999999972
 31
0.0
  0
LINE
  5
5CC
100
AcDbEntity
  8
0
  6
CONTINUOUS
 62
               4
100
AcDbLine
 10
18.099999999999913
 20
10.649999999999974
 30
0.0
 11
18.099999999999913
 21
15.399999999999974
 31
0.0
  0
LINE
  5
5CD
100
AcDbEntity
  8
0
  6
CONTINUOUS
 62
               4
100
AcDbLine
 10
18.099999999999909
 20
6.8999999999999728
 30
0.0
 11
18.099999999999913
 21
9.1499999999999737
 31
0.0
  0
LINE
  5
5CE
100
AcDbEntity
  8
0
  6
CONTINUOUS
 62
               4
100
AcDbLine
 10
20.699999999999818
 20
6.8999999999999719
 30
0.0
 11
20.699999999999822
 21
10.649999999999972
 31
0.0
  0
LINE
  5
5CF
100
AcDbEntity
  8
0
  6
CONTINUOUS
 62
               4
100
AcDbLine
 10
0.75
 20
0.4999999999999998
 30
0.0
 11
3.25
 21
0.4999999999999991
 31
0.0
  0
LINE
  5
5D0
100
AcDbEntity
  8
0
  6
CONTINUOUS
 62
               4
100
AcDbLine
 10
3.25
 20
0.4999999999999991
 30
0.0
 11
3.25
 21
-0.0000000000000009
 31
0.0
  0
LINE
  5
5D1
100
AcDbEntity
  8
0
  6
CONTINUOUS
 62
               2
100
AcDbLine
 10
3.0199999999999818
 20
0.4999999999999993
 30
0.0
 11
3.0199999999999818
 21
-0.0000000000000007
 31
0.0
  0
LINE
  5
5D2
100
AcDbEntity
  8
0
  6
CONTINUOUS
 62
               2
100
AcDbLine
 10
0.9700000000000273
 20
0.4999999999999998
 30
0.0
 11
0.9700000000000273
 21
-0.0000000000000002
 31
0.0
  0
LINE
  5
5D3
100
AcDbEntity
  8
0
  6
CONTINUOUS
 62
               4
100
AcDbLine
 10
0.75
 20
0.4999999999999998
 30
0.0
 11
0.75
 21
-0.0000000000000002
 31
0.0
  0
LINE
  5
5D4
100
AcDbEntity
  8
0
  6
CONTINUOUS
 62
               4
100
AcDbLine
 10
0.75
 20
-3.7699999999999818
 30
0.0
 11
3.25
 21
-3.7699999999999827
 31
0.0
  0
LINE
  5
5D5
100
AcDbEntity
  8
0
  6
CONTINUOUS
 62
               4
100
AcDbLine
 10
3.25
 20
-2.6000000000000236
 30
0.0
 11
3.25
 21
-3.7699999999999827
 31
0.0
  0
LINE
  5
5D6
100
AcDbEntity
  8
0
  6
CONTINUOUS
 62
               2
100
AcDbLine
 10
3.0199999999999818
 20
-2.6000000000000236
 30
0.0
 11
3.0199999999999818
 21
-4.0000000000000009
 31
0.0
  0
LINE
  5
5D7
100
AcDbEntity
  8
0
  6
CONTINUOUS
 62
               2
100
AcDbLine
 10
0.9700000000000273
 20
-2.6000000000000227
 30
0.0
 11
0.9700000000000273
 21
-4.0
 31
0.0
  0
LINE
  5
5D8
100
AcDbEntity
  8
0
  6
CONTINUOUS
 62
               4
100
AcDbLine
 10
0.75
 20
-2.6000000000000227
 30
0.0
 11
0.75
 21
-3.7699999999999818
 31
0.0
  0
LINE
  5
5D9
100
AcDbEntity
  8
0
  6
CONTINUOUS
 62
               4
100
AcDbLine
 10
0.9700000000000273
 20
-4.0
 30
0.0
 11
0.75
 21
-3.7699999999999818
 31
0.0
  0
LINE
  5
5DA
100
AcDbEntity
  8
0
  6
CONTINUOUS
 62
               4
100
AcDbLine
 10
3.0199999999999818
 20
-4.0000000000000009
 30
0.0
 11
3.25
 21
-3.7699999999999827
 31
0.0
  0
LINE
  5
5DB
100
AcDbEntity
  8
0
  6
CONTINUOUS
 62
               4
100
AcDbLine
 10
0.9700000000000273
 20
-4.0
 30
0.0
 11
3.0199999999999818
 21
-4.0000000000000009
 31
0.0
  0
LINE
  5
5DC
100
AcDbEntity
  8
0
  6
CONTINUOUS
 62
               2
100
AcDbLine
 10
17.240000000000013
 20
8.6499999999999737
 30
0.0
 11
21.56999999999994
 21
11.149999999999972
 31
0.0
  0
LINE
  5
5DD
100
AcDbEntity
  8
0
  6
CONTINUOUS
 62
               2
100
AcDbLine
 10
17.240000000000013
 20
10.149999999999974
 30
0.0
 11
21.56999999999994
 21
12.649999999999972
 31
0.0
  0
LINE
  5
5DE
100
AcDbEntity
  8
0
  6
CONTINUOUS
 62
               2
100
AcDbLine
 10
17.240000000000013
 20
17.629999999999992
 30
0.0
 11
21.56999999999994
 21
20.129999999999992
 31
0.0
  0
LINE
  5
5DF
100
AcDbEntity
  8
0
  6
CENTER
 62
               2
100
AcDbLine
 10
19.399999999999864
 20
5.5800000000000365
 30
0.0
 11
19.399999999999867
 21
15.399999999999972
 31
0.0
  0
LINE
  5
5E0
100
AcDbEntity
  8
0
  6
CONTINUOUS
 62
               2
100
AcDbLine
 10
17.240000000000013
 20
19.129999999999992
 30
0.0
 11
21.56999999999994
 21
21.629999999999992
 31
0.0
  0
LINE
  5
5E1
100
AcDbEntity
  8
0
  6
CONTINUOUS
 62
               4
100
AcDbLine
 10
20.099999999999916
 20
22.399999999999974
 30
0.0
 11
20.099999999999916
 21
25.399999999999974
 31
0.0
  0
LINE
  5
5E2
100
AcDbEntity
  8
0
  6
CONTINUOUS
 62
               4
100
AcDbLine
 10
19.599999999999916
 20
22.399999999999974
 30
0.0
 11
19.599999999999916
 21
25.399999999999974
 31
0.0
  0
LINE
  5
5E3
100
AcDbEntity
  8
0
  6
CONTINUOUS
 62
               4
100
AcDbLine
 10
19.199999999999825
 20
22.399999999999974
 30
0.0
 11
19.199999999999825
 21
25.399999999999974
 31
0.0
  0
LINE
  5
5E4
100
AcDbEntity
  8
0
  6
CONTINUOUS
 62
               4
100
AcDbLine
 10
18.699999999999825
 20
22.399999999999974
 30
0.0
 11
18.699999999999825
 21
25.399999999999974
 31
0.0
  0
LINE
  5
5E5
100
AcDbEntity
  8
0
  6
CONTINUOUS
 62
               4
100
AcDbLine
 10
18.500000000000004
 20
19.86000000000001
 30
0.0
 11
18.500000000000007
 21
22.399999999999974
 31
0.0
  0
LINE
  5
5E6
100
AcDbEntity
  8
0
  6
CONTINUOUS
 62
               4
100
AcDbLine
 10
18.500000000000004
 20
15.399999999999972
 30
0.0
 11
18.500000000000004
 21
18.36000000000001
 31
0.0
  0
LINE
  5
5E7
100
AcDbEntity
  8
0
  6
CONTINUOUS
 62
               4
100
AcDbLine
 10
20.299999999999958
 20
20.899999999999974
 30
0.0
 11
20.299999999999962
 21
22.399999999999974
 31
0.0
  0
LINE
  5
5E8
100
AcDbEntity
  8
0
  6
CONTINUOUS
 62
               4
100
AcDbLine
 10
19.399999999999867
 20
20.379999999999992
 30
0.0
 11
19.399999999999871
 21
22.399999999999974
 31
0.0
  0
LINE
  5
5E9
100
AcDbEntity
  8
0
  6
CONTINUOUS
 62
               4
100
AcDbLine
 10
19.399999999999867
 20
15.399999999999972
 30
0.0
 11
19.399999999999867
 21
18.879999999999992
 31
0.0
  0
LINE
  5
5EA
100
AcDbEntity
  8
0
  6
CONTINUOUS
 62
               4
100
AcDbLine
 10
20.299999999999958
 20
15.399999999999972
 30
0.0
 11
20.299999999999958
 21
19.399999999999974
 31
0.0
  0
LINE
  5
5EB
100
AcDbEntity
  8
0
  6
CONTINUOUS
 62
               4
100
AcDbLine
 10
18.500000000000007
 20
22.399999999999974
 30
0.0
 11
20.299999999999962
 21
22.399999999999974
 31
0.0
  0
LINE
  5
5EC
100
AcDbEntity
  8
0
  6
CONTINUOUS
 62
               4
100
AcDbLine
 10
19.599999999999916
 20
25.399999999999974
 30
0.0
 11
20.099999999999916
 21
25.399999999999974
 31
0.0
  0
LINE
  5
5ED
100
AcDbEntity
  8
0
  6
CONTINUOUS
 62
               4
100
AcDbLine
 10
18.699999999999825
 20
25.399999999999974
 30
0.0
 11
19.199999999999825
 21
25.399999999999974
 31
0.0
  0
LINE
  5
5EE
100
AcDbEntity
  8
0
  6
CENTER
 62
               2
100
AcDbLine
 10
19.849999999999913
 20
13.720000000000022
 30
0.0
 11
19.849999999999916
 21
25.649999999999974
 31
0.0
  0
LINE
  5
5EF
100
AcDbEntity
  8
0
  6
CENTER
 62
               2
100
AcDbLine
 10
18.949999999999822
 20
13.669999999999954
 30
0.0
 11
18.949999999999825
 21
25.600000000000019
 31
0.0
  0
LINE
  5
5F0
100
AcDbEntity
  8
0
  6
CONTINUOUS
 62
               4
100
AcDbLine
 10
18.099999999999913
 20
15.399999999999974
 30
0.0
 11
20.699999999999822
 21
15.399999999999972
 31
0.0
  0
LINE
  5
5F1
100
AcDbEntity
  8
0
  6
CONTINUOUS
 62
               4
100
AcDbLine
 10
16.099999999999909
 20
5.3999999999999737
 30
0.0
 11
22.0
 21
5.3999999999999719
 31
0.0
  0
LINE
  5
5F2
100
AcDbEntity
  8
0
  6
CONTINUOUS
 62
               4
100
AcDbLine
 10
16.099999999999909
 20
0.3999999999999733
 30
0.0
 11
22.0
 21
0.3999999999999719
 31
0.0
  0
LINE
  5
5F3
100
AcDbEntity
  8
0
  6
CONTINUOUS
 62
               4
100
AcDbLine
 10
16.099999999999909
 20
1.1499999999999733
 30
0.0
 11
22.0
 21
1.1499999999999719
 31
0.0
  0
LINE
  5
5F4
100
AcDbEntity
  8
0
  6
CONTINUOUS
 62
               4
100
AcDbLine
 10
0.0
 20
-0.4499999999999318
 30
0.0
 11
22.0
 21
-0.4499999999999371
 31
0.0
  0
LINE
  5
5F5
100
AcDbEntity
  8
0
  6
CONTINUOUS
 62
               4
100
AcDbLine
 10
0.0
 20
-1.0
 30
0.0
 11
22.0
 21
-1.0000000000000053
 31
0.0
  0
LINE
  5
5F6
100
AcDbEntity
  8
0
  6
CONTINUOUS
 62
               4
100
AcDbLine
 10
4.2699999999999818
 20
-1.8000000000000691
 30
0.0
 11
4.2699999999999818
 21
-2.9800000000000191
 31
0.0
  0
LINE
  5
5F7
100
AcDbEntity
  8
0
  6
CONTINUOUS
 62
               4
100
AcDbLine
 10
4.2699999999999818
 20
-2.9800000000000191
 30
0.0
 11
4.6999999999998181
 21
-2.98000000000002
 31
0.0
  0
LINE
  5
5F8
100
AcDbEntity
  8
0
  6
CONTINUOUS
 62
               4
100
AcDbLine
 10
4.1999999999998181
 20
-1.8000000000000691
 30
0.0
 11
4.1999999999998181
 21
-3.8000000000000691
 31
0.0
  0
LINE
  5
5F9
100
AcDbEntity
  8
0
  6
CONTINUOUS
 62
               4
100
AcDbLine
 10
4.1999999999998181
 20
-3.8000000000000691
 30
0.0
 11
4.6999999999998181
 21
-3.80000000000007
 31
0.0
  0
LINE
  5
5FA
100
AcDbEntity
  8
0
  6
CONTINUOUS
 62
               4
100
AcDbLine
 10
16.099999999999909
 20
6.8999999999999737
 30
0.0
 11
22.0
 21
6.8999999999999719
 31
0.0
  0
LINE
  5
5FB
100
AcDbEntity
  8
0
  6
CONTINUOUS
 62
               4
100
AcDbLine
 10
4.0
 20
-1.8000000000000691
 30
0.0
 11
4.0
 21
-2.6000000000000236
 31
0.0
  0
LINE
  5
5FC
100
AcDbEntity
  8
0
  6
CONTINUOUS
 62
               4
100
AcDbLine
 10
0.0
 20
-2.6000000000000227
 30
0.0
 11
4.0
 21
-2.6000000000000236
 31
0.0
  0
LINE
  5
5FD
100
AcDbEntity
  8
0
  6
CONTINUOUS
 62
               4
100
AcDbLine
 10
0.0
 20
-1.8000000000000682
 30
0.0
 11
4.2699999999999818
 21
-1.8000000000000691
 31
0.0
  0
LINE
  5
5FE
100
AcDbEntity
  8
0
  6
CONTINUOUS
 62
               4
100
AcDbLine
 10
16.099999999999909
 20
6.8999999999999737
 30
0.0
 11
16.099999999999909
 21
-0.000000000000004
 31
0.0
  0
LINE
  5
5FF
100
AcDbEntity
  8
0
  6
CENTER
 62
               2
100
AcDbLine
 10
2.0
 20
0.7300000000000178
 30
0.0
 11
2.0
 21
-5.16999999999996
 31
0.0
  0
LINE
  5
600
100
AcDbEntity
  8
0
  6
CONTINUOUS
 62
               4
100
AcDbLine
 10
4.6999999999998181
 20
-2.98000000000002
 30
0.0
 11
4.6999999999998181
 21
-4.6000000000000236
 31
0.0
  0
LINE
  5
601
100
AcDbEntity
  8
0
  6
CONTINUOUS
 62
               4
100
AcDbLine
 10
0.0
 20
-2.6000000000000227
 30
0.0
 11
0.0
 21
0.0
 31
0.0
  0
LINE
  5
602
100
AcDbEntity
  8
0
  6
CONTINUOUS
 62
               4
100
AcDbLine
 10
22.0
 20
6.8999999999999719
 30
0.0
 11
22.0
 21
-4.6000000000000281
 31
0.0
  0
LINE
  5
603
100
AcDbEntity
  8
0
  6
CONTINUOUS
 62
               4
100
AcDbLine
 10
4.6999999999998181
 20
-4.6000000000000236
 30
0.0
 11
22.0
 21
-4.6000000000000281
 31
0.0
  0
LINE
  5
604
100
AcDbEntity
  8
0
  6
CONTINUOUS
 62
               4
100
AcDbLine
 10
0.0
 20
0.0
 30
0.0
 11
16.099999999999909
 21
-0.000000000000004
 31
0.0
  0
ENDBLK
  5
605
100
AcDbEntity
  8
0
100
AcDbBlockEnd
  0
BLOCK
  5
606
100
AcDbEntity
  8
0
100
AcDbBlockBegin
  2
MGALGS4_5-17
 70
               0
 10
0.0
 20
0.0
 30
0.0
  3
MGALGS4_5-17
  1

  0
ARC
  5
607
100
AcDbEntity
  8
0
  6
CONTINUOUS
 62
               4
100
AcDbCircle
 10
-0.0000022888198146
 20
-2.5499977111803673
 30
0.0
 40
2.0500022888209148
100
AcDbArc
 50
270.00006397051652
 51
359.99993602948348
  0
ARC
  5
608
100
AcDbEntity
  8
0
  6
CONTINUOUS
 62
               4
100
AcDbCircle
 10
0.0000022888195872
 20
-2.5499977111803673
 30
0.0
 40
2.0500022888209148
100
AcDbArc
 50
180.00006397051652
 51
269.99993602948348
  0
LINE
  5
609
100
AcDbEntity
  8
0
  6
CONTINUOUS
 62
               4
100
AcDbLine
 10
1.2999999999999545
 20
10.649999999999977
 30
0.0
 11
1.2999999999999545
 21
6.8999999999999773
 31
0.0
  0
LINE
  5
60A
100
AcDbEntity
  8
0
  6
CONTINUOUS
 62
               4
100
AcDbLine
 10
-1.3000000000001819
 20
9.1499999999999773
 30
0.0
 11
-1.3000000000001819
 21
6.8999999999999773
 31
0.0
  0
LINE
  5
60B
100
AcDbEntity
  8
0
  6
CONTINUOUS
 62
               4
100
AcDbLine
 10
-1.25
 20
0.5
 30
0.0
 11
1.25
 21
0.5
 31
0.0
  0
LINE
  5
60C
100
AcDbEntity
  8
0
  6
CONTINUOUS
 62
               4
100
AcDbLine
 10
1.25
 20
0.5
 30
0.0
 11
1.25
 21
0.0
 31
0.0
  0
LINE
  5
60D
100
AcDbEntity
  8
0
  6
CONTINUOUS
 62
               2
100
AcDbLine
 10
1.0199999999999818
 20
0.5
 30
0.0
 11
1.0199999999999818
 21
0.0
 31
0.0
  0
LINE
  5
60E
100
AcDbEntity
  8
0
  6
CONTINUOUS
 62
               2
100
AcDbLine
 10
-1.0199999999999818
 20
0.5
 30
0.0
 11
-1.0199999999999818
 21
0.0
 31
0.0
  0
LINE
  5
60F
100
AcDbEntity
  8
0
  6
CONTINUOUS
 62
               4
100
AcDbLine
 10
-1.25
 20
0.5
 30
0.0
 11
-1.25
 21
0.0
 31
0.0
  0
LINE
  5
610
100
AcDbEntity
  8
0
  6
CONTINUOUS
 62
               4
100
AcDbLine
 10
-1.25
 20
-3.7699999999999818
 30
0.0
 11
1.25
 21
-3.7699999999999818
 31
0.0
  0
LINE
  5
611
100
AcDbEntity
  8
0
  6
CONTINUOUS
 62
               4
100
AcDbLine
 10
1.25
 20
-2.6000000000000227
 30
0.0
 11
1.25
 21
-3.7699999999999818
 31
0.0
  0
LINE
  5
612
100
AcDbEntity
  8
0
  6
CONTINUOUS
 62
               2
100
AcDbLine
 10
1.0199999999999818
 20
-2.6000000000000227
 30
0.0
 11
1.0199999999999818
 21
-4.0
 31
0.0
  0
LINE
  5
613
100
AcDbEntity
  8
0
  6
CONTINUOUS
 62
               2
100
AcDbLine
 10
-1.0199999999999818
 20
-2.6000000000000227
 30
0.0
 11
-1.0199999999999818
 21
-4.0
 31
0.0
  0
LINE
  5
614
100
AcDbEntity
  8
0
  6
CONTINUOUS
 62
               4
100
AcDbLine
 10
-1.25
 20
-2.6000000000000227
 30
0.0
 11
-1.25
 21
-3.7699999999999818
 31
0.0
  0
LINE
  5
615
100
AcDbEntity
  8
0
  6
CONTINUOUS
 62
               4
100
AcDbLine
 10
-1.0199999999999818
 20
-4.0
 30
0.0
 11
-1.25
 21
-3.7699999999999818
 31
0.0
  0
LINE
  5
616
100
AcDbEntity
  8
0
  6
CONTINUOUS
 62
               4
100
AcDbLine
 10
1.0199999999999818
 20
-4.0
 30
0.0
 11
1.25
 21
-3.7699999999999818
 31
0.0
  0
LINE
  5
617
100
AcDbEntity
  8
0
  6
CONTINUOUS
 62
               4
100
AcDbLine
 10
-1.0199999999999818
 20
-4.0
 30
0.0
 11
1.0199999999999818
 21
-4.0
 31
0.0
  0
LINE
  5
618
100
AcDbEntity
  8
0
  6
CONTINUOUS
 62
               2
100
AcDbLine
 10
-2.1600000000000819
 20
8.6499999999999773
 30
0.0
 11
2.1599999999998545
 21
11.149999999999977
 31
0.0
  0
LINE
  5
619
100
AcDbEntity
  8
0
  6
CONTINUOUS
 62
               4
100
AcDbLine
 10
-2.25
 20
6.8999999999999773
 30
0.0
 11
2.25
 21
6.8999999999999773
 31
0.0
  0
LINE
  5
61A
100
AcDbEntity
  8
0
  6
CONTINUOUS
 62
               4
100
AcDbLine
 10
-2.0500000000001819
 20
-2.6000000000000227
 30
0.0
 11
2.0499999999999545
 21
-2.6000000000000227
 31
0.0
  0
LINE
  5
61B
100
AcDbEntity
  8
0
  6
CONTINUOUS
 62
               4
100
AcDbLine
 10
-2.0500000000001819
 20
-1.7999999999999545
 30
0.0
 11
2.0499999999999545
 21
-1.7999999999999545
 31
0.0
  0
LINE
  5
61C
100
AcDbEntity
  8
0
  6
CONTINUOUS
 62
               4
100
AcDbLine
 10
-1.5
 20
0.0
 30
0.0
 11
1.5
 21
0.0
 31
0.0
  0
LINE
  5
61D
100
AcDbEntity
  8
0
  6
CENTER
 62
               2
100
AcDbLine
 10
0.0
 20
12.559999999999945
 30
0.0
 11
0.0
 21
-6.0599999999999454
 31
0.0
  0
LINE
  5
61E
100
AcDbEntity
  8
0
  6
CONTINUOUS
 62
               4
100
AcDbLine
 10
2.25
 20
6.8999999999999773
 30
0.0
 11
2.25
 21
1.1499999999999773
 31
0.0
  0
LINE
  5
61F
100
AcDbEntity
  8
0
  6
CONTINUOUS
 62
               4
100
AcDbLine
 10
1.5
 20
0.3999999999999773
 30
0.0
 11
2.25
 21
1.1499999999999773
 31
0.0
  0
LINE
  5
620
100
AcDbEntity
  8
0
  6
CONTINUOUS
 62
               4
100
AcDbLine
 10
1.5
 20
-0.4500000000000455
 30
0.0
 11
1.5
 21
0.3999999999999773
 31
0.0
  0
LINE
  5
621
100
AcDbEntity
  8
0
  6
CONTINUOUS
 62
               4
100
AcDbLine
 10
2.0499999999999545
 20
-1.0
 30
0.0
 11
1.5
 21
-0.4500000000000455
 31
0.0
  0
LINE
  5
622
100
AcDbEntity
  8
0
  6
CONTINUOUS
 62
               4
100
AcDbLine
 10
2.0499999999999545
 20
-1.0
 30
0.0
 11
2.0499999999999545
 21
-2.5499999999999545
 31
0.0
  0
LINE
  5
623
100
AcDbEntity
  8
0
  6
CONTINUOUS
 62
               4
100
AcDbLine
 10
-2.0500000000001819
 20
-1.0
 30
0.0
 11
-2.0500000000001819
 21
-2.5499999999999545
 31
0.0
  0
LINE
  5
624
100
AcDbEntity
  8
0
  6
CONTINUOUS
 62
               4
100
AcDbLine
 10
-2.0500000000001819
 20
-1.0
 30
0.0
 11
-1.5
 21
-0.4500000000000455
 31
0.0
  0
LINE
  5
625
100
AcDbEntity
  8
0
  6
CONTINUOUS
 62
               4
100
AcDbLine
 10
-1.5
 20
-0.4500000000000455
 30
0.0
 11
-1.5
 21
0.3999999999999773
 31
0.0
  0
LINE
  5
626
100
AcDbEntity
  8
0
  6
CONTINUOUS
 62
               4
100
AcDbLine
 10
-1.5
 20
0.3999999999999773
 30
0.0
 11
-2.25
 21
1.1499999999999773
 31
0.0
  0
LINE
  5
627
100
AcDbEntity
  8
0
  6
CONTINUOUS
 62
               4
100
AcDbLine
 10
-2.25
 20
6.8999999999999773
 30
0.0
 11
-2.25
 21
1.1499999999999773
 31
0.0
  0
LINE
  5
628
100
AcDbEntity
  8
0
  6
CONTINUOUS
 62
               4
100
AcDbLine
 10
-2.25
 20
5.3999999999999773
 30
0.0
 11
2.25
 21
5.3999999999999773
 31
0.0
  0
ENDBLK
  5
629
100
AcDbEntity
  8
0
100
AcDbBlockEnd
  0
BLOCK
  5
62A
100
AcDbEntity
  8
0
100
AcDbBlockBegin
  2
MGALGS4_5-18
 70
               0
 10
0.0
 20
0.0
 30
0.0
  3
MGALGS4_5-18
  1

  0
CIRCLE
  5
62B
100
AcDbEntity
  8
0
  6
CONTINUOUS
 62
               4
100
AcDbCircle
 10
19.117279052734375
 20
0.3181533813476563
 30
0.0
 40
0.25
  0
CIRCLE
  5
62C
100
AcDbEntity
  8
0
  6
CONTINUOUS
 62
               4
100
AcDbCircle
 10
19.729156494140625
 20
-0.34100341796875
 30
0.0
 40
0.25
  0
CIRCLE
  5
62D
100
AcDbEntity
  8
0
  6
CONTINUOUS
 62
               4
100
AcDbCircle
 10
19.117279052734375
 20
0.3181533813476563
 30
0.0
 40
0.449999988079071
  0
CIRCLE
  5
62E
100
AcDbEntity
  8
0
  6
CONTINUOUS
 62
               4
100
AcDbCircle
 10
19.729156494140625
 20
-0.34100341796875
 30
0.0
 40
0.449999988079071
  0
CIRCLE
  5
62F
100
AcDbEntity
  8
0
  6
CONTINUOUS
 62
               4
100
AcDbCircle
 10
19.4073486328125
 20
0.0
 30
0.0
 40
1.2999992370605469
  0
CIRCLE
  5
630
100
AcDbEntity
  8
0
  6
CONTINUOUS
 62
               4
100
AcDbCircle
 10
2.0
 20
0.0
 30
0.0
 40
1.3999996185302734
  0
CIRCLE
  5
631
100
AcDbEntity
  8
0
  6
CONTINUOUS
 62
               4
100
AcDbCircle
 10
2.0
 20
0.0
 30
0.0
 40
1.25
  0
ARC
  5
632
100
AcDbEntity
  8
0
  6
CONTINUOUS
 62
               4
100
AcDbCircle
 10
19.5
 20
0.0
 30
0.0
 40
3.3043758866085451
100
AcDbArc
 50
137.08479304051025
 51
222.91520695948975
  0
LINE
  5
633
100
AcDbEntity
  8
0
  6
CONTINUOUS
 62
               4
100
AcDbLine
 10
0.9300000000000637
 20
-0.6399999999999864
 30
0.0
 11
2.6400000000001
 21
1.0699999999999932
 31
0.0
  0
LINE
  5
634
100
AcDbEntity
  8
0
  6
CONTINUOUS
 62
               4
100
AcDbLine
 10
1.3500000000001364
 20
-1.0699999999999932
 30
0.0
 11
3.0700000000001637
 21
0.6399999999999864
 31
0.0
  0
LINE
  5
635
100
AcDbEntity
  8
0
  6
CONTINUOUS
 62
               4
100
AcDbLine
 10
22.0
 20
2.25
 30
0.0
 11
22.0
 21
-2.25
 31
0.0
  0
LINE
  5
636
100
AcDbEntity
  8
0
  6
CONTINUOUS
 62
               4
100
AcDbLine
 10
17.079999999999927
 20
-2.25
 30
0.0
 11
22.0
 21
-2.25
 31
0.0
  0
LINE
  5
637
100
AcDbEntity
  8
0
  6
CONTINUOUS
 62
               4
100
AcDbLine
 10
17.079999999999927
 20
2.25
 30
0.0
 11
22.0
 21
2.25
 31
0.0
  0
LINE
  5
638
100
AcDbEntity
  8
0
  6
CENTER
 62
               2
100
AcDbLine
 10
2.0
 20
2.8300000000000409
 30
0.0
 11
2.0
 21
-2.75
 31
0.0
  0
LINE
  5
639
100
AcDbEntity
  8
0
  6
CONTINUOUS
 62
               4
100
AcDbLine
 10
0.0
 20
2.0500000000000114
 30
0.0
 11
0.0
 21
-2.0500000000000114
 31
0.0
  0
LINE
  5
63A
100
AcDbEntity
  8
0
  6
CONTINUOUS
 62
               4
100
AcDbLine
 10
0.0
 20
2.0500000000000114
 30
0.0
 11
16.910000000000082
 21
2.0500000000000114
 31
0.0
  0
LINE
  5
63B
100
AcDbEntity
  8
0
  6
CONTINUOUS
 62
               4
100
AcDbLine
 10
0.0
 20
-2.0500000000000114
 30
0.0
 11
16.910000000000082
 21
-2.0500000000000114
 31
0.0
  0
LINE
  5
63C
100
AcDbEntity
  8
0
  6
CONTINUOUS
 62
               4
100
AcDbLine
 10
0.0
 20
1.5
 30
0.0
 11
16.559999999999945
 21
1.5
 31
0.0
  0
LINE
  5
63D
100
AcDbEntity
  8
0
  6
CONTINUOUS
 62
               4
100
AcDbLine
 10
0.0
 20
-1.5
 30
0.0
 11
16.559999999999945
 21
-1.5
 31
0.0
  0
LINE
  5
63E
100
AcDbEntity
  8
0
  6
CENTER
 62
               2
100
AcDbLine
 10
-1.3199999999999363
 20
0.0
 30
0.0
 11
23.579999999999927
 21
0.0
 31
0.0
  0
ENDBLK
  5
63F
100
AcDbEntity
  8
0
100
AcDbBlockEnd
  0
BLOCK
  5
640
100
AcDbEntity
  8
0
100
AcDbBlockBegin
  2
MGALGS4_5-19
 70
               0
 10
0.0
 20
0.0
 30
0.0
  3
MGALGS4_5-19
  1

  0
LINE
  5
641
100
AcDbEntity
  8
0
  6
CONTINUOUS
 62
               4
100
AcDbLine
 10
0.7514285714287325
 20
0.4001359972752425
 30
0.0
 11
3.2514285714287325
 21
0.4001359972752425
 31
0.0
  0
LINE
  5
642
100
AcDbEntity
  8
0
  6
CONTINUOUS
 62
               4
100
AcDbLine
 10
0.9514285714285506
 20
0.600135997275288
 30
0.0
 11
3.0514285714286871
 21
0.600135997275288
 31
0.0
  0
LINE
  5
643
100
AcDbEntity
  8
0
  6
CONTINUOUS
 62
               2
100
AcDbLine
 10
0.7514285714287325
 20
-3.899864002724712
 30
0.0
 11
3.2514285714287325
 21
-3.899864002724712
 31
0.0
  0
LINE
  5
644
100
AcDbEntity
  8
0
  6
CONTINUOUS
 62
               4
100
AcDbLine
 10
1.2514285714287325
 20
-4.399864002724712
 30
0.0
 11
2.7514285714287325
 21
-4.399864002724712
 31
0.0
  0
LINE
  5
645
100
AcDbEntity
  8
0
  6
CONTINUOUS
 62
               4
100
AcDbLine
 10
-0.0000000047682533
 20
-1.800000002724687
 30
0.0
 11
4.2999999986377588
 21
-1.800000002724687
 31
0.0
  0
LINE
  5
646
100
AcDbEntity
  8
0
  6
CONTINUOUS
 62
               4
100
AcDbLine
 10
-0.0000000047682533
 20
-2.6000000027247552
 30
0.0
 11
3.9999999952317467
 21
-2.6000000027247552
 31
0.0
  0
LINE
  5
647
100
AcDbEntity
  8
0
  6
CONTINUOUS
 62
               4
100
AcDbLine
 10
-0.0000000047682533
 20
-1.1000000027247552
 30
0.0
 11
15.5
 21
-1.1000000027247552
 31
0.0
  0
LINE
  5
648
100
AcDbEntity
  8
0
  6
CONTINUOUS
 62
               4
100
AcDbLine
 10
-0.0000000047682533
 20
-0.5499999965938969
 30
0.0
 11
15.5
 21
-0.5499999965938969
 31
0.0
  0
LINE
  5
649
100
AcDbEntity
  8
0
  6
CONTINUOUS
 62
               4
100
AcDbLine
 10
-0.0000000047682533
 20
0.0
 30
0.0
 11
15.5
 21
0.0
 31
0.0
  0
LINE
  5
64A
100
AcDbEntity
  8
0
  6
CENTER
 62
               2
100
AcDbLine
 10
14.651603608812593
 20
-2.4999995223463429
 30
0.0
 11
33.252631006551155
 21
-2.4999995223463429
 31
0.0
  0
LINE
  5
64B
100
AcDbEntity
  8
0
  6
CONTINUOUS
 62
               4
100
AcDbLine
 10
20.753464203233307
 20
-3.7999995223464111
 30
0.0
 11
23.999999995231747
 21
-3.7999995223464111
 31
0.0
  0
LINE
  5
64C
100
AcDbEntity
  8
0
  6
CONTINUOUS
 62
               4
100
AcDbLine
 10
19.252309468822205
 20
-1.1999995223463884
 30
0.0
 11
23.999999995231747
 21
-1.1999995223463884
 31
0.0
  0
LINE
  5
64D
100
AcDbEntity
  8
0
  6
CONTINUOUS
 62
               4
100
AcDbLine
 10
15.5
 20
-3.7999995223464111
 30
0.0
 11
19.253464203233307
 21
-3.7999995223464111
 31
0.0
  0
LINE
  5
64E
100
AcDbEntity
  8
0
  6
CONTINUOUS
 62
               4
100
AcDbLine
 10
15.5
 20
-1.1999995223463884
 30
0.0
 11
17.752309468822205
 21
-1.1999995223463884
 31
0.0
  0
LINE
  5
64F
100
AcDbEntity
  8
0
  6
CONTINUOUS
 62
               4
100
AcDbLine
 10
4.2999999986377588
 20
-4.5999995223463657
 30
0.0
 11
15.499999995231747
 21
-4.5999995223463657
 31
0.0
  0
LINE
  5
650
100
AcDbEntity
  8
0
  6
CONTINUOUS
 62
               4
100
AcDbLine
 10
23.999999995231747
 20
-1.1999995223463884
 30
0.0
 11
23.999999995231747
 21
-3.7999995223464111
 31
0.0
  0
LINE
  5
651
100
AcDbEntity
  8
0
  6
CONTINUOUS
 62
               4
100
AcDbLine
 10
15.5
 20
-4.5999995223463657
 30
0.0
 11
15.5
 21
0.0
 31
0.0
  0
LINE
  5
652
100
AcDbEntity
  8
0
  6
CONTINUOUS
 62
               4
100
AcDbLine
 10
4.3000000000001819
 20
-1.800000002724687
 30
0.0
 11
4.3000000000001819
 21
-4.5999995223463657
 31
0.0
  0
LINE
  5
653
100
AcDbEntity
  8
0
  6
CONTINUOUS
 62
               4
100
AcDbLine
 10
3.2514285714287325
 20
-2.5998640027247575
 30
0.0
 11
3.2514285714287325
 21
-3.899864002724712
 31
0.0
  0
LINE
  5
654
100
AcDbEntity
  8
0
  6
CONTINUOUS
 62
               4
100
AcDbLine
 10
3.2514285714287325
 20
-3.899864002724712
 30
0.0
 11
2.7514285714287325
 21
-4.399864002724712
 31
0.0
  0
LINE
  5
655
100
AcDbEntity
  8
0
  6
CONTINUOUS
 62
               4
100
AcDbLine
 10
4.0
 20
-1.800000002724687
 30
0.0
 11
4.0
 21
-2.6000000027247552
 31
0.0
  0
LINE
  5
656
100
AcDbEntity
  8
0
  6
CENTER
 62
               2
100
AcDbLine
 10
2.0
 20
1.2864823084402133
 30
0.0
 11
2.0
 21
-5.0670362493540324
 31
0.0
  0
LINE
  5
657
100
AcDbEntity
  8
0
  6
CENTER
 62
               2
100
AcDbLine
 10
6.0
 20
-6.0904161991768433
 30
0.0
 11
6.0
 21
-3.6810090657418186
 31
0.0
  0
LINE
  5
658
100
AcDbEntity
  8
0
  6
CONTINUOUS
 62
               2
100
AcDbLine
 10
3.0500000000001819
 20
-2.5998640027247575
 30
0.0
 11
3.0500000000001819
 21
-4.1012925741532626
 31
0.0
  0
LINE
  5
659
100
AcDbEntity
  8
0
  6
CONTINUOUS
 62
               4
100
AcDbLine
 10
3.2514285714287325
 20
0.4001359972752425
 30
0.0
 11
3.2514285714287325
 21
0.0
 31
0.0
  0
LINE
  5
65A
100
AcDbEntity
  8
0
  6
CONTINUOUS
 62
               4
100
AcDbLine
 10
3.0514285714286871
 20
0.600135997275288
 30
0.0
 11
3.2514285714287325
 21
0.4001359972752425
 31
0.0
  0
LINE
  5
65B
100
AcDbEntity
  8
0
  6
CONTINUOUS
 62
               2
100
AcDbLine
 10
3.0500000000001819
 20
0.600135997275288
 30
0.0
 11
3.0500000000001819
 21
0.0
 31
0.0
  0
LINE
  5
65C
100
AcDbEntity
  8
0
  6
CONTINUOUS
 62
               4
100
AcDbLine
 10
23.999999995231747
 20
-3.6499995223464339
 30
0.0
 11
28.146859122401793
 21
-3.6499995223464339
 31
0.0
  0
LINE
  5
65D
100
AcDbEntity
  8
0
  6
CONTINUOUS
 62
               4
100
AcDbLine
 10
23.999999995231747
 20
-2.6499995223464339
 30
0.0
 11
27.569491916859079
 21
-2.6499995223464339
 31
0.0
  0
LINE
  5
65E
100
AcDbEntity
  8
0
  6
CONTINUOUS
 62
               4
100
AcDbLine
 10
30.999999995231747
 20
-2.6499995223464339
 30
0.0
 11
30.999999995231747
 21
-3.6499995223464339
 31
0.0
  0
LINE
  5
65F
100
AcDbEntity
  8
0
  6
CONTINUOUS
 62
               4
100
AcDbLine
 10
29.64685912240202
 20
-3.6499995223464339
 30
0.0
 11
30.999999995231747
 21
-3.6499995223464339
 31
0.0
  0
LINE
  5
660
100
AcDbEntity
  8
0
  6
CONTINUOUS
 62
               4
100
AcDbLine
 10
29.069491916859079
 20
-2.6499995223464339
 30
0.0
 11
30.999999995231747
 21
-2.6499995223464339
 31
0.0
  0
LINE
  5
661
100
AcDbEntity
  8
0
  6
CONTINUOUS
 62
               4
100
AcDbLine
 10
33.999999995231747
 20
-3.4399995300630053
 30
0.0
 11
33.999999995231747
 21
-2.8599995212074418
 31
0.0
  0
LINE
  5
662
100
AcDbEntity
  8
0
  6
CONTINUOUS
 62
               4
100
AcDbLine
 10
30.999999995231747
 20
-2.8599995223464703
 30
0.0
 11
34.000000000212594
 21
-2.8599995223464703
 31
0.0
  0
LINE
  5
663
100
AcDbEntity
  8
0
  6
CONTINUOUS
 62
               4
100
AcDbLine
 10
30.999999995231747
 20
-3.4399995223463975
 30
0.0
 11
34.000000000212594
 21
-3.4399995223463975
 31
0.0
  0
LINE
  5
664
100
AcDbEntity
  8
0
  6
CONTINUOUS
 62
               4
100
AcDbLine
 10
23.999999995231747
 20
-1.3499995223463657
 30
0.0
 11
26.818914549653528
 21
-1.3499995223463657
 31
0.0
  0
LINE
  5
665
100
AcDbEntity
  8
0
  6
CONTINUOUS
 62
               4
100
AcDbLine
 10
23.999999995231747
 20
-2.3499995223463657
 30
0.0
 11
27.396281755196469
 21
-2.3499995223463657
 31
0.0
  0
LINE
  5
666
100
AcDbEntity
  8
0
  6
CONTINUOUS
 62
               4
100
AcDbLine
 10
28.318914549653755
 20
-1.3499995223463657
 30
0.0
 11
30.999999995231747
 21
-1.3499995223463657
 31
0.0
  0
LINE
  5
667
100
AcDbEntity
  8
0
  6
CONTINUOUS
 62
               4
100
AcDbLine
 10
28.896281755196469
 20
-2.3499995223463657
 30
0.0
 11
30.999999995231747
 21
-2.3499995223463657
 31
0.0
  0
LINE
  5
668
100
AcDbEntity
  8
0
  6
CONTINUOUS
 62
               4
100
AcDbLine
 10
30.999999995231747
 20
-2.3499995223463657
 30
0.0
 11
30.999999995231747
 21
-1.3499995223463657
 31
0.0
  0
LINE
  5
669
100
AcDbEntity
  8
0
  6
CONTINUOUS
 62
               4
100
AcDbLine
 10
30.999999995231747
 20
-2.139999522346443
 30
0.0
 11
34.000000000212594
 21
-2.139999522346443
 31
0.0
  0
LINE
  5
66A
100
AcDbEntity
  8
0
  6
CONTINUOUS
 62
               4
100
AcDbLine
 10
30.999999995231747
 20
-1.559999522346402
 30
0.0
 11
34.000000000212594
 21
-1.559999522346402
 31
0.0
  0
LINE
  5
66B
100
AcDbEntity
  8
0
  6
CONTINUOUS
 62
               4
100
AcDbLine
 10
33.999999995231747
 20
-1.5599995146297942
 30
0.0
 11
33.999999995231747
 21
-2.1399995234853577
 31
0.0
  0
LINE
  5
66C
100
AcDbEntity
  8
0
  6
CENTER
 62
               2
100
AcDbLine
 10
22.319999995231683
 20
-3.1499995223464339
 30
0.0
 11
34.199999995231792
 21
-3.1499995223464339
 31
0.0
  0
LINE
  5
66D
100
AcDbEntity
  8
0
  6
CENTER
 62
               2
100
AcDbLine
 10
22.269999995231728
 20
-1.8499995223463657
 30
0.0
 11
34.199999995231792
 21
-1.8499995223463657
 31
0.0
  0
LINE
  5
66E
100
AcDbEntity
  8
0
  6
CONTINUOUS
 62
               2
100
AcDbLine
 10
17.25
 20
-0.3299995223463839
 30
0.0
 11
19.75
 21
-4.6599995223464248
 31
0.0
  0
LINE
  5
66F
100
AcDbEntity
  8
0
  6
CONTINUOUS
 62
               2
100
AcDbLine
 10
18.75
 20
-0.3299995223463839
 30
0.0
 11
21.25
 21
-4.6599995223464248
 31
0.0
  0
LINE
  5
670
100
AcDbEntity
  8
0
  6
CONTINUOUS
 62
               2
100
AcDbLine
 10
26.230000000000018
 20
-0.3299995223463839
 30
0.0
 11
28.730000000000018
 21
-4.6599995223464248
 31
0.0
  0
LINE
  5
671
100
AcDbEntity
  8
0
  6
CONTINUOUS
 62
               2
100
AcDbLine
 10
27.730000000000018
 20
-0.3299995223463839
 30
0.0
 11
30.230000000000018
 21
-4.6599995223464248
 31
0.0
  0
LINE
  5
672
100
AcDbEntity
  8
0
  6
CONTINUOUS
 62
               4
100
AcDbLine
 10
1.2514285714287325
 20
-4.399864002724712
 30
0.0
 11
0.7514285714287325
 21
-3.899864002724712
 31
0.0
  0
LINE
  5
673
100
AcDbEntity
  8
0
  6
CONTINUOUS
 62
               4
100
AcDbLine
 10
0.7514285714287325
 20
-2.5998640027247575
 30
0.0
 11
0.7514285714287325
 21
-3.899864002724712
 31
0.0
  0
LINE
  5
674
100
AcDbEntity
  8
0
  6
CONTINUOUS
 62
               4
100
AcDbLine
 10
0.0
 20
-1.7998640027246893
 30
0.0
 11
0.0
 21
-2.6000000027247552
 31
0.0
  0
LINE
  5
675
100
AcDbEntity
  8
0
  6
CONTINUOUS
 62
               4
100
AcDbLine
 10
0.0
 20
-1.7998640027246893
 30
0.0
 11
0.0
 21
0.0
 31
0.0
  0
LINE
  5
676
100
AcDbEntity
  8
0
  6
CONTINUOUS
 62
               2
100
AcDbLine
 10
0.9500000000000455
 20
-2.5998640027247575
 30
0.0
 11
0.9500000000000455
 21
-4.0984354312961386
 31
0.0
  0
LINE
  5
677
100
AcDbEntity
  8
0
  6
CONTINUOUS
 62
               4
100
AcDbLine
 10
0.7514285714287325
 20
0.0
 30
0.0
 11
0.7514285714287325
 21
0.4001359972752425
 31
0.0
  0
LINE
  5
678
100
AcDbEntity
  8
0
  6
CONTINUOUS
 62
               4
100
AcDbLine
 10
0.7514285714287325
 20
0.4001359972752425
 30
0.0
 11
0.9514285714285506
 21
0.600135997275288
 31
0.0
  0
LINE
  5
679
100
AcDbEntity
  8
0
  6
CONTINUOUS
 62
               2
100
AcDbLine
 10
0.9500000000000455
 20
0.600135997275288
 30
0.0
 11
0.9500000000000455
 21
0.0
 31
0.0
  0
ENDBLK
  5
67A
100
AcDbEntity
  8
0
100
AcDbBlockEnd
  0
BLOCK
  5
67B
100
AcDbEntity
  8
0
100
AcDbBlockBegin
  2
MGALGS4_5-20
 70
               0
 10
0.0
 20
0.0
 30
0.0
  3
MGALGS4_5-20
  1

  0
LINE
  5
67C
100
AcDbEntity
  8
0
  6
CONTINUOUS
 62
               4
100
AcDbLine
 10
-0.7471428651353982
 20
-4.399863998642747
 30
0.0
 11
-1.2500000070791621
 21
-3.8970068548720374
 31
0.0
  0
LINE
  5
67D
100
AcDbEntity
  8
0
  6
CONTINUOUS
 62
               4
100
AcDbLine
 10
-2.0500000047230209
 20
-2.5999999962759528
 30
0.0
 11
2.0493907186029752
 21
-2.6000000037227586
 31
0.0
  0
LINE
  5
67E
100
AcDbEntity
  8
0
  6
CONTINUOUS
 62
               4
100
AcDbLine
 10
-2.0500000032697692
 20
-1.7999999962759983
 30
0.0
 11
2.0499999967303673
 21
-1.8000000037239108
 31
0.0
  0
ARC
  5
67F
100
AcDbEntity
  8
0
  6
CONTINUOUS
 62
               4
100
AcDbCircle
 10
-0.0000000046322377
 20
-2.5499989233983342
 30
0.0
 40
2.050000596223347
100
AcDbArc
 50
179.95630153623205
 51
359.99999989591851
  0
LINE
  5
680
100
AcDbEntity
  8
0
  6
CONTINUOUS
 62
               4
100
AcDbLine
 10
-1.2500000070791621
 20
-3.8970068548720374
 30
0.0
 11
1.2499999929208379
 21
-3.8970068594134464
 31
0.0
  0
LINE
  5
681
100
AcDbEntity
  8
0
  6
CONTINUOUS
 62
               4
100
AcDbLine
 10
-1.5014285714285052
 20
0.0000000027274412
 30
0.0
 11
1.5
 21
-0.000000002724846
 31
0.0
  0
LINE
  5
682
100
AcDbEntity
  8
0
  6
CONTINUOUS
 62
               4
100
AcDbLine
 10
-1.249999999273129
 20
0.40013600227068
 30
0.0
 11
1.250000000726871
 21
0.4001359977292699
 31
0.0
  0
LINE
  5
683
100
AcDbEntity
  8
0
  6
CONTINUOUS
 62
               4
100
AcDbLine
 10
-1.0499999989097688
 20
0.6001360019074127
 30
0.0
 11
1.0500000010903676
 21
0.6001359980926282
 31
0.0
  0
LINE
  5
684
100
AcDbEntity
  8
0
  6
CONTINUOUS
 62
               4
100
AcDbLine
 10
1.2499999929208379
 20
-3.8970068594134464
 30
0.0
 11
0.7471428491503538
 21
-4.3998640013572121
 31
0.0
  0
LINE
  5
685
100
AcDbEntity
  8
0
  6
CONTINUOUS
 62
               4
100
AcDbLine
 10
1.4999999928702152
 20
-0.5499999965940106
 30
0.0
 11
2.0499999980019616
 21
-1.1000000037238653
 31
0.0
  0
LINE
  5
686
100
AcDbEntity
  8
0
  6
CONTINUOUS
 62
               4
100
AcDbLine
 10
1.4999999990008916
 20
-0.5500000027248007
 30
0.0
 11
1.5
 21
0.0000000000000001
 31
0.0
  0
LINE
  5
687
100
AcDbEntity
  8
0
  6
CONTINUOUS
 62
               4
100
AcDbLine
 10
1.2499999952771788
 20
-2.59986400227073
 30
0.0
 11
1.2499999929208379
 21
-3.8970068594134464
 31
0.0
  0
LINE
  5
688
100
AcDbEntity
  8
0
  6
CONTINUOUS
 62
               4
100
AcDbLine
 10
2.0499999980019616
 20
-1.1000000037238653
 30
0.0
 11
2.0499999953707864
 21
-2.5484354322952942
 31
0.0
  0
LINE
  5
689
100
AcDbEntity
  8
0
  6
CONTINUOUS
 62
               4
100
AcDbLine
 10
1.250000000726871
 20
0.4001359977292699
 30
0.0
 11
1.25
 21
-0.0000000022707051
 31
0.0
  0
LINE
  5
68A
100
AcDbEntity
  8
0
  6
CONTINUOUS
 62
               4
100
AcDbLine
 10
1.0500000010903676
 20
0.6001359980926282
 30
0.0
 11
1.250000000726871
 21
0.4001359977292699
 31
0.0
  0
LINE
  5
68B
100
AcDbEntity
  8
0
  6
CENTER
 62
               2
100
AcDbLine
 10
-0.0000000092045944
 20
-5.0670362466291863
 30
0.0
 11
0.0000000023369786
 21
1.2864823111649457
 31
0.0
  0
LINE
  5
68C
100
AcDbEntity
  8
0
  6
CONTINUOUS
 62
               4
100
AcDbLine
 10
-0.7471428651353982
 20
-4.399863998642747
 30
0.0
 11
0.7471428491503538
 21
-4.3998640013572121
 31
0.0
  0
LINE
  5
68D
100
AcDbEntity
  8
0
  6
CONTINUOUS
 62
               2
100
AcDbLine
 10
1.049999992557705
 20
-4.0970068590501798
 30
0.0
 11
1.0499999952771155
 21
-2.6000000019073011
 31
0.0
  0
LINE
  5
68E
100
AcDbEntity
  8
0
  6
CONTINUOUS
 62
               2
100
AcDbLine
 10
1.0500000000001819
 20
-0.0000000019073922
 30
0.0
 11
1.0500000010903676
 21
0.6001359980926282
 31
0.0
  0
LINE
  5
68F
100
AcDbEntity
  8
0
  6
CONTINUOUS
 62
               4
100
AcDbLine
 10
-1.5000000009939072
 20
-0.5471354139417599
 30
0.0
 11
-1.5
 21
0.0000000054496921
 31
0.0
  0
LINE
  5
690
100
AcDbEntity
  8
0
  6
CONTINUOUS
 62
               4
100
AcDbLine
 10
-1.2500000047230664
 20
-2.5999999977292041
 30
0.0
 11
-1.2500000070791621
 21
-3.8970068548720374
 31
0.0
  0
LINE
  5
691
100
AcDbEntity
  8
0
  6
CONTINUOUS
 62
               4
100
AcDbLine
 10
-2.0500000019981748
 20
-1.0999999962759528
 30
0.0
 11
-1.50142857242502
 21
-0.5485714258440082
 31
0.0
  0
LINE
  5
692
100
AcDbEntity
  8
0
  6
CONTINUOUS
 62
               4
100
AcDbLine
 10
-2.0500000019981748
 20
-1.0999999962759528
 30
0.0
 11
-2.0500000046293501
 21
-2.5484354248473817
 31
0.0
  0
LINE
  5
693
100
AcDbEntity
  8
0
  6
CONTINUOUS
 62
               4
100
AcDbLine
 10
-1.25
 20
0.0000000022707051
 30
0.0
 11
-1.249999999273129
 21
0.40013600227068
 31
0.0
  0
LINE
  5
694
100
AcDbEntity
  8
0
  6
CONTINUOUS
 62
               4
100
AcDbLine
 10
-1.249999999273129
 20
0.40013600227068
 30
0.0
 11
-1.0499999989097688
 21
0.6001360019074127
 31
0.0
  0
LINE
  5
695
100
AcDbEntity
  8
0
  6
CONTINUOUS
 62
               2
100
AcDbLine
 10
-1.0500000074424314
 20
-4.0970068552353949
 30
0.0
 11
-1.0500000047230209
 21
-2.599999998092517
 31
0.0
  0
LINE
  5
696
100
AcDbEntity
  8
0
  6
CONTINUOUS
 62
               2
100
AcDbLine
 10
-1.0499999999999545
 20
0.0000000019073922
 30
0.0
 11
-1.0499999989097688
 21
0.6001360019074127
 31
0.0
  0
ENDBLK
  5
697
100
AcDbEntity
  8
0
100
AcDbBlockEnd
  0
BLOCK
  5
698
100
AcDbEntity
  8
0
100
AcDbBlockBegin
  2
MGALGS4_5-21
 70
               0
 10
0.0
 20
0.0
 30
0.0
  3
MGALGS4_5-21
  1

  0
LINE
  5
699
100
AcDbEntity
  8
0
  6
CONTINUOUS
 62
               4
100
AcDbLine
 10
0.0
 20
-2.0500000000000114
 30
0.0
 11
15.500000004768253
 21
-2.0500000000000114
 31
0.0
  0
LINE
  5
69A
100
AcDbEntity
  8
0
  6
CONTINUOUS
 62
               4
100
AcDbLine
 10
0.0
 20
2.0500000000000114
 30
0.0
 11
15.500000004768253
 21
2.0500000000000114
 31
0.0
  0
LINE
  5
69B
100
AcDbEntity
  8
0
  6
CONTINUOUS
 62
               4
100
AcDbLine
 10
8.0000000047682533
 20
-0.6000000000000227
 30
0.0
 11
9.6000000047683898
 21
-0.6000000000000227
 31
0.0
  0
LINE
  5
69C
100
AcDbEntity
  8
0
  6
CONTINUOUS
 62
               4
100
AcDbLine
 10
8.0000000047682533
 20
0.8999999999999773
 30
0.0
 11
9.6000000047683898
 21
0.8999999999999773
 31
0.0
  0
LINE
  5
69D
100
AcDbEntity
  8
0
  6
CONTINUOUS
 62
               4
100
AcDbLine
 10
1.3107513189315796
 20
-1.0428020722525844
 30
0.0
 11
3.0428021124430416
 21
0.6892487212589913
 31
0.0
  0
LINE
  5
69E
100
AcDbEntity
  8
0
  6
CONTINUOUS
 62
               4
100
AcDbLine
 10
0.9571978986753038
 20
-0.6892486978790089
 30
0.0
 11
2.6892487026473191
 21
1.0428021060930632
 31
0.0
  0
CIRCLE
  5
69F
100
AcDbEntity
  8
0
  6
CONTINUOUS
 62
               2
100
AcDbCircle
 10
2.0000000047682533
 20
0.0
 30
0.0
 40
1.05
  0
CIRCLE
  5
6A0
100
AcDbEntity
  8
0
  6
CONTINUOUS
 62
               4
100
AcDbCircle
 10
2.0000000047682533
 20
0.0
 30
0.0
 40
1.25
  0
CIRCLE
  5
6A1
100
AcDbEntity
  8
0
  6
CONTINUOUS
 62
               4
100
AcDbCircle
 10
2.0000000047682533
 20
0.0
 30
0.0
 40
1.3999999999999997
  0
LINE
  5
6A2
100
AcDbEntity
  8
0
  6
CONTINUOUS
 62
               4
100
AcDbLine
 10
0.0
 20
-1.5
 30
0.0
 11
15.500000004768253
 21
-1.5
 31
0.0
  0
LINE
  5
6A3
100
AcDbEntity
  8
0
  6
CONTINUOUS
 62
               4
100
AcDbLine
 10
0.0
 20
1.5
 30
0.0
 11
15.500000004768253
 21
1.5
 31
0.0
  0
LINE
  5
6A4
100
AcDbEntity
  8
0
  6
CONTINUOUS
 62
               4
100
AcDbLine
 10
15.500000004768253
 20
-2.0500000000000114
 30
0.0
 11
15.500000004768253
 21
2.0500000000000114
 31
0.0
  0
LINE
  5
6A5
100
AcDbEntity
  8
0
  6
CONTINUOUS
 62
               4
100
AcDbLine
 10
0.0
 20
-2.0500000000000114
 30
0.0
 11
0.0
 21
2.0500000000000114
 31
0.0
  0
LINE
  5
6A6
100
AcDbEntity
  8
0
  6
CONTINUOUS
 62
               4
100
AcDbLine
 10
9.6000000047683898
 20
-0.6000000000000227
 30
0.0
 11
9.6000000047683898
 21
0.8999999999999773
 31
0.0
  0
LINE
  5
6A7
100
AcDbEntity
  8
0
  6
CONTINUOUS
 62
               4
100
AcDbLine
 10
8.0000000047682533
 20
-0.6000000000000227
 30
0.0
 11
8.0000000047682533
 21
0.8999999999999773
 31
0.0
  0
LINE
  5
6A8
100
AcDbEntity
  8
0
  6
CONTINUOUS
 62
               4
100
AcDbLine
 10
10.400000004768344
 20
-1.5
 30
0.0
 11
10.400000004768344
 21
1.5
 31
0.0
  0
LINE
  5
6A9
100
AcDbEntity
  8
0
  6
CONTINUOUS
 62
               4
100
AcDbLine
 10
3.9000000047683443
 20
-1.5
 30
0.0
 11
3.9000000047683443
 21
1.5
 31
0.0
  0
LINE
  5
6AA
100
AcDbEntity
  8
0
  6
CENTER
 62
               2
100
AcDbLine
 10
2.0000000047682533
 20
2.9428571428571786
 30
0.0
 11
2.0000000047682533
 21
-3.2999846734234666
 31
0.0
  0
LINE
  5
6AB
100
AcDbEntity
  8
0
  6
CONTINUOUS
 62
               4
100
AcDbLine
 10
15.500000004768253
 20
1.3000000000000114
 30
0.0
 11
17.752309473590458
 21
1.3000000000000114
 31
0.0
  0
LINE
  5
6AC
100
AcDbEntity
  8
0
  6
CONTINUOUS
 62
               4
100
AcDbLine
 10
15.500000004768253
 20
-1.3000000000000114
 30
0.0
 11
19.25346420800156
 21
-1.3000000000000114
 31
0.0
  0
LINE
  5
6AD
100
AcDbEntity
  8
0
  6
CONTINUOUS
 62
               2
100
AcDbLine
 10
17.250000004768253
 20
2.1700000000000159
 30
0.0
 11
19.750000004768253
 21
-2.1599999999999682
 31
0.0
  0
LINE
  5
6AE
100
AcDbEntity
  8
0
  6
CENTER
 62
               2
100
AcDbLine
 10
-1.4104017530169131
 20
0.0
 30
0.0
 11
21.502886840796009
 21
0.0
 31
0.0
  0
ENDBLK
  5
6AF
100
AcDbEntity
  8
0
100
AcDbBlockEnd
  0
BLOCK
  5
6B0
100
AcDbEntity
  8
0
100
AcDbBlockBegin
  2
MGALGS4_5-22
 70
               0
 10
0.0
 20
0.0
 30
0.0
  3
MGALGS4_5-22
  1

  0
LINE
  5
6B1
100
AcDbEntity
  8
0
  6
CONTINUOUS
 62
               4
100
AcDbLine
 10
11.559999997275327
 20
21.397976315961273
 30
0.0
 11
11.559999997275327
 21
24.397976315961216
 31
0.0
  0
LINE
  5
6B2
100
AcDbEntity
  8
0
  6
CONTINUOUS
 62
               4
100
AcDbLine
 10
12.139999997275254
 20
21.397976315961273
 30
0.0
 11
12.139999997275254
 21
24.397976315961216
 31
0.0
  0
LINE
  5
6B3
100
AcDbEntity
  8
0
  6
CONTINUOUS
 62
               4
100
AcDbLine
 10
12.139999990463366
 20
24.397976315961216
 30
0.0
 11
11.55999999863775
 21
24.397976315961216
 31
0.0
  0
LINE
  5
6B4
100
AcDbEntity
  8
0
  6
CONTINUOUS
 62
               4
100
AcDbLine
 10
12.860000009536861
 20
24.397976315961216
 30
0.0
 11
13.440000001362478
 21
24.397976315961216
 31
0.0
  0
LINE
  5
6B5
100
AcDbEntity
  8
0
  6
CONTINUOUS
 62
               4
100
AcDbLine
 10
13.440000002724901
 20
21.397976315961273
 30
0.0
 11
13.440000002724901
 21
24.397976315961216
 31
0.0
  0
LINE
  5
6B6
100
AcDbEntity
  8
0
  6
CONTINUOUS
 62
               4
100
AcDbLine
 10
12.860000002724973
 20
21.397976315961273
 30
0.0
 11
12.860000002724973
 21
24.397976315961216
 31
0.0
  0
LINE
  5
6B7
100
AcDbEntity
  8
0
  6
CENTER
 62
               2
100
AcDbLine
 10
13.150000002724937
 20
12.667976315961255
 30
0.0
 11
13.150000002724937
 21
24.647976315961216
 31
0.0
  0
LINE
  5
6B8
100
AcDbEntity
  8
0
  6
CENTER
 62
               2
100
AcDbLine
 10
11.84999999727529
 20
12.667976315961255
 30
0.0
 11
11.84999999727529
 21
24.597976315961262
 31
0.0
  0
LINE
  5
6B9
100
AcDbEntity
  8
0
  6
CONTINUOUS
 62
               4
100
AcDbLine
 10
12.350000000000136
 20
19.288484399102117
 30
0.0
 11
12.350000000000136
 21
21.397976315961273
 31
0.0
  0
LINE
  5
6BA
100
AcDbEntity
  8
0
  6
CONTINUOUS
 62
               4
100
AcDbLine
 10
11.350000000000136
 20
18.711117193559403
 30
0.0
 11
11.350000000000136
 21
21.397976315961273
 31
0.0
  0
LINE
  5
6BB
100
AcDbEntity
  8
0
  6
CONTINUOUS
 62
               4
100
AcDbLine
 10
13.650000000000091
 20
20.039061766307668
 30
0.0
 11
13.650000000000091
 21
21.397976315961273
 31
0.0
  0
LINE
  5
6BC
100
AcDbEntity
  8
0
  6
CONTINUOUS
 62
               4
100
AcDbLine
 10
12.650000000000091
 20
19.461694560764954
 30
0.0
 11
12.650000000000091
 21
21.397976315961273
 31
0.0
  0
LINE
  5
6BD
100
AcDbEntity
  8
0
  6
CONTINUOUS
 62
               4
100
AcDbLine
 10
12.650000000000091
 20
21.397976315961273
 30
0.0
 11
13.650000005449783
 21
21.397976315961273
 31
0.0
  0
LINE
  5
6BE
100
AcDbEntity
  8
0
  6
CONTINUOUS
 62
               4
100
AcDbLine
 10
11.350000002043771
 20
21.397976315961273
 30
0.0
 11
12.350000000000136
 21
21.397976315961273
 31
0.0
  0
LINE
  5
6BF
100
AcDbEntity
  8
0
  6
CONTINUOUS
 62
               4
100
AcDbLine
 10
11.350000000000136
 20
14.397976315961273
 30
0.0
 11
11.350000000000136
 21
17.211117193559403
 31
0.0
  0
LINE
  5
6C0
100
AcDbEntity
  8
0
  6
CONTINUOUS
 62
               4
100
AcDbLine
 10
13.650000000000091
 20
14.397976315961273
 30
0.0
 11
13.650000000000091
 21
18.539061766307668
 31
0.0
  0
LINE
  5
6C1
100
AcDbEntity
  8
0
  6
CONTINUOUS
 62
               4
100
AcDbLine
 10
12.650000000000091
 20
14.397976315961273
 30
0.0
 11
12.650000000000091
 21
17.961694560764954
 31
0.0
  0
LINE
  5
6C2
100
AcDbEntity
  8
0
  6
CONTINUOUS
 62
               4
100
AcDbLine
 10
12.350000000000136
 20
14.397976315961273
 30
0.0
 11
12.350000000000136
 21
17.788484399102117
 31
0.0
  0
LINE
  5
6C3
100
AcDbEntity
  8
0
  6
CONTINUOUS
 62
               4
100
AcDbLine
 10
10.400000005449783
 20
1.4979762335365194
 30
0.0
 11
15.0
 21
1.4979762335365194
 31
0.0
  0
LINE
  5
6C4
100
AcDbEntity
  8
0
  6
CONTINUOUS
 62
               4
100
AcDbLine
 10
10.399999988419722
 20
0.9479762301306209
 30
0.0
 11
14.999999995231747
 21
0.9479762301306209
 31
0.0
  0
LINE
  5
6C5
100
AcDbEntity
  8
0
  6
CONTINUOUS
 62
               4
100
AcDbLine
 10
-0.0000000047682533
 20
-0.5500000000000682
 30
0.0
 11
15.0
 21
-0.5500000000000682
 31
0.0
  0
LINE
  5
6C6
100
AcDbEntity
  8
0
  6
CONTINUOUS
 62
               4
100
AcDbLine
 10
-0.0000000047682533
 20
-1.1000000082564156
 30
0.0
 11
14.999999995231747
 21
-1.1000000082564156
 31
0.0
  0
LINE
  5
6C7
100
AcDbEntity
  8
0
  6
CONTINUOUS
 62
               4
100
AcDbLine
 10
-0.0000000047682533
 20
-2.6000000000000227
 30
0.0
 11
3.9999999952317467
 21
-2.6000000000000227
 31
0.0
  0
LINE
  5
6C8
100
AcDbEntity
  8
0
  6
CONTINUOUS
 62
               4
100
AcDbLine
 10
0.0
 20
-1.8000000000000682
 30
0.0
 11
4.3000000000001819
 21
-1.8000000000000682
 31
0.0
  0
LINE
  5
6C9
100
AcDbEntity
  8
0
  6
CONTINUOUS
 62
               4
100
AcDbLine
 10
-0.0000000047682533
 20
0.0
 30
0.0
 11
14.999999995231747
 21
0.0
 31
0.0
  0
LINE
  5
6CA
100
AcDbEntity
  8
0
  6
CONTINUOUS
 62
               4
100
AcDbLine
 10
4.2999999986377588
 20
-4.6000000000000227
 30
0.0
 11
14.999999995231747
 21
-4.6000000000000227
 31
0.0
  0
LINE
  5
6CB
100
AcDbEntity
  8
0
  6
CONTINUOUS
 62
               4
100
AcDbLine
 10
13.800000000000182
 20
5.897976315961273
 30
0.0
 11
13.800000000000182
 21
9.6456668471390685
 31
0.0
  0
LINE
  5
6CC
100
AcDbEntity
  8
0
  6
CONTINUOUS
 62
               4
100
AcDbLine
 10
11.200000000000045
 20
5.897976315961273
 30
0.0
 11
11.200000000000045
 21
8.1445121127279663
 31
0.0
  0
LINE
  5
6CD
100
AcDbEntity
  8
0
  6
CONTINUOUS
 62
               4
100
AcDbLine
 10
11.200000000000045
 20
14.397976315961273
 30
0.0
 11
13.800000000000182
 21
14.397976315961273
 31
0.0
  0
LINE
  5
6CE
100
AcDbEntity
  8
0
  6
CONTINUOUS
 62
               4
100
AcDbLine
 10
15.0
 20
-4.6000000000000227
 30
0.0
 11
15.0
 21
4.897976315961273
 31
0.0
  0
LINE
  5
6CF
100
AcDbEntity
  8
0
  6
CONTINUOUS
 62
               4
100
AcDbLine
 10
4.3000000000001819
 20
-1.8000000000000682
 30
0.0
 11
4.3000000000001819
 21
-4.6000000000000227
 31
0.0
  0
LINE
  5
6D0
100
AcDbEntity
  8
0
  6
CONTINUOUS
 62
               4
100
AcDbLine
 10
3.2514285714287325
 20
-2.602023684038727
 30
0.0
 11
3.2514285714287325
 21
-3.9020236840386815
 31
0.0
  0
LINE
  5
6D1
100
AcDbEntity
  8
0
  6
CONTINUOUS
 62
               4
100
AcDbLine
 10
3.2514285714287325
 20
-3.9020236840386815
 30
0.0
 11
2.7514285714287325
 21
-4.4020236840386815
 31
0.0
  0
LINE
  5
6D2
100
AcDbEntity
  8
0
  6
CONTINUOUS
 62
               4
100
AcDbLine
 10
1.2514285714287325
 20
-4.4020236840386815
 30
0.0
 11
2.7514285714287325
 21
-4.4020236840386815
 31
0.0
  0
LINE
  5
6D3
100
AcDbEntity
  8
0
  6
CONTINUOUS
 62
               4
100
AcDbLine
 10
1.2514285714287325
 20
-4.4020236840386815
 30
0.0
 11
0.7514285714287325
 21
-3.9020236840386815
 31
0.0
  0
LINE
  5
6D4
100
AcDbEntity
  8
0
  6
CONTINUOUS
 62
               2
100
AcDbLine
 10
0.7514285714287325
 20
-3.9020236840386815
 30
0.0
 11
3.2514285714287325
 21
-3.9020236840386815
 31
0.0
  0
LINE
  5
6D5
100
AcDbEntity
  8
0
  6
CONTINUOUS
 62
               4
100
AcDbLine
 10
0.7514285714287325
 20
-2.602023684038727
 30
0.0
 11
0.7514285714287325
 21
-3.9020236840386815
 31
0.0
  0
LINE
  5
6D6
100
AcDbEntity
  8
0
  6
CONTINUOUS
 62
               4
100
AcDbLine
 10
0.0
 20
-1.8020236840387724
 30
0.0
 11
0.0
 21
-2.602023684038727
 31
0.0
  0
LINE
  5
6D7
100
AcDbEntity
  8
0
  6
CONTINUOUS
 62
               4
100
AcDbLine
 10
4.0
 20
-1.8020236840387724
 30
0.0
 11
4.0
 21
-2.602023684038727
 31
0.0
  0
LINE
  5
6D8
100
AcDbEntity
  8
0
  6
CENTER
 62
               2
100
AcDbLine
 10
2.0
 20
1.2843226271262438
 30
0.0
 11
2.0
 21
-5.0691959306681156
 31
0.0
  0
LINE
  5
6D9
100
AcDbEntity
  8
0
  6
CONTINUOUS
 62
               4
100
AcDbLine
 10
0.0
 20
-1.8020236840387724
 30
0.0
 11
0.0
 21
0.0
 31
0.0
  0
LINE
  5
6DA
100
AcDbEntity
  8
0
  6
CENTER
 62
               2
100
AcDbLine
 10
6.0
 20
-6.0925758804909265
 30
0.0
 11
6.0
 21
-3.6831687470557881
 31
0.0
  0
LINE
  5
6DB
100
AcDbEntity
  8
0
  6
CONTINUOUS
 62
               4
100
AcDbLine
 10
0.951428571428778
 20
0.5979763159613185
 30
0.0
 11
3.0514285714286871
 21
0.5979763159613185
 31
0.0
  0
LINE
  5
6DC
100
AcDbEntity
  8
0
  6
CONTINUOUS
 62
               2
100
AcDbLine
 10
3.0500000000001819
 20
-2.602023684038727
 30
0.0
 11
3.0500000000001819
 21
-4.1034522554673458
 31
0.0
  0
LINE
  5
6DD
100
AcDbEntity
  8
0
  6
CONTINUOUS
 62
               2
100
AcDbLine
 10
0.9500000000000455
 20
-2.602023684038727
 30
0.0
 11
0.9500000000000455
 21
-4.1005951126102218
 31
0.0
  0
LINE
  5
6DE
100
AcDbEntity
  8
0
  6
CONTINUOUS
 62
               4
100
AcDbLine
 10
0.7514285714287325
 20
-0.0020236840388179
 30
0.0
 11
0.7514285714287325
 21
0.397976315961273
 31
0.0
  0
LINE
  5
6DF
100
AcDbEntity
  8
0
  6
CONTINUOUS
 62
               4
100
AcDbLine
 10
3.2514285714287325
 20
0.397976315961273
 30
0.0
 11
3.2514285714287325
 21
-0.0020236840388179
 31
0.0
  0
LINE
  5
6E0
100
AcDbEntity
  8
0
  6
CONTINUOUS
 62
               4
100
AcDbLine
 10
0.7514285714287325
 20
0.397976315961273
 30
0.0
 11
0.951428571428778
 21
0.5979763159613185
 31
0.0
  0
LINE
  5
6E1
100
AcDbEntity
  8
0
  6
CONTINUOUS
 62
               4
100
AcDbLine
 10
3.0514285714286871
 20
0.5979763159613185
 30
0.0
 11
3.2514285714287325
 21
0.397976315961273
 31
0.0
  0
LINE
  5
6E2
100
AcDbEntity
  8
0
  6
CONTINUOUS
 62
               4
100
AcDbLine
 10
0.7514285714287325
 20
0.397976315961273
 30
0.0
 11
3.2514285714287325
 21
0.397976315961273
 31
0.0
  0
LINE
  5
6E3
100
AcDbEntity
  8
0
  6
CONTINUOUS
 62
               2
100
AcDbLine
 10
3.0500000000001819
 20
0.5979763159613185
 30
0.0
 11
3.0500000000001819
 21
-0.0020236840388179
 31
0.0
  0
LINE
  5
6E4
100
AcDbEntity
  8
0
  6
CONTINUOUS
 62
               2
100
AcDbLine
 10
0.9500000000000455
 20
0.5979763159613185
 30
0.0
 11
0.9500000000000455
 21
-0.0020236840388179
 31
0.0
  0
LINE
  5
6E5
100
AcDbEntity
  8
0
  6
CENTER
 62
               2
100
AcDbLine
 10
12.5
 20
5.3933952003748118
 30
0.0
 11
12.5
 21
17.186465534727631
 31
0.0
  0
LINE
  5
6E6
100
AcDbEntity
  8
0
  6
CONTINUOUS
 62
               4
100
AcDbLine
 10
15.0
 20
3.897976315961273
 30
0.0
 11
10.400000000000091
 21
3.897976315961273
 31
0.0
  0
LINE
  5
6E7
100
AcDbEntity
  8
0
  6
CONTINUOUS
 62
               4
100
AcDbLine
 10
10.400000000000091
 20
5.897976315961273
 30
0.0
 11
14.600000000000136
 21
5.897976315961273
 31
0.0
  0
LINE
  5
6E8
100
AcDbEntity
  8
0
  6
CONTINUOUS
 62
               4
100
AcDbLine
 10
10.400000000000091
 20
-0.0020236840388179
 30
0.0
 11
10.400000000000091
 21
5.897976315961273
 31
0.0
  0
LINE
  5
6E9
100
AcDbEntity
  8
0
  6
CONTINUOUS
 62
               4
100
AcDbLine
 10
14.600000000000136
 20
4.897976315961273
 30
0.0
 11
14.600000000000136
 21
5.897976315961273
 31
0.0
  0
LINE
  5
6EA
100
AcDbEntity
  8
0
  6
CONTINUOUS
 62
               4
100
AcDbLine
 10
12.949044336704901
 20
4.897976315961273
 30
0.0
 11
15.0
 21
4.897976315961273
 31
0.0
  0
LINE
  5
6EB
100
AcDbEntity
  8
0
  6
CONTINUOUS
 62
               4
100
AcDbLine
 10
12.949044336704901
 20
4.8979763118740038
 30
0.0
 11
12.949044336704901
 21
5.8979763118740038
 31
0.0
  0
LINE
  5
6EC
100
AcDbEntity
  8
0
  6
CONTINUOUS
 62
               4
100
AcDbLine
 10
12.050955663295554
 20
1.4979762296661647
 30
0.0
 11
12.050955663295554
 21
5.897976315961273
 31
0.0
  0
LINE
  5
6ED
100
AcDbEntity
  8
0
  6
CONTINUOUS
 62
               4
100
AcDbLine
 10
10.400000005449783
 20
0.9479762348988743
 30
0.0
 11
12.050955663295554
 21
1.4979762296661647
 31
0.0
  0
LINE
  5
6EE
100
AcDbEntity
  8
0
  6
CONTINUOUS
 62
               2
100
AcDbLine
 10
10.340000000000146
 20
9.147976315961273
 30
0.0
 11
14.670000000000073
 21
11.647976315961273
 31
0.0
  0
LINE
  5
6EF
100
AcDbEntity
  8
0
  6
CONTINUOUS
 62
               2
100
AcDbLine
 10
10.340000000000146
 20
7.647976315961273
 30
0.0
 11
14.670000000000073
 21
10.147976315961273
 31
0.0
  0
LINE
  5
6F0
100
AcDbEntity
  8
0
  6
CONTINUOUS
 62
               2
100
AcDbLine
 10
10.340000000000146
 20
18.127976315961291
 30
0.0
 11
14.670000000000073
 21
20.627976315961291
 31
0.0
  0
LINE
  5
6F1
100
AcDbEntity
  8
0
  6
CONTINUOUS
 62
               2
100
AcDbLine
 10
10.340000000000146
 20
16.627976315961291
 30
0.0
 11
14.670000000000073
 21
19.127976315961291
 31
0.0
  0
LINE
  5
6F2
100
AcDbEntity
  8
0
  6
CONTINUOUS
 62
               4
100
AcDbLine
 10
13.800000000000182
 20
11.145666847139069
 30
0.0
 11
13.800000000000182
 21
14.397976315961273
 31
0.0
  0
LINE
  5
6F3
100
AcDbEntity
  8
0
  6
CONTINUOUS
 62
               4
100
AcDbLine
 10
11.200000000000045
 20
9.6445121127279663
 30
0.0
 11
11.200000000000045
 21
14.397976315961273
 31
0.0
  0
ENDBLK
  5
6F4
100
AcDbEntity
  8
0
100
AcDbBlockEnd
  0
BLOCK
  5
6F5
100
AcDbEntity
  8
0
100
AcDbBlockBegin
  2
MGALGS4_5-23
 70
               0
 10
0.0
 20
0.0
 30
0.0
  3
MGALGS4_5-23
  1

  0
LINE
  5
6F6
100
AcDbEntity
  8
0
  6
CONTINUOUS
 62
               2
100
AcDbLine
 10
-1.0250000000000909
 20
-0.0000000014443913
 30
0.0
 11
-1.0250000000000909
 21
0.5979763159613185
 31
0.0
  0
LINE
  5
6F7
100
AcDbEntity
  8
0
  6
CONTINUOUS
 62
               2
100
AcDbLine
 10
1.0250000000000909
 20
-0.0000000014443913
 30
0.0
 11
1.0250000000000909
 21
0.5979763159613185
 31
0.0
  0
LINE
  5
6F8
100
AcDbEntity
  8
0
  6
CONTINUOUS
 62
               2
100
AcDbLine
 10
1.0250000000000909
 20
-4.1241665411815802
 30
0.0
 11
1.0250000000000909
 21
-2.6000000000000227
 31
0.0
  0
LINE
  5
6F9
100
AcDbEntity
  8
0
  6
CONTINUOUS
 62
               2
100
AcDbLine
 10
-1.0250000000000909
 20
-4.1241665411815802
 30
0.0
 11
-1.0250000000000909
 21
-2.6000000000000227
 31
0.0
  0
LINE
  5
6FA
100
AcDbEntity
  8
0
  6
CENTER
 62
               2
100
AcDbLine
 10
0.0
 20
-5.5464060491292457
 30
0.0
 11
0.0
 21
9.6693480170655448
 31
0.0
  0
LINE
  5
6FB
100
AcDbEntity
  8
0
  6
CONTINUOUS
 62
               4
100
AcDbLine
 10
1.2999999999999545
 20
5.897976229666142
 30
0.0
 11
1.2999999999999545
 21
9.6456667608439375
 31
0.0
  0
LINE
  5
6FC
100
AcDbEntity
  8
0
  6
CONTINUOUS
 62
               4
100
AcDbLine
 10
-1.2999999999999545
 20
5.897976229666142
 30
0.0
 11
-1.2999999999999545
 21
8.1445120264329489
 31
0.0
  0
LINE
  5
6FD
100
AcDbEntity
  8
0
  6
CONTINUOUS
 62
               4
100
AcDbLine
 10
-1.9994048873898009
 20
-2.6000000000000227
 30
0.0
 11
2.0005951126101991
 21
-2.6000000000000227
 31
0.0
  0
LINE
  5
6FE
100
AcDbEntity
  8
0
  6
CONTINUOUS
 62
               4
100
AcDbLine
 10
-2.0499999999999545
 20
-1.8000000000000682
 30
0.0
 11
2.0499999999999545
 21
-1.8000000000000682
 31
0.0
  0
LINE
  5
6FF
100
AcDbEntity
  8
0
  6
CONTINUOUS
 62
               4
100
AcDbLine
 10
-1.5000000019615527
 20
0.0
 30
0.0
 11
1.4999999980384473
 21
0.0
 31
0.0
  0
LINE
  5
700
100
AcDbEntity
  8
0
  6
CONTINUOUS
 62
               4
100
AcDbLine
 10
1.5
 20
-0.5500000048504035
 30
0.0
 11
1.5
 21
0.9479762301306209
 31
0.0
  0
LINE
  5
701
100
AcDbEntity
  8
0
  6
CONTINUOUS
 62
               4
100
AcDbLine
 10
-1.5
 20
-0.5511933238987012
 30
0.0
 11
-1.5
 21
0.9479762301306209
 31
0.0
  0
LINE
  5
702
100
AcDbEntity
  8
0
  6
CONTINUOUS
 62
               4
100
AcDbLine
 10
-2.0500000053675649
 20
1.4979762335365194
 30
0.0
 11
-1.5
 21
0.9479762281690682
 31
0.0
  0
LINE
  5
703
100
AcDbEntity
  8
0
  6
CONTINUOUS
 62
               4
100
AcDbLine
 10
1.5
 20
0.9479762320920599
 30
0.0
 11
2.0500000014444595
 21
1.4979762335365194
 31
0.0
  0
LINE
  5
704
100
AcDbEntity
  8
0
  6
CONTINUOUS
 62
               4
100
AcDbLine
 10
2.0499999999999545
 20
1.4979762320921282
 30
0.0
 11
2.0499999999999545
 21
5.897976229666142
 31
0.0
  0
LINE
  5
705
100
AcDbEntity
  8
0
  6
CONTINUOUS
 62
               4
100
AcDbLine
 10
-2.0499999999999545
 20
1.4979762281690228
 30
0.0
 11
-2.0499999999999545
 21
5.897976229666142
 31
0.0
  0
ARC
  5
706
100
AcDbEntity
  8
0
  6
CONTINUOUS
 62
               4
100
AcDbCircle
 10
0.0
 20
-2.5500000000000682
 30
0.0
 40
2.0499999999999994
100
AcDbArc
 50
180.0
 51
0.0
  0
LINE
  5
707
100
AcDbEntity
  8
0
  6
CONTINUOUS
 62
               4
100
AcDbLine
 10
2.0499999999999545
 20
-2.6411128569469611
 30
0.0
 11
2.0499999999999545
 21
-1.1000000082564156
 31
0.0
  0
LINE
  5
708
100
AcDbEntity
  8
0
  6
CONTINUOUS
 62
               4
100
AcDbLine
 10
-2.0499999999999545
 20
-2.5505951126101536
 30
0.0
 11
-2.0499999999999545
 21
-1.102023684038727
 31
0.0
  0
LINE
  5
709
100
AcDbEntity
  8
0
  6
CONTINUOUS
 62
               4
100
AcDbLine
 10
-0.7471428571427623
 20
-4.4020236840386815
 30
0.0
 11
0.7471428571429897
 21
-4.4020236840386815
 31
0.0
  0
LINE
  5
70A
100
AcDbEntity
  8
0
  6
CONTINUOUS
 62
               4
100
AcDbLine
 10
-1.9994048873898009
 20
-1.8000000000000682
 30
0.0
 11
-1.9994048873898009
 21
-2.602023684038727
 31
0.0
  0
LINE
  5
70B
100
AcDbEntity
  8
0
  6
CONTINUOUS
 62
               4
100
AcDbLine
 10
2.0005951126101991
 20
-1.8000000000000682
 30
0.0
 11
2.0005951126101991
 21
-2.602023684038727
 31
0.0
  0
LINE
  5
70C
100
AcDbEntity
  8
0
  6
CONTINUOUS
 62
               4
100
AcDbLine
 10
-0.7471428571427623
 20
-4.4020236840386815
 30
0.0
 11
-1.25
 21
-3.8991665411816712
 31
0.0
  0
LINE
  5
70D
100
AcDbEntity
  8
0
  6
CONTINUOUS
 62
               4
100
AcDbLine
 10
1.25
 20
-3.8991665411816712
 30
0.0
 11
0.7471428571429897
 21
-4.4020236840386815
 31
0.0
  0
LINE
  5
70E
100
AcDbEntity
  8
0
  6
CONTINUOUS
 62
               4
100
AcDbLine
 10
-1.25
 20
-3.8991665411816712
 30
0.0
 11
1.25
 21
-3.8991665411816712
 31
0.0
  0
LINE
  5
70F
100
AcDbEntity
  8
0
  6
CONTINUOUS
 62
               4
100
AcDbLine
 10
-1.25
 20
-2.6000000000000227
 30
0.0
 11
-1.25
 21
-3.8991665411816712
 31
0.0
  0
LINE
  5
710
100
AcDbEntity
  8
0
  6
CONTINUOUS
 62
               4
100
AcDbLine
 10
1.25
 20
-2.6000000000000227
 30
0.0
 11
1.25
 21
-3.8991665411816712
 31
0.0
  0
LINE
  5
711
100
AcDbEntity
  8
0
  6
CONTINUOUS
 62
               4
100
AcDbLine
 10
2.0499999999999545
 20
-1.1000000000000227
 30
0.0
 11
1.5
 21
-0.5500000000000682
 31
0.0
  0
LINE
  5
712
100
AcDbEntity
  8
0
  6
CONTINUOUS
 62
               4
100
AcDbLine
 10
-2.0479763159612503
 20
-1.102023684038727
 30
0.0
 11
-1.5
 21
-0.5511933247652223
 31
0.0
  0
LINE
  5
713
100
AcDbEntity
  8
0
  6
CONTINUOUS
 62
               4
100
AcDbLine
 10
-1.25
 20
0.0
 30
0.0
 11
-1.25
 21
0.397976315961273
 31
0.0
  0
LINE
  5
714
100
AcDbEntity
  8
0
  6
CONTINUOUS
 62
               4
100
AcDbLine
 10
1.25
 20
0.397976315961273
 30
0.0
 11
1.25
 21
0.0
 31
0.0
  0
LINE
  5
715
100
AcDbEntity
  8
0
  6
CONTINUOUS
 62
               4
100
AcDbLine
 10
-1.25
 20
0.397976315961273
 30
0.0
 11
1.25
 21
0.397976315961273
 31
0.0
  0
LINE
  5
716
100
AcDbEntity
  8
0
  6
CONTINUOUS
 62
               4
100
AcDbLine
 10
1.0499999999999545
 20
0.5979763159613185
 30
0.0
 11
1.25
 21
0.397976315961273
 31
0.0
  0
LINE
  5
717
100
AcDbEntity
  8
0
  6
CONTINUOUS
 62
               4
100
AcDbLine
 10
-1.25
 20
0.397976315961273
 30
0.0
 11
-1.0499999999999545
 21
0.5979763159613185
 31
0.0
  0
LINE
  5
718
100
AcDbEntity
  8
0
  6
CONTINUOUS
 62
               4
100
AcDbLine
 10
-1.0499999999999545
 20
0.5979763159613185
 30
0.0
 11
1.0499999999999545
 21
0.5979763159613185
 31
0.0
  0
LINE
  5
719
100
AcDbEntity
  8
0
  6
CONTINUOUS
 62
               4
100
AcDbLine
 10
-2.0499999999999545
 20
3.897976229666142
 30
0.0
 11
2.0499999999999545
 21
3.897976229666142
 31
0.0
  0
LINE
  5
71A
100
AcDbEntity
  8
0
  6
CONTINUOUS
 62
               4
100
AcDbLine
 10
-2.0499999999999545
 20
5.897976229666142
 30
0.0
 11
2.0499999999999545
 21
5.897976229666142
 31
0.0
  0
LINE
  5
71B
100
AcDbEntity
  8
0
  6
CONTINUOUS
 62
               2
100
AcDbLine
 10
-2.1599999999998545
 20
7.647976229666142
 30
0.0
 11
2.1700000000000728
 21
10.147976229666142
 31
0.0
  0
ENDBLK
  5
71C
100
AcDbEntity
  8
0
100
AcDbBlockEnd
  0
BLOCK
  5
71D
100
AcDbEntity
  8
0
100
AcDbBlockBegin
  2
MGALGS4_5-24
 70
               0
 10
0.0
 20
0.0
 30
0.0
  3
MGALGS4_5-24
  1

  0
CIRCLE
  5
71E
100
AcDbEntity
  8
0
  6
CONTINUOUS
 62
               4
100
AcDbCircle
 10
11.84999999727529
 20
0.0
 30
0.0
 40
0.29
  0
CIRCLE
  5
71F
100
AcDbEntity
  8
0
  6
CONTINUOUS
 62
               4
100
AcDbCircle
 10
13.15000000272471
 20
0.0
 30
0.0
 40
0.29
  0
CIRCLE
  5
720
100
AcDbEntity
  8
0
  6
CONTINUOUS
 62
               4
100
AcDbCircle
 10
11.84999999727529
 20
0.0
 30
0.0
 40
0.5
  0
CIRCLE
  5
721
100
AcDbEntity
  8
0
  6
CONTINUOUS
 62
               4
100
AcDbCircle
 10
13.15000000272471
 20
0.0
 30
0.0
 40
0.5
  0
LINE
  5
722
100
AcDbEntity
  8
0
  6
CENTER
 62
               2
100
AcDbLine
 10
13.15000000272471
 20
-0.8054622970306014
 30
0.0
 11
13.15000000272471
 21
0.8557856223879981
 31
0.0
  0
LINE
  5
723
100
AcDbEntity
  8
0
  6
CENTER
 62
               2
100
AcDbLine
 10
11.84999999727529
 20
-0.8054622970306014
 30
0.0
 11
11.84999999727529
 21
0.8557856223879981
 31
0.0
  0
CIRCLE
  5
724
100
AcDbEntity
  8
0
  6
CONTINUOUS
 62
               4
100
AcDbCircle
 10
2.0
 20
0.0
 30
0.0
 40
1.25
  0
CIRCLE
  5
725
100
AcDbEntity
  8
0
  6
CONTINUOUS
 62
               2
100
AcDbCircle
 10
2.0
 20
0.0
 30
0.0
 40
1.05
  0
CIRCLE
  5
726
100
AcDbEntity
  8
0
  6
CONTINUOUS
 62
               4
100
AcDbCircle
 10
2.0
 20
0.0
 30
0.0
 40
1.3999999999999997
  0
LINE
  5
727
100
AcDbEntity
  8
0
  6
CONTINUOUS
 62
               4
100
AcDbLine
 10
0.0
 20
-1.5
 30
0.0
 11
11.030306154330219
 21
-1.5
 31
0.0
  0
LINE
  5
728
100
AcDbEntity
  8
0
  6
CONTINUOUS
 62
               4
100
AcDbLine
 10
0.0
 20
-2.0500000000000114
 30
0.0
 11
15.0
 21
-2.0500000000000114
 31
0.0
  0
LINE
  5
729
100
AcDbEntity
  8
0
  6
CONTINUOUS
 62
               4
100
AcDbLine
 10
0.0
 20
2.0500000000000114
 30
0.0
 11
15.0
 21
2.0500000000000114
 31
0.0
  0
LINE
  5
72A
100
AcDbEntity
  8
0
  6
CONTINUOUS
 62
               4
100
AcDbLine
 10
8.0
 20
-0.6999999999999886
 30
0.0
 11
9.6000000000001364
 21
-0.6999999999999886
 31
0.0
  0
LINE
  5
72B
100
AcDbEntity
  8
0
  6
CONTINUOUS
 62
               4
100
AcDbLine
 10
8.0
 20
0.8999999999999773
 30
0.0
 11
9.6000000000001364
 21
0.8999999999999773
 31
0.0
  0
LINE
  5
72C
100
AcDbEntity
  8
0
  6
CONTINUOUS
 62
               4
100
AcDbLine
 10
9.6000000000001364
 20
-0.7000000068119334
 30
0.0
 11
9.6000000000001364
 21
0.8999999999999773
 31
0.0
  0
LINE
  5
72D
100
AcDbEntity
  8
0
  6
CONTINUOUS
 62
               4
100
AcDbLine
 10
8.0
 20
-0.7000000068119334
 30
0.0
 11
8.0
 21
0.8999999999999773
 31
0.0
  0
LINE
  5
72E
100
AcDbEntity
  8
0
  6
CONTINUOUS
 62
               4
100
AcDbLine
 10
10.400000000000091
 20
-1.5028571503502803
 30
0.0
 11
10.400000000000091
 21
1.5000000068119448
 31
0.0
  0
LINE
  5
72F
100
AcDbEntity
  8
0
  6
CONTINUOUS
 62
               4
100
AcDbLine
 10
3.9000000000000909
 20
-1.5028571503502803
 30
0.0
 11
3.9000000000000909
 21
1.5000000068119448
 31
0.0
  0
LINE
  5
730
100
AcDbEntity
  8
0
  6
CONTINUOUS
 62
               4
100
AcDbLine
 10
1.3085714285714403
 20
-1.0685714285714312
 30
0.0
 11
3.051993036971453
 21
0.6748501798286384
 31
0.0
  0
LINE
  5
731
100
AcDbEntity
  8
0
  6
CONTINUOUS
 62
               4
100
AcDbLine
 10
0.9571428571427987
 20
-0.7142857142857224
 30
0.0
 11
2.6885714285715494
 21
1.0199999999999818
 31
0.0
  0
LINE
  5
732
100
AcDbEntity
  8
0
  6
CENTER
 62
               2
100
AcDbLine
 10
2.0
 20
2.834285714285727
 30
0.0
 11
2.0
 21
-3.35141324485204
 31
0.0
  0
LINE
  5
733
100
AcDbEntity
  8
0
  6
CONTINUOUS
 62
               4
100
AcDbLine
 10
15.0
 20
2.0500000000000114
 30
0.0
 11
15.0
 21
-2.0500000000000114
 31
0.0
  0
LINE
  5
734
100
AcDbEntity
  8
0
  6
CONTINUOUS
 62
               4
100
AcDbLine
 10
0.0
 20
2.0500000000000114
 30
0.0
 11
0.0
 21
-2.0500000000000114
 31
0.0
  0
LINE
  5
735
100
AcDbEntity
  8
0
  6
CONTINUOUS
 62
               4
100
AcDbLine
 10
0.0
 20
1.5
 30
0.0
 11
11.030306154330219
 21
1.5
 31
0.0
  0
LINE
  5
736
100
AcDbEntity
  8
0
  6
CENTER
 62
               2
100
AcDbLine
 10
-1.3247205773654969
 20
0.0
 30
0.0
 11
16.237619114850304
 21
0.0
 31
0.0
  0
ARC
  5
737
100
AcDbEntity
  8
0
  6
CONTINUOUS
 62
               4
100
AcDbCircle
 10
12.5
 20
0.0
 30
0.0
 40
2.1000000000000001
100
AcDbArc
 50
102.70634183842952
 51
257.65306763258718
  0
ARC
  5
738
100
AcDbEntity
  8
0
  6
CONTINUOUS
 62
               4
100
AcDbCircle
 10
12.5
 20
0.0
 30
0.0
 40
2.1000000000000001
100
AcDbArc
 50
282.34693236741282
 51
77.293658161570477
  0
LINE
  5
739
100
AcDbEntity
  8
0
  6
CENTER
 62
               2
100
AcDbLine
 10
12.5
 20
-2.4429562044143722
 30
0.0
 11
12.5
 21
2.4456261784689559
 31
0.0
  0
CIRCLE
  5
73A
100
AcDbEntity
  8
0
  6
CONTINUOUS
 62
               4
100
AcDbCircle
 10
12.5
 20
0.0
 30
0.0
 40
1.3
  0
ENDBLK
  5
73B
100
AcDbEntity
  8
0
100
AcDbBlockEnd
  0
ENDSEC
  0
SECTION
  2
ENTITIES
  0
MTEXT
  5
73C
100
AcDbEntity
  8
0
  6
CONTINUOUS
 62
               7
100
AcDbMText
 10
159.76239013671875
 20
-85.599999999999966
 30
0.0
 40
4.5
 41
0.0
 71
               1
 72
               1
  1
\A1;ZE235
  0
MTEXT
  5
73D
100
AcDbEntity
  8
0
  6
CONTINUOUS
 62
               7
100
AcDbMText
 10
159.76239013671875
 20
-92.543062701548052
 30
0.0
 40
4.5
 41
0.0
 71
               1
 72
               1
  1
\A1;ZE255
  0
MTEXT
  5
73E
100
AcDbEntity
  8
0
  6
CONTINUOUS
 62
               7
100
AcDbMText
 10
18.978498182962742
 20
-92.543062701548052
 30
0.0
 40
4.5
 41
0.0
 71
               1
 72
               1
  1
\W1.071;\A1;ZE155
  0
MTEXT
  5
73F
100
AcDbEntity
  8
0
  6
CONTINUOUS
 62
               7
100
AcDbMText
 10
18.978498182962742
 20
-85.599999999999966
 30
0.0
 40
4.5
 41
0.0
 71
               1
 72
               1
  1
\W1.071;\A1;ZE135
  0
MTEXT
  5
740
100
AcDbEntity
  8
0
  6
CONTINUOUS
 62
               7
100
AcDbMText
 10
-121.82920328776042
 20
-85.599999999999966
 30
0.0
 40
4.5
 41
0.0
 71
               1
 72
               1
  1
\W1.111;\A1;ZE201
  0
MTEXT
  5
741
100
AcDbEntity
  8
0
  6
CONTINUOUS
 62
               7
100
AcDbMText
 10
-121.88667454893893
 20
-92.543062701548052
 30
0.0
 40
4.5
 41
0.0
 71
               1
 72
               1
  1
\W1.034;\A1;ZE202
  0
MTEXT
  5
742
100
AcDbEntity
  8
0
  6
CONTINUOUS
 62
               7
100
AcDbMText
 10
-262.66666666666669
 20
-92.543062701548052
 30
0.0
 40
4.5
 41
0.0
 71
               1
 72
               1
  1
\W1.111;\A1;ZE102
  0
MTEXT
  5
743
100
AcDbEntity
  8
0
  6
CONTINUOUS
 62
               7
100
AcDbMText
 10
-262.60000000429153
 20
-85.599999999999966
 30
0.0
 40
4.5
 41
0.0
 71
               1
 72
               1
  1
\W1.200;\A1;ZE101
  0
INSERT
  5
744
100
AcDbEntity
  8
0
  6
ByBlock
100
AcDbBlockReference
  2
MGALGS4_5-13
 10
-198.70729064941406
 20
-148.65808044433595
 30
0.0
  0
INSERT
  5
745
100
AcDbEntity
  8
0
  6
ByBlock
100
AcDbBlockReference
  2
MGALGS4_5-14
 10
-243.25
 20
-148.65808044433595
 30
0.0
  0
INSERT
  5
746
100
AcDbEntity
  8
0
  6
ByBlock
100
AcDbBlockReference
  2
MGALGS4_5-15
 10
-198.70729064941406
 20
-101.05801330566408
 30
0.0
  0
INSERT
  5
747
100
AcDbEntity
  8
0
  6
ByBlock
100
AcDbBlockReference
  2
MGALGS4_5-16
 10
-57.896331787109375
 20
-148.65806927420238
 30
0.0
  0
INSERT
  5
748
100
AcDbEntity
  8
0
  6
ByBlock
100
AcDbBlockReference
  2
MGALGS4_5-17
 10
-100.93905639648437
 20
-148.65806927420238
 30
0.0
  0
INSERT
  5
749
100
AcDbEntity
  8
0
  6
ByBlock
100
AcDbBlockReference
  2
MGALGS4_5-18
 10
-57.896331787109375
 20
-101.05801330566408
 30
0.0
  0
INSERT
  5
74A
100
AcDbEntity
  8
0
  6
ByBlock
100
AcDbBlockReference
  2
MGALGS4_5-19
 10
82.835088838587126
 20
-148.65803515390087
 30
0.0
  0
INSERT
  5
74B
100
AcDbEntity
  8
0
  6
ByBlock
100
AcDbBlockReference
  2
MGALGS4_5-20
 10
35.836517400479011
 20
-148.65803514834704
 30
0.0
  0
INSERT
  5
74C
100
AcDbEntity
  8
0
  6
ByBlock
100
AcDbBlockReference
  2
MGALGS4_5-21
 10
82.835088833818759
 20
-101.05801330566408
 30
0.0
  0
INSERT
  5
74D
100
AcDbEntity
  8
0
  6
ByBlock
100
AcDbBlockReference
  2
MGALGS4_5-22
 10
226.34404906057091
 20
-148.65803466796876
 30
0.0
  0
INSERT
  5
74E
100
AcDbEntity
  8
0
  6
ByBlock
100
AcDbBlockReference
  2
MGALGS4_5-23
 10
179.34345394319234
 20
-148.65803466796876
 30
0.0
  0
INSERT
  5
74F
100
AcDbEntity
  8
0
  6
ByBlock
100
AcDbBlockReference
  2
MGALGS4_5-24
 10
226.34404906057091
 20
-101.05801330566408
 30
0.0
  0
INSERT
  5
750
100
AcDbEntity
  8
0
  6
ByBlock
100
AcDbBlockReference
  2
MGALGS4_5-11
 10
120.0
 20
20.0
 30
0.0
  0
INSERT
  5
751
100
AcDbEntity
  8
0
  6
ByBlock
100
AcDbBlockReference
  2
MGALGS4_5-12
 10
120.0
 20
0.0
 30
0.0
  0
INSERT
  5
752
100
AcDbEntity
  8
0
  6
ByBlock
100
AcDbBlockReference
  2
MGALGS4_5-10
 10
120.0
 20
125.0
 30
0.0
  0
INSERT
  5
753
100
AcDbEntity
  8
0
  6
ByBlock
100
AcDbBlockReference
  2
MGALGS4_5-9
 10
230.0
 20
50.0
 30
0.0
  0
INSERT
  5
754
100
AcDbEntity
  8
0
  6
ByBlock
100
AcDbBlockReference
  2
MGALGS4_5-8
 10
60.0
 20
50.0
 30
0.0
  0
INSERT
  5
755
100
AcDbEntity
  8
0
  6
ByBlock
100
AcDbBlockReference
  2
MGALGS4_5-7
 10
120.0
 20
50.0
 30
0.0
  0
INSERT
  5
756
100
AcDbEntity
  8
0
  6
ByBlock
100
AcDbBlockReference
  2
MGALGS4_5-6
 10
-140.0
 20
0.0
 30
0.0
  0
INSERT
  5
757
100
AcDbEntity
  8
0
  6
ByBlock
100
AcDbBlockReference
  2
MGALGS4_5-5
 10
-140.0
 20
20.0
 30
0.0
  0
INSERT
  5
758
100
AcDbEntity
  8
0
  6
ByBlock
100
AcDbBlockReference
  2
MGALGS4_5-4
 10
-140.0
 20
125.0
 30
0.0
  0
INSERT
  5
759
100
AcDbEntity
  8
0
  6
ByBlock
100
AcDbBlockReference
  2
MGALGS4_5-3
 10
-40.0
 20
50.0
 30
0.0
  0
INSERT
  5
75A
100
AcDbEntity
  8
0
  6
ByBlock
100
AcDbBlockReference
  2
MGALGS4_5-2
 10
-210.0
 20
50.0
 30
0.0
  0
INSERT
  5
75B
100
AcDbEntity
  8
0
  6
ByBlock
100
AcDbBlockReference
  2
MGALGS4_5-1
 10
-140.0
 20
50.0
 30
0.0
  0
LINE
  5
75D
100
AcDbEntity
  8
0
  6
DASHED
 62
               2
100
AcDbLine
 10
-281.25
 20
-77.849999999999994
 30
0.0
 11
282.099853515625
 21
-77.849999999999994
 31
0.0
  0
LINE
  5
75E
100
AcDbEntity
  8
0
  6
DASHED
 62
               2
100
AcDbLine
 10
0.0
 20
-77.849999999999994
 30
0.0
 11
0.0
 21
195.5
 31
0.0
  0
MTEXT
  5
75F
100
AcDbEntity
  8
0
  6
CONTINUOUS
 62
               7
100
AcDbMText
 10
13.036956459231247
 20
160.5
 30
0.0
 40
6.3000001907348633
 41
0.0
 71
               4
 72
               1
  1
\W1.130;\A1;MODEL:MGALGS4.5*st(5,10)-L
  0
MTEXT
  5
760
100
AcDbEntity
  8
0
  6
CONTINUOUS
 62
               7
100
AcDbMText
 10
-268.21304354076875
 20
160.5
 30
0.0
 40
6.3000001907348633
 41
0.0
 71
               4
 72
               1
  1
\W1.130;\A1;MODEL:MGALGS4.5*st(5,10)-R
  0
MTEXT
  5
761
100
AcDbEntity
  8
0
  6
CONTINUOUS
 62
               7
100
AcDbMText
 10
-273.59932894557409
 20
189.625
 30
0.0
 40
6.3000001907348633
 41
0.0
 71
               4
 72
               1
  1
\W1.143;\A1;MINI GUIDE SLIDER
  0
MTEXT
  5
762
100
AcDbEntity
  8
0
  6
CONTINUOUS
 62
               7
100
AcDbMText
 10
-248.46600082532643
 20
182.125
 30
0.0
 40
6.3000001907348633
 41
0.0
 71
               4
 72
               1
  1
\W1.080;\A1;MGALGS4.5
  0
LINE
  5
763
100
AcDbEntity
  8
0
  6
CONTINUOUS
 62
               7
100
AcDbLine
 10
-281.25
 20
175.5
 30
0.0
 11
-161.25
 21
175.5
 31
0.0
  0
LINE
  5
764
100
AcDbEntity
  8
0
  6
CONTINUOUS
 62
               7
100
AcDbLine
 10
-161.25
 20
195.5
 30
0.0
 11
-161.25
 21
175.5
 31
0.0
  0
LINE
  5
765
100
AcDbEntity
  8
0
  6
CONTINUOUS
 62
               7
100
AcDbLine
 10
162.0999755859375
 20
-175.0
 30
0.0
 11
162.0999755859375
 21
-195.0
 31
0.0
  0
LINE
  5
766
100
AcDbEntity
  8
0
  6
CONTINUOUS
 62
               7
100
AcDbLine
 10
162.0999755859375
 20
-175.0
 30
0.0
 11
282.099853515625
 21
-175.0
 31
0.0
  0
MTEXT
  5
767
100
AcDbEntity
  8
0
  6
CONTINUOUS
 62
               7
100
AcDbMText
 10
170.28101006437726
 20
-185.0
 30
0.0
 40
9.0
 41
0.0
 71
               4
 72
               1
  1
\W1.121;\A1;KOGANEI CORP.
  0
MTEXT
  5
768
100
AcDbEntity
  8
0
  6
CONTINUOUS
 62
               7
100
AcDbMText
 10
198.2770240315611
 20
185.5
 30
0.0
 40
6.3000001907348633
 41
0.0
 71
               4
 72
               1
  1
\W1.311;\A1;Ver. 1.0
  0
LINE
  5
769
100
AcDbEntity
  8
0
  6
CONTINUOUS
 62
               7
100
AcDbLine
 10
162.0999755859375
 20
175.5
 30
0.0
 11
282.099853515625
 21
175.5
 31
0.0
  0
LINE
  5
76A
100
AcDbEntity
  8
0
  6
CONTINUOUS
 62
               7
100
AcDbLine
 10
162.0999755859375
 20
195.5
 30
0.0
 11
162.0999755859375
 21
175.5
 31
0.0
  0
LINE
  5
76B
100
AcDbEntity
  8
0
  6
CONTINUOUS
 62
               7
100
AcDbLine
 10
282.099853515625
 20
195.5
 30
0.0
 11
282.099853515625
 21
-195.0
 31
0.0
  0
LINE
  5
76C
100
AcDbEntity
  8
0
  6
CONTINUOUS
 62
               7
100
AcDbLine
 10
-281.25
 20
195.5
 30
0.0
 11
282.099853515625
 21
195.5
 31
0.0
  0
LINE
  5
76D
100
AcDbEntity
  8
0
  6
CONTINUOUS
 62
               7
100
AcDbLine
 10
-281.25
 20
195.5
 30
0.0
 11
-281.25
 21
-195.0
 31
0.0
  0
LINE
  5
76E
100
AcDbEntity
  8
0
  6
CONTINUOUS
 62
               7
100
AcDbLine
 10
-281.25
 20
-195.0
 30
0.0
 11
282.099853515625
 21
-195.0
 31
0.0
  0
ENDSEC
  0
SECTION
  2
OBJECTS
  0
DICTIONARY
  5
19
100
AcDbDictionary
  3
ACAD_GROUP
350
1A
  3
ACAD_MLINESTYLE
350
1B
  0
DICTIONARY
  5
1A
102
{ACAD_REACTORS
330
19
102
}
100
AcDbDictionary
  0
DICTIONARY
  5
1B
102
{ACAD_REACTORS
330
19
102
}
100
AcDbDictionary
  3
STANDARD
350
1C
  0
MLINESTYLE
  5
1C
102
{ACAD_REACTORS
330
1B
102
}
100
AcDbMlineStyle
  2
Standard
 70
               0
  3

 62
               0
 51
90.0
 52
90.0
 71
               2
 49
0.5
 62
             256
  6
ByLayer
 49
-0.5
 62
             256
  6
ByLayer
  0
ENDSEC
  0
EOF
