  0
SECTION
  2
HEADER
  9
$ACADVER
  1
AC1012
  9
$DWGCODEPAGE
  3
dos932
  9
$INSBASE
 10
0.0
 20
0.0
 30
0.0
  9
$EXTMIN
 10
-281.25
 20
-195.0
 30
0.0
  9
$EXTMAX
 10
285.5999755859375
 20
195.5
 30
0.0
  9
$LIMMIN
 10
-281.25
 20
-195.0
  9
$LIMMAX
 10
285.5999755859375
 20
195.5
  9
$ORTHOMODE
 70
               0
  9
$REGENMODE
 70
               1
  9
$FILLMODE
 70
               1
  9
$QTEXTMODE
 70
               0
  9
$MIRRTEXT
 70
               1
  9
$DRAGMODE
 70
               2
  9
$LTSCALE
 40
1.0
  9
$OSMODE
 70
               0
  9
$ATTMODE
 70
               1
  9
$TEXTSIZE
 40
3.2000000476837158
  9
$TRACEWID
 40
0.05
  9
$TEXTSTYLE
  7
MX_NOTE_STANDARD
  9
$CLAYER
  8
0
  9
$CELTYPE
  6
CONTINUOUS
  9
$CECOLOR
 62
             256
  9
$CELTSCALE
 40
1.0
  9
$DELOBJ
 70
               1
  9
$DISPSILH
 70
               0
  9
$DIMSCALE
 40
1.0
  9
$DIMASZ
 40
2.5
  9
$DIMEXO
 40
1.5
  9
$DIMDLI
 40
3.75
  9
$DIMRND
 40
0.0
  9
$DIMDLE
 40
0.0
  9
$DIMEXE
 40
1.5
  9
$DIMTP
 40
0.0
  9
$DIMTM
 40
0.0
  9
$DIMTXT
 40
3.2000000476837158
  9
$DIMCEN
 40
2.5
  9
$DIMTSZ
 40
0.0
  9
$DIMTOL
 70
               0
  9
$DIMLIM
 70
               0
  9
$DIMTIH
 70
               0
  9
$DIMTOH
 70
               0
  9
$DIMSE1
 70
               0
  9
$DIMSE2
 70
               0
  9
$DIMTAD
 70
               1
  9
$DIMZIN
 70
               8
  9
$DIMBLK
  1

  9
$DIMASO
 70
               1
  9
$DIMSHO
 70
               1
  9
$DIMPOST
  1

  9
$DIMAPOST
  1

  9
$DIMALT
 70
               0
  9
$DIMALTD
 70
               4
  9
$DIMALTF
 40
0.03937007874016
  9
$DIMLFAC
 40
1.0
  9
$DIMTOFL
 70
               1
  9
$DIMTVP
 40
0.0
  9
$DIMTIX
 70
               0
  9
$DIMSOXD
 70
               0
  9
$DIMSAH
 70
               0
  9
$DIMBLK1
  1

  9
$DIMBLK2
  1

  9
$DIMSTYLE
  2
MXDIMSTYLE
  9
$DIMCLRD
 70
               0
  9
$DIMCLRE
 70
               0
  9
$DIMCLRT
 70
               0
  9
$DIMTFAC
 40
1.0
  9
$DIMGAP
 40
1.0
  9
$DIMJUST
 70
               0
  9
$DIMSD1
 70
               0
  9
$DIMSD2
 70
               0
  9
$DIMTOLJ
 70
               1
  9
$DIMTZIN
 70
               0
  9
$DIMALTZ
 70
               0
  9
$DIMALTTZ
 70
               0
  9
$DIMFIT
 70
               3
  9
$DIMUPT
 70
               1
  9
$DIMUNIT
 70
               2
  9
$DIMDEC
 70
               4
  9
$DIMTDEC
 70
               4
  9
$DIMALTU
 70
               2
  9
$DIMALTTD
 70
               4
  9
$DIMTXSTY
  7
MX_NOTE_STANDARD
  9
$DIMAUNIT
 70
               0
  9
$LUNITS
 70
               2
  9
$LUPREC
 70
               4
  9
$SKETCHINC
 40
0.1
  9
$FILLETRAD
 40
0.0
  9
$AUNITS
 70
               0
  9
$AUPREC
 70
               0
  9
$MENU
  1
acad
  9
$ELEVATION
 40
0.0
  9
$PELEVATION
 40
0.0
  9
$THICKNESS
 40
0.0
  9
$LIMCHECK
 70
               0
  9
$BLIPMODE
 70
               1
  9
$CHAMFERA
 40
0.0
  9
$CHAMFERB
 40
0.0
  9
$CHAMFERC
 40
0.0
  9
$CHAMFERD
 40
0.0
  9
$SKPOLY
 70
               0
  9
$TDCREATE
 40
2453655.719490741
  9
$TDUPDATE
 40
2453655.719490741
  9
$TDINDWG
 40
0.0000000000
  9
$TDUSRTIMER
 40
0.0000000000
  9
$USRTIMER
 70
               1
  9
$ANGBASE
 50
0.0
  9
$ANGDIR
 70
               0
  9
$PDMODE
 70
               0
  9
$PDSIZE
 40
0.0
  9
$PLINEWID
 40
0.0
  9
$COORDS
 70
               1
  9
$SPLFRAME
 70
               0
  9
$SPLINETYPE
 70
               6
  9
$SPLINESEGS
 70
               8
  9
$ATTDIA
 70
               0
  9
$ATTREQ
 70
               1
  9
$HANDLING
 70
               1
  9
$HANDSEED
  5
4D5
  9
$SURFTAB1
 70
               6
  9
$SURFTAB2
 70
               6
  9
$SURFTYPE
 70
               6
  9
$SURFU
 70
               6
  9
$SURFV
 70
               6
  9
$UCSNAME
  2

  9
$UCSORG
 10
0.0
 20
0.0
 30
0.0
  9
$UCSXDIR
 10
1.0
 20
0.0
 30
0.0
  9
$UCSYDIR
 10
0.0
 20
1.0
 30
0.0
  9
$PUCSNAME
  2

  9
$PUCSORG
 10
0.0
 20
0.0
 30
0.0
  9
$PUCSXDIR
 10
1.0
 20
0.0
 30
0.0
  9
$PUCSYDIR
 10
0.0
 20
1.0
 30
0.0
  9
$USERI1
 70
               0
  9
$USERI2
 70
               0
  9
$USERI3
 70
               0
  9
$USERI4
 70
               0
  9
$USERI5
 70
               0
  9
$USERR1
 40
0.0
  9
$USERR2
 40
0.0
  9
$USERR3
 40
0.0
  9
$USERR4
 40
0.0
  9
$USERR5
 40
0.0
  9
$WORLDVIEW
 70
               1
  9
$SHADEDGE
 70
               3
  9
$SHADEDIF
 70
              70
  9
$TILEMODE
 70
               1
  9
$MAXACTVP
 70
              16
  9
$PINSBASE
 10
0.0
 20
0.0
 30
0.0
  9
$PLIMCHECK
 70
               0
  9
$PEXTMIN
 10
1.0000000000000000E+20
 20
1.0000000000000000E+20
 30
1.0000000000000000E+20
  9
$PEXTMAX
 10
-1.0000000000000000E+20
 20
-1.0000000000000000E+20
 30
-1.0000000000000000E+20
  9
$PLIMMIN
 10
0.0
 20
0.0
  9
$PLIMMAX
 10
12.0
 20
9.0
  9
$UNITMODE
 70
               0
  9
$VISRETAIN
 70
               0
  9
$PLINEGEN
 70
               1
  9
$PSLTSCALE
 70
               0
  9
$TREEDEPTH
 70
            3020
  9
$PICKSTYLE
 70
               1
  9
$CMLSTYLE
  2
Standard
  9
$CMLJUST
 70
               0
  9
$CMLSCALE
 40
1.0
  9
$SAVEIMAGES
 70
               0
  0
ENDSEC
  0
SECTION
  2
CLASSES
  0
CLASS
  1
LWPOLYLINE
  2
AcDbPolyline
  3
"AutoCAD"
 90
        0
280
               0
281
               1
  0
CLASS
  1
IMAGE
  2
AcDbRasterImage
  3
ISM
 90
      127
280
               0
281
               1
  0
CLASS
  1
OLE2FRAME
  2
AcDbOle2Frame
  3
""
 90
        0
280
               0
281
               1
  0
CLASS
  1
HATCH
  2
AcDbHatch
  3
"ACAD_SEDONA"
 90
        0
280
               0
281
               1
  0
CLASS
  1
DICTIONARYVAR
  2
AcDbDictionaryVar
  3
"AutoCAD"
 90
        0
280
               0
281
               0
  0
CLASS
  1
RASTERVARIABLES
  2
AcDbRasterVariables
  3
ISM
 90
        0
280
               0
281
               0
  0
CLASS
  1
IMAGEDEF
  2
AcDbRasterImageDef
  3
ISM
 90
        0
280
               0
281
               0
  0
CLASS
  1
IMAGEDEF_REACTOR
  2
AcDbRasterImageDefReactor
  3
ISM
 90
        1
280
               0
281
               0
  0
CLASS
  1
IDBUFFER
  2
AcDbIdBuffer
  3
"Acad"
 90
        0
280
               0
281
               0
  0
CLASS
  1
SPATIAL_FILTER
  2
AcDbSpatialFilter
  3
"Acad"
 90
        0
280
               0
281
               0
  0
CLASS
  1
XRECORD
  2
AcDbXrecord
  3
"<Built In>"
 90
        0
280
               0
281
               0
  0
CLASS
  1
SORTENTSTABLE
  2
AcDbSortentsTable
  3
"AutoCAD"
 90
        0
280
               0
281
               0
  0
CLASS
  1
LAYER_INDEX
  2
AcDbLayerIndex
  3
"Acad"
 90
        0
280
               0
281
               0
  0
CLASS
  1
SPATIAL_INDEX
  2
AcDbSpatialIndex
  3
"Acad"
 90
        0
280
               0
281
               0
  0
CLASS
  1
OBJECT_PTR
  2
CAseDLPNTableRecord
  3
"ASE-LPNTableRecord"
 90
        1
280
               0
281
               0
  0
CLASS
  1
LAYOUT
  2
AcDbLayout
  3
"AutoCAD 2000"
 90
        1
280
               0
281
               0
  0
CLASS
  1
PLOTSETTINGS
  2
AcDbPlotSettings
  3
"AutoCAD 2000"
 90
        1
280
               0
281
               0
  0
CLASS
  1
ACDBDICTIONARYWDFLT
  2
AcDbDictionaryWithDefault
  3
"AutoCAD 2000"
 90
        1
280
               0
281
               0
  0
CLASS
  1
ACDBPLACEHOLDER
  2
AcDbPlaceHolder
  3
"AutoCAD 2000"
 90
        1
280
               0
281
               0
  0
ENDSEC
  0
SECTION
  2
TABLES
  0
TABLE
  2
VPORT
  5
7
100
AcDbSymbolTable
 70
               1
  0
VPORT
  5
15
100
AcDbSymbolTableRecord
100
AcDbViewportTableRecord
  2
*ACTIVE
 70
               0
 10
0.0
 20
0.0
 11
1.0
 21
1.0
 12
2.17498779296875
 22
0.25
 13
0.0
 23
0.0
 14
1.0
 24
1.0
 15
0.0
 25
0.0
 16
0.0
 26
0.0
 36
1.0
 17
0.0
 27
0.0
 37
0.0
 40
394.40500000000003
 41
1.7320508075688772
 42
50.0
 43
0.0
 44
0.0
 50
0.0
 51
0.0
 71
               0
 72
             100
 73
               1
 74
               1
 75
               0
 76
               0
 77
               0
 78
               0
  0
ENDTAB
  0
TABLE
  2
LTYPE
  5
4
100
AcDbSymbolTable
 70
               5
  0
LTYPE
  5
11
100
AcDbSymbolTableRecord
100
AcDbLinetypeTableRecord
  2
BYBLOCK
 70
              64
  3

 72
              65
 73
               0
 40
0.0
  0
LTYPE
  5
12
100
AcDbSymbolTableRecord
100
AcDbLinetypeTableRecord
  2
BYLAYER
 70
              64
  3

 72
              65
 73
               0
 40
0.0
  0
LTYPE
  5
13
100
AcDbSymbolTableRecord
100
AcDbLinetypeTableRecord
  2
CONTINUOUS
 70
              64
  3
Solid line
 72
              65
 73
               0
 40
0.0
  0
LTYPE
  5
58
100
AcDbSymbolTableRecord
100
AcDbLinetypeTableRecord
  2
CENTER
 70
              64
  3
Center ____ _ ____ _ ____ _ ____ _ ____ _ ____
 72
              65
 73
               4
 40
26.0
 49
20.0
 74
               0
 49
-2.0
 74
               0
 49
2.0
 74
               0
 49
-2.0
 74
               0
  0
LTYPE
  5
82
100
AcDbSymbolTableRecord
100
AcDbLinetypeTableRecord
  2
PHANTOM
 70
              64
  3
Phantom ______  __  __  ______  __  __  ______
 72
              65
 73
               6
 40
30.0
 49
20.0
 74
               0
 49
-2.0
 74
               0
 49
2.0
 74
               0
 49
-2.0
 74
               0
 49
2.0
 74
               0
 49
-2.0
 74
               0
  0
ENDTAB
  0
TABLE
  2
LAYER
  5
2
100
AcDbSymbolTable
 70
               2
  0
LAYER
  5
14
100
AcDbSymbolTableRecord
100
AcDbLayerTableRecord
  2
0
 70
               0
 62
               7
  6
CONTINUOUS
  0
LAYER
  5
1D
100
AcDbSymbolTableRecord
100
AcDbLayerTableRecord
  2
DEFPOINTS
 70
               0
 62
               7
  6
CONTINUOUS
  0
ENDTAB
  0
TABLE
  2
STYLE
  5
3
100
AcDbSymbolTable
 70
               1
  0
STYLE
  5
17
100
AcDbSymbolTableRecord
100
AcDbTextStyleTableRecord
  2
MX_NOTE_STANDARD
 70
               0
 40
0.0
 41
1.0
 50
0.0
 71
               0
 42
3.2000000476837158
  3
txt.shx
  4
extfont.shx
  0
ENDTAB
  0
TABLE
  2
VIEW
  5
5
100
AcDbSymbolTable
 70
               0
  0
ENDTAB
  0
TABLE
  2
UCS
  5
6
100
AcDbSymbolTable
 70
               0
  0
ENDTAB
  0
TABLE
  2
APPID
  5
8
100
AcDbSymbolTable
 70
               1
  0
APPID
  5
16
100
AcDbSymbolTableRecord
100
AcDbRegAppTableRecord
  2
ACAD
 70
               0
  0
ENDTAB
  0
TABLE
  2
DIMSTYLE
  5
9
100
AcDbSymbolTable
 70
               1
  0
DIMSTYLE
105
18
100
AcDbSymbolTableRecord
100
AcDbDimStyleTableRecord
  2
MXDIMSTYLE
 70
               0
  3

  4

  5

  6

  7

 40
1.0
 41
2.5
 42
1.5
 43
3.75
 44
1.5
 45
0.0
 46
0.0
 47
0.0
 48
0.0
 71
               0
 72
               0
 73
               0
 74
               0
 75
               0
 76
               0
 77
               1
 78
               8
140
3.2000000476837158
141
2.5
142
0.0
143
0.03937007874016
144
1.0
145
0.0
146
1.0
147
1.0
170
               0
171
               4
172
               1
173
               0
174
               0
175
               0
176
               0
177
               0
178
               0
270
               2
271
               4
272
               4
273
               2
274
               4
275
               0
280
               0
281
               0
282
               0
283
               1
284
               0
285
               0
286
               0
287
               3
288
               1
340
17
  0
ENDTAB
  0
TABLE
  2
BLOCK_RECORD
  5
1
100
AcDbSymbolTable
 70
              12
  0
BLOCK_RECORD
  5
A
100
AcDbSymbolTableRecord
100
AcDbBlockTableRecord
  2
*MODEL_SPACE
  0
BLOCK_RECORD
  5
B
100
AcDbSymbolTableRecord
100
AcDbBlockTableRecord
  2
*PAPER_SPACE
  0
BLOCK_RECORD
  5
1E
100
AcDbSymbolTableRecord
100
AcDbBlockTableRecord
  2
MGALG6-1
  0
BLOCK_RECORD
  5
1F
100
AcDbSymbolTableRecord
100
AcDbBlockTableRecord
  2
MGALG6-2
  0
BLOCK_RECORD
  5
20
100
AcDbSymbolTableRecord
100
AcDbBlockTableRecord
  2
MGALG6-3
  0
BLOCK_RECORD
  5
21
100
AcDbSymbolTableRecord
100
AcDbBlockTableRecord
  2
MGALG6-4
  0
BLOCK_RECORD
  5
22
100
AcDbSymbolTableRecord
100
AcDbBlockTableRecord
  2
MGALG6-5
  0
BLOCK_RECORD
  5
23
100
AcDbSymbolTableRecord
100
AcDbBlockTableRecord
  2
MGALG6-6
  0
BLOCK_RECORD
  5
24
100
AcDbSymbolTableRecord
100
AcDbBlockTableRecord
  2
MGALG6-7
  0
BLOCK_RECORD
  5
25
100
AcDbSymbolTableRecord
100
AcDbBlockTableRecord
  2
MGALG6-8
  0
BLOCK_RECORD
  5
26
100
AcDbSymbolTableRecord
100
AcDbBlockTableRecord
  2
MGALG6-9
  0
BLOCK_RECORD
  5
27
100
AcDbSymbolTableRecord
100
AcDbBlockTableRecord
  2
MGALG6-10
  0
BLOCK_RECORD
  5
28
100
AcDbSymbolTableRecord
100
AcDbBlockTableRecord
  2
MGALG6-11
  0
BLOCK_RECORD
  5
29
100
AcDbSymbolTableRecord
100
AcDbBlockTableRecord
  2
MGALG6-12
  0
ENDTAB
  0
ENDSEC
  0
SECTION
  2
BLOCKS
  0
BLOCK
  5
D
100
AcDbEntity
  8
0
100
AcDbBlockBegin
  2
*MODEL_SPACE
 70
               0
 10
0.0
 20
0.0
 30
0.0
  3
*MODEL_SPACE
  1

  0
ENDBLK
  5
E
100
AcDbEntity
  8
0
100
AcDbBlockEnd
  0
BLOCK
  5
F
100
AcDbEntity
 67
               1
  8
0
100
AcDbBlockBegin
  2
*PAPER_SPACE
 70
               0
 10
0.0
 20
0.0
 30
0.0
  3
*PAPER_SPACE
  1

  0
ENDBLK
  5
10
100
AcDbEntity
 67
               1
  8
0
100
AcDbBlockEnd
  0
BLOCK
  5
2A
100
AcDbEntity
  8
0
100
AcDbBlockBegin
  2
MGALG6-1
 70
               0
 10
0.0
 20
0.0
 30
0.0
  3
MGALG6-1
  1

  0
LINE
  5
2B
100
AcDbEntity
  8
0
  6
CONTINUOUS
 62
               7
100
AcDbLine
 10
-15.0
 20
9.0
 30
0.0
 11
-15.0
 21
29.0
 31
0.0
  0
LINE
  5
2C
100
AcDbEntity
  8
0
  6
CONTINUOUS
 62
               7
100
AcDbLine
 10
-13.400000000000034
 20
27.400000000000006
 30
0.0
 11
-13.400000000000034
 21
23.599999999999994
 31
0.0
  0
LINE
  5
2D
100
AcDbEntity
  8
0
  6
CONTINUOUS
 62
               7
100
AcDbLine
 10
-13.700000000000045
 20
27.099999999999994
 30
0.0
 11
-13.700000000000045
 21
23.900000000000006
 31
0.0
  0
LINE
  5
2E
100
AcDbEntity
  8
0
  6
CONTINUOUS
 62
               7
100
AcDbLine
 10
-11.700000000000045
 20
27.599999999999994
 30
0.0
 11
-11.700000000000045
 21
23.400000000000006
 31
0.0
  0
LINE
  5
2F
100
AcDbEntity
  8
0
  6
CONTINUOUS
 62
               7
100
AcDbLine
 10
-13.700000000000045
 20
27.099999999999994
 30
0.0
 11
-13.400000000000034
 21
27.400000000000006
 31
0.0
  0
LINE
  5
30
100
AcDbEntity
  8
0
  6
CONTINUOUS
 62
               7
100
AcDbLine
 10
-13.700000000000045
 20
23.900000000000006
 30
0.0
 11
-13.400000000000034
 21
23.599999999999994
 31
0.0
  0
LINE
  5
31
100
AcDbEntity
  8
0
  6
CONTINUOUS
 62
               7
100
AcDbLine
 10
-13.400000000000034
 20
27.400000000000006
 30
0.0
 11
-11.700000000000045
 21
27.400000000000006
 31
0.0
  0
LINE
  5
32
100
AcDbEntity
  8
0
  6
CONTINUOUS
 62
               7
100
AcDbLine
 10
-13.400000000000034
 20
23.599999999999994
 30
0.0
 11
-11.700000000000045
 21
23.599999999999994
 31
0.0
  0
LINE
  5
33
100
AcDbEntity
  8
0
  6
CONTINUOUS
 62
               7
100
AcDbLine
 10
-15.0
 20
27.599999999999994
 30
0.0
 11
-11.700000000000045
 21
27.599999999999994
 31
0.0
  0
LINE
  5
34
100
AcDbEntity
  8
0
  6
CONTINUOUS
 62
               7
100
AcDbLine
 10
-15.0
 20
23.400000000000006
 30
0.0
 11
-11.700000000000045
 21
23.400000000000006
 31
0.0
  0
LINE
  5
35
100
AcDbEntity
  8
0
  6
CONTINUOUS
 62
               7
100
AcDbLine
 10
-13.400000000000034
 20
14.400000000000006
 30
0.0
 11
-11.700000000000045
 21
14.400000000000006
 31
0.0
  0
LINE
  5
36
100
AcDbEntity
  8
0
  6
CONTINUOUS
 62
               7
100
AcDbLine
 10
-13.400000000000034
 20
10.599999999999994
 30
0.0
 11
-11.700000000000045
 21
10.599999999999994
 31
0.0
  0
LINE
  5
37
100
AcDbEntity
  8
0
  6
CONTINUOUS
 62
               7
100
AcDbLine
 10
-13.700000000000045
 20
14.099999999999994
 30
0.0
 11
-13.400000000000034
 21
14.400000000000006
 31
0.0
  0
LINE
  5
38
100
AcDbEntity
  8
0
  6
CONTINUOUS
 62
               7
100
AcDbLine
 10
-13.700000000000045
 20
10.900000000000006
 30
0.0
 11
-13.400000000000034
 21
10.599999999999994
 31
0.0
  0
LINE
  5
39
100
AcDbEntity
  8
0
  6
CONTINUOUS
 62
               7
100
AcDbLine
 10
-13.700000000000045
 20
10.900000000000006
 30
0.0
 11
-13.700000000000045
 21
14.099999999999994
 31
0.0
  0
LINE
  5
3A
100
AcDbEntity
  8
0
  6
CONTINUOUS
 62
               7
100
AcDbLine
 10
-13.400000000000034
 20
10.599999999999994
 30
0.0
 11
-13.400000000000034
 21
14.400000000000006
 31
0.0
  0
LINE
  5
3B
100
AcDbEntity
  8
0
  6
CONTINUOUS
 62
               7
100
AcDbLine
 10
-15.0
 20
10.400000000000006
 30
0.0
 11
-11.700000000000045
 21
10.400000000000006
 31
0.0
  0
LINE
  5
3C
100
AcDbEntity
  8
0
  6
CONTINUOUS
 62
               7
100
AcDbLine
 10
-11.700000000000045
 20
10.400000000000006
 30
0.0
 11
-11.700000000000045
 21
14.599999999999994
 31
0.0
  0
LINE
  5
3D
100
AcDbEntity
  8
0
  6
CONTINUOUS
 62
               7
100
AcDbLine
 10
-15.0
 20
14.599999999999994
 30
0.0
 11
-11.700000000000045
 21
14.599999999999994
 31
0.0
  0
LINE
  5
3E
100
AcDbEntity
  8
0
  6
CONTINUOUS
 62
               2
100
AcDbLine
 10
4.5
 20
12.0
 30
0.0
 11
15.399999999999977
 21
12.0
 31
0.0
  0
LINE
  5
3F
100
AcDbEntity
  8
0
  6
CONTINUOUS
 62
               2
100
AcDbLine
 10
4.5
 20
26.0
 30
0.0
 11
15.399999999999977
 21
26.0
 31
0.0
  0
LINE
  5
40
100
AcDbEntity
  8
0
  6
CONTINUOUS
 62
               7
100
AcDbLine
 10
-14.999999972652063
 20
29.0
 30
0.0
 11
39.0
 21
29.0
 31
0.0
  0
LINE
  5
41
100
AcDbEntity
  8
0
  6
CONTINUOUS
 62
               2
100
AcDbLine
 10
23.0
 20
23.5
 30
0.0
 11
23.0
 21
28.5
 31
0.0
  0
CIRCLE
  5
42
100
AcDbEntity
  8
0
  6
CONTINUOUS
 62
               2
100
AcDbCircle
 10
23.0
 20
26.0
 30
0.0
 40
1.5
  0
CIRCLE
  5
43
100
AcDbEntity
  8
0
  6
CONTINUOUS
 62
               7
100
AcDbCircle
 10
23.0
 20
26.0
 30
0.0
 40
1.25
  0
CIRCLE
  5
44
100
AcDbEntity
  8
0
  6
CONTINUOUS
 62
               7
100
AcDbCircle
 10
12.0
 20
26.0
 30
0.0
 40
2.3999999999999999
  0
LINE
  5
45
100
AcDbEntity
  8
0
  6
CONTINUOUS
 62
               2
100
AcDbLine
 10
12.0
 20
29.400000000000006
 30
0.0
 11
12.0
 21
22.599999999999994
 31
0.0
  0
CIRCLE
  5
46
100
AcDbEntity
  8
0
  6
CONTINUOUS
 62
               2
100
AcDbCircle
 10
7.0
 20
26.0
 30
0.0
 40
1.5
  0
CIRCLE
  5
47
100
AcDbEntity
  8
0
  6
CONTINUOUS
 62
               7
100
AcDbCircle
 10
7.0
 20
26.0
 30
0.0
 40
1.25
  0
LINE
  5
48
100
AcDbEntity
  8
0
  6
CONTINUOUS
 62
               2
100
AcDbLine
 10
7.0
 20
23.5
 30
0.0
 11
7.0
 21
28.5
 31
0.0
  0
LINE
  5
49
100
AcDbEntity
  8
0
  6
CONTINUOUS
 62
               2
100
AcDbLine
 10
7.0
 20
14.5
 30
0.0
 11
7.0
 21
9.5
 31
0.0
  0
CIRCLE
  5
4A
100
AcDbEntity
  8
0
  6
CONTINUOUS
 62
               2
100
AcDbCircle
 10
7.0
 20
12.0
 30
0.0
 40
1.5
  0
CIRCLE
  5
4B
100
AcDbEntity
  8
0
  6
CONTINUOUS
 62
               7
100
AcDbCircle
 10
7.0
 20
12.0
 30
0.0
 40
1.25
  0
LINE
  5
4C
100
AcDbEntity
  8
0
  6
CONTINUOUS
 62
               2
100
AcDbLine
 10
23.0
 20
16.5
 30
0.0
 11
23.0
 21
21.5
 31
0.0
  0
ARC
  5
4D
100
AcDbEntity
  8
0
  6
CONTINUOUS
 62
               7
100
AcDbCircle
 10
22.5
 20
19.0
 30
0.0
 40
1.5
100
AcDbArc
 50
90.0
 51
270.0
  0
ARC
  5
4E
100
AcDbEntity
  8
0
  6
CONTINUOUS
 62
               7
100
AcDbCircle
 10
23.5
 20
19.0
 30
0.0
 40
1.5
100
AcDbArc
 50
270.0
 51
90.0
  0
LINE
  5
4F
100
AcDbEntity
  8
0
  6
CONTINUOUS
 62
               7
100
AcDbLine
 10
22.5
 20
20.5
 30
0.0
 11
23.5
 21
20.5
 31
0.0
  0
LINE
  5
50
100
AcDbEntity
  8
0
  6
CONTINUOUS
 62
               7
100
AcDbLine
 10
22.5
 20
17.5
 30
0.0
 11
23.5
 21
17.5
 31
0.0
  0
CIRCLE
  5
51
100
AcDbEntity
  8
0
  6
CONTINUOUS
 62
               7
100
AcDbCircle
 10
7.0
 20
19.0
 30
0.0
 40
1.5
  0
LINE
  5
52
100
AcDbEntity
  8
0
  6
CONTINUOUS
 62
               2
100
AcDbLine
 10
7.0
 20
16.5
 30
0.0
 11
7.0
 21
21.5
 31
0.0
  0
CIRCLE
  5
53
100
AcDbEntity
  8
0
  6
CONTINUOUS
 62
               7
100
AcDbCircle
 10
12.0
 20
12.0
 30
0.0
 40
2.3999999999999999
  0
LINE
  5
54
100
AcDbEntity
  8
0
  6
CONTINUOUS
 62
               2
100
AcDbLine
 10
12.0
 20
8.5999999999999943
 30
0.0
 11
12.0
 21
15.400000000000006
 31
0.0
  0
LINE
  5
55
100
AcDbEntity
  8
0
  6
CONTINUOUS
 62
               7
100
AcDbLine
 10
-14.999999972652063
 20
9.0
 30
0.0
 11
39.0
 21
9.0
 31
0.0
  0
LINE
  5
56
100
AcDbEntity
  8
0
  6
CONTINUOUS
 62
               7
100
AcDbLine
 10
39.0
 20
9.0
 30
0.0
 11
39.0
 21
29.0
 31
0.0
  0
LINE
  5
57
100
AcDbEntity
  8
0
  6
CONTINUOUS
 62
               7
100
AcDbLine
 10
0.0
 20
9.0
 30
0.0
 11
0.0
 21
29.0
 31
0.0
  0
LINE
  5
59
100
AcDbEntity
  8
0
  6
CENTER
 62
               2
100
AcDbLine
 10
-16.183463893151782
 20
19.0
 30
0.0
 11
46.466966351167002
 21
19.0
 31
0.0
  0
LINE
  5
5A
100
AcDbEntity
  8
0
  6
CONTINUOUS
 62
               7
100
AcDbLine
 10
-14.999999972652063
 20
28.5
 30
0.0
 11
39.0
 21
28.5
 31
0.0
  0
LINE
  5
5B
100
AcDbEntity
  8
0
  6
CONTINUOUS
 62
               7
100
AcDbLine
 10
-14.999999972652063
 20
9.5
 30
0.0
 11
39.0
 21
9.5
 31
0.0
  0
LINE
  5
5C
100
AcDbEntity
  8
0
  6
CONTINUOUS
 62
               2
100
AcDbLine
 10
20.5
 20
26.0
 30
0.0
 11
31.399999999999977
 21
26.0
 31
0.0
  0
CIRCLE
  5
5D
100
AcDbEntity
  8
0
  6
CONTINUOUS
 62
               7
100
AcDbCircle
 10
28.0
 20
26.0
 30
0.0
 40
2.3999999999999999
  0
LINE
  5
5E
100
AcDbEntity
  8
0
  6
CONTINUOUS
 62
               2
100
AcDbLine
 10
28.0
 20
29.400000000000006
 30
0.0
 11
28.0
 21
22.599999999999994
 31
0.0
  0
LINE
  5
5F
100
AcDbEntity
  8
0
  6
CONTINUOUS
 62
               7
100
AcDbLine
 10
39.5
 20
26.300000000000011
 30
0.0
 11
39.5
 21
11.699999999999989
 31
0.0
  0
LINE
  5
60
100
AcDbEntity
  8
0
  6
CONTINUOUS
 62
               7
100
AcDbLine
 10
39.0
 20
26.300000000000011
 30
0.0
 11
39.5
 21
26.300000000000011
 31
0.0
  0
LINE
  5
61
100
AcDbEntity
  8
0
  6
CONTINUOUS
 62
               7
100
AcDbLine
 10
39.5
 20
25.5
 30
0.0
 11
39.699999999999989
 21
25.5
 31
0.0
  0
LINE
  5
62
100
AcDbEntity
  8
0
  6
CONTINUOUS
 62
               7
100
AcDbLine
 10
39.5
 20
23.5
 30
0.0
 11
39.699999999999989
 21
23.5
 31
0.0
  0
ARC
  5
63
100
AcDbEntity
  8
0
  6
CONTINUOUS
 62
               7
100
AcDbCircle
 10
39.699999999999989
 20
23.799999999999997
 30
0.0
 40
0.3
100
AcDbArc
 50
270.0
 51
0.0
  0
ARC
  5
64
100
AcDbEntity
  8
0
  6
CONTINUOUS
 62
               7
100
AcDbCircle
 10
39.699999999999989
 20
25.200000000000003
 30
0.0
 40
0.3
100
AcDbArc
 50
0.0
 51
90.0
  0
LINE
  5
65
100
AcDbEntity
  8
0
  6
CONTINUOUS
 62
               7
100
AcDbLine
 10
40.0
 20
23.799999999999997
 30
0.0
 11
40.0
 21
25.200000000000003
 31
0.0
  0
LINE
  5
66
100
AcDbEntity
  8
0
  6
CONTINUOUS
 62
               7
100
AcDbLine
 10
39.0
 20
11.699999999999989
 30
0.0
 11
39.5
 21
11.699999999999989
 31
0.0
  0
LINE
  5
67
100
AcDbEntity
  8
0
  6
CONTINUOUS
 62
               7
100
AcDbLine
 10
40.0
 20
14.200000000000003
 30
0.0
 11
40.0
 21
12.799999999999997
 31
0.0
  0
LINE
  5
68
100
AcDbEntity
  8
0
  6
CONTINUOUS
 62
               7
100
AcDbLine
 10
39.5
 20
12.5
 30
0.0
 11
39.699999999999989
 21
12.5
 31
0.0
  0
LINE
  5
69
100
AcDbEntity
  8
0
  6
CONTINUOUS
 62
               7
100
AcDbLine
 10
39.5
 20
14.5
 30
0.0
 11
39.699999999999989
 21
14.5
 31
0.0
  0
ARC
  5
6A
100
AcDbEntity
  8
0
  6
CONTINUOUS
 62
               7
100
AcDbCircle
 10
39.699999999999989
 20
12.799999999999997
 30
0.0
 40
0.3
100
AcDbArc
 50
270.0
 51
0.0
  0
ARC
  5
6B
100
AcDbEntity
  8
0
  6
CONTINUOUS
 62
               7
100
AcDbCircle
 10
39.699999999999989
 20
14.200000000000003
 30
0.0
 40
0.3
100
AcDbArc
 50
0.0
 51
90.0
  0
LINE
  5
6C
100
AcDbEntity
  8
0
  6
CONTINUOUS
 62
               2
100
AcDbLine
 10
23.0
 20
14.5
 30
0.0
 11
23.0
 21
9.5
 31
0.0
  0
CIRCLE
  5
6D
100
AcDbEntity
  8
0
  6
CONTINUOUS
 62
               2
100
AcDbCircle
 10
23.0
 20
12.0
 30
0.0
 40
1.5
  0
CIRCLE
  5
6E
100
AcDbEntity
  8
0
  6
CONTINUOUS
 62
               7
100
AcDbCircle
 10
23.0
 20
12.0
 30
0.0
 40
1.25
  0
CIRCLE
  5
6F
100
AcDbEntity
  8
0
  6
CONTINUOUS
 62
               7
100
AcDbCircle
 10
28.0
 20
12.0
 30
0.0
 40
2.3999999999999999
  0
LINE
  5
70
100
AcDbEntity
  8
0
  6
CONTINUOUS
 62
               2
100
AcDbLine
 10
28.0
 20
8.5999999999999943
 30
0.0
 11
28.0
 21
15.400000000000006
 31
0.0
  0
LINE
  5
71
100
AcDbEntity
  8
0
  6
CONTINUOUS
 62
               2
100
AcDbLine
 10
20.5
 20
12.0
 30
0.0
 11
31.399999999999977
 21
12.0
 31
0.0
  0
LINE
  5
72
100
AcDbEntity
  8
0
  6
CONTINUOUS
 62
               7
100
AcDbLine
 10
-3.0
 20
0.0
 30
0.0
 11
51.0
 21
0.0
 31
0.0
  0
LINE
  5
73
100
AcDbEntity
  8
0
  6
CONTINUOUS
 62
               7
100
AcDbLine
 10
-3.0
 20
8.3000000000000114
 30
0.0
 11
51.0
 21
8.3000000000000114
 31
0.0
  0
LINE
  5
74
100
AcDbEntity
  8
0
  6
CONTINUOUS
 62
               7
100
AcDbLine
 10
51.0
 20
-0.0000000136906095
 30
0.0
 11
51.0
 21
8.3000000000000114
 31
0.0
  0
LINE
  5
75
100
AcDbEntity
  8
0
  6
CONTINUOUS
 62
               7
100
AcDbLine
 10
-3.0
 20
8.3000000000000114
 30
0.0
 11
-3.0
 21
0.0
 31
0.0
  0
LINE
  5
76
100
AcDbEntity
  8
0
  6
CONTINUOUS
 62
               7
100
AcDbLine
 10
43.0
 20
10.0
 30
0.0
 11
43.0
 21
8.3000000000000114
 31
0.0
  0
LINE
  5
77
100
AcDbEntity
  8
0
  6
CONTINUOUS
 62
               7
100
AcDbLine
 10
5.0
 20
9.0
 30
0.0
 11
5.0
 21
8.3000000000000114
 31
0.0
  0
LINE
  5
78
100
AcDbEntity
  8
0
  6
CONTINUOUS
 62
               7
100
AcDbLine
 10
39.0
 20
9.5
 30
0.0
 11
43.0
 21
9.5
 31
0.0
  0
LINE
  5
79
100
AcDbEntity
  8
0
  6
CONTINUOUS
 62
               7
100
AcDbLine
 10
39.0
 20
28.0
 30
0.0
 11
44.5
 21
28.0
 31
0.0
  0
LINE
  5
7A
100
AcDbEntity
  8
0
  6
CONTINUOUS
 62
               7
100
AcDbLine
 10
44.5
 20
28.0
 30
0.0
 11
44.5
 21
10.0
 31
0.0
  0
LINE
  5
7B
100
AcDbEntity
  8
0
  6
CONTINUOUS
 62
               7
100
AcDbLine
 10
39.0
 20
10.0
 30
0.0
 11
44.5
 21
10.0
 31
0.0
  0
LINE
  5
7C
100
AcDbEntity
  8
0
  6
CONTINUOUS
 62
               7
100
AcDbLine
 10
39.5
 20
16.400000000000006
 30
0.0
 11
44.5
 21
16.400000000000006
 31
0.0
  0
LINE
  5
7D
100
AcDbEntity
  8
0
  6
CONTINUOUS
 62
               7
100
AcDbLine
 10
39.5
 20
21.599999999999994
 30
0.0
 11
44.5
 21
21.599999999999994
 31
0.0
  0
LINE
  5
7E
100
AcDbEntity
  8
0
  6
CONTINUOUS
 62
               2
100
AcDbLine
 10
0.0
 20
6.2000000000000028
 30
0.0
 11
0.0
 21
-1.2000000000000028
 31
0.0
  0
LINE
  5
7F
100
AcDbEntity
  8
0
  6
CONTINUOUS
 62
               2
100
AcDbLine
 10
47.999999999999972
 20
6.2000000000000028
 30
0.0
 11
47.999999999999972
 21
-1.2000000000000028
 31
0.0
  0
LINE
  5
80
100
AcDbEntity
  8
0
  6
CONTINUOUS
 62
               2
100
AcDbLine
 10
-17.5
 20
26.0
 30
0.0
 11
-12.5
 21
26.0
 31
0.0
  0
LINE
  5
81
100
AcDbEntity
  8
0
  6
CONTINUOUS
 62
               2
100
AcDbLine
 10
-17.5
 20
12.0
 30
0.0
 11
-12.5
 21
12.0
 31
0.0
  0
LINE
  5
83
100
AcDbEntity
  8
0
  6
PHANTOM
 62
               3
100
AcDbLine
 10
17.752181042961183
 20
49.829818178648694
 30
0.0
 11
17.752181042961183
 21
-11.800253105920135
 31
0.0
  0
ENDBLK
  5
84
100
AcDbEntity
  8
0
100
AcDbBlockEnd
  0
BLOCK
  5
85
100
AcDbEntity
  8
0
100
AcDbBlockBegin
  2
MGALG6-2
 70
               0
 10
0.0
 20
0.0
 30
0.0
  3
MGALG6-2
  1

  0
CIRCLE
  5
86
100
AcDbEntity
  8
0
  6
CONTINUOUS
 62
               7
100
AcDbCircle
 10
3.4999999999999716
 20
19.0
 30
0.0
 40
3.7000000000000002
  0
CIRCLE
  5
87
100
AcDbEntity
  8
0
  6
CONTINUOUS
 62
               7
100
AcDbCircle
 10
3.4999999999999716
 20
19.0
 30
0.0
 40
1.2
  0
ARC
  5
88
100
AcDbEntity
  8
0
  6
CONTINUOUS
 62
               7
100
AcDbCircle
 10
3.4999999999999716
 20
19.0
 30
0.0
 40
4.2000000000000028
100
AcDbArc
 50
270.0
 51
90.0
  0
LINE
  5
89
100
AcDbEntity
  8
0
  6
CONTINUOUS
 62
               7
100
AcDbLine
 10
3.4999999999999716
 20
23.200000000000003
 30
0.0
 11
-0.2000000000000171
 21
23.200000000000003
 31
0.0
  0
LINE
  5
8A
100
AcDbEntity
  8
0
  6
CONTINUOUS
 62
               7
100
AcDbLine
 10
0.7723636606027924
 20
21.5
 30
0.0
 11
-0.2000000000000171
 21
21.5
 31
0.0
  0
LINE
  5
8B
100
AcDbEntity
  8
0
  6
CONTINUOUS
 62
               7
100
AcDbLine
 10
3.4999999999999716
 20
14.799999999999997
 30
0.0
 11
-0.2000000000000171
 21
14.799999999999997
 31
0.0
  0
LINE
  5
8C
100
AcDbEntity
  8
0
  6
CONTINUOUS
 62
               7
100
AcDbLine
 10
0.7723636606027924
 20
16.5
 30
0.0
 11
-0.2000000000000171
 21
16.5
 31
0.0
  0
LINE
  5
8D
100
AcDbEntity
  8
0
  6
CONTINUOUS
 62
               7
100
AcDbLine
 10
-0.7000000000000171
 20
21.400000000000006
 30
0.0
 11
-0.7000000000000171
 21
16.599999999999994
 31
0.0
  0
LINE
  5
8E
100
AcDbEntity
  8
0
  6
CONTINUOUS
 62
               7
100
AcDbLine
 10
-0.7000000000000171
 20
16.599999999999994
 30
0.0
 11
-1.0000000000000284
 21
16.299999999999983
 31
0.0
  0
LINE
  5
8F
100
AcDbEntity
  8
0
  6
CONTINUOUS
 62
               7
100
AcDbLine
 10
-0.7000000000000171
 20
21.400000000000006
 30
0.0
 11
-1.0000000000000284
 21
21.700000000000017
 31
0.0
  0
LINE
  5
90
100
AcDbEntity
  8
0
  6
CONTINUOUS
 62
               7
100
AcDbLine
 10
-1.0000000000000284
 20
16.299999999999983
 30
0.0
 11
-1.0000000000000284
 21
9.5
 31
0.0
  0
LINE
  5
91
100
AcDbEntity
  8
0
  6
CONTINUOUS
 62
               2
100
AcDbLine
 10
2.4999999999999716
 20
16.5
 30
0.0
 11
4.4999999999999716
 21
16.5
 31
0.0
  0
CIRCLE
  5
92
100
AcDbEntity
  8
0
  6
CONTINUOUS
 62
               7
100
AcDbCircle
 10
3.4999999999999716
 20
16.5
 30
0.0
 40
0.5
  0
LINE
  5
93
100
AcDbEntity
  8
0
  6
CONTINUOUS
 62
               7
100
AcDbLine
 10
-0.2000000000000171
 20
21.5
 30
0.0
 11
-0.2000000000000171
 21
29.0
 31
0.0
  0
LINE
  5
94
100
AcDbEntity
  8
0
  6
CONTINUOUS
 62
               7
100
AcDbLine
 10
8.9000000000000057
 20
14.599999999999994
 30
0.0
 11
10.799999999999983
 21
14.599999999999994
 31
0.0
  0
ARC
  5
95
100
AcDbEntity
  8
0
  6
CONTINUOUS
 62
               7
100
AcDbCircle
 10
8.9000000000000057
 20
12.5
 30
0.0
 40
2.1000000000000001
100
AcDbArc
 50
90.0
 51
270.0
  0
LINE
  5
96
100
AcDbEntity
  8
0
  6
CONTINUOUS
 62
               7
100
AcDbLine
 10
8.9000000000000057
 20
10.400000000000006
 30
0.0
 11
10.799999999999983
 21
10.400000000000006
 31
0.0
  0
LINE
  5
97
100
AcDbEntity
  8
0
  6
CONTINUOUS
 62
               7
100
AcDbLine
 10
8.9000000000000057
 20
23.400000000000006
 30
0.0
 11
10.799999999999983
 21
23.400000000000006
 31
0.0
  0
LINE
  5
98
100
AcDbEntity
  8
0
  6
CONTINUOUS
 62
               7
100
AcDbLine
 10
8.9000000000000057
 20
27.599999999999994
 30
0.0
 11
10.799999999999983
 21
27.599999999999994
 31
0.0
  0
ARC
  5
99
100
AcDbEntity
  8
0
  6
CONTINUOUS
 62
               7
100
AcDbCircle
 10
8.9000000000000057
 20
25.5
 30
0.0
 40
2.1000000000000001
100
AcDbArc
 50
90.0
 51
270.0
  0
LINE
  5
9A
100
AcDbEntity
  8
0
  6
CONTINUOUS
 62
               7
100
AcDbLine
 10
10.499999999999972
 20
9.0
 30
0.0
 11
10.999999999999972
 21
9.4999999999999858
 31
0.0
  0
LINE
  5
9B
100
AcDbEntity
  8
0
  6
CONTINUOUS
 62
               7
100
AcDbLine
 10
10.799999999999983
 20
9.5
 30
0.0
 11
10.30000000000004
 21
9.0
 31
0.0
  0
LINE
  5
9C
100
AcDbEntity
  8
0
  6
CONTINUOUS
 62
               7
100
AcDbLine
 10
10.999999999999972
 20
28.5
 30
0.0
 11
10.499999999999972
 21
29.0
 31
0.0
  0
LINE
  5
9D
100
AcDbEntity
  8
0
  6
CONTINUOUS
 62
               7
100
AcDbLine
 10
10.299999999999983
 20
29.0
 30
0.0
 11
10.799999999999983
 21
28.500000000000014
 31
0.0
  0
LINE
  5
9E
100
AcDbEntity
  8
0
  6
CONTINUOUS
 62
               2
100
AcDbLine
 10
3.9999999999999716
 20
14.5
 30
0.0
 11
3.9999999999999716
 21
9.5
 31
0.0
  0
CIRCLE
  5
9F
100
AcDbEntity
  8
0
  6
CONTINUOUS
 62
               2
100
AcDbCircle
 10
3.9999999999999716
 20
12.0
 30
0.0
 40
1.5
  0
LINE
  5
A0
100
AcDbEntity
  8
0
  6
CONTINUOUS
 62
               2
100
AcDbLine
 10
-3.5000000000000284
 20
12.0
 30
0.0
 11
6.4999999999999716
 21
12.0
 31
0.0
  0
CIRCLE
  5
A1
100
AcDbEntity
  8
0
  6
CONTINUOUS
 62
               7
100
AcDbCircle
 10
3.9999999999999716
 20
12.0
 30
0.0
 40
1.25
  0
LINE
  5
A2
100
AcDbEntity
  8
0
  6
CONTINUOUS
 62
               2
100
AcDbLine
 10
3.9999999999999716
 20
28.5
 30
0.0
 11
3.9999999999999716
 21
23.5
 31
0.0
  0
CIRCLE
  5
A3
100
AcDbEntity
  8
0
  6
CONTINUOUS
 62
               2
100
AcDbCircle
 10
3.9999999999999716
 20
26.0
 30
0.0
 40
1.5
  0
LINE
  5
A4
100
AcDbEntity
  8
0
  6
CONTINUOUS
 62
               2
100
AcDbLine
 10
-3.5000000000000284
 20
26.0
 30
0.0
 11
6.4999999999999716
 21
26.0
 31
0.0
  0
CIRCLE
  5
A5
100
AcDbEntity
  8
0
  6
CONTINUOUS
 62
               7
100
AcDbCircle
 10
3.9999999999999716
 20
26.0
 30
0.0
 40
1.25
  0
LINE
  5
A6
100
AcDbEntity
  8
0
  6
CONTINUOUS
 62
               2
100
AcDbLine
 10
2.4999999999999716
 20
21.5
 30
0.0
 11
4.4999999999999716
 21
21.5
 31
0.0
  0
CIRCLE
  5
A7
100
AcDbEntity
  8
0
  6
CONTINUOUS
 62
               7
100
AcDbCircle
 10
3.4999999999999716
 20
21.5
 30
0.0
 40
0.5
  0
LINE
  5
A8
100
AcDbEntity
  8
0
  6
CONTINUOUS
 62
               2
100
AcDbLine
 10
3.4999999999999716
 20
14.0
 30
0.0
 11
3.4999999999999716
 21
24.0
 31
0.0
  0
LINE
  5
A9
100
AcDbEntity
  8
0
  6
CONTINUOUS
 62
               7
100
AcDbLine
 10
10.799999999999983
 20
9.5
 30
0.0
 11
10.799999999999983
 21
28.500000000000014
 31
0.0
  0
LINE
  5
AA
100
AcDbEntity
  8
0
  6
CONTINUOUS
 62
               7
100
AcDbLine
 10
9.7660254903786665
 20
25.499999863279172
 30
0.0
 11
9.3330126744466213
 21
26.25000002338426
 31
0.0
  0
LINE
  5
AB
100
AcDbEntity
  8
0
  6
CONTINUOUS
 62
               7
100
AcDbLine
 10
8.466987373214323
 20
26.250000143353219
 30
0.0
 11
8.0339745896869488
 21
25.499999964539285
 31
0.0
  0
LINE
  5
AC
100
AcDbEntity
  8
0
  6
CONTINUOUS
 62
               7
100
AcDbLine
 10
8.033974509621288
 20
25.500000136720828
 30
0.0
 11
8.4669873255533332
 21
24.74999997661574
 31
0.0
  0
LINE
  5
AD
100
AcDbEntity
  8
0
  6
CONTINUOUS
 62
               7
100
AcDbLine
 10
9.3330126267856315
 20
24.749999856646781
 30
0.0
 11
9.7660254103130058
 21
25.500000035460715
 31
0.0
  0
LINE
  5
AE
100
AcDbEntity
  8
0
  6
CONTINUOUS
 62
               7
100
AcDbLine
 10
8.4669871364069138
 20
24.749999993367609
 30
0.0
 11
9.3330127358663901
 21
24.750000012076455
 31
0.0
  0
LINE
  5
AF
100
AcDbEntity
  8
0
  6
CONTINUOUS
 62
               7
100
AcDbLine
 10
9.3330128635930407
 20
26.250000006632405
 30
0.0
 11
8.4669872641336212
 21
26.249999987923545
 31
0.0
  0
CIRCLE
  5
B0
100
AcDbEntity
  8
0
  6
CONTINUOUS
 62
               7
100
AcDbCircle
 10
8.9000000000000057
 20
25.5
 30
0.0
 40
1.9000000000000148
  0
CIRCLE
  5
B1
100
AcDbEntity
  8
0
  6
CONTINUOUS
 62
               7
100
AcDbCircle
 10
8.9000000000000057
 20
25.5
 30
0.0
 40
1.6000000000000174
  0
LINE
  5
B2
100
AcDbEntity
  8
0
  6
CONTINUOUS
 62
               7
100
AcDbLine
 10
9.7660254903786665
 20
12.499999863279186
 30
0.0
 11
9.3330126744466213
 21
13.25000002338426
 31
0.0
  0
LINE
  5
B3
100
AcDbEntity
  8
0
  6
CONTINUOUS
 62
               7
100
AcDbLine
 10
8.466987373214323
 20
13.250000143353219
 30
0.0
 11
8.0339745896869488
 21
12.499999964539285
 31
0.0
  0
LINE
  5
B4
100
AcDbEntity
  8
0
  6
CONTINUOUS
 62
               7
100
AcDbLine
 10
8.033974509621288
 20
12.500000136720814
 30
0.0
 11
8.4669873255533332
 21
11.74999997661574
 31
0.0
  0
LINE
  5
B5
100
AcDbEntity
  8
0
  6
CONTINUOUS
 62
               7
100
AcDbLine
 10
9.3330126267856315
 20
11.749999856646781
 30
0.0
 11
9.7660254103130058
 21
12.500000035460715
 31
0.0
  0
LINE
  5
B6
100
AcDbEntity
  8
0
  6
CONTINUOUS
 62
               7
100
AcDbLine
 10
8.4669871364069138
 20
11.749999993367595
 30
0.0
 11
9.3330127358663901
 21
11.750000012076455
 31
0.0
  0
LINE
  5
B7
100
AcDbEntity
  8
0
  6
CONTINUOUS
 62
               7
100
AcDbLine
 10
9.3330128635930407
 20
13.250000006632405
 30
0.0
 11
8.4669872641336212
 21
13.249999987923545
 31
0.0
  0
CIRCLE
  5
B8
100
AcDbEntity
  8
0
  6
CONTINUOUS
 62
               7
100
AcDbCircle
 10
8.9000000000000057
 20
12.5
 30
0.0
 40
1.9000000000000148
  0
CIRCLE
  5
B9
100
AcDbEntity
  8
0
  6
CONTINUOUS
 62
               7
100
AcDbCircle
 10
8.9000000000000057
 20
12.5
 30
0.0
 40
1.6000000000000174
  0
LINE
  5
BA
100
AcDbEntity
  8
0
  6
CONTINUOUS
 62
               7
100
AcDbLine
 10
-0.2000000000000171
 20
9.0
 30
0.0
 11
-0.2000000000000171
 21
16.5
 31
0.0
  0
LINE
  5
BB
100
AcDbEntity
  8
0
  6
CONTINUOUS
 62
               7
100
AcDbLine
 10
-1.0000000000000284
 20
28.499999992019184
 30
0.0
 11
-1.0000000000000284
 21
21.700000000000017
 31
0.0
  0
LINE
  5
BC
100
AcDbEntity
  8
0
  6
CENTER
 62
               2
100
AcDbLine
 10
-2.1694637487715625
 20
19.0
 30
0.0
 11
12.080676139835219
 21
19.0
 31
0.0
  0
LINE
  5
BD
100
AcDbEntity
  8
0
  6
CONTINUOUS
 62
               7
100
AcDbLine
 10
10.999999999999972
 20
9.4999999999999858
 30
0.0
 11
10.999999999999972
 21
28.5
 31
0.0
  0
LINE
  5
BE
100
AcDbEntity
  8
0
  6
CONTINUOUS
 62
               7
100
AcDbLine
 10
-0.2000000000000171
 20
9.5
 30
0.0
 11
-1.0000000000000284
 21
9.5
 31
0.0
  0
LINE
  5
BF
100
AcDbEntity
  8
0
  6
CONTINUOUS
 62
               7
100
AcDbLine
 10
10.499999999999972
 20
9.0
 30
0.0
 11
-0.2000000000000171
 21
9.0
 31
0.0
  0
LINE
  5
C0
100
AcDbEntity
  8
0
  6
CONTINUOUS
 62
               7
100
AcDbLine
 10
-0.2000000000000171
 20
28.5
 30
0.0
 11
-1.0000000000000284
 21
28.5
 31
0.0
  0
LINE
  5
C1
100
AcDbEntity
  8
0
  6
CONTINUOUS
 62
               7
100
AcDbLine
 10
10.499999999999972
 20
29.0
 30
0.0
 11
-0.2000000000000171
 21
29.0
 31
0.0
  0
LINE
  5
C2
100
AcDbEntity
  8
0
  6
CONTINUOUS
 62
               7
100
AcDbLine
 10
9.9999999999999716
 20
8.3000000000000114
 30
0.0
 11
9.9999999999999716
 21
0.0
 31
0.0
  0
LINE
  5
C3
100
AcDbEntity
  8
0
  6
CONTINUOUS
 62
               7
100
AcDbLine
 10
9.9999999999999716
 20
8.3000000000000114
 30
0.0
 11
-3.0000000000000284
 21
8.3000000000000114
 31
0.0
  0
LINE
  5
C4
100
AcDbEntity
  8
0
  6
CONTINUOUS
 62
               7
100
AcDbLine
 10
6.5999999999999943
 20
9.0
 30
0.0
 11
6.5999999999999943
 21
8.3000000000000114
 31
0.0
  0
LINE
  5
C5
100
AcDbEntity
  8
0
  6
CONTINUOUS
 62
               7
100
AcDbLine
 10
9.9999999999999716
 20
0.0
 30
0.0
 11
-3.0000000000000284
 21
0.0
 31
0.0
  0
LINE
  5
C6
100
AcDbEntity
  8
0
  6
CONTINUOUS
 62
               7
100
AcDbLine
 10
3.4999999786160458
 20
5.0
 30
0.0
 11
-3.0000000000000284
 21
5.0
 31
0.0
  0
LINE
  5
C7
100
AcDbEntity
  8
0
  6
CONTINUOUS
 62
               7
100
AcDbLine
 10
3.4999999999999716
 20
5.0
 30
0.0
 11
3.4999999999999716
 21
8.3000000000000114
 31
0.0
  0
LINE
  5
C8
100
AcDbEntity
  8
0
  6
CONTINUOUS
 62
               7
100
AcDbLine
 10
-1.0000000000000284
 20
11.000000007980816
 30
0.0
 11
-2.2000000000000171
 21
11.000000007980816
 31
0.0
  0
LINE
  5
C9
100
AcDbEntity
  8
0
  6
CONTINUOUS
 62
               7
100
AcDbLine
 10
-2.2000000000000171
 20
8.3000000000000114
 30
0.0
 11
-2.2000000000000171
 21
11.000000007980816
 31
0.0
  0
LINE
  5
CA
100
AcDbEntity
  8
0
  6
CONTINUOUS
 62
               7
100
AcDbLine
 10
-3.0000000000000284
 20
0.0
 30
0.0
 11
-3.0000000000000284
 21
8.3000000000000114
 31
0.0
  0
CIRCLE
  5
CB
100
AcDbEntity
  8
0
  6
CONTINUOUS
 62
               2
100
AcDbCircle
 10
7.4999999999999716
 20
5.9999999999999858
 30
0.0
 40
1.25
  0
LINE
  5
CC
100
AcDbEntity
  8
0
  6
CONTINUOUS
 62
               7
100
AcDbLine
 10
7.500000018651491
 20
5.1339745794537919
 30
0.0
 11
6.7499999697701867
 21
5.5669873219498811
 31
0.0
  0
LINE
  5
CD
100
AcDbEntity
  8
0
  6
CONTINUOUS
 62
               7
100
AcDbLine
 10
8.2500000238418636
 20
5.5669873058795645
 30
0.0
 11
7.4999999642372188
 21
5.133974581956835
 31
0.0
  0
CIRCLE
  5
CE
100
AcDbEntity
  8
0
  6
CONTINUOUS
 62
               7
100
AcDbCircle
 10
7.4999999999999716
 20
5.9999999999999858
 30
0.0
 40
1.5
  0
LINE
  5
CF
100
AcDbEntity
  8
0
  6
CONTINUOUS
 62
               7
100
AcDbLine
 10
6.749999994809599
 20
5.566987273574199
 30
0.0
 11
6.7500000055329963
 21
6.4330127399930461
 31
0.0
  0
LINE
  5
D0
100
AcDbEntity
  8
0
  6
CONTINUOUS
 62
               7
100
AcDbLine
 10
6.7499999761581364
 20
6.4330126941204071
 30
0.0
 11
7.5000000357627812
 21
6.8660254180431366
 31
0.0
  0
LINE
  5
D1
100
AcDbEntity
  8
0
  6
CONTINUOUS
 62
               7
100
AcDbLine
 10
7.499999981348509
 20
6.8660254205461797
 30
0.0
 11
8.2500000302297565
 21
6.4330126780500905
 31
0.0
  0
LINE
  5
D2
100
AcDbEntity
  8
0
  6
CONTINUOUS
 62
               7
100
AcDbLine
 10
8.2500000051903442
 20
6.4330127264257726
 30
0.0
 11
8.2499999944670037
 21
5.5669872600069255
 31
0.0
  0
LINE
  5
D3
100
AcDbEntity
  8
0
  6
CONTINUOUS
 62
               2
100
AcDbLine
 10
0.0
 20
-1.2000000000000028
 30
0.0
 11
0.0
 21
6.2000000000000028
 31
0.0
  0
ENDBLK
  5
D4
100
AcDbEntity
  8
0
100
AcDbBlockEnd
  0
BLOCK
  5
D5
100
AcDbEntity
  8
0
100
AcDbBlockBegin
  2
MGALG6-3
 70
               0
 10
0.0
 20
0.0
 30
0.0
  3
MGALG6-3
  1

  0
LINE
  5
D6
100
AcDbEntity
  8
0
  6
CONTINUOUS
 62
               7
100
AcDbLine
 10
0.7999999999999687
 20
21.500000000000028
 30
0.0
 11
1.0000000000000142
 21
21.700000000000017
 31
0.0
  0
LINE
  5
D7
100
AcDbEntity
  8
0
  6
CONTINUOUS
 62
               7
100
AcDbLine
 10
0.7999999999999687
 20
16.5
 30
0.0
 11
1.0000000000000142
 21
16.299999999999983
 31
0.0
  0
LINE
  5
D8
100
AcDbEntity
  8
0
  6
CONTINUOUS
 62
               7
100
AcDbLine
 10
-7.9343145750508342
 20
12.934314575050763
 30
0.0
 11
-9.0656854249492511
 21
14.065685424949237
 31
0.0
  0
LINE
  5
D9
100
AcDbEntity
  8
0
  6
CONTINUOUS
 62
               7
100
AcDbLine
 10
-7.9343145750508342
 20
14.065685424949237
 30
0.0
 11
-9.0656854249492511
 21
12.934314575050763
 31
0.0
  0
CIRCLE
  5
DA
100
AcDbEntity
  8
0
  6
CONTINUOUS
 62
               7
100
AcDbCircle
 10
-8.4999999999999858
 20
13.5
 30
0.0
 40
1.0
  0
ARC
  5
DB
100
AcDbEntity
  8
0
  6
CONTINUOUS
 62
               7
100
AcDbCircle
 10
-7.9999999999999858
 20
15.800000000000011
 30
0.0
 40
0.5
100
AcDbArc
 50
11.536959032814943
 51
168.46304096718507
  0
LINE
  5
DC
100
AcDbEntity
  8
0
  6
CONTINUOUS
 62
               7
100
AcDbLine
 10
-8.800000000000054
 20
16.0
 30
0.0
 11
-8.4658171329848386
 21
16.0
 31
0.0
  0
LINE
  5
DD
100
AcDbEntity
  8
0
  6
CONTINUOUS
 62
               7
100
AcDbLine
 10
-7.5341828670152466
 20
16.0
 30
0.0
 11
-6.4999999999999858
 21
16.0
 31
0.0
  0
LINE
  5
DE
100
AcDbEntity
  8
0
  6
CONTINUOUS
 62
               7
100
AcDbLine
 10
-7.9343145750507205
 20
23.934314575050763
 30
0.0
 11
-9.0656854249492511
 21
25.065685424949237
 31
0.0
  0
LINE
  5
DF
100
AcDbEntity
  8
0
  6
CONTINUOUS
 62
               7
100
AcDbLine
 10
-7.9343145750507205
 20
25.065685424949237
 30
0.0
 11
-9.0656854249492511
 21
23.934314575050763
 31
0.0
  0
CIRCLE
  5
E0
100
AcDbEntity
  8
0
  6
CONTINUOUS
 62
               7
100
AcDbCircle
 10
-8.4999999999999858
 20
24.5
 30
0.0
 40
1.0
  0
LINE
  5
E1
100
AcDbEntity
  8
0
  6
CONTINUOUS
 62
               7
100
AcDbLine
 10
-8.800000000000054
 20
22.0
 30
0.0
 11
-8.800000000000054
 21
16.0
 31
0.0
  0
LINE
  5
E2
100
AcDbEntity
  8
0
  6
CONTINUOUS
 62
               7
100
AcDbLine
 10
1.0000000000000142
 20
16.299999999999983
 30
0.0
 11
1.0000000000000142
 21
9.5
 31
0.0
  0
LINE
  5
E3
100
AcDbEntity
  8
0
  6
CONTINUOUS
 62
               7
100
AcDbLine
 10
-10.999999999999986
 20
9.5
 30
0.0
 11
-10.500000000000099
 21
9.0
 31
0.0
  0
LINE
  5
E4
100
AcDbEntity
  8
0
  6
CONTINUOUS
 62
               7
100
AcDbLine
 10
-10.999999999999986
 20
28.5
 30
0.0
 11
-10.499999999999986
 21
29.0
 31
0.0
  0
LINE
  5
E5
100
AcDbEntity
  8
0
  6
CONTINUOUS
 62
               7
100
AcDbLine
 10
1.0000000000000142
 20
28.499999992019184
 30
0.0
 11
1.0000000000000142
 21
21.700000000000017
 31
0.0
  0
LINE
  5
E6
100
AcDbEntity
  8
0
  6
CENTER
 62
               2
100
AcDbLine
 10
2.1694637487714914
 20
19.0
 30
0.0
 11
-12.08067613983529
 21
19.0
 31
0.0
  0
LINE
  5
E7
100
AcDbEntity
  8
0
  6
CONTINUOUS
 62
               2
100
AcDbLine
 10
-3.4999999999999858
 20
16.5
 30
0.0
 11
-3.4999999999999858
 21
21.5
 31
0.0
  0
LINE
  5
E8
100
AcDbEntity
  8
0
  6
CONTINUOUS
 62
               7
100
AcDbLine
 10
-6.4999999999999858
 20
9.5
 30
0.0
 11
-6.4999999999999858
 21
16.400000000000006
 31
0.0
  0
LINE
  5
E9
100
AcDbEntity
  8
0
  6
CONTINUOUS
 62
               7
100
AcDbLine
 10
-10.999999999999986
 20
9.5
 30
0.0
 11
-10.999999999999986
 21
28.5
 31
0.0
  0
LINE
  5
EA
100
AcDbEntity
  8
0
  6
CONTINUOUS
 62
               7
100
AcDbLine
 10
-6.9999999999999858
 20
9.0
 30
0.0
 11
-6.9999999999999858
 21
15.599999999999994
 31
0.0
  0
LINE
  5
EB
100
AcDbEntity
  8
0
  6
CONTINUOUS
 62
               7
100
AcDbLine
 10
-6.6000000000000085
 20
9.5
 30
0.0
 11
1.0000000000000142
 21
9.5
 31
0.0
  0
LINE
  5
EC
100
AcDbEntity
  8
0
  6
CONTINUOUS
 62
               7
100
AcDbLine
 10
-10.500000000000099
 20
9.0
 30
0.0
 11
-6.6000000000000085
 21
9.0
 31
0.0
  0
LINE
  5
ED
100
AcDbEntity
  8
0
  6
CONTINUOUS
 62
               7
100
AcDbLine
 10
-6.4999999999999858
 20
28.5
 30
0.0
 11
1.0000000000000142
 21
28.5
 31
0.0
  0
LINE
  5
EE
100
AcDbEntity
  8
0
  6
CONTINUOUS
 62
               7
100
AcDbLine
 10
-10.499999999999986
 20
29.0
 30
0.0
 11
0.199999999999946
 21
29.0
 31
0.0
  0
LINE
  5
EF
100
AcDbEntity
  8
0
  6
CONTINUOUS
 62
               7
100
AcDbLine
 10
-8.800000000000054
 20
22.0
 30
0.0
 11
-8.4658171329848386
 21
22.0
 31
0.0
  0
LINE
  5
F0
100
AcDbEntity
  8
0
  6
CONTINUOUS
 62
               7
100
AcDbLine
 10
-6.4999999999999858
 20
28.5
 30
0.0
 11
-6.4999999999999858
 21
21.599999999999994
 31
0.0
  0
LINE
  5
F1
100
AcDbEntity
  8
0
  6
CONTINUOUS
 62
               7
100
AcDbLine
 10
-6.9999999999999858
 20
29.0
 30
0.0
 11
-6.9999999999999858
 21
22.400000000000006
 31
0.0
  0
LINE
  5
F2
100
AcDbEntity
  8
0
  6
CONTINUOUS
 62
               7
100
AcDbLine
 10
-7.5341828670152466
 20
22.0
 30
0.0
 11
-6.4999999999999858
 21
22.0
 31
0.0
  0
ARC
  5
F3
100
AcDbEntity
  8
0
  6
CONTINUOUS
 62
               7
100
AcDbCircle
 10
-7.9999999999999858
 20
22.199999999999989
 30
0.0
 40
0.5
100
AcDbArc
 50
191.53695903281493
 51
348.46304096718501
  0
LINE
  5
F4
100
AcDbEntity
  8
0
  6
CONTINUOUS
 62
               7
100
AcDbLine
 10
-10.700000000000031
 20
11.699999999999989
 30
0.0
 11
-10.700000000000031
 21
26.300000000000011
 31
0.0
  0
LINE
  5
F5
100
AcDbEntity
  8
0
  6
CONTINUOUS
 62
               7
100
AcDbLine
 10
-7.2000000000000313
 20
11.699999999999989
 30
0.0
 11
-10.700000000000031
 21
11.699999999999989
 31
0.0
  0
LINE
  5
F6
100
AcDbEntity
  8
0
  6
CONTINUOUS
 62
               7
100
AcDbLine
 10
-7.2000000000000313
 20
11.699999999999989
 30
0.0
 11
-7.2000000000000313
 21
15.900000000000006
 31
0.0
  0
LINE
  5
F7
100
AcDbEntity
  8
0
  6
CONTINUOUS
 62
               7
100
AcDbLine
 10
-7.2000000000000313
 20
15.900000000000006
 30
0.0
 11
-9.2000000000000313
 21
15.900000000000006
 31
0.0
  0
LINE
  5
F8
100
AcDbEntity
  8
0
  6
CONTINUOUS
 62
               7
100
AcDbLine
 10
-7.2000000000000313
 20
22.099999999999994
 30
0.0
 11
-9.2000000000000313
 21
22.099999999999994
 31
0.0
  0
LINE
  5
F9
100
AcDbEntity
  8
0
  6
CONTINUOUS
 62
               7
100
AcDbLine
 10
-7.2000000000000313
 20
26.300000000000011
 30
0.0
 11
-7.2000000000000313
 21
22.099999999999994
 31
0.0
  0
LINE
  5
FA
100
AcDbEntity
  8
0
  6
CONTINUOUS
 62
               7
100
AcDbLine
 10
-7.2000000000000313
 20
26.300000000000011
 30
0.0
 11
-10.700000000000031
 21
26.300000000000011
 31
0.0
  0
LINE
  5
FB
100
AcDbEntity
  8
0
  6
CONTINUOUS
 62
               7
100
AcDbLine
 10
-9.2000000000000313
 20
22.099999999999994
 30
0.0
 11
-9.2000000000000313
 21
15.900000000000006
 31
0.0
  0
LINE
  5
FC
100
AcDbEntity
  8
0
  6
CONTINUOUS
 62
               7
100
AcDbLine
 10
-7.2000000000000313
 20
22.400000000000006
 30
0.0
 11
-6.9999999999999858
 21
22.400000000000006
 31
0.0
  0
LINE
  5
FD
100
AcDbEntity
  8
0
  6
CONTINUOUS
 62
               7
100
AcDbLine
 10
-7.2000000000000313
 20
15.599999999999994
 30
0.0
 11
-6.9999999999999858
 21
15.599999999999994
 31
0.0
  0
LINE
  5
FE
100
AcDbEntity
  8
0
  6
CONTINUOUS
 62
               7
100
AcDbLine
 10
0.199999999999946
 20
28.5
 30
0.0
 11
0.199999999999946
 21
29.0
 31
0.0
  0
CIRCLE
  5
FF
100
AcDbEntity
  8
0
  6
CONTINUOUS
 62
               7
100
AcDbCircle
 10
-7.4999999999999858
 20
5.9999999999999858
 30
0.0
 40
1.25
  0
LINE
  5
100
100
AcDbEntity
  8
0
  6
CONTINUOUS
 62
               2
100
AcDbLine
 10
-7.4999999999999858
 20
8.2499999999999858
 30
0.0
 11
-7.4999999999999858
 21
3.7499999999999858
 31
0.0
  0
LINE
  5
101
100
AcDbEntity
  8
0
  6
CONTINUOUS
 62
               7
100
AcDbLine
 10
-9.9999999999999858
 20
8.3000000000000114
 30
0.0
 11
-9.9999999999999858
 21
0.0
 31
0.0
  0
LINE
  5
102
100
AcDbEntity
  8
0
  6
CONTINUOUS
 62
               7
100
AcDbLine
 10
-9.9999999999999858
 20
8.3000000000000114
 30
0.0
 11
3.0000000000000142
 21
8.3000000000000114
 31
0.0
  0
LINE
  5
103
100
AcDbEntity
  8
0
  6
CONTINUOUS
 62
               7
100
AcDbLine
 10
-6.6000000000000085
 20
9.5
 30
0.0
 11
-6.6000000000000085
 21
8.3000000000000114
 31
0.0
  0
LINE
  5
104
100
AcDbEntity
  8
0
  6
CONTINUOUS
 62
               7
100
AcDbLine
 10
-9.9999999999999858
 20
0.0
 30
0.0
 11
3.0000000000000142
 21
0.0
 31
0.0
  0
CIRCLE
  5
105
100
AcDbEntity
  8
0
  6
CONTINUOUS
 62
               2
100
AcDbCircle
 10
-7.4999999999999858
 20
5.9999999999999858
 30
0.0
 40
1.5
  0
LINE
  5
106
100
AcDbEntity
  8
0
  6
CONTINUOUS
 62
               7
100
AcDbLine
 10
-3.49999997861606
 20
5.0
 30
0.0
 11
3.0000000000000142
 21
5.0
 31
0.0
  0
LINE
  5
107
100
AcDbEntity
  8
0
  6
CONTINUOUS
 62
               7
100
AcDbLine
 10
-3.4999999999999858
 20
5.0
 30
0.0
 11
-3.4999999999999858
 21
8.3000000000000114
 31
0.0
  0
LINE
  5
108
100
AcDbEntity
  8
0
  6
CONTINUOUS
 62
               2
100
AcDbLine
 10
-9.7499999999999858
 20
5.9999999999999858
 30
0.0
 11
-5.2499999999999858
 21
5.9999999999999858
 31
0.0
  0
LINE
  5
109
100
AcDbEntity
  8
0
  6
CONTINUOUS
 62
               7
100
AcDbLine
 10
1.0000000000000142
 20
11.000000007980816
 30
0.0
 11
2.199999999999946
 21
11.000000007980816
 31
0.0
  0
LINE
  5
10A
100
AcDbEntity
  8
0
  6
CONTINUOUS
 62
               7
100
AcDbLine
 10
2.199999999999946
 20
8.3000000000000114
 30
0.0
 11
2.199999999999946
 21
11.000000007980816
 31
0.0
  0
LINE
  5
10B
100
AcDbEntity
  8
0
  6
CONTINUOUS
 62
               7
100
AcDbLine
 10
3.0000000000000142
 20
0.0
 30
0.0
 11
3.0000000000000142
 21
8.3000000000000114
 31
0.0
  0
CIRCLE
  5
10C
100
AcDbEntity
  8
0
  6
CONTINUOUS
 62
               7
100
AcDbCircle
 10
-1.9999999999999858
 20
13.5
 30
0.0
 40
1.95
  0
LINE
  5
10D
100
AcDbEntity
  8
0
  6
CONTINUOUS
 62
               7
100
AcDbLine
 10
-3.1547005536840373
 20
13.499999927591446
 30
0.0
 11
-2.5773502058773232
 21
14.500000029841118
 31
0.0
  0
LINE
  5
10E
100
AcDbEntity
  8
0
  6
CONTINUOUS
 62
               7
100
AcDbLine
 10
-2.5773503395497386
 20
14.499999977050066
 30
0.0
 11
-1.4226496733110565
 21
14.499999960090449
 31
0.0
  0
LINE
  5
10F
100
AcDbEntity
  8
0
  6
CONTINUOUS
 62
               7
100
AcDbLine
 10
-1.422649785865687
 20
14.50000004945862
 30
0.0
 11
-0.8452994674338328
 21
13.499999930249331
 31
0.0
  0
LINE
  5
110
100
AcDbEntity
  8
0
  6
CONTINUOUS
 62
               7
100
AcDbLine
 10
-0.8452994463159342
 20
13.500000072408554
 30
0.0
 11
-1.422649794122762
 21
12.499999970158882
 31
0.0
  0
LINE
  5
111
100
AcDbEntity
  8
0
  6
CONTINUOUS
 62
               7
100
AcDbLine
 10
-1.4226496604503467
 20
12.500000022949934
 30
0.0
 11
-2.5773503266890287
 21
12.500000039909551
 31
0.0
  0
LINE
  5
112
100
AcDbEntity
  8
0
  6
CONTINUOUS
 62
               7
100
AcDbLine
 10
-2.5773502141343982
 20
12.49999995054138
 30
0.0
 11
-3.1547005325662525
 21
13.500000069750669
 31
0.0
  0
CIRCLE
  5
113
100
AcDbEntity
  8
0
  6
CONTINUOUS
 62
               7
100
AcDbCircle
 10
-1.9999999999999858
 20
13.5
 30
0.0
 40
2.25
  0
LINE
  5
114
100
AcDbEntity
  8
0
  6
CONTINUOUS
 62
               2
100
AcDbLine
 10
-5.4999999999999858
 20
13.5
 30
0.0
 11
1.5000000000000142
 21
13.5
 31
0.0
  0
LINE
  5
115
100
AcDbEntity
  8
0
  6
CONTINUOUS
 62
               2
100
AcDbLine
 10
-1.9999999999999858
 20
10.0
 30
0.0
 11
-1.9999999999999858
 21
17.0
 31
0.0
  0
LINE
  5
116
100
AcDbEntity
  8
0
  6
CONTINUOUS
 62
               7
100
AcDbLine
 10
-6.4999999999999858
 20
21.599999999999994
 30
0.0
 11
-7.9999999999999858
 21
21.599999999999994
 31
0.0
  0
LINE
  5
117
100
AcDbEntity
  8
0
  6
CONTINUOUS
 62
               7
100
AcDbLine
 10
-7.9999999999999858
 20
16.400000000000006
 30
0.0
 11
-7.9999999999999858
 21
21.599999999999994
 31
0.0
  0
LINE
  5
118
100
AcDbEntity
  8
0
  6
CONTINUOUS
 62
               7
100
AcDbLine
 10
-6.4999999999999858
 20
16.400000000000006
 30
0.0
 11
-7.9999999999999858
 21
16.400000000000006
 31
0.0
  0
LINE
  5
119
100
AcDbEntity
  8
0
  6
CONTINUOUS
 62
               7
100
AcDbLine
 10
0.7999999999999687
 20
28.0
 30
0.0
 11
0.7999999999999687
 21
10.0
 31
0.0
  0
LINE
  5
11A
100
AcDbEntity
  8
0
  6
CONTINUOUS
 62
               7
100
AcDbLine
 10
0.7999999999999687
 20
28.0
 30
0.0
 11
-6.4999999999999858
 21
28.0
 31
0.0
  0
LINE
  5
11B
100
AcDbEntity
  8
0
  6
CONTINUOUS
 62
               7
100
AcDbLine
 10
0.7999999999999687
 20
10.0
 30
0.0
 11
-6.4999999999999858
 21
10.0
 31
0.0
  0
CIRCLE
  5
11C
100
AcDbEntity
  8
0
  6
CONTINUOUS
 62
               7
100
AcDbCircle
 10
-1.9999999999999858
 20
13.5
 30
0.0
 40
2.5
  0
CIRCLE
  5
11D
100
AcDbEntity
  8
0
  6
CONTINUOUS
 62
               7
100
AcDbCircle
 10
-3.4999999999999858
 20
19.0
 30
0.0
 40
1.25
  0
CIRCLE
  5
11E
100
AcDbEntity
  8
0
  6
CONTINUOUS
 62
               2
100
AcDbCircle
 10
-3.4999999999999858
 20
19.0
 30
0.0
 40
1.5
  0
CIRCLE
  5
11F
100
AcDbEntity
  8
0
  6
CONTINUOUS
 62
               7
100
AcDbCircle
 10
-1.9999999999999858
 20
24.5
 30
0.0
 40
1.95
  0
LINE
  5
120
100
AcDbEntity
  8
0
  6
CONTINUOUS
 62
               7
100
AcDbLine
 10
-2.5773503395497386
 20
23.500000022949934
 30
0.0
 11
-1.4226496733110565
 21
23.500000039909551
 31
0.0
  0
LINE
  5
121
100
AcDbEntity
  8
0
  6
CONTINUOUS
 62
               7
100
AcDbLine
 10
-1.4226496604503467
 20
25.499999977050066
 30
0.0
 11
-2.5773503266890287
 21
25.499999960090449
 31
0.0
  0
CIRCLE
  5
122
100
AcDbEntity
  8
0
  6
CONTINUOUS
 62
               7
100
AcDbCircle
 10
-1.9999999999999858
 20
24.5
 30
0.0
 40
2.25
  0
LINE
  5
123
100
AcDbEntity
  8
0
  6
CONTINUOUS
 62
               2
100
AcDbLine
 10
-5.4999999999999858
 20
24.5
 30
0.0
 11
1.5000000000000142
 21
24.5
 31
0.0
  0
LINE
  5
124
100
AcDbEntity
  8
0
  6
CONTINUOUS
 62
               2
100
AcDbLine
 10
-1.9999999999999858
 20
28.0
 30
0.0
 11
-1.9999999999999858
 21
21.0
 31
0.0
  0
CIRCLE
  5
125
100
AcDbEntity
  8
0
  6
CONTINUOUS
 62
               7
100
AcDbCircle
 10
-1.9999999999999858
 20
24.5
 30
0.0
 40
2.5
  0
LINE
  5
126
100
AcDbEntity
  8
0
  6
CONTINUOUS
 62
               7
100
AcDbLine
 10
-0.8452994463159342
 20
24.499999927591446
 30
0.0
 11
-1.422649794122762
 21
25.500000029841118
 31
0.0
  0
LINE
  5
127
100
AcDbEntity
  8
0
  6
CONTINUOUS
 62
               7
100
AcDbLine
 10
-1.422649785865687
 20
23.49999995054138
 30
0.0
 11
-0.8452994674338328
 21
24.500000069750669
 31
0.0
  0
LINE
  5
128
100
AcDbEntity
  8
0
  6
CONTINUOUS
 62
               7
100
AcDbLine
 10
-3.1547005536840373
 20
24.500000072408554
 30
0.0
 11
-2.5773502058773232
 21
23.499999970158882
 31
0.0
  0
LINE
  5
129
100
AcDbEntity
  8
0
  6
CONTINUOUS
 62
               7
100
AcDbLine
 10
-2.5773502141343982
 20
25.50000004945862
 30
0.0
 11
-3.1547005325662525
 21
24.499999930249331
 31
0.0
  0
LINE
  5
12A
100
AcDbEntity
  8
0
  6
CONTINUOUS
 62
               2
100
AcDbLine
 10
-1.4999999999999858
 20
26.0
 30
0.0
 11
3.5000000000000142
 21
26.0
 31
0.0
  0
LINE
  5
12B
100
AcDbEntity
  8
0
  6
CONTINUOUS
 62
               2
100
AcDbLine
 10
-1.4999999999999858
 20
12.0
 30
0.0
 11
3.5000000000000142
 21
12.0
 31
0.0
  0
LINE
  5
12C
100
AcDbEntity
  8
0
  6
CONTINUOUS
 62
               2
100
AcDbLine
 10
0.0
 20
-1.2000000000000028
 30
0.0
 11
0.0
 21
6.2000000000000028
 31
0.0
  0
ENDBLK
  5
12D
100
AcDbEntity
  8
0
100
AcDbBlockEnd
  0
BLOCK
  5
12E
100
AcDbEntity
  8
0
100
AcDbBlockBegin
  2
MGALG6-4
 70
               0
 10
0.0
 20
0.0
 30
0.0
  3
MGALG6-4
  1

  0
LINE
  5
12F
100
AcDbEntity
  8
0
  6
CONTINUOUS
 62
               7
100
AcDbLine
 10
44.499999997462737
 20
-8.0
 30
0.0
 11
44.5
 21
3.0
 31
0.0
  0
LINE
  5
130
100
AcDbEntity
  8
0
  6
CONTINUOUS
 62
               7
100
AcDbLine
 10
2.5
 20
-2.0
 30
0.0
 11
4.0
 21
-2.0
 31
0.0
  0
LINE
  5
131
100
AcDbEntity
  8
0
  6
CONTINUOUS
 62
               7
100
AcDbLine
 10
2.5
 20
-5.0
 30
0.0
 11
4.0
 21
-5.0
 31
0.0
  0
LINE
  5
132
100
AcDbEntity
  8
0
  6
PHANTOM
 62
               2
100
AcDbLine
 10
0.9999999758560989
 20
-6.5
 30
0.0
 11
1.6500000000000909
 21
-6.5
 31
0.0
  0
LINE
  5
133
100
AcDbEntity
  8
0
  6
PHANTOM
 62
               2
100
AcDbLine
 10
0.9999999758560989
 20
-6.2000000000000171
 30
0.0
 11
1.6500000000000909
 21
-6.2000000000000171
 31
0.0
  0
LINE
  5
134
100
AcDbEntity
  8
0
  6
CONTINUOUS
 62
               7
100
AcDbLine
 10
0.9999999758560989
 20
-6.0
 30
0.0
 11
0.9999999758560989
 21
-7.0
 31
0.0
  0
CIRCLE
  5
135
100
AcDbEntity
  8
0
  6
CONTINUOUS
 62
               7
100
AcDbCircle
 10
1.6500000000000909
 20
-0.6500000000000057
 30
0.0
 40
0.15
  0
CIRCLE
  5
136
100
AcDbEntity
  8
0
  6
CONTINUOUS
 62
               7
100
AcDbCircle
 10
1.6500000000000909
 20
-6.3499999999999943
 30
0.0
 40
0.15
  0
LINE
  5
137
100
AcDbEntity
  8
0
  6
CONTINUOUS
 62
               7
100
AcDbLine
 10
2.5000000000000568
 20
-0.3000000000000114
 30
0.0
 11
2.5000000000000568
 21
-6.7000000000000171
 31
0.0
  0
LINE
  5
138
100
AcDbEntity
  8
0
  6
CONTINUOUS
 62
               7
100
AcDbLine
 10
0.5000000000001137
 20
-1.0
 30
0.0
 11
1.8000000000000682
 21
-1.0
 31
0.0
  0
LINE
  5
139
100
AcDbEntity
  8
0
  6
CONTINUOUS
 62
               7
100
AcDbLine
 10
0.5000000000001137
 20
-6.0
 30
0.0
 11
0.5000000000001137
 21
-1.0
 31
0.0
  0
LINE
  5
13A
100
AcDbEntity
  8
0
  6
CONTINUOUS
 62
               7
100
AcDbLine
 10
1.8000000000000682
 20
-7.0
 30
0.0
 11
1.8000000000000682
 21
0.1999999999999886
 31
0.0
  0
LINE
  5
13B
100
AcDbEntity
  8
0
  6
CONTINUOUS
 62
               7
100
AcDbLine
 10
1.8000000000000682
 20
0.1999999999999886
 30
0.0
 11
2.3000000000000682
 21
0.1999999999999886
 31
0.0
  0
LINE
  5
13C
100
AcDbEntity
  8
0
  6
CONTINUOUS
 62
               7
100
AcDbLine
 10
2.3000000000000682
 20
0.1999999999999886
 30
0.0
 11
2.3000000000000682
 21
-7.0
 31
0.0
  0
LINE
  5
13D
100
AcDbEntity
  8
0
  6
CONTINUOUS
 62
               7
100
AcDbLine
 10
2.3000000000000682
 20
-6.7000000000000171
 30
0.0
 11
2.5000000000000568
 21
-6.7000000000000171
 31
0.0
  0
LINE
  5
13E
100
AcDbEntity
  8
0
  6
CONTINUOUS
 62
               7
100
AcDbLine
 10
2.3000000000000682
 20
-0.3000000000000114
 30
0.0
 11
2.5000000000000568
 21
-0.3000000000000114
 31
0.0
  0
LINE
  5
13F
100
AcDbEntity
  8
0
  6
CONTINUOUS
 62
               7
100
AcDbLine
 10
1.8000000000000682
 20
-4.7000000000000171
 30
0.0
 11
2.3000000000000682
 21
-4.7000000000000171
 31
0.0
  0
LINE
  5
140
100
AcDbEntity
  8
0
  6
CONTINUOUS
 62
               7
100
AcDbLine
 10
1.8000000000000682
 20
-2.3000000000000114
 30
0.0
 11
2.3000000000000682
 21
-2.3000000000000114
 31
0.0
  0
LINE
  5
141
100
AcDbEntity
  8
0
  6
CONTINUOUS
 62
               2
100
AcDbLine
 10
2.3000000000000682
 20
-4.7000000000000171
 30
0.0
 11
1.8000000000000682
 21
-2.3000000000000114
 31
0.0
  0
LINE
  5
142
100
AcDbEntity
  8
0
  6
CONTINUOUS
 62
               2
100
AcDbLine
 10
1.8000000000000682
 20
-4.7000000000000171
 30
0.0
 11
2.3000000000000682
 21
-2.3000000000000114
 31
0.0
  0
LINE
  5
143
100
AcDbEntity
  8
0
  6
CONTINUOUS
 62
               2
100
AcDbLine
 10
2.5
 20
-4.7999999999999829
 30
0.0
 11
2.8464101615137452
 21
-5.0
 31
0.0
  0
LINE
  5
144
100
AcDbEntity
  8
0
  6
CONTINUOUS
 62
               2
100
AcDbLine
 10
2.5000000000000568
 20
-2.1999999999999886
 30
0.0
 11
2.8464101615138588
 21
-2.0
 31
0.0
  0
CIRCLE
  5
145
100
AcDbEntity
  8
0
  6
CONTINUOUS
 62
               7
100
AcDbCircle
 10
-5.0499999999999545
 20
-0.6500000000000057
 30
0.0
 40
0.15
  0
LINE
  5
146
100
AcDbEntity
  8
0
  6
CONTINUOUS
 62
               7
100
AcDbLine
 10
-3.6999999999999318
 20
-1.0
 30
0.0
 11
-5.1999999999999318
 21
-1.0
 31
0.0
  0
LINE
  5
147
100
AcDbEntity
  8
0
  6
CONTINUOUS
 62
               7
100
AcDbLine
 10
-5.1999999999999318
 20
0.2000000000000171
 30
0.0
 11
-5.1999999999999318
 21
-6.0
 31
0.0
  0
LINE
  5
148
100
AcDbEntity
  8
0
  6
CONTINUOUS
 62
               7
100
AcDbLine
 10
-3.6999999999999318
 20
-6.0
 30
0.0
 11
-3.6999999999999318
 21
-1.0
 31
0.0
  0
LINE
  5
149
100
AcDbEntity
  8
0
  6
CONTINUOUS
 62
               7
100
AcDbLine
 10
-15.0
 20
-10.799999999999983
 30
0.0
 11
-15.0
 21
0.2000000000000171
 31
0.0
  0
LINE
  5
14A
100
AcDbEntity
  8
0
  6
CONTINUOUS
 62
               7
100
AcDbLine
 10
-6.0
 20
-6.0
 30
0.0
 11
-6.0
 21
0.2000000000000171
 31
0.0
  0
LINE
  5
14B
100
AcDbEntity
  8
0
  6
CONTINUOUS
 62
               7
100
AcDbLine
 10
-15.0
 20
0.2000000000000171
 30
0.0
 11
-5.1999999999999318
 21
0.2000000000000171
 31
0.0
  0
LINE
  5
14C
100
AcDbEntity
  8
0
  6
CONTINUOUS
 62
               7
100
AcDbLine
 10
-6.0
 20
-6.0
 30
0.0
 11
1.8000000000000682
 21
-6.0
 31
0.0
  0
LINE
  5
14D
100
AcDbEntity
  8
0
  6
PHANTOM
 62
               2
100
AcDbLine
 10
-5.0499999999999545
 20
-0.799999999999983
 30
0.0
 11
1.6500000000000909
 21
-0.799999999999983
 31
0.0
  0
LINE
  5
14E
100
AcDbEntity
  8
0
  6
PHANTOM
 62
               2
100
AcDbLine
 10
-5.0499999999999545
 20
-0.5
 30
0.0
 11
1.6500000000000909
 21
-0.5
 31
0.0
  0
LINE
  5
14F
100
AcDbEntity
  8
0
  6
CONTINUOUS
 62
               7
100
AcDbLine
 10
-3.6999999999999318
 20
-1.5
 30
0.0
 11
0.5000000000001137
 21
-1.5
 31
0.0
  0
LINE
  5
150
100
AcDbEntity
  8
0
  6
CONTINUOUS
 62
               7
100
AcDbLine
 10
-3.6999999999999318
 20
-5.5
 30
0.0
 11
0.5000000000001137
 21
-5.5
 31
0.0
  0
LINE
  5
151
100
AcDbEntity
  8
0
  6
CONTINUOUS
 62
               7
100
AcDbLine
 10
-15.0
 20
-10.799999999999983
 30
0.0
 11
-0.0000000241439011
 21
-10.799999999999983
 31
0.0
  0
LINE
  5
152
100
AcDbEntity
  8
0
  6
CONTINUOUS
 62
               7
100
AcDbLine
 10
-15.0
 20
-10.299999999999983
 30
0.0
 11
0.0
 21
-10.299999999999983
 31
0.0
  0
LINE
  5
153
100
AcDbEntity
  8
0
  6
CONTINUOUS
 62
               2
100
AcDbLine
 10
-7.3984765153725789
 20
-3.5
 30
0.0
 11
5.1591031910634229
 21
-3.5
 31
0.0
  0
LINE
  5
154
100
AcDbEntity
  8
0
  6
CONTINUOUS
 62
               7
100
AcDbLine
 10
0.0
 20
-10.5
 30
0.0
 11
39.0
 21
-10.5
 31
0.0
  0
LINE
  5
155
100
AcDbEntity
  8
0
  6
CONTINUOUS
 62
               7
100
AcDbLine
 10
24.5
 20
-4.0
 30
0.0
 11
29.5
 21
-4.0
 31
0.0
  0
LINE
  5
156
100
AcDbEntity
  8
0
  6
CONTINUOUS
 62
               7
100
AcDbLine
 10
24.5
 20
-6.5000000136905953
 30
0.0
 11
24.5
 21
-4.0
 31
0.0
  0
LINE
  5
157
100
AcDbEntity
  8
0
  6
CONTINUOUS
 62
               7
100
AcDbLine
 10
29.5
 20
-6.5000000136905953
 30
0.0
 11
29.5
 21
-4.0
 31
0.0
  0
LINE
  5
158
100
AcDbEntity
  8
0
  6
CONTINUOUS
 62
               7
100
AcDbLine
 10
8.5
 20
-4.0
 30
0.0
 11
13.5
 21
-4.0
 31
0.0
  0
LINE
  5
159
100
AcDbEntity
  8
0
  6
CONTINUOUS
 62
               7
100
AcDbLine
 10
8.5
 20
-6.5000000136905953
 30
0.0
 11
8.5
 21
-4.0
 31
0.0
  0
LINE
  5
15A
100
AcDbEntity
  8
0
  6
CONTINUOUS
 62
               7
100
AcDbLine
 10
13.5
 20
-6.5000000136905953
 30
0.0
 11
13.5
 21
-4.0
 31
0.0
  0
LINE
  5
15B
100
AcDbEntity
  8
0
  6
CONTINUOUS
 62
               7
100
AcDbLine
 10
3.9999999758560989
 20
-6.5
 30
0.0
 11
44.499999997462737
 21
-6.5
 31
0.0
  0
LINE
  5
15C
100
AcDbEntity
  8
0
  6
CONTINUOUS
 62
               2
100
AcDbLine
 10
7.0
 20
-0.1999999999999886
 30
0.0
 11
7.0
 21
-4.1999999999999886
 31
0.0
  0
LINE
  5
15D
100
AcDbEntity
  8
0
  6
CONTINUOUS
 62
               2
100
AcDbLine
 10
5.0
 20
-2.1999999999999886
 30
0.0
 11
9.0
 21
-2.1999999999999886
 31
0.0
  0
CIRCLE
  5
15E
100
AcDbEntity
  8
0
  6
CONTINUOUS
 62
               2
100
AcDbCircle
 10
7.0
 20
-2.1999999999999886
 30
0.0
 40
1.0
  0
CIRCLE
  5
15F
100
AcDbEntity
  8
0
  6
CONTINUOUS
 62
               7
100
AcDbCircle
 10
7.0
 20
-2.1999999999999886
 30
0.0
 40
0.8
  0
LINE
  5
160
100
AcDbEntity
  8
0
  6
CONTINUOUS
 62
               2
100
AcDbLine
 10
20.0
 20
-6.9000000000000057
 30
0.0
 11
20.0
 21
-10.900000000000006
 31
0.0
  0
LINE
  5
161
100
AcDbEntity
  8
0
  6
CONTINUOUS
 62
               2
100
AcDbLine
 10
18.0
 20
-8.9000000000000057
 30
0.0
 11
22.0
 21
-8.9000000000000057
 31
0.0
  0
CIRCLE
  5
162
100
AcDbEntity
  8
0
  6
CONTINUOUS
 62
               2
100
AcDbCircle
 10
20.0
 20
-8.9000000000000057
 30
0.0
 40
1.0
  0
CIRCLE
  5
163
100
AcDbEntity
  8
0
  6
CONTINUOUS
 62
               7
100
AcDbCircle
 10
20.0
 20
-8.9000000000000057
 30
0.0
 40
0.8
  0
LINE
  5
164
100
AcDbEntity
  8
0
  6
CONTINUOUS
 62
               2
100
AcDbLine
 10
34.0
 20
-6.9000000000000057
 30
0.0
 11
34.0
 21
-10.900000000000006
 31
0.0
  0
LINE
  5
165
100
AcDbEntity
  8
0
  6
CONTINUOUS
 62
               2
100
AcDbLine
 10
32.0
 20
-8.9000000000000057
 30
0.0
 11
36.0
 21
-8.9000000000000057
 31
0.0
  0
CIRCLE
  5
166
100
AcDbEntity
  8
0
  6
CONTINUOUS
 62
               2
100
AcDbCircle
 10
34.0
 20
-8.9000000000000057
 30
0.0
 40
1.0
  0
CIRCLE
  5
167
100
AcDbEntity
  8
0
  6
CONTINUOUS
 62
               7
100
AcDbCircle
 10
34.0
 20
-8.9000000000000057
 30
0.0
 40
0.8
  0
LINE
  5
168
100
AcDbEntity
  8
0
  6
CONTINUOUS
 62
               2
100
AcDbLine
 10
36.0
 20
-0.1999999999999886
 30
0.0
 11
36.0
 21
-4.1999999999999886
 31
0.0
  0
LINE
  5
169
100
AcDbEntity
  8
0
  6
CONTINUOUS
 62
               2
100
AcDbLine
 10
34.0
 20
-2.1999999999999886
 30
0.0
 11
38.0
 21
-2.1999999999999886
 31
0.0
  0
CIRCLE
  5
16A
100
AcDbEntity
  8
0
  6
CONTINUOUS
 62
               2
100
AcDbCircle
 10
36.0
 20
-2.1999999999999886
 30
0.0
 40
1.0
  0
CIRCLE
  5
16B
100
AcDbEntity
  8
0
  6
CONTINUOUS
 62
               7
100
AcDbCircle
 10
36.0
 20
-2.1999999999999886
 30
0.0
 40
0.8
  0
LINE
  5
16C
100
AcDbEntity
  8
0
  6
CONTINUOUS
 62
               7
100
AcDbLine
 10
-0.0000000241439011
 20
-7.0
 30
0.0
 11
-0.0000000241439011
 21
-10.999999986309405
 31
0.0
  0
LINE
  5
16D
100
AcDbEntity
  8
0
  6
CONTINUOUS
 62
               7
100
AcDbLine
 10
-0.0000000241439011
 20
-7.0
 30
0.0
 11
39.0
 21
-7.0
 31
0.0
  0
LINE
  5
16E
100
AcDbEntity
  8
0
  6
CONTINUOUS
 62
               7
100
AcDbLine
 10
4.0
 20
1.0
 30
0.0
 11
4.0
 21
-7.0
 31
0.0
  0
LINE
  5
16F
100
AcDbEntity
  8
0
  6
CONTINUOUS
 62
               7
100
AcDbLine
 10
39.0
 20
1.0
 30
0.0
 11
39.0
 21
-11.0
 31
0.0
  0
LINE
  5
170
100
AcDbEntity
  8
0
  6
CONTINUOUS
 62
               7
100
AcDbLine
 10
0.0
 20
-11.0
 30
0.0
 11
39.0
 21
-11.0
 31
0.0
  0
LINE
  5
171
100
AcDbEntity
  8
0
  6
CONTINUOUS
 62
               7
100
AcDbLine
 10
4.0
 20
1.0
 30
0.0
 11
43.0
 21
1.0
 31
0.0
  0
LINE
  5
172
100
AcDbEntity
  8
0
  6
CONTINUOUS
 62
               7
100
AcDbLine
 10
39.000000001754415
 20
-10.699999999999989
 30
0.0
 11
39.500000001754415
 21
-10.699999999999989
 31
0.0
  0
LINE
  5
173
100
AcDbEntity
  8
0
  6
CONTINUOUS
 62
               7
100
AcDbLine
 10
39.000000001754415
 20
-7.1999999999999886
 30
0.0
 11
39.500000001754415
 21
-7.1999999999999886
 31
0.0
  0
LINE
  5
174
100
AcDbEntity
  8
0
  6
CONTINUOUS
 62
               7
100
AcDbLine
 10
40.0
 20
-7.7999999999999829
 30
0.0
 11
40.0
 21
-9.2000000000000171
 31
0.0
  0
LINE
  5
175
100
AcDbEntity
  8
0
  6
CONTINUOUS
 62
               7
100
AcDbLine
 10
39.5
 20
-9.5
 30
0.0
 11
39.699999999999989
 21
-9.5
 31
0.0
  0
LINE
  5
176
100
AcDbEntity
  8
0
  6
CONTINUOUS
 62
               7
100
AcDbLine
 10
39.5
 20
-7.5
 30
0.0
 11
39.699999999999989
 21
-7.5
 31
0.0
  0
ARC
  5
177
100
AcDbEntity
  8
0
  6
CONTINUOUS
 62
               7
100
AcDbCircle
 10
39.699999999999989
 20
-9.2000000000000171
 30
0.0
 40
0.3
100
AcDbArc
 50
270.0
 51
0.0
  0
ARC
  5
178
100
AcDbEntity
  8
0
  6
CONTINUOUS
 62
               7
100
AcDbCircle
 10
39.699999999999989
 20
-7.7999999999999829
 30
0.0
 40
0.3
100
AcDbArc
 50
0.0
 51
90.0
  0
LINE
  5
179
100
AcDbEntity
  8
0
  6
CONTINUOUS
 62
               7
100
AcDbLine
 10
39.5
 20
-10.699999999999989
 30
0.0
 11
39.5
 21
-7.1999999999999886
 31
0.0
  0
LINE
  5
17A
100
AcDbEntity
  8
0
  6
CONTINUOUS
 62
               7
100
AcDbLine
 10
-3.0
 20
3.0
 30
0.0
 11
51.0
 21
3.0
 31
0.0
  0
LINE
  5
17B
100
AcDbEntity
  8
0
  6
CONTINUOUS
 62
               7
100
AcDbLine
 10
39.5
 20
-10.0
 30
0.0
 11
51.0
 21
-10.0
 31
0.0
  0
LINE
  5
17C
100
AcDbEntity
  8
0
  6
CONTINUOUS
 62
               7
100
AcDbLine
 10
5.0
 20
2.2000000000000171
 30
0.0
 11
5.0
 21
1.0
 31
0.0
  0
LINE
  5
17D
100
AcDbEntity
  8
0
  6
CONTINUOUS
 62
               7
100
AcDbLine
 10
-3.0
 20
3.0
 30
0.0
 11
-3.0
 21
-1.5
 31
0.0
  0
ARC
  5
17E
100
AcDbEntity
  8
0
  6
CONTINUOUS
 62
               7
100
AcDbCircle
 10
0.0
 20
0.0
 30
0.0
 40
3.5
100
AcDbArc
 50
325.15009542095345
 51
0.0
  0
LINE
  5
17F
100
AcDbEntity
  8
0
  6
CONTINUOUS
 62
               7
100
AcDbLine
 10
3.5
 20
0.0
 30
0.0
 11
3.5
 21
3.0
 31
0.0
  0
LINE
  5
180
100
AcDbEntity
  8
0
  6
CONTINUOUS
 62
               7
100
AcDbLine
 10
51.0
 20
3.0
 30
0.0
 11
51.0
 21
-10.0
 31
0.0
  0
LINE
  5
181
100
AcDbEntity
  8
0
  6
CONTINUOUS
 62
               7
100
AcDbLine
 10
43.0
 20
2.2000000000000171
 30
0.0
 11
43.0
 21
0.8000000000000114
 31
0.0
  0
ARC
  5
182
100
AcDbEntity
  8
0
  6
CONTINUOUS
 62
               7
100
AcDbCircle
 10
48.0
 20
0.0
 30
0.0
 40
3.5
100
AcDbArc
 50
180.0
 51
270.0
  0
LINE
  5
183
100
AcDbEntity
  8
0
  6
CONTINUOUS
 62
               7
100
AcDbLine
 10
48.0
 20
-3.5
 30
0.0
 11
51.0
 21
-3.5
 31
0.0
  0
LINE
  5
184
100
AcDbEntity
  8
0
  6
CONTINUOUS
 62
               7
100
AcDbLine
 10
5.0
 20
2.2000000000000171
 30
0.0
 11
43.0
 21
2.2000000000000171
 31
0.0
  0
LINE
  5
185
100
AcDbEntity
  8
0
  6
CONTINUOUS
 62
               2
100
AcDbLine
 10
50.699999999999932
 20
0.0
 30
0.0
 11
45.299999999999955
 21
0.0
 31
0.0
  0
LINE
  5
186
100
AcDbEntity
  8
0
  6
CONTINUOUS
 62
               2
100
AcDbLine
 10
48.0
 20
2.7000000000000171
 30
0.0
 11
48.0
 21
-2.7000000000000171
 31
0.0
  0
LINE
  5
187
100
AcDbEntity
  8
0
  6
CONTINUOUS
 62
               2
100
AcDbLine
 10
-2.6999999999999886
 20
0.0
 30
0.0
 11
2.6999999999999886
 21
0.0
 31
0.0
  0
LINE
  5
188
100
AcDbEntity
  8
0
  6
CONTINUOUS
 62
               2
100
AcDbLine
 10
0.0
 20
2.7000000000000171
 30
0.0
 11
0.0
 21
-2.7000000000000171
 31
0.0
  0
CIRCLE
  5
189
100
AcDbEntity
  8
0
  6
CONTINUOUS
 62
               7
100
AcDbCircle
 10
48.0
 20
0.0
 30
0.0
 40
1.7
  0
ARC
  5
18A
100
AcDbEntity
  8
0
  6
CONTINUOUS
 62
               7
100
AcDbCircle
 10
0.0
 20
0.0
 30
0.0
 40
1.7
100
AcDbArc
 50
323.9681209275293
 51
241.92751306414672
  0
LINE
  5
18B
100
AcDbEntity
  8
0
  6
CONTINUOUS
 62
               7
100
AcDbLine
 10
39.000000014158502
 20
0.8000000000000114
 30
0.0
 11
44.500000014158445
 21
0.8000000000000114
 31
0.0
  0
LINE
  5
18C
100
AcDbEntity
  8
0
  6
CONTINUOUS
 62
               7
100
AcDbLine
 10
40.000000014158502
 20
-8.0
 30
0.0
 11
44.500000014158445
 21
-8.0
 31
0.0
  0
CIRCLE
  5
18D
100
AcDbEntity
  8
0
  6
CONTINUOUS
 62
               2
100
AcDbCircle
 10
32.0
 20
-3.5
 30
0.0
 40
1.25
  0
LINE
  5
18E
100
AcDbEntity
  8
0
  6
CONTINUOUS
 62
               7
100
AcDbLine
 10
32.000000018651463
 20
-4.3660254205462081
 30
0.0
 11
31.249999969770158
 21
-3.9330126780500905
 31
0.0
  0
LINE
  5
18F
100
AcDbEntity
  8
0
  6
CONTINUOUS
 62
               7
100
AcDbLine
 10
32.750000023841835
 20
-3.9330126941204355
 30
0.0
 11
31.99999996423719
 21
-4.366025418043165
 31
0.0
  0
CIRCLE
  5
190
100
AcDbEntity
  8
0
  6
CONTINUOUS
 62
               7
100
AcDbCircle
 10
32.0
 20
-3.5
 30
0.0
 40
1.5
  0
LINE
  5
191
100
AcDbEntity
  8
0
  6
CONTINUOUS
 62
               7
100
AcDbLine
 10
31.249999994809627
 20
-3.9330127264257726
 30
0.0
 11
31.250000005532968
 21
-3.0669872600069539
 31
0.0
  0
LINE
  5
192
100
AcDbEntity
  8
0
  6
CONTINUOUS
 62
               7
100
AcDbLine
 10
31.249999976158108
 20
-3.0669873058795645
 30
0.0
 11
32.000000035762753
 21
-2.633974581956835
 31
0.0
  0
LINE
  5
193
100
AcDbEntity
  8
0
  6
CONTINUOUS
 62
               7
100
AcDbLine
 10
31.999999981348481
 20
-2.6339745794537919
 30
0.0
 11
32.750000030229785
 21
-3.0669873219499095
 31
0.0
  0
LINE
  5
194
100
AcDbEntity
  8
0
  6
CONTINUOUS
 62
               7
100
AcDbLine
 10
32.750000005190316
 20
-3.0669872735742274
 30
0.0
 11
32.749999994466975
 21
-3.9330127399930461
 31
0.0
  0
CIRCLE
  5
195
100
AcDbEntity
  8
0
  6
CONTINUOUS
 62
               2
100
AcDbCircle
 10
16.0
 20
-3.5
 30
0.0
 40
1.25
  0
LINE
  5
196
100
AcDbEntity
  8
0
  6
CONTINUOUS
 62
               7
100
AcDbLine
 10
16.000000018651519
 20
-4.3660254205462081
 30
0.0
 11
15.249999969770215
 21
-3.9330126780500905
 31
0.0
  0
LINE
  5
197
100
AcDbEntity
  8
0
  6
CONTINUOUS
 62
               7
100
AcDbLine
 10
16.750000023841835
 20
-3.9330126941204355
 30
0.0
 11
15.99999996423719
 21
-4.366025418043165
 31
0.0
  0
CIRCLE
  5
198
100
AcDbEntity
  8
0
  6
CONTINUOUS
 62
               7
100
AcDbCircle
 10
16.0
 20
-3.5
 30
0.0
 40
1.5
  0
LINE
  5
199
100
AcDbEntity
  8
0
  6
CONTINUOUS
 62
               7
100
AcDbLine
 10
15.249999994809627
 20
-3.9330127264257726
 30
0.0
 11
15.250000005532968
 21
-3.0669872600069539
 31
0.0
  0
LINE
  5
19A
100
AcDbEntity
  8
0
  6
CONTINUOUS
 62
               7
100
AcDbLine
 10
15.249999976158165
 20
-3.0669873058795645
 30
0.0
 11
16.00000003576281
 21
-2.633974581956835
 31
0.0
  0
LINE
  5
19B
100
AcDbEntity
  8
0
  6
CONTINUOUS
 62
               7
100
AcDbLine
 10
15.999999981348481
 20
-2.6339745794537919
 30
0.0
 11
16.750000030229785
 21
-3.0669873219499095
 31
0.0
  0
LINE
  5
19C
100
AcDbEntity
  8
0
  6
CONTINUOUS
 62
               7
100
AcDbLine
 10
16.750000005190373
 20
-3.0669872735742274
 30
0.0
 11
16.749999994467032
 21
-3.9330127399930461
 31
0.0
  0
LINE
  5
19D
100
AcDbEntity
  8
0
  6
CONTINUOUS
 62
               2
100
AcDbLine
 10
10.999999997462737
 20
0.5
 30
0.0
 11
10.999999997462737
 21
5.5
 31
0.0
  0
LINE
  5
19E
100
AcDbEntity
  8
0
  6
CONTINUOUS
 62
               2
100
AcDbLine
 10
26.999999997462737
 20
0.5
 30
0.0
 11
26.999999997462737
 21
5.5
 31
0.0
  0
LINE
  5
19F
100
AcDbEntity
  8
0
  6
PHANTOM
 62
               3
100
AcDbLine
 10
17.75218104042392
 20
-5.4208544785292929
 30
0.0
 11
17.75218104042392
 21
-27.784547748387027
 31
0.0
  0
LINE
  5
1A0
100
AcDbEntity
  8
0
  6
PHANTOM
 62
               3
100
AcDbLine
 10
22.721890655947846
 20
-5.4208544785292929
 30
0.0
 11
17.75218104042392
 21
-5.4208544785292929
 31
0.0
  0
LINE
  5
1A1
100
AcDbEntity
  8
0
  6
CONTINUOUS
 62
               2
100
AcDbLine
 10
-17.5
 20
-4.0
 30
0.0
 11
-12.5
 21
-4.0
 31
0.0
  0
LINE
  5
1A2
100
AcDbEntity
  8
0
  6
PHANTOM
 62
               3
100
AcDbLine
 10
22.721890655947846
 20
13.0
 30
0.0
 11
22.721890655947846
 21
-5.4208544785292929
 31
0.0
  0
ENDBLK
  5
1A3
100
AcDbEntity
  8
0
100
AcDbBlockEnd
  0
BLOCK
  5
1A4
100
AcDbEntity
  8
0
100
AcDbBlockBegin
  2
MGALG6-5
 70
               0
 10
0.0
 20
0.0
 30
0.0
  3
MGALG6-5
  1

  0
LINE
  5
1A5
100
AcDbEntity
  8
0
  6
CONTINUOUS
 62
               7
100
AcDbLine
 10
-15.0
 20
10.299999999999997
 30
0.0
 11
0.0
 21
10.299999999999997
 31
0.0
  0
LINE
  5
1A6
100
AcDbEntity
  8
0
  6
CONTINUOUS
 62
               7
100
AcDbLine
 10
-15.0
 20
10.799999999999997
 30
0.0
 11
-0.0000000241439011
 21
10.799999999999997
 31
0.0
  0
LINE
  5
1A7
100
AcDbEntity
  8
0
  6
CONTINUOUS
 62
               2
100
AcDbLine
 10
-7.3984765153725789
 20
3.5
 30
0.0
 11
-0.1895365456483091
 21
3.5
 31
0.0
  0
LINE
  5
1A8
100
AcDbEntity
  8
0
  6
CONTINUOUS
 62
               7
100
AcDbLine
 10
-3.6999999999999318
 20
5.5
 30
0.0
 11
-3.0
 21
5.5
 31
0.0
  0
LINE
  5
1A9
100
AcDbEntity
  8
0
  6
CONTINUOUS
 62
               7
100
AcDbLine
 10
-3.6999999999999318
 20
1.5
 30
0.0
 11
-3.0
 21
1.5
 31
0.0
  0
LINE
  5
1AA
100
AcDbEntity
  8
0
  6
PHANTOM
 62
               2
100
AcDbLine
 10
-5.0499999999999545
 20
0.5
 30
0.0
 11
-3.0
 21
0.5
 31
0.0
  0
LINE
  5
1AB
100
AcDbEntity
  8
0
  6
PHANTOM
 62
               2
100
AcDbLine
 10
-5.0499999999999545
 20
0.7999999999999972
 30
0.0
 11
-3.0
 21
0.7999999999999972
 31
0.0
  0
LINE
  5
1AC
100
AcDbEntity
  8
0
  6
CONTINUOUS
 62
               7
100
AcDbLine
 10
-6.0
 20
6.0
 30
0.0
 11
-3.0
 21
6.0
 31
0.0
  0
LINE
  5
1AD
100
AcDbEntity
  8
0
  6
CONTINUOUS
 62
               7
100
AcDbLine
 10
-15.0
 20
-0.2000000000000028
 30
0.0
 11
-5.1999999999999318
 21
-0.2000000000000028
 31
0.0
  0
LINE
  5
1AE
100
AcDbEntity
  8
0
  6
CONTINUOUS
 62
               7
100
AcDbLine
 10
-6.0
 20
6.0
 30
0.0
 11
-6.0
 21
-0.2000000000000028
 31
0.0
  0
LINE
  5
1AF
100
AcDbEntity
  8
0
  6
CONTINUOUS
 62
               7
100
AcDbLine
 10
-15.0
 20
10.799999999999997
 30
0.0
 11
-15.0
 21
-0.2000000000000028
 31
0.0
  0
LINE
  5
1B0
100
AcDbEntity
  8
0
  6
CONTINUOUS
 62
               7
100
AcDbLine
 10
-3.6999999999999318
 20
6.0
 30
0.0
 11
-3.6999999999999318
 21
1.0
 31
0.0
  0
LINE
  5
1B1
100
AcDbEntity
  8
0
  6
CONTINUOUS
 62
               7
100
AcDbLine
 10
-5.1999999999999318
 20
-0.2000000000000028
 30
0.0
 11
-5.1999999999999318
 21
6.0
 31
0.0
  0
LINE
  5
1B2
100
AcDbEntity
  8
0
  6
CONTINUOUS
 62
               7
100
AcDbLine
 10
-3.6999999999999318
 20
1.0
 30
0.0
 11
-5.1999999999999318
 21
1.0
 31
0.0
  0
CIRCLE
  5
1B3
100
AcDbEntity
  8
0
  6
CONTINUOUS
 62
               7
100
AcDbCircle
 10
-5.0499999999999545
 20
0.6500000000000057
 30
0.0
 40
0.15
  0
CIRCLE
  5
1B4
100
AcDbEntity
  8
0
  6
CONTINUOUS
 62
               7
100
AcDbCircle
 10
32.0
 20
3.5
 30
0.0
 40
2.6000000000000001
  0
LINE
  5
1B5
100
AcDbEntity
  8
0
  6
CONTINUOUS
 62
               7
100
AcDbLine
 10
32.000000002881166
 20
4.6547005345366728
 30
0.0
 11
33.000000015353294
 21
4.0773502587827153
 31
0.0
  0
LINE
  5
1B6
100
AcDbEntity
  8
0
  6
CONTINUOUS
 62
               7
100
AcDbLine
 10
32.999999998112798
 20
4.0773502647731448
 30
0.0
 11
32.999999998663952
 21
2.922649712310573
 31
0.0
  0
LINE
  5
1B7
100
AcDbEntity
  8
0
  6
CONTINUOUS
 62
               7
100
AcDbLine
 10
32.999999995231633
 20
2.9226497302364578
 30
0.0
 11
31.999999983310659
 21
2.3452994535278577
 31
0.0
  0
LINE
  5
1B8
100
AcDbEntity
  8
0
  6
CONTINUOUS
 62
               7
100
AcDbLine
 10
31.999999997118778
 20
2.3452994654633272
 30
0.0
 11
30.999999984646706
 21
2.9226497412172989
 31
0.0
  0
LINE
  5
1B9
100
AcDbEntity
  8
0
  6
CONTINUOUS
 62
               7
100
AcDbLine
 10
31.000000001887145
 20
2.9226497352268552
 30
0.0
 11
31.000000001335991
 21
4.077350287689427
 31
0.0
  0
LINE
  5
1BA
100
AcDbEntity
  8
0
  6
CONTINUOUS
 62
               7
100
AcDbLine
 10
31.000000004768367
 20
4.0773502697635422
 30
0.0
 11
32.000000016689285
 21
4.6547005464721423
 31
0.0
  0
CIRCLE
  5
1BB
100
AcDbEntity
  8
0
  6
CONTINUOUS
 62
               7
100
AcDbCircle
 10
32.0
 20
3.5
 30
0.0
 40
3.5
  0
CIRCLE
  5
1BC
100
AcDbEntity
  8
0
  6
CONTINUOUS
 62
               7
100
AcDbCircle
 10
32.0
 20
3.5
 30
0.0
 40
4.25
  0
CIRCLE
  5
1BD
100
AcDbEntity
  8
0
  6
CONTINUOUS
 62
               7
100
AcDbCircle
 10
16.0
 20
3.5
 30
0.0
 40
2.6000000000000001
  0
LINE
  5
1BE
100
AcDbEntity
  8
0
  6
CONTINUOUS
 62
               7
100
AcDbLine
 10
16.000000002881222
 20
4.6547005345366728
 30
0.0
 11
17.000000015353294
 21
4.0773502587827153
 31
0.0
  0
LINE
  5
1BF
100
AcDbEntity
  8
0
  6
CONTINUOUS
 62
               7
100
AcDbLine
 10
16.999999998112798
 20
4.0773502647731448
 30
0.0
 11
16.999999998664009
 21
2.922649712310573
 31
0.0
  0
LINE
  5
1C0
100
AcDbEntity
  8
0
  6
CONTINUOUS
 62
               7
100
AcDbLine
 10
16.999999995231633
 20
2.9226497302364578
 30
0.0
 11
15.999999983310715
 21
2.3452994535278577
 31
0.0
  0
LINE
  5
1C1
100
AcDbEntity
  8
0
  6
CONTINUOUS
 62
               7
100
AcDbLine
 10
15.999999997118778
 20
2.3452994654633272
 30
0.0
 11
14.999999984646706
 21
2.9226497412172989
 31
0.0
  0
LINE
  5
1C2
100
AcDbEntity
  8
0
  6
CONTINUOUS
 62
               7
100
AcDbLine
 10
15.000000001887145
 20
2.9226497352268552
 30
0.0
 11
15.000000001335991
 21
4.077350287689427
 31
0.0
  0
LINE
  5
1C3
100
AcDbEntity
  8
0
  6
CONTINUOUS
 62
               7
100
AcDbLine
 10
15.000000004768367
 20
4.0773502697635422
 30
0.0
 11
16.000000016689285
 21
4.6547005464721423
 31
0.0
  0
CIRCLE
  5
1C4
100
AcDbEntity
  8
0
  6
CONTINUOUS
 62
               7
100
AcDbCircle
 10
16.0
 20
3.5
 30
0.0
 40
3.5
  0
CIRCLE
  5
1C5
100
AcDbEntity
  8
0
  6
CONTINUOUS
 62
               7
100
AcDbCircle
 10
16.0
 20
3.5
 30
0.0
 40
4.25
  0
LINE
  5
1C6
100
AcDbEntity
  8
0
  6
CONTINUOUS
 62
               7
100
AcDbLine
 10
0.0
 20
11.0
 30
0.0
 11
39.0
 21
11.0
 31
0.0
  0
LINE
  5
1C7
100
AcDbEntity
  8
0
  6
CONTINUOUS
 62
               7
100
AcDbLine
 10
39.0
 20
10.0
 30
0.0
 11
39.0
 21
11.0
 31
0.0
  0
LINE
  5
1C8
100
AcDbEntity
  8
0
  6
CONTINUOUS
 62
               7
100
AcDbLine
 10
-0.0000000241439011
 20
10.0
 30
0.0
 11
-0.0000000241439011
 21
10.99999998630939
 31
0.0
  0
LINE
  5
1C9
100
AcDbEntity
  8
0
  6
CONTINUOUS
 62
               7
100
AcDbLine
 10
0.0
 20
10.5
 30
0.0
 11
39.0
 21
10.5
 31
0.0
  0
LINE
  5
1CA
100
AcDbEntity
  8
0
  6
CONTINUOUS
 62
               7
100
AcDbLine
 10
39.000000001754415
 20
10.699999999999989
 30
0.0
 11
39.500000001754415
 21
10.699999999999989
 31
0.0
  0
LINE
  5
1CB
100
AcDbEntity
  8
0
  6
CONTINUOUS
 62
               7
100
AcDbLine
 10
39.5
 20
10.699999999999989
 30
0.0
 11
39.5
 21
10.0
 31
0.0
  0
LINE
  5
1CC
100
AcDbEntity
  8
0
  6
CONTINUOUS
 62
               7
100
AcDbLine
 10
-3.0
 20
-3.0
 30
0.0
 11
51.0
 21
-3.0
 31
0.0
  0
LINE
  5
1CD
100
AcDbEntity
  8
0
  6
CONTINUOUS
 62
               7
100
AcDbLine
 10
51.0
 20
-3.0
 30
0.0
 11
51.0
 21
10.0
 31
0.0
  0
LINE
  5
1CE
100
AcDbEntity
  8
0
  6
CONTINUOUS
 62
               2
100
AcDbLine
 10
50.699999999999932
 20
0.0
 30
0.0
 11
45.299999999999955
 21
0.0
 31
0.0
  0
LINE
  5
1CF
100
AcDbEntity
  8
0
  6
CONTINUOUS
 62
               2
100
AcDbLine
 10
48.0
 20
-2.7000000000000171
 30
0.0
 11
48.0
 21
2.7000000000000028
 31
0.0
  0
CIRCLE
  5
1D0
100
AcDbEntity
  8
0
  6
CONTINUOUS
 62
               7
100
AcDbCircle
 10
48.0
 20
0.0
 30
0.0
 40
1.7
  0
LINE
  5
1D1
100
AcDbEntity
  8
0
  6
CONTINUOUS
 62
               7
100
AcDbLine
 10
-3.0
 20
10.0
 30
0.0
 11
51.0
 21
10.0
 31
0.0
  0
LINE
  5
1D2
100
AcDbEntity
  8
0
  6
CONTINUOUS
 62
               7
100
AcDbLine
 10
-3.0
 20
-3.0
 30
0.0
 11
-3.0
 21
10.0
 31
0.0
  0
LINE
  5
1D3
100
AcDbEntity
  8
0
  6
CONTINUOUS
 62
               2
100
AcDbLine
 10
2.6999999999999886
 20
0.0
 30
0.0
 11
-2.6999999999999886
 21
0.0
 31
0.0
  0
LINE
  5
1D4
100
AcDbEntity
  8
0
  6
CONTINUOUS
 62
               2
100
AcDbLine
 10
0.0
 20
-2.7000000000000171
 30
0.0
 11
0.0
 21
2.7000000000000028
 31
0.0
  0
CIRCLE
  5
1D5
100
AcDbEntity
  8
0
  6
CONTINUOUS
 62
               7
100
AcDbCircle
 10
0.0
 20
0.0
 30
0.0
 40
1.7
  0
LINE
  5
1D6
100
AcDbEntity
  8
0
  6
CONTINUOUS
 62
               2
100
AcDbLine
 10
45.5
 20
7.0
 30
0.0
 11
50.5
 21
7.0
 31
0.0
  0
LINE
  5
1D7
100
AcDbEntity
  8
0
  6
CONTINUOUS
 62
               2
100
AcDbLine
 10
48.0
 20
4.5
 30
0.0
 11
48.0
 21
9.5
 31
0.0
  0
CIRCLE
  5
1D8
100
AcDbEntity
  8
0
  6
CONTINUOUS
 62
               7
100
AcDbCircle
 10
48.0
 20
7.0
 30
0.0
 40
1.5
  0
LINE
  5
1D9
100
AcDbEntity
  8
0
  6
CONTINUOUS
 62
               2
100
AcDbLine
 10
-2.5
 20
7.0
 30
0.0
 11
2.5
 21
7.0
 31
0.0
  0
LINE
  5
1DA
100
AcDbEntity
  8
0
  6
CONTINUOUS
 62
               2
100
AcDbLine
 10
0.0
 20
4.5
 30
0.0
 11
0.0
 21
9.5
 31
0.0
  0
CIRCLE
  5
1DB
100
AcDbEntity
  8
0
  6
CONTINUOUS
 62
               7
100
AcDbCircle
 10
0.0
 20
7.0
 30
0.0
 40
1.5
  0
LINE
  5
1DC
100
AcDbEntity
  8
0
  6
CONTINUOUS
 62
               2
100
AcDbLine
 10
-17.5
 20
4.0
 30
0.0
 11
-12.5
 21
4.0
 31
0.0
  0
LINE
  5
1DD
100
AcDbEntity
  8
0
  6
CENTER
 62
               3
100
AcDbLine
 10
24.0
 20
27.699746894079865
 30
0.0
 11
24.0
 21
-17.005390319101792
 31
0.0
  0
ENDBLK
  5
1DE
100
AcDbEntity
  8
0
100
AcDbBlockEnd
  0
BLOCK
  5
1DF
100
AcDbEntity
  8
0
100
AcDbBlockBegin
  2
MGALG6-6
 70
               0
 10
0.0
 20
0.0
 30
0.0
  3
MGALG6-6
  1

  0
LINE
  5
1E0
100
AcDbEntity
  8
0
  6
CONTINUOUS
 62
               7
100
AcDbLine
 10
-15.000000000000028
 20
-8.9999999863094047
 30
0.0
 11
-15.000000000000028
 21
-28.999999986309405
 31
0.0
  0
LINE
  5
1E1
100
AcDbEntity
  8
0
  6
CONTINUOUS
 62
               7
100
AcDbLine
 10
0.9999999758560136
 20
-16.0
 30
0.0
 11
0.9999999758560136
 21
-9.0
 31
0.0
  0
LINE
  5
1E2
100
AcDbEntity
  8
0
  6
CONTINUOUS
 62
               7
100
AcDbLine
 10
-6.0000000000000284
 20
-29.0
 30
0.0
 11
-6.0000000000000284
 21
-9.0
 31
0.0
  0
LINE
  5
1E3
100
AcDbEntity
  8
0
  6
CONTINUOUS
 62
               7
100
AcDbLine
 10
0.9999999758560136
 20
-22.0
 30
0.0
 11
0.9999999758560136
 21
-29.0
 31
0.0
  0
LINE
  5
1E4
100
AcDbEntity
  8
0
  6
CONTINUOUS
 62
               2
100
AcDbLine
 10
2.4999999999999716
 20
-17.700000000000017
 30
0.0
 11
2.8464101615137736
 21
-17.5
 31
0.0
  0
LINE
  5
1E5
100
AcDbEntity
  8
0
  6
CONTINUOUS
 62
               2
100
AcDbLine
 10
2.4999999999999716
 20
-20.299999999999983
 30
0.0
 11
2.8464101615137736
 21
-20.5
 31
0.0
  0
LINE
  5
1E6
100
AcDbEntity
  8
0
  6
CONTINUOUS
 62
               7
100
AcDbLine
 10
2.2999999999999829
 20
-22.400000000000006
 30
0.0
 11
3.9999999999999716
 21
-22.400000000000006
 31
0.0
  0
LINE
  5
1E7
100
AcDbEntity
  8
0
  6
CONTINUOUS
 62
               7
100
AcDbLine
 10
2.2999999999999829
 20
-15.599999999999994
 30
0.0
 11
3.9999999999999716
 21
-15.599999999999994
 31
0.0
  0
LINE
  5
1E8
100
AcDbEntity
  8
0
  6
CONTINUOUS
 62
               7
100
AcDbLine
 10
2.2999999999999829
 20
-15.5
 30
0.0
 11
2.2999999999999829
 21
-22.5
 31
0.0
  0
LINE
  5
1E9
100
AcDbEntity
  8
0
  6
CONTINUOUS
 62
               7
100
AcDbLine
 10
2.2999999999999829
 20
-22.200000000000017
 30
0.0
 11
2.4999999999999716
 21
-22.200000000000017
 31
0.0
  0
LINE
  5
1EA
100
AcDbEntity
  8
0
  6
CONTINUOUS
 62
               7
100
AcDbLine
 10
2.2999999999999829
 20
-15.799999999999983
 30
0.0
 11
2.4999999999999716
 21
-15.799999999999983
 31
0.0
  0
LINE
  5
1EB
100
AcDbEntity
  8
0
  6
CONTINUOUS
 62
               7
100
AcDbLine
 10
1.8000000000000398
 20
-22.5
 30
0.0
 11
2.2999999999999829
 21
-22.5
 31
0.0
  0
LINE
  5
1EC
100
AcDbEntity
  8
0
  6
CONTINUOUS
 62
               7
100
AcDbLine
 10
1.8000000000000398
 20
-15.5
 30
0.0
 11
2.2999999999999829
 21
-15.5
 31
0.0
  0
LINE
  5
1ED
100
AcDbEntity
  8
0
  6
CONTINUOUS
 62
               7
100
AcDbLine
 10
0.9999999758560136
 20
-22.400000000000006
 30
0.0
 11
1.8000000000000398
 21
-22.400000000000006
 31
0.0
  0
LINE
  5
1EE
100
AcDbEntity
  8
0
  6
CONTINUOUS
 62
               7
100
AcDbLine
 10
0.9999999758560136
 20
-15.599999999999994
 30
0.0
 11
1.8000000000000398
 21
-15.599999999999994
 31
0.0
  0
LINE
  5
1EF
100
AcDbEntity
  8
0
  6
CONTINUOUS
 62
               7
100
AcDbLine
 10
-15.000000000000028
 20
-14.799999999999983
 30
0.0
 11
-8.2000000000000739
 21
-14.799999999999983
 31
0.0
  0
LINE
  5
1F0
100
AcDbEntity
  8
0
  6
CONTINUOUS
 62
               7
100
AcDbLine
 10
-15.000000000000028
 20
-23.200000000000017
 30
0.0
 11
-8.2000000000000739
 21
-23.200000000000017
 31
0.0
  0
LINE
  5
1F1
100
AcDbEntity
  8
0
  6
CONTINUOUS
 62
               7
100
AcDbLine
 10
-8.2000000000000739
 20
-23.200000000000017
 30
0.0
 11
-8.2000000000000739
 21
-14.799999999999983
 31
0.0
  0
LINE
  5
1F2
100
AcDbEntity
  8
0
  6
CONTINUOUS
 62
               7
100
AcDbLine
 10
-10.700000000000074
 20
-22.700000000000017
 30
0.0
 11
-10.700000000000074
 21
-15.299999999999983
 31
0.0
  0
LINE
  5
1F3
100
AcDbEntity
  8
0
  6
CONTINUOUS
 62
               7
100
AcDbLine
 10
-10.700000000000074
 20
-15.299999999999983
 30
0.0
 11
-8.2000000000000739
 21
-15.299999999999983
 31
0.0
  0
LINE
  5
1F4
100
AcDbEntity
  8
0
  6
CONTINUOUS
 62
               7
100
AcDbLine
 10
-10.700000000000074
 20
-22.700000000000017
 30
0.0
 11
-8.2000000000000739
 21
-22.700000000000017
 31
0.0
  0
LINE
  5
1F5
100
AcDbEntity
  8
0
  6
CONTINUOUS
 62
               7
100
AcDbLine
 10
-8.2000000000000739
 20
-21.5
 30
0.0
 11
-6.0000000000000284
 21
-21.5
 31
0.0
  0
LINE
  5
1F6
100
AcDbEntity
  8
0
  6
CONTINUOUS
 62
               7
100
AcDbLine
 10
-8.2000000000000739
 20
-16.500000000000028
 30
0.0
 11
-6.0000000000000284
 21
-16.500000000000028
 31
0.0
  0
LINE
  5
1F7
100
AcDbEntity
  8
0
  6
CONTINUOUS
 62
               7
100
AcDbLine
 10
2.4999999999999716
 20
-15.799999999999983
 30
0.0
 11
2.4999999999999716
 21
-22.200000000000017
 31
0.0
  0
LINE
  5
1F8
100
AcDbEntity
  8
0
  6
CONTINUOUS
 62
               7
100
AcDbLine
 10
-8.2000000000000739
 20
-17.0
 30
0.0
 11
-6.0000000000000284
 21
-17.0
 31
0.0
  0
LINE
  5
1F9
100
AcDbEntity
  8
0
  6
CONTINUOUS
 62
               7
100
AcDbLine
 10
0.5000000000000284
 20
-16.5
 30
0.0
 11
0.5000000000000284
 21
-21.5
 31
0.0
  0
LINE
  5
1FA
100
AcDbEntity
  8
0
  6
CONTINUOUS
 62
               7
100
AcDbLine
 10
-5.1999999999999602
 20
-15.299999999999983
 30
0.0
 11
-5.1999999999999602
 21
-22.700000000000017
 31
0.0
  0
LINE
  5
1FB
100
AcDbEntity
  8
0
  6
PHANTOM
 62
               2
100
AcDbLine
 10
-5.0499999999999829
 20
-16.299999999999983
 30
0.0
 11
1.6500000000000057
 21
-16.299999999999983
 31
0.0
  0
CIRCLE
  5
1FC
100
AcDbEntity
  8
0
  6
CONTINUOUS
 62
               7
100
AcDbCircle
 10
-5.0499999999999829
 20
-16.150000000000006
 30
0.0
 40
0.15
  0
CIRCLE
  5
1FD
100
AcDbEntity
  8
0
  6
CONTINUOUS
 62
               7
100
AcDbCircle
 10
1.6500000000000057
 20
-16.150000000000006
 30
0.0
 40
0.15
  0
LINE
  5
1FE
100
AcDbEntity
  8
0
  6
CONTINUOUS
 62
               7
100
AcDbLine
 10
-3.6999999999999602
 20
-16.5
 30
0.0
 11
-5.1999999999999602
 21
-16.5
 31
0.0
  0
LINE
  5
1FF
100
AcDbEntity
  8
0
  6
CONTINUOUS
 62
               7
100
AcDbLine
 10
-3.6999999999999602
 20
-16.5
 30
0.0
 11
-3.6999999999999602
 21
-21.5
 31
0.0
  0
LINE
  5
200
100
AcDbEntity
  8
0
  6
CONTINUOUS
 62
               7
100
AcDbLine
 10
1.8000000000000398
 20
-15.5
 30
0.0
 11
1.8000000000000398
 21
-22.5
 31
0.0
  0
LINE
  5
201
100
AcDbEntity
  8
0
  6
CONTINUOUS
 62
               7
100
AcDbLine
 10
0.5000000000000284
 20
-16.5
 30
0.0
 11
1.8000000000000398
 21
-16.5
 31
0.0
  0
LINE
  5
202
100
AcDbEntity
  8
0
  6
PHANTOM
 62
               2
100
AcDbLine
 10
-5.0499999999999829
 20
-16.0
 30
0.0
 11
1.6500000000000057
 21
-16.0
 31
0.0
  0
LINE
  5
203
100
AcDbEntity
  8
0
  6
CONTINUOUS
 62
               7
100
AcDbLine
 10
-6.0000000000000284
 20
-15.299999999999983
 30
0.0
 11
-5.1999999999999602
 21
-15.299999999999983
 31
0.0
  0
LINE
  5
204
100
AcDbEntity
  8
0
  6
CONTINUOUS
 62
               7
100
AcDbLine
 10
-6.0000000000000284
 20
-22.700000000000017
 30
0.0
 11
-5.1999999999999602
 21
-22.700000000000017
 31
0.0
  0
LINE
  5
205
100
AcDbEntity
  8
0
  6
CONTINUOUS
 62
               7
100
AcDbLine
 10
-8.2000000000000739
 20
-21.0
 30
0.0
 11
-6.0000000000000284
 21
-21.0
 31
0.0
  0
CIRCLE
  5
206
100
AcDbEntity
  8
0
  6
CONTINUOUS
 62
               7
100
AcDbCircle
 10
-5.0499999999999829
 20
-21.849999999999994
 30
0.0
 40
0.15
  0
LINE
  5
207
100
AcDbEntity
  8
0
  6
PHANTOM
 62
               2
100
AcDbLine
 10
-5.0499999999999829
 20
-21.700000000000017
 30
0.0
 11
1.6500000000000057
 21
-21.700000000000017
 31
0.0
  0
CIRCLE
  5
208
100
AcDbEntity
  8
0
  6
CONTINUOUS
 62
               7
100
AcDbCircle
 10
1.6500000000000057
 20
-21.849999999999994
 30
0.0
 40
0.15
  0
LINE
  5
209
100
AcDbEntity
  8
0
  6
PHANTOM
 62
               2
100
AcDbLine
 10
-5.0499999999999829
 20
-22.0
 30
0.0
 11
1.6500000000000057
 21
-22.0
 31
0.0
  0
LINE
  5
20A
100
AcDbEntity
  8
0
  6
CONTINUOUS
 62
               7
100
AcDbLine
 10
0.5000000000000284
 20
-21.5
 30
0.0
 11
1.8000000000000398
 21
-21.5
 31
0.0
  0
LINE
  5
20B
100
AcDbEntity
  8
0
  6
CONTINUOUS
 62
               7
100
AcDbLine
 10
-3.6999999999999602
 20
-21.5
 30
0.0
 11
-5.1999999999999602
 21
-21.5
 31
0.0
  0
LINE
  5
20C
100
AcDbEntity
  8
0
  6
CONTINUOUS
 62
               7
100
AcDbLine
 10
-3.6999999999999602
 20
-17.0
 30
0.0
 11
0.5000000000000284
 21
-17.0
 31
0.0
  0
LINE
  5
20D
100
AcDbEntity
  8
0
  6
CONTINUOUS
 62
               7
100
AcDbLine
 10
-3.6999999999999602
 20
-21.0
 30
0.0
 11
0.5000000000000284
 21
-21.0
 31
0.0
  0
LINE
  5
20E
100
AcDbEntity
  8
0
  6
CONTINUOUS
 62
               7
100
AcDbLine
 10
-6.0000000241439864
 20
-15.0
 30
0.0
 11
0.9999999758560136
 21
-15.0
 31
0.0
  0
LINE
  5
20F
100
AcDbEntity
  8
0
  6
CONTINUOUS
 62
               7
100
AcDbLine
 10
-6.0000000241439864
 20
-23.0
 30
0.0
 11
0.9999999758560136
 21
-23.0
 31
0.0
  0
LINE
  5
210
100
AcDbEntity
  8
0
  6
CONTINUOUS
 62
               7
100
AcDbLine
 10
-0.0000000241439864
 20
-16.0
 30
0.0
 11
0.9999999758560136
 21
-16.0
 31
0.0
  0
LINE
  5
211
100
AcDbEntity
  8
0
  6
CONTINUOUS
 62
               7
100
AcDbLine
 10
-0.0000000241439864
 20
-22.0
 30
0.0
 11
0.9999999758560136
 21
-22.0
 31
0.0
  0
LINE
  5
212
100
AcDbEntity
  8
0
  6
CONTINUOUS
 62
               7
100
AcDbLine
 10
-0.0000000241439864
 20
-21.0
 30
0.0
 11
-0.0000000241439864
 21
-22.0
 31
0.0
  0
LINE
  5
213
100
AcDbEntity
  8
0
  6
CONTINUOUS
 62
               7
100
AcDbLine
 10
-0.0000000241439864
 20
-17.0
 30
0.0
 11
-0.0000000241439864
 21
-16.0
 31
0.0
  0
LINE
  5
214
100
AcDbEntity
  8
0
  6
CONTINUOUS
 62
               7
100
AcDbLine
 10
2.4999999999999716
 20
-20.5
 30
0.0
 11
3.9999999999999716
 21
-20.5
 31
0.0
  0
LINE
  5
215
100
AcDbEntity
  8
0
  6
CONTINUOUS
 62
               7
100
AcDbLine
 10
2.4999999999999716
 20
-17.5
 30
0.0
 11
3.9999999999999716
 21
-17.5
 31
0.0
  0
LINE
  5
216
100
AcDbEntity
  8
0
  6
CONTINUOUS
 62
               7
100
AcDbLine
 10
3.4999999999999716
 20
-21.5
 30
0.0
 11
3.2999999999999261
 21
-21.5
 31
0.0
  0
ARC
  5
217
100
AcDbEntity
  8
0
  6
CONTINUOUS
 62
               7
100
AcDbCircle
 10
3.2999999999999261
 20
-21.200000000000017
 30
0.0
 40
0.3
100
AcDbArc
 50
180.0
 51
270.0
  0
LINE
  5
218
100
AcDbEntity
  8
0
  6
CONTINUOUS
 62
               7
100
AcDbLine
 10
3.4999999999999716
 20
-22.299999999999983
 30
0.0
 11
3.9999999999999716
 21
-22.299999999999983
 31
0.0
  0
LINE
  5
219
100
AcDbEntity
  8
0
  6
CONTINUOUS
 62
               7
100
AcDbLine
 10
2.9999999999999716
 20
-21.200000000000017
 30
0.0
 11
2.9999999999999716
 21
-20.5
 31
0.0
  0
LINE
  5
21A
100
AcDbEntity
  8
0
  6
CONTINUOUS
 62
               7
100
AcDbLine
 10
3.4999999999999716
 20
-20.5
 30
0.0
 11
3.4999999999999716
 21
-22.299999999999983
 31
0.0
  0
ARC
  5
21B
100
AcDbEntity
  8
0
  6
CONTINUOUS
 62
               7
100
AcDbCircle
 10
3.2999999999999261
 20
-16.799999999999983
 30
0.0
 40
0.3
100
AcDbArc
 50
90.0
 51
180.0
  0
LINE
  5
21C
100
AcDbEntity
  8
0
  6
CONTINUOUS
 62
               7
100
AcDbLine
 10
3.4999999999999716
 20
-16.5
 30
0.0
 11
3.2999999999999261
 21
-16.5
 31
0.0
  0
LINE
  5
21D
100
AcDbEntity
  8
0
  6
CONTINUOUS
 62
               7
100
AcDbLine
 10
3.4999999999999716
 20
-15.699999999999989
 30
0.0
 11
3.9999999999999716
 21
-15.699999999999989
 31
0.0
  0
LINE
  5
21E
100
AcDbEntity
  8
0
  6
CONTINUOUS
 62
               7
100
AcDbLine
 10
2.9999999999999716
 20
-17.5
 30
0.0
 11
2.9999999999999716
 21
-16.799999999999983
 31
0.0
  0
LINE
  5
21F
100
AcDbEntity
  8
0
  6
CONTINUOUS
 62
               7
100
AcDbLine
 10
3.4999999999999716
 20
-15.699999999999989
 30
0.0
 11
3.4999999999999716
 21
-17.5
 31
0.0
  0
ARC
  5
220
100
AcDbEntity
  8
0
  6
CONTINUOUS
 62
               7
100
AcDbCircle
 10
18.999999999999972
 20
-11.5
 30
0.0
 40
1.5
100
AcDbArc
 50
160.52877968884599
 51
180.0
  0
ARC
  5
221
100
AcDbEntity
  8
0
  6
CONTINUOUS
 62
               7
100
AcDbCircle
 10
18.999999999999972
 20
-11.5
 30
0.0
 40
1.5
100
AcDbArc
 50
0.0
 51
19.471220311154006
  0
LINE
  5
222
100
AcDbEntity
  8
0
  6
CONTINUOUS
 62
               7
100
AcDbLine
 10
3.9999999999999716
 20
-16.599999999999994
 30
0.0
 11
38.999999999999972
 21
-16.599999999999994
 31
0.0
  0
LINE
  5
223
100
AcDbEntity
  8
0
  6
CONTINUOUS
 62
               7
100
AcDbLine
 10
3.9999999999999716
 20
-16.299999999999983
 30
0.0
 11
38.999999999999972
 21
-16.299999999999983
 31
0.0
  0
LINE
  5
224
100
AcDbEntity
  8
0
  6
CONTINUOUS
 62
               7
100
AcDbLine
 10
3.9999999999999716
 20
-21.400000000000006
 30
0.0
 11
38.999999999999972
 21
-21.400000000000006
 31
0.0
  0
LINE
  5
225
100
AcDbEntity
  8
0
  6
CONTINUOUS
 62
               7
100
AcDbLine
 10
3.9999999999999716
 20
-21.700000000000017
 30
0.0
 11
38.999999999999972
 21
-21.700000000000017
 31
0.0
  0
LINE
  5
226
100
AcDbEntity
  8
0
  6
CONTINUOUS
 62
               2
100
AcDbLine
 10
26.999999999999972
 20
-23.5
 30
0.0
 11
26.999999999999972
 21
-28.5
 31
0.0
  0
CIRCLE
  5
227
100
AcDbEntity
  8
0
  6
CONTINUOUS
 62
               2
100
AcDbCircle
 10
26.999999999999972
 20
-26.0
 30
0.0
 40
1.5
  0
LINE
  5
228
100
AcDbEntity
  8
0
  6
CONTINUOUS
 62
               2
100
AcDbLine
 10
24.499999999999972
 20
-26.0
 30
0.0
 11
29.499999999999915
 21
-26.0
 31
0.0
  0
CIRCLE
  5
229
100
AcDbEntity
  8
0
  6
CONTINUOUS
 62
               7
100
AcDbCircle
 10
26.999999999999972
 20
-26.0
 30
0.0
 40
1.25
  0
LINE
  5
22A
100
AcDbEntity
  8
0
  6
CONTINUOUS
 62
               2
100
AcDbLine
 10
10.999999999999972
 20
-23.5
 30
0.0
 11
10.999999999999972
 21
-28.5
 31
0.0
  0
CIRCLE
  5
22B
100
AcDbEntity
  8
0
  6
CONTINUOUS
 62
               2
100
AcDbCircle
 10
10.999999999999972
 20
-26.0
 30
0.0
 40
1.5
  0
LINE
  5
22C
100
AcDbEntity
  8
0
  6
CONTINUOUS
 62
               2
100
AcDbLine
 10
8.4999999999999716
 20
-26.0
 30
0.0
 11
13.499999999999915
 21
-26.0
 31
0.0
  0
CIRCLE
  5
22D
100
AcDbEntity
  8
0
  6
CONTINUOUS
 62
               7
100
AcDbCircle
 10
10.999999999999972
 20
-26.0
 30
0.0
 40
1.25
  0
LINE
  5
22E
100
AcDbEntity
  8
0
  6
CONTINUOUS
 62
               2
100
AcDbLine
 10
26.999999999999972
 20
-10.14484254200147
 30
0.0
 11
26.999999999999972
 21
-14.5
 31
0.0
  0
ARC
  5
22F
100
AcDbEntity
  8
0
  6
CONTINUOUS
 62
               2
100
AcDbCircle
 10
26.999999999999972
 20
-12.0
 30
0.0
 40
1.5
100
AcDbArc
 50
138.18968551321353
 51
41.810314486786453
  0
LINE
  5
230
100
AcDbEntity
  8
0
  6
CONTINUOUS
 62
               2
100
AcDbLine
 10
24.499999999999972
 20
-12.0
 30
0.0
 11
29.499999999999915
 21
-12.0
 31
0.0
  0
ARC
  5
231
100
AcDbEntity
  8
0
  6
CONTINUOUS
 62
               7
100
AcDbCircle
 10
26.999999999999972
 20
-12.0
 30
0.0
 40
1.25
100
AcDbArc
 50
126.86989825553347
 51
53.13010174446655
  0
LINE
  5
232
100
AcDbEntity
  8
0
  6
CONTINUOUS
 62
               2
100
AcDbLine
 10
10.999999999999972
 20
-10.14484254200147
 30
0.0
 11
10.999999999999972
 21
-14.5
 31
0.0
  0
ARC
  5
233
100
AcDbEntity
  8
0
  6
CONTINUOUS
 62
               2
100
AcDbCircle
 10
10.999999999999972
 20
-12.0
 30
0.0
 40
1.5
100
AcDbArc
 50
138.18968551321313
 51
41.810314486786858
  0
LINE
  5
234
100
AcDbEntity
  8
0
  6
CONTINUOUS
 62
               2
100
AcDbLine
 10
8.4999999999999716
 20
-12.0
 30
0.0
 11
13.499999999999915
 21
-12.0
 31
0.0
  0
ARC
  5
235
100
AcDbEntity
  8
0
  6
CONTINUOUS
 62
               7
100
AcDbCircle
 10
10.999999999999972
 20
-12.0
 30
0.0
 40
1.25
100
AcDbArc
 50
126.86989825553343
 51
53.13010174446655
  0
LINE
  5
236
100
AcDbEntity
  8
0
  6
CONTINUOUS
 62
               7
100
AcDbLine
 10
17.499999999999972
 20
-12.5
 30
0.0
 11
17.499999999999972
 21
-11.5
 31
0.0
  0
LINE
  5
237
100
AcDbEntity
  8
0
  6
CONTINUOUS
 62
               7
100
AcDbLine
 10
20.499999999999972
 20
-12.5
 30
0.0
 11
20.499999999999972
 21
-11.5
 31
0.0
  0
ARC
  5
238
100
AcDbEntity
  8
0
  6
CONTINUOUS
 62
               7
100
AcDbCircle
 10
18.999999999999972
 20
-12.5
 30
0.0
 40
1.5
100
AcDbArc
 50
180.0
 51
0.0
  0
LINE
  5
239
100
AcDbEntity
  8
0
  6
CONTINUOUS
 62
               2
100
AcDbLine
 10
16.69999999999996
 20
-12.0
 30
0.0
 11
21.299999999999926
 21
-12.0
 31
0.0
  0
LINE
  5
23A
100
AcDbEntity
  8
0
  6
CONTINUOUS
 62
               2
100
AcDbLine
 10
18.999999999999972
 20
-10.14484254200147
 30
0.0
 11
18.999999999999972
 21
-14.799999998230334
 31
0.0
  0
LINE
  5
23B
100
AcDbEntity
  8
0
  6
CONTINUOUS
 62
               2
100
AcDbLine
 10
18.999999999999972
 20
-23.5
 30
0.0
 11
18.999999999999972
 21
-28.5
 31
0.0
  0
CIRCLE
  5
23C
100
AcDbEntity
  8
0
  6
CONTINUOUS
 62
               7
100
AcDbCircle
 10
18.999999999999972
 20
-26.0
 30
0.0
 40
1.5
  0
LINE
  5
23D
100
AcDbEntity
  8
0
  6
CONTINUOUS
 62
               2
100
AcDbLine
 10
21.499999999999972
 20
-26.0
 30
0.0
 11
16.499999999999972
 21
-26.0
 31
0.0
  0
LINE
  5
23E
100
AcDbEntity
  8
0
  6
CENTER
 62
               2
100
AcDbLine
 10
-16.18346389315181
 20
-19.0
 30
0.0
 11
46.466966351166974
 21
-19.0
 31
0.0
  0
LINE
  5
23F
100
AcDbEntity
  8
0
  6
CONTINUOUS
 62
               7
100
AcDbLine
 10
3.9999999999999716
 20
-9.5
 30
0.0
 11
3.9999999999999716
 21
-28.499999986309405
 31
0.0
  0
LINE
  5
240
100
AcDbEntity
  8
0
  6
CONTINUOUS
 62
               7
100
AcDbLine
 10
3.9999999758560136
 20
-9.5
 30
0.0
 11
4.9999999999999716
 21
-9.5
 31
0.0
  0
LINE
  5
241
100
AcDbEntity
  8
0
  6
CONTINUOUS
 62
               7
100
AcDbLine
 10
3.9999999758560136
 20
-28.5
 30
0.0
 11
38.999999999999972
 21
-28.5
 31
0.0
  0
LINE
  5
242
100
AcDbEntity
  8
0
  6
CONTINUOUS
 62
               7
100
AcDbLine
 10
38.999999999999972
 20
-11.000000007980816
 30
0.0
 11
38.999999999999972
 21
-29.0
 31
0.0
  0
LINE
  5
243
100
AcDbEntity
  8
0
  6
CONTINUOUS
 62
               7
100
AcDbLine
 10
-14.999999972652091
 20
-29.0
 30
0.0
 11
38.999999999999972
 21
-29.0
 31
0.0
  0
LINE
  5
244
100
AcDbEntity
  8
0
  6
CONTINUOUS
 62
               7
100
AcDbLine
 10
-14.999999972652091
 20
-9.0
 30
0.0
 11
4.9999999999999716
 21
-9.0
 31
0.0
  0
LINE
  5
245
100
AcDbEntity
  8
0
  6
CONTINUOUS
 62
               7
100
AcDbLine
 10
-3.0000000000000284
 20
0.0
 30
0.0
 11
50.999999999999972
 21
0.0
 31
0.0
  0
LINE
  5
246
100
AcDbEntity
  8
0
  6
CONTINUOUS
 62
               7
100
AcDbLine
 10
4.9999999999999716
 20
-11.000000007980816
 30
0.0
 11
42.999999999999972
 21
-11.000000007980816
 31
0.0
  0
LINE
  5
247
100
AcDbEntity
  8
0
  6
CONTINUOUS
 62
               7
100
AcDbLine
 10
-3.0000000000000284
 20
-8.3000000000000114
 30
0.0
 11
50.999999999999972
 21
-8.3000000000000114
 31
0.0
  0
LINE
  5
248
100
AcDbEntity
  8
0
  6
CONTINUOUS
 62
               7
100
AcDbLine
 10
50.999999999999972
 20
0.0000000136905953
 30
0.0
 11
50.999999999999972
 21
-8.3000000000000114
 31
0.0
  0
LINE
  5
249
100
AcDbEntity
  8
0
  6
CONTINUOUS
 62
               7
100
AcDbLine
 10
-3.0000000000000284
 20
-8.3000000000000114
 30
0.0
 11
-3.0000000000000284
 21
0.0
 31
0.0
  0
LINE
  5
24A
100
AcDbEntity
  8
0
  6
CONTINUOUS
 62
               7
100
AcDbLine
 10
42.999999999999972
 20
-11.000000007980816
 30
0.0
 11
42.999999999999972
 21
-8.3000000000000114
 31
0.0
  0
LINE
  5
24B
100
AcDbEntity
  8
0
  6
CONTINUOUS
 62
               7
100
AcDbLine
 10
4.9999999999999716
 20
-11.000000007980816
 30
0.0
 11
4.9999999999999716
 21
-8.3000000000000114
 31
0.0
  0
LINE
  5
24C
100
AcDbEntity
  8
0
  6
CONTINUOUS
 62
               7
100
AcDbLine
 10
3.4999999999999716
 20
-8.3000000000000114
 30
0.0
 11
3.4999999999999716
 21
-5.0
 31
0.0
  0
LINE
  5
24D
100
AcDbEntity
  8
0
  6
CONTINUOUS
 62
               7
100
AcDbLine
 10
-3.0000000000000284
 20
-5.0
 30
0.0
 11
3.4999999999999716
 21
-5.0
 31
0.0
  0
LINE
  5
24E
100
AcDbEntity
  8
0
  6
CONTINUOUS
 62
               7
100
AcDbLine
 10
50.999999999999972
 20
-5.0
 30
0.0
 11
44.499999999999972
 21
-5.0
 31
0.0
  0
LINE
  5
24F
100
AcDbEntity
  8
0
  6
CONTINUOUS
 62
               7
100
AcDbLine
 10
44.499999999999972
 20
-8.3000000000000114
 30
0.0
 11
44.499999999999972
 21
-5.0
 31
0.0
  0
LINE
  5
250
100
AcDbEntity
  8
0
  6
CONTINUOUS
 62
               7
100
AcDbLine
 10
38.999999999999972
 20
-28.0
 30
0.0
 11
44.499999999999972
 21
-28.0
 31
0.0
  0
LINE
  5
251
100
AcDbEntity
  8
0
  6
CONTINUOUS
 62
               7
100
AcDbLine
 10
44.499999999999972
 20
-28.0
 30
0.0
 11
44.499999999999972
 21
-10.0
 31
0.0
  0
LINE
  5
252
100
AcDbEntity
  8
0
  6
CONTINUOUS
 62
               7
100
AcDbLine
 10
42.999999999999972
 20
-10.0
 30
0.0
 11
44.499999999999972
 21
-10.0
 31
0.0
  0
LINE
  5
253
100
AcDbEntity
  8
0
  6
CONTINUOUS
 62
               2
100
AcDbLine
 10
15.999999999999972
 20
-4.2999999999999829
 30
0.0
 11
15.999999999999972
 21
-7.7000000000000171
 31
0.0
  0
CIRCLE
  5
254
100
AcDbEntity
  8
0
  6
CONTINUOUS
 62
               7
100
AcDbCircle
 10
15.999999999999972
 20
-5.9999999999999716
 30
0.0
 40
1.1000000000000001
  0
LINE
  5
255
100
AcDbEntity
  8
0
  6
CONTINUOUS
 62
               2
100
AcDbLine
 10
14.299999999999926
 20
-5.9999999999999716
 30
0.0
 11
17.699999999999903
 21
-5.9999999999999716
 31
0.0
  0
LINE
  5
256
100
AcDbEntity
  8
0
  6
CONTINUOUS
 62
               2
100
AcDbLine
 10
31.999999999999915
 20
-4.2999999999999829
 30
0.0
 11
31.999999999999915
 21
-7.7000000000000171
 31
0.0
  0
CIRCLE
  5
257
100
AcDbEntity
  8
0
  6
CONTINUOUS
 62
               7
100
AcDbCircle
 10
31.999999999999915
 20
-5.9999999999999716
 30
0.0
 40
1.1000000000000001
  0
LINE
  5
258
100
AcDbEntity
  8
0
  6
CONTINUOUS
 62
               2
100
AcDbLine
 10
30.299999999999926
 20
-5.9999999999999716
 30
0.0
 11
33.699999999999903
 21
-5.9999999999999716
 31
0.0
  0
LINE
  5
259
100
AcDbEntity
  8
0
  6
CENTER
 62
               3
100
AcDbLine
 10
24.000000002537234
 20
10.0
 30
0.0
 11
24.000000002537234
 21
-39.0
 31
0.0
  0
LINE
  5
25A
100
AcDbEntity
  8
0
  6
CONTINUOUS
 62
               2
100
AcDbLine
 10
0.0
 20
-6.2000000000000028
 30
0.0
 11
0.0
 21
1.2000000000000028
 31
0.0
  0
LINE
  5
25B
100
AcDbEntity
  8
0
  6
CONTINUOUS
 62
               2
100
AcDbLine
 10
47.999999999999972
 20
-6.2000000000000028
 30
0.0
 11
47.999999999999972
 21
1.2000000000000028
 31
0.0
  0
LINE
  5
25C
100
AcDbEntity
  8
0
  6
CONTINUOUS
 62
               2
100
AcDbLine
 10
-17.500000000000028
 20
-12.0
 30
0.0
 11
-12.500000000000028
 21
-12.0
 31
0.0
  0
LINE
  5
25D
100
AcDbEntity
  8
0
  6
CONTINUOUS
 62
               2
100
AcDbLine
 10
-17.500000000000028
 20
-26.0
 30
0.0
 11
-12.500000000000028
 21
-26.0
 31
0.0
  0
ENDBLK
  5
25E
100
AcDbEntity
  8
0
100
AcDbBlockEnd
  0
BLOCK
  5
25F
100
AcDbEntity
  8
0
100
AcDbBlockBegin
  2
MGALG6-7
 70
               0
 10
0.0
 20
0.0
 30
0.0
  3
MGALG6-7
  1

  0
LINE
  5
260
100
AcDbEntity
  8
0
  6
CONTINUOUS
 62
               2
100
AcDbLine
 10
65.499999999999972
 20
12.0
 30
0.0
 11
60.499999999999972
 21
12.0
 31
0.0
  0
LINE
  5
261
100
AcDbEntity
  8
0
  6
CONTINUOUS
 62
               2
100
AcDbLine
 10
65.499999999999972
 20
26.0
 30
0.0
 11
60.499999999999972
 21
26.0
 31
0.0
  0
LINE
  5
262
100
AcDbEntity
  8
0
  6
CONTINUOUS
 62
               2
100
AcDbLine
 10
0.0
 20
6.2000000000000028
 30
0.0
 11
0.0
 21
-1.2000000000000028
 31
0.0
  0
LINE
  5
263
100
AcDbEntity
  8
0
  6
CONTINUOUS
 62
               2
100
AcDbLine
 10
47.999999999999972
 20
6.2000000000000028
 30
0.0
 11
47.999999999999972
 21
-1.2000000000000028
 31
0.0
  0
LINE
  5
264
100
AcDbEntity
  8
0
  6
CONTINUOUS
 62
               7
100
AcDbLine
 10
8.4999999999999716
 20
21.599999999999994
 30
0.0
 11
3.4999999999999716
 21
21.599999999999994
 31
0.0
  0
LINE
  5
265
100
AcDbEntity
  8
0
  6
CONTINUOUS
 62
               7
100
AcDbLine
 10
8.4999999999999716
 20
16.400000000000006
 30
0.0
 11
3.4999999999999716
 21
16.400000000000006
 31
0.0
  0
LINE
  5
266
100
AcDbEntity
  8
0
  6
CONTINUOUS
 62
               7
100
AcDbLine
 10
8.9999999999999716
 20
10.0
 30
0.0
 11
3.4999999999999716
 21
10.0
 31
0.0
  0
LINE
  5
267
100
AcDbEntity
  8
0
  6
CONTINUOUS
 62
               7
100
AcDbLine
 10
3.4999999999999716
 20
28.0
 30
0.0
 11
3.4999999999999716
 21
10.0
 31
0.0
  0
LINE
  5
268
100
AcDbEntity
  8
0
  6
CONTINUOUS
 62
               7
100
AcDbLine
 10
8.9999999999999716
 20
28.0
 30
0.0
 11
3.4999999999999716
 21
28.0
 31
0.0
  0
LINE
  5
269
100
AcDbEntity
  8
0
  6
CONTINUOUS
 62
               7
100
AcDbLine
 10
8.9999999999999716
 20
9.5
 30
0.0
 11
4.9999999999999716
 21
9.5
 31
0.0
  0
LINE
  5
26A
100
AcDbEntity
  8
0
  6
CONTINUOUS
 62
               7
100
AcDbLine
 10
42.999999999999972
 20
9.0
 30
0.0
 11
42.999999999999972
 21
8.3000000000000114
 31
0.0
  0
LINE
  5
26B
100
AcDbEntity
  8
0
  6
CONTINUOUS
 62
               7
100
AcDbLine
 10
4.9999999999999716
 20
10.0
 30
0.0
 11
4.9999999999999716
 21
8.3000000000000114
 31
0.0
  0
LINE
  5
26C
100
AcDbEntity
  8
0
  6
CONTINUOUS
 62
               7
100
AcDbLine
 10
50.999999999999972
 20
8.3000000000000114
 30
0.0
 11
50.999999999999972
 21
0.0
 31
0.0
  0
LINE
  5
26D
100
AcDbEntity
  8
0
  6
CONTINUOUS
 62
               7
100
AcDbLine
 10
-3.0000000000000284
 20
-0.0000000136906095
 30
0.0
 11
-3.0000000000000284
 21
8.3000000000000114
 31
0.0
  0
LINE
  5
26E
100
AcDbEntity
  8
0
  6
CONTINUOUS
 62
               7
100
AcDbLine
 10
50.999999999999972
 20
8.3000000000000114
 30
0.0
 11
-3.0000000000000284
 21
8.3000000000000114
 31
0.0
  0
LINE
  5
26F
100
AcDbEntity
  8
0
  6
CONTINUOUS
 62
               7
100
AcDbLine
 10
50.999999999999972
 20
0.0
 30
0.0
 11
-3.0000000000000284
 21
0.0
 31
0.0
  0
LINE
  5
270
100
AcDbEntity
  8
0
  6
CONTINUOUS
 62
               2
100
AcDbLine
 10
27.499999999999972
 20
12.0
 30
0.0
 11
16.599999999999994
 21
12.0
 31
0.0
  0
LINE
  5
271
100
AcDbEntity
  8
0
  6
CONTINUOUS
 62
               2
100
AcDbLine
 10
19.999999999999972
 20
8.5999999999999943
 30
0.0
 11
19.999999999999972
 21
15.400000000000006
 31
0.0
  0
CIRCLE
  5
272
100
AcDbEntity
  8
0
  6
CONTINUOUS
 62
               7
100
AcDbCircle
 10
19.999999999999972
 20
12.0
 30
0.0
 40
2.3999999999999999
  0
CIRCLE
  5
273
100
AcDbEntity
  8
0
  6
CONTINUOUS
 62
               7
100
AcDbCircle
 10
24.999999999999972
 20
12.0
 30
0.0
 40
1.25
  0
CIRCLE
  5
274
100
AcDbEntity
  8
0
  6
CONTINUOUS
 62
               2
100
AcDbCircle
 10
24.999999999999972
 20
12.0
 30
0.0
 40
1.5
  0
LINE
  5
275
100
AcDbEntity
  8
0
  6
CONTINUOUS
 62
               2
100
AcDbLine
 10
24.999999999999972
 20
14.5
 30
0.0
 11
24.999999999999972
 21
9.5
 31
0.0
  0
ARC
  5
276
100
AcDbEntity
  8
0
  6
CONTINUOUS
 62
               7
100
AcDbCircle
 10
8.2999999999999829
 20
14.200000000000003
 30
0.0
 40
0.3
100
AcDbArc
 50
90.0
 51
180.0
  0
ARC
  5
277
100
AcDbEntity
  8
0
  6
CONTINUOUS
 62
               7
100
AcDbCircle
 10
8.2999999999999829
 20
12.799999999999997
 30
0.0
 40
0.3
100
AcDbArc
 50
180.0
 51
270.0
  0
LINE
  5
278
100
AcDbEntity
  8
0
  6
CONTINUOUS
 62
               7
100
AcDbLine
 10
8.4999999999999716
 20
14.5
 30
0.0
 11
8.2999999999999829
 21
14.5
 31
0.0
  0
LINE
  5
279
100
AcDbEntity
  8
0
  6
CONTINUOUS
 62
               7
100
AcDbLine
 10
8.4999999999999716
 20
12.5
 30
0.0
 11
8.2999999999999829
 21
12.5
 31
0.0
  0
LINE
  5
27A
100
AcDbEntity
  8
0
  6
CONTINUOUS
 62
               7
100
AcDbLine
 10
7.9999999999999716
 20
14.200000000000003
 30
0.0
 11
7.9999999999999716
 21
12.799999999999997
 31
0.0
  0
LINE
  5
27B
100
AcDbEntity
  8
0
  6
CONTINUOUS
 62
               7
100
AcDbLine
 10
8.9999999999999716
 20
11.699999999999989
 30
0.0
 11
8.4999999999999716
 21
11.699999999999989
 31
0.0
  0
LINE
  5
27C
100
AcDbEntity
  8
0
  6
CONTINUOUS
 62
               7
100
AcDbLine
 10
7.9999999999999716
 20
23.799999999999997
 30
0.0
 11
7.9999999999999716
 21
25.200000000000003
 31
0.0
  0
ARC
  5
27D
100
AcDbEntity
  8
0
  6
CONTINUOUS
 62
               7
100
AcDbCircle
 10
8.2999999999999829
 20
25.200000000000003
 30
0.0
 40
0.3
100
AcDbArc
 50
90.0
 51
180.0
  0
ARC
  5
27E
100
AcDbEntity
  8
0
  6
CONTINUOUS
 62
               7
100
AcDbCircle
 10
8.2999999999999829
 20
23.799999999999997
 30
0.0
 40
0.3
100
AcDbArc
 50
180.0
 51
270.0
  0
LINE
  5
27F
100
AcDbEntity
  8
0
  6
CONTINUOUS
 62
               7
100
AcDbLine
 10
8.4999999999999716
 20
23.5
 30
0.0
 11
8.2999999999999829
 21
23.5
 31
0.0
  0
LINE
  5
280
100
AcDbEntity
  8
0
  6
CONTINUOUS
 62
               7
100
AcDbLine
 10
8.4999999999999716
 20
25.5
 30
0.0
 11
8.2999999999999829
 21
25.5
 31
0.0
  0
LINE
  5
281
100
AcDbEntity
  8
0
  6
CONTINUOUS
 62
               7
100
AcDbLine
 10
8.9999999999999716
 20
26.300000000000011
 30
0.0
 11
8.4999999999999716
 21
26.300000000000011
 31
0.0
  0
LINE
  5
282
100
AcDbEntity
  8
0
  6
CONTINUOUS
 62
               7
100
AcDbLine
 10
8.4999999999999716
 20
26.300000000000011
 30
0.0
 11
8.4999999999999716
 21
11.699999999999989
 31
0.0
  0
LINE
  5
283
100
AcDbEntity
  8
0
  6
CONTINUOUS
 62
               2
100
AcDbLine
 10
19.999999999999972
 20
29.400000000000006
 30
0.0
 11
19.999999999999972
 21
22.599999999999994
 31
0.0
  0
CIRCLE
  5
284
100
AcDbEntity
  8
0
  6
CONTINUOUS
 62
               7
100
AcDbCircle
 10
19.999999999999972
 20
26.0
 30
0.0
 40
2.3999999999999999
  0
LINE
  5
285
100
AcDbEntity
  8
0
  6
CONTINUOUS
 62
               2
100
AcDbLine
 10
27.499999999999972
 20
26.0
 30
0.0
 11
16.599999999999994
 21
26.0
 31
0.0
  0
LINE
  5
286
100
AcDbEntity
  8
0
  6
CONTINUOUS
 62
               7
100
AcDbLine
 10
62.999999972652034
 20
9.5
 30
0.0
 11
8.9999999999999716
 21
9.5
 31
0.0
  0
LINE
  5
287
100
AcDbEntity
  8
0
  6
CONTINUOUS
 62
               7
100
AcDbLine
 10
62.999999972652034
 20
28.5
 30
0.0
 11
8.9999999999999716
 21
28.5
 31
0.0
  0
LINE
  5
288
100
AcDbEntity
  8
0
  6
CENTER
 62
               2
100
AcDbLine
 10
64.183463893151753
 20
19.0
 30
0.0
 11
1.5330336488329692
 21
19.0
 31
0.0
  0
LINE
  5
289
100
AcDbEntity
  8
0
  6
CONTINUOUS
 62
               7
100
AcDbLine
 10
47.999999999999972
 20
9.0
 30
0.0
 11
47.999999999999972
 21
29.0
 31
0.0
  0
LINE
  5
28A
100
AcDbEntity
  8
0
  6
CONTINUOUS
 62
               7
100
AcDbLine
 10
8.9999999999999716
 20
9.0
 30
0.0
 11
8.9999999999999716
 21
29.0
 31
0.0
  0
LINE
  5
28B
100
AcDbEntity
  8
0
  6
CONTINUOUS
 62
               7
100
AcDbLine
 10
62.999999972652034
 20
9.0
 30
0.0
 11
8.9999999999999716
 21
9.0
 31
0.0
  0
LINE
  5
28C
100
AcDbEntity
  8
0
  6
CONTINUOUS
 62
               2
100
AcDbLine
 10
35.999999999999972
 20
8.5999999999999943
 30
0.0
 11
35.999999999999972
 21
15.400000000000006
 31
0.0
  0
CIRCLE
  5
28D
100
AcDbEntity
  8
0
  6
CONTINUOUS
 62
               7
100
AcDbCircle
 10
35.999999999999972
 20
12.0
 30
0.0
 40
2.3999999999999999
  0
LINE
  5
28E
100
AcDbEntity
  8
0
  6
CONTINUOUS
 62
               2
100
AcDbLine
 10
40.999999999999972
 20
16.5
 30
0.0
 11
40.999999999999972
 21
21.5
 31
0.0
  0
CIRCLE
  5
28F
100
AcDbEntity
  8
0
  6
CONTINUOUS
 62
               7
100
AcDbCircle
 10
40.999999999999972
 20
19.0
 30
0.0
 40
1.5
  0
LINE
  5
290
100
AcDbEntity
  8
0
  6
CONTINUOUS
 62
               7
100
AcDbLine
 10
25.499999999999972
 20
17.5
 30
0.0
 11
24.499999999999972
 21
17.5
 31
0.0
  0
LINE
  5
291
100
AcDbEntity
  8
0
  6
CONTINUOUS
 62
               7
100
AcDbLine
 10
25.499999999999972
 20
20.5
 30
0.0
 11
24.499999999999972
 21
20.5
 31
0.0
  0
ARC
  5
292
100
AcDbEntity
  8
0
  6
CONTINUOUS
 62
               7
100
AcDbCircle
 10
24.499999999999972
 20
19.0
 30
0.0
 40
1.5
100
AcDbArc
 50
90.0
 51
270.0
  0
ARC
  5
293
100
AcDbEntity
  8
0
  6
CONTINUOUS
 62
               7
100
AcDbCircle
 10
25.499999999999972
 20
19.0
 30
0.0
 40
1.5
100
AcDbArc
 50
270.0
 51
90.0
  0
LINE
  5
294
100
AcDbEntity
  8
0
  6
CONTINUOUS
 62
               2
100
AcDbLine
 10
24.999999999999972
 20
16.5
 30
0.0
 11
24.999999999999972
 21
21.5
 31
0.0
  0
CIRCLE
  5
295
100
AcDbEntity
  8
0
  6
CONTINUOUS
 62
               7
100
AcDbCircle
 10
40.999999999999972
 20
12.0
 30
0.0
 40
1.25
  0
CIRCLE
  5
296
100
AcDbEntity
  8
0
  6
CONTINUOUS
 62
               2
100
AcDbCircle
 10
40.999999999999972
 20
12.0
 30
0.0
 40
1.5
  0
LINE
  5
297
100
AcDbEntity
  8
0
  6
CONTINUOUS
 62
               2
100
AcDbLine
 10
40.999999999999972
 20
14.5
 30
0.0
 11
40.999999999999972
 21
9.5
 31
0.0
  0
LINE
  5
298
100
AcDbEntity
  8
0
  6
CONTINUOUS
 62
               2
100
AcDbLine
 10
40.999999999999972
 20
23.5
 30
0.0
 11
40.999999999999972
 21
28.5
 31
0.0
  0
CIRCLE
  5
299
100
AcDbEntity
  8
0
  6
CONTINUOUS
 62
               7
100
AcDbCircle
 10
40.999999999999972
 20
26.0
 30
0.0
 40
1.25
  0
CIRCLE
  5
29A
100
AcDbEntity
  8
0
  6
CONTINUOUS
 62
               2
100
AcDbCircle
 10
40.999999999999972
 20
26.0
 30
0.0
 40
1.5
  0
LINE
  5
29B
100
AcDbEntity
  8
0
  6
CONTINUOUS
 62
               2
100
AcDbLine
 10
35.999999999999972
 20
29.400000000000006
 30
0.0
 11
35.999999999999972
 21
22.599999999999994
 31
0.0
  0
CIRCLE
  5
29C
100
AcDbEntity
  8
0
  6
CONTINUOUS
 62
               7
100
AcDbCircle
 10
35.999999999999972
 20
26.0
 30
0.0
 40
2.3999999999999999
  0
CIRCLE
  5
29D
100
AcDbEntity
  8
0
  6
CONTINUOUS
 62
               7
100
AcDbCircle
 10
24.999999999999972
 20
26.0
 30
0.0
 40
1.25
  0
CIRCLE
  5
29E
100
AcDbEntity
  8
0
  6
CONTINUOUS
 62
               2
100
AcDbCircle
 10
24.999999999999972
 20
26.0
 30
0.0
 40
1.5
  0
LINE
  5
29F
100
AcDbEntity
  8
0
  6
CONTINUOUS
 62
               2
100
AcDbLine
 10
24.999999999999972
 20
23.5
 30
0.0
 11
24.999999999999972
 21
28.5
 31
0.0
  0
LINE
  5
2A0
100
AcDbEntity
  8
0
  6
CONTINUOUS
 62
               7
100
AcDbLine
 10
62.999999972652034
 20
29.0
 30
0.0
 11
8.9999999999999716
 21
29.0
 31
0.0
  0
LINE
  5
2A1
100
AcDbEntity
  8
0
  6
CONTINUOUS
 62
               2
100
AcDbLine
 10
43.499999999999972
 20
26.0
 30
0.0
 11
32.599999999999994
 21
26.0
 31
0.0
  0
LINE
  5
2A2
100
AcDbEntity
  8
0
  6
CONTINUOUS
 62
               2
100
AcDbLine
 10
43.499999999999972
 20
12.0
 30
0.0
 11
32.599999999999994
 21
12.0
 31
0.0
  0
LINE
  5
2A3
100
AcDbEntity
  8
0
  6
CONTINUOUS
 62
               7
100
AcDbLine
 10
62.999999999999972
 20
14.599999999999994
 30
0.0
 11
59.700000000000017
 21
14.599999999999994
 31
0.0
  0
LINE
  5
2A4
100
AcDbEntity
  8
0
  6
CONTINUOUS
 62
               7
100
AcDbLine
 10
59.700000000000017
 20
10.400000000000006
 30
0.0
 11
59.700000000000017
 21
14.599999999999994
 31
0.0
  0
LINE
  5
2A5
100
AcDbEntity
  8
0
  6
CONTINUOUS
 62
               7
100
AcDbLine
 10
62.999999999999972
 20
10.400000000000006
 30
0.0
 11
59.700000000000017
 21
10.400000000000006
 31
0.0
  0
LINE
  5
2A6
100
AcDbEntity
  8
0
  6
CONTINUOUS
 62
               7
100
AcDbLine
 10
61.400000000000006
 20
10.599999999999994
 30
0.0
 11
61.400000000000006
 21
14.400000000000006
 31
0.0
  0
LINE
  5
2A7
100
AcDbEntity
  8
0
  6
CONTINUOUS
 62
               7
100
AcDbLine
 10
61.700000000000017
 20
10.900000000000006
 30
0.0
 11
61.700000000000017
 21
14.099999999999994
 31
0.0
  0
LINE
  5
2A8
100
AcDbEntity
  8
0
  6
CONTINUOUS
 62
               7
100
AcDbLine
 10
61.700000000000017
 20
10.900000000000006
 30
0.0
 11
61.400000000000006
 21
10.599999999999994
 31
0.0
  0
LINE
  5
2A9
100
AcDbEntity
  8
0
  6
CONTINUOUS
 62
               7
100
AcDbLine
 10
61.700000000000017
 20
14.099999999999994
 30
0.0
 11
61.400000000000006
 21
14.400000000000006
 31
0.0
  0
LINE
  5
2AA
100
AcDbEntity
  8
0
  6
CONTINUOUS
 62
               7
100
AcDbLine
 10
61.400000000000006
 20
10.599999999999994
 30
0.0
 11
59.700000000000017
 21
10.599999999999994
 31
0.0
  0
LINE
  5
2AB
100
AcDbEntity
  8
0
  6
CONTINUOUS
 62
               7
100
AcDbLine
 10
61.400000000000006
 20
14.400000000000006
 30
0.0
 11
59.700000000000017
 21
14.400000000000006
 31
0.0
  0
LINE
  5
2AC
100
AcDbEntity
  8
0
  6
CONTINUOUS
 62
               7
100
AcDbLine
 10
62.999999999999972
 20
23.400000000000006
 30
0.0
 11
59.700000000000017
 21
23.400000000000006
 31
0.0
  0
LINE
  5
2AD
100
AcDbEntity
  8
0
  6
CONTINUOUS
 62
               7
100
AcDbLine
 10
62.999999999999972
 20
27.599999999999994
 30
0.0
 11
59.700000000000017
 21
27.599999999999994
 31
0.0
  0
LINE
  5
2AE
100
AcDbEntity
  8
0
  6
CONTINUOUS
 62
               7
100
AcDbLine
 10
61.400000000000006
 20
23.599999999999994
 30
0.0
 11
59.700000000000017
 21
23.599999999999994
 31
0.0
  0
LINE
  5
2AF
100
AcDbEntity
  8
0
  6
CONTINUOUS
 62
               7
100
AcDbLine
 10
61.400000000000006
 20
27.400000000000006
 30
0.0
 11
59.700000000000017
 21
27.400000000000006
 31
0.0
  0
LINE
  5
2B0
100
AcDbEntity
  8
0
  6
CONTINUOUS
 62
               7
100
AcDbLine
 10
61.700000000000017
 20
23.900000000000006
 30
0.0
 11
61.400000000000006
 21
23.599999999999994
 31
0.0
  0
LINE
  5
2B1
100
AcDbEntity
  8
0
  6
CONTINUOUS
 62
               7
100
AcDbLine
 10
61.700000000000017
 20
27.099999999999994
 30
0.0
 11
61.400000000000006
 21
27.400000000000006
 31
0.0
  0
LINE
  5
2B2
100
AcDbEntity
  8
0
  6
CONTINUOUS
 62
               7
100
AcDbLine
 10
59.700000000000017
 20
27.599999999999994
 30
0.0
 11
59.700000000000017
 21
23.400000000000006
 31
0.0
  0
LINE
  5
2B3
100
AcDbEntity
  8
0
  6
CONTINUOUS
 62
               7
100
AcDbLine
 10
61.700000000000017
 20
27.099999999999994
 30
0.0
 11
61.700000000000017
 21
23.900000000000006
 31
0.0
  0
LINE
  5
2B4
100
AcDbEntity
  8
0
  6
CONTINUOUS
 62
               7
100
AcDbLine
 10
61.400000000000006
 20
27.400000000000006
 30
0.0
 11
61.400000000000006
 21
23.599999999999994
 31
0.0
  0
LINE
  5
2B5
100
AcDbEntity
  8
0
  6
CONTINUOUS
 62
               7
100
AcDbLine
 10
62.999999999999972
 20
9.0
 30
0.0
 11
62.999999999999972
 21
29.0
 31
0.0
  0
LINE
  5
2B6
100
AcDbEntity
  8
0
  6
PHANTOM
 62
               3
100
AcDbLine
 10
30.247818957038788
 20
49.829818178648694
 30
0.0
 11
30.247818957038788
 21
-11.800253105920135
 31
0.0
  0
ENDBLK
  5
2B7
100
AcDbEntity
  8
0
100
AcDbBlockEnd
  0
BLOCK
  5
2B8
100
AcDbEntity
  8
0
100
AcDbBlockBegin
  2
MGALG6-8
 70
               0
 10
0.0
 20
0.0
 30
0.0
  3
MGALG6-8
  1

  0
LINE
  5
2B9
100
AcDbEntity
  8
0
  6
CONTINUOUS
 62
               2
100
AcDbLine
 10
0.0
 20
-1.2000000000000028
 30
0.0
 11
0.0
 21
6.2000000000000028
 31
0.0
  0
LINE
  5
2BA
100
AcDbEntity
  8
0
  6
CONTINUOUS
 62
               2
100
AcDbLine
 10
1.4999999999999858
 20
12.0
 30
0.0
 11
-3.5000000000000142
 21
12.0
 31
0.0
  0
LINE
  5
2BB
100
AcDbEntity
  8
0
  6
CONTINUOUS
 62
               2
100
AcDbLine
 10
1.4999999999999858
 20
26.0
 30
0.0
 11
-3.5000000000000142
 21
26.0
 31
0.0
  0
LINE
  5
2BC
100
AcDbEntity
  8
0
  6
CONTINUOUS
 62
               7
100
AcDbLine
 10
2.5773502141343982
 20
25.50000004945862
 30
0.0
 11
3.1547005325662525
 21
24.499999930249331
 31
0.0
  0
LINE
  5
2BD
100
AcDbEntity
  8
0
  6
CONTINUOUS
 62
               7
100
AcDbLine
 10
3.1547005536840373
 20
24.500000072408554
 30
0.0
 11
2.5773502058773232
 21
23.499999970158882
 31
0.0
  0
LINE
  5
2BE
100
AcDbEntity
  8
0
  6
CONTINUOUS
 62
               7
100
AcDbLine
 10
1.422649785865687
 20
23.49999995054138
 30
0.0
 11
0.8452994674338328
 21
24.500000069750669
 31
0.0
  0
LINE
  5
2BF
100
AcDbEntity
  8
0
  6
CONTINUOUS
 62
               7
100
AcDbLine
 10
0.8452994463159342
 20
24.499999927591446
 30
0.0
 11
1.422649794122762
 21
25.500000029841118
 31
0.0
  0
CIRCLE
  5
2C0
100
AcDbEntity
  8
0
  6
CONTINUOUS
 62
               7
100
AcDbCircle
 10
1.9999999999999858
 20
24.5
 30
0.0
 40
2.5
  0
LINE
  5
2C1
100
AcDbEntity
  8
0
  6
CONTINUOUS
 62
               2
100
AcDbLine
 10
1.9999999999999858
 20
28.0
 30
0.0
 11
1.9999999999999858
 21
21.0
 31
0.0
  0
LINE
  5
2C2
100
AcDbEntity
  8
0
  6
CONTINUOUS
 62
               2
100
AcDbLine
 10
5.4999999999999858
 20
24.5
 30
0.0
 11
-1.5000000000000142
 21
24.5
 31
0.0
  0
CIRCLE
  5
2C3
100
AcDbEntity
  8
0
  6
CONTINUOUS
 62
               7
100
AcDbCircle
 10
1.9999999999999858
 20
24.5
 30
0.0
 40
2.25
  0
LINE
  5
2C4
100
AcDbEntity
  8
0
  6
CONTINUOUS
 62
               7
100
AcDbLine
 10
1.4226496604503467
 20
25.499999977050066
 30
0.0
 11
2.5773503266890287
 21
25.499999960090449
 31
0.0
  0
LINE
  5
2C5
100
AcDbEntity
  8
0
  6
CONTINUOUS
 62
               7
100
AcDbLine
 10
2.5773503395497386
 20
23.500000022949934
 30
0.0
 11
1.4226496733110565
 21
23.500000039909551
 31
0.0
  0
CIRCLE
  5
2C6
100
AcDbEntity
  8
0
  6
CONTINUOUS
 62
               7
100
AcDbCircle
 10
1.9999999999999858
 20
24.5
 30
0.0
 40
1.95
  0
CIRCLE
  5
2C7
100
AcDbEntity
  8
0
  6
CONTINUOUS
 62
               2
100
AcDbCircle
 10
3.4999999999999858
 20
19.0
 30
0.0
 40
1.5
  0
CIRCLE
  5
2C8
100
AcDbEntity
  8
0
  6
CONTINUOUS
 62
               7
100
AcDbCircle
 10
3.4999999999999858
 20
19.0
 30
0.0
 40
1.25
  0
CIRCLE
  5
2C9
100
AcDbEntity
  8
0
  6
CONTINUOUS
 62
               7
100
AcDbCircle
 10
1.9999999999999858
 20
13.5
 30
0.0
 40
2.5
  0
LINE
  5
2CA
100
AcDbEntity
  8
0
  6
CONTINUOUS
 62
               7
100
AcDbLine
 10
-0.7999999999999687
 20
10.0
 30
0.0
 11
6.4999999999999858
 21
10.0
 31
0.0
  0
LINE
  5
2CB
100
AcDbEntity
  8
0
  6
CONTINUOUS
 62
               7
100
AcDbLine
 10
-0.7999999999999687
 20
28.0
 30
0.0
 11
6.4999999999999858
 21
28.0
 31
0.0
  0
LINE
  5
2CC
100
AcDbEntity
  8
0
  6
CONTINUOUS
 62
               7
100
AcDbLine
 10
-0.7999999999999687
 20
28.0
 30
0.0
 11
-0.7999999999999687
 21
10.0
 31
0.0
  0
LINE
  5
2CD
100
AcDbEntity
  8
0
  6
CONTINUOUS
 62
               7
100
AcDbLine
 10
6.4999999999999858
 20
16.400000000000006
 30
0.0
 11
7.9999999999999858
 21
16.400000000000006
 31
0.0
  0
LINE
  5
2CE
100
AcDbEntity
  8
0
  6
CONTINUOUS
 62
               7
100
AcDbLine
 10
7.9999999999999858
 20
16.400000000000006
 30
0.0
 11
7.9999999999999858
 21
21.599999999999994
 31
0.0
  0
LINE
  5
2CF
100
AcDbEntity
  8
0
  6
CONTINUOUS
 62
               7
100
AcDbLine
 10
6.4999999999999858
 20
21.599999999999994
 30
0.0
 11
7.9999999999999858
 21
21.599999999999994
 31
0.0
  0
LINE
  5
2D0
100
AcDbEntity
  8
0
  6
CONTINUOUS
 62
               2
100
AcDbLine
 10
1.9999999999999858
 20
10.0
 30
0.0
 11
1.9999999999999858
 21
17.0
 31
0.0
  0
LINE
  5
2D1
100
AcDbEntity
  8
0
  6
CONTINUOUS
 62
               2
100
AcDbLine
 10
5.4999999999999858
 20
13.5
 30
0.0
 11
-1.5000000000000142
 21
13.5
 31
0.0
  0
CIRCLE
  5
2D2
100
AcDbEntity
  8
0
  6
CONTINUOUS
 62
               7
100
AcDbCircle
 10
1.9999999999999858
 20
13.5
 30
0.0
 40
2.25
  0
LINE
  5
2D3
100
AcDbEntity
  8
0
  6
CONTINUOUS
 62
               7
100
AcDbLine
 10
2.5773502141343982
 20
12.49999995054138
 30
0.0
 11
3.1547005325662525
 21
13.500000069750669
 31
0.0
  0
LINE
  5
2D4
100
AcDbEntity
  8
0
  6
CONTINUOUS
 62
               7
100
AcDbLine
 10
1.4226496604503467
 20
12.500000022949934
 30
0.0
 11
2.5773503266890287
 21
12.500000039909551
 31
0.0
  0
LINE
  5
2D5
100
AcDbEntity
  8
0
  6
CONTINUOUS
 62
               7
100
AcDbLine
 10
0.8452994463159342
 20
13.500000072408554
 30
0.0
 11
1.422649794122762
 21
12.499999970158882
 31
0.0
  0
LINE
  5
2D6
100
AcDbEntity
  8
0
  6
CONTINUOUS
 62
               7
100
AcDbLine
 10
1.422649785865687
 20
14.50000004945862
 30
0.0
 11
0.8452994674338328
 21
13.499999930249331
 31
0.0
  0
LINE
  5
2D7
100
AcDbEntity
  8
0
  6
CONTINUOUS
 62
               7
100
AcDbLine
 10
2.5773503395497386
 20
14.499999977050066
 30
0.0
 11
1.4226496733110565
 21
14.499999960090449
 31
0.0
  0
LINE
  5
2D8
100
AcDbEntity
  8
0
  6
CONTINUOUS
 62
               7
100
AcDbLine
 10
3.1547005536840373
 20
13.499999927591446
 30
0.0
 11
2.5773502058773232
 21
14.500000029841118
 31
0.0
  0
CIRCLE
  5
2D9
100
AcDbEntity
  8
0
  6
CONTINUOUS
 62
               7
100
AcDbCircle
 10
1.9999999999999858
 20
13.5
 30
0.0
 40
1.95
  0
LINE
  5
2DA
100
AcDbEntity
  8
0
  6
CONTINUOUS
 62
               7
100
AcDbLine
 10
-3.0000000000000142
 20
0.0
 30
0.0
 11
-3.0000000000000142
 21
8.3000000000000114
 31
0.0
  0
LINE
  5
2DB
100
AcDbEntity
  8
0
  6
CONTINUOUS
 62
               7
100
AcDbLine
 10
-2.199999999999946
 20
8.3000000000000114
 30
0.0
 11
-2.199999999999946
 21
11.000000007980816
 31
0.0
  0
LINE
  5
2DC
100
AcDbEntity
  8
0
  6
CONTINUOUS
 62
               7
100
AcDbLine
 10
-1.0000000000000142
 20
11.000000007980816
 30
0.0
 11
-2.199999999999946
 21
11.000000007980816
 31
0.0
  0
LINE
  5
2DD
100
AcDbEntity
  8
0
  6
CONTINUOUS
 62
               2
100
AcDbLine
 10
9.7499999999999858
 20
5.9999999999999858
 30
0.0
 11
5.2499999999999858
 21
5.9999999999999858
 31
0.0
  0
LINE
  5
2DE
100
AcDbEntity
  8
0
  6
CONTINUOUS
 62
               7
100
AcDbLine
 10
3.4999999999999858
 20
5.0
 30
0.0
 11
3.4999999999999858
 21
8.3000000000000114
 31
0.0
  0
LINE
  5
2DF
100
AcDbEntity
  8
0
  6
CONTINUOUS
 62
               7
100
AcDbLine
 10
3.49999997861606
 20
5.0
 30
0.0
 11
-3.0000000000000142
 21
5.0
 31
0.0
  0
CIRCLE
  5
2E0
100
AcDbEntity
  8
0
  6
CONTINUOUS
 62
               2
100
AcDbCircle
 10
7.4999999999999858
 20
5.9999999999999858
 30
0.0
 40
1.5
  0
LINE
  5
2E1
100
AcDbEntity
  8
0
  6
CONTINUOUS
 62
               7
100
AcDbLine
 10
9.9999999999999858
 20
0.0
 30
0.0
 11
-3.0000000000000142
 21
0.0
 31
0.0
  0
LINE
  5
2E2
100
AcDbEntity
  8
0
  6
CONTINUOUS
 62
               7
100
AcDbLine
 10
6.6000000000000085
 20
9.5
 30
0.0
 11
6.6000000000000085
 21
8.3000000000000114
 31
0.0
  0
LINE
  5
2E3
100
AcDbEntity
  8
0
  6
CONTINUOUS
 62
               7
100
AcDbLine
 10
9.9999999999999858
 20
8.3000000000000114
 30
0.0
 11
-3.0000000000000142
 21
8.3000000000000114
 31
0.0
  0
LINE
  5
2E4
100
AcDbEntity
  8
0
  6
CONTINUOUS
 62
               7
100
AcDbLine
 10
9.9999999999999858
 20
8.3000000000000114
 30
0.0
 11
9.9999999999999858
 21
0.0
 31
0.0
  0
LINE
  5
2E5
100
AcDbEntity
  8
0
  6
CONTINUOUS
 62
               2
100
AcDbLine
 10
7.4999999999999858
 20
8.2499999999999858
 30
0.0
 11
7.4999999999999858
 21
3.7499999999999858
 31
0.0
  0
CIRCLE
  5
2E6
100
AcDbEntity
  8
0
  6
CONTINUOUS
 62
               7
100
AcDbCircle
 10
7.4999999999999858
 20
5.9999999999999858
 30
0.0
 40
1.25
  0
LINE
  5
2E7
100
AcDbEntity
  8
0
  6
CONTINUOUS
 62
               7
100
AcDbLine
 10
-0.199999999999946
 20
28.5
 30
0.0
 11
-0.199999999999946
 21
29.0
 31
0.0
  0
LINE
  5
2E8
100
AcDbEntity
  8
0
  6
CONTINUOUS
 62
               7
100
AcDbLine
 10
7.2000000000000313
 20
15.599999999999994
 30
0.0
 11
6.9999999999999858
 21
15.599999999999994
 31
0.0
  0
LINE
  5
2E9
100
AcDbEntity
  8
0
  6
CONTINUOUS
 62
               7
100
AcDbLine
 10
7.2000000000000313
 20
22.400000000000006
 30
0.0
 11
6.9999999999999858
 21
22.400000000000006
 31
0.0
  0
LINE
  5
2EA
100
AcDbEntity
  8
0
  6
CONTINUOUS
 62
               7
100
AcDbLine
 10
9.2000000000000313
 20
22.099999999999994
 30
0.0
 11
9.2000000000000313
 21
15.900000000000006
 31
0.0
  0
LINE
  5
2EB
100
AcDbEntity
  8
0
  6
CONTINUOUS
 62
               7
100
AcDbLine
 10
7.2000000000000313
 20
26.300000000000011
 30
0.0
 11
10.700000000000031
 21
26.300000000000011
 31
0.0
  0
LINE
  5
2EC
100
AcDbEntity
  8
0
  6
CONTINUOUS
 62
               7
100
AcDbLine
 10
7.2000000000000313
 20
26.300000000000011
 30
0.0
 11
7.2000000000000313
 21
22.099999999999994
 31
0.0
  0
LINE
  5
2ED
100
AcDbEntity
  8
0
  6
CONTINUOUS
 62
               7
100
AcDbLine
 10
7.2000000000000313
 20
22.099999999999994
 30
0.0
 11
9.2000000000000313
 21
22.099999999999994
 31
0.0
  0
LINE
  5
2EE
100
AcDbEntity
  8
0
  6
CONTINUOUS
 62
               7
100
AcDbLine
 10
7.2000000000000313
 20
15.900000000000006
 30
0.0
 11
9.2000000000000313
 21
15.900000000000006
 31
0.0
  0
LINE
  5
2EF
100
AcDbEntity
  8
0
  6
CONTINUOUS
 62
               7
100
AcDbLine
 10
7.2000000000000313
 20
11.699999999999989
 30
0.0
 11
7.2000000000000313
 21
15.900000000000006
 31
0.0
  0
LINE
  5
2F0
100
AcDbEntity
  8
0
  6
CONTINUOUS
 62
               7
100
AcDbLine
 10
7.2000000000000313
 20
11.699999999999989
 30
0.0
 11
10.700000000000031
 21
11.699999999999989
 31
0.0
  0
LINE
  5
2F1
100
AcDbEntity
  8
0
  6
CONTINUOUS
 62
               7
100
AcDbLine
 10
10.700000000000031
 20
11.699999999999989
 30
0.0
 11
10.700000000000031
 21
26.300000000000011
 31
0.0
  0
ARC
  5
2F2
100
AcDbEntity
  8
0
  6
CONTINUOUS
 62
               7
100
AcDbCircle
 10
7.9999999999999858
 20
22.199999999999989
 30
0.0
 40
0.5
100
AcDbArc
 50
191.53695903281499
 51
348.46304096718507
  0
LINE
  5
2F3
100
AcDbEntity
  8
0
  6
CONTINUOUS
 62
               7
100
AcDbLine
 10
7.5341828670152466
 20
22.0
 30
0.0
 11
6.4999999999999858
 21
22.0
 31
0.0
  0
LINE
  5
2F4
100
AcDbEntity
  8
0
  6
CONTINUOUS
 62
               7
100
AcDbLine
 10
6.9999999999999858
 20
29.0
 30
0.0
 11
6.9999999999999858
 21
22.400000000000006
 31
0.0
  0
LINE
  5
2F5
100
AcDbEntity
  8
0
  6
CONTINUOUS
 62
               7
100
AcDbLine
 10
6.4999999999999858
 20
28.5
 30
0.0
 11
6.4999999999999858
 21
21.599999999999994
 31
0.0
  0
LINE
  5
2F6
100
AcDbEntity
  8
0
  6
CONTINUOUS
 62
               7
100
AcDbLine
 10
8.800000000000054
 20
22.0
 30
0.0
 11
8.4658171329848386
 21
22.0
 31
0.0
  0
LINE
  5
2F7
100
AcDbEntity
  8
0
  6
CONTINUOUS
 62
               7
100
AcDbLine
 10
10.499999999999986
 20
29.0
 30
0.0
 11
-0.199999999999946
 21
29.0
 31
0.0
  0
LINE
  5
2F8
100
AcDbEntity
  8
0
  6
CONTINUOUS
 62
               7
100
AcDbLine
 10
6.4999999999999858
 20
28.5
 30
0.0
 11
-1.0000000000000142
 21
28.5
 31
0.0
  0
LINE
  5
2F9
100
AcDbEntity
  8
0
  6
CONTINUOUS
 62
               7
100
AcDbLine
 10
10.500000000000099
 20
9.0
 30
0.0
 11
6.6000000000000085
 21
9.0
 31
0.0
  0
LINE
  5
2FA
100
AcDbEntity
  8
0
  6
CONTINUOUS
 62
               7
100
AcDbLine
 10
6.6000000000000085
 20
9.5
 30
0.0
 11
-1.0000000000000142
 21
9.5
 31
0.0
  0
LINE
  5
2FB
100
AcDbEntity
  8
0
  6
CONTINUOUS
 62
               7
100
AcDbLine
 10
6.9999999999999858
 20
9.0
 30
0.0
 11
6.9999999999999858
 21
15.599999999999994
 31
0.0
  0
LINE
  5
2FC
100
AcDbEntity
  8
0
  6
CONTINUOUS
 62
               7
100
AcDbLine
 10
10.999999999999986
 20
9.5
 30
0.0
 11
10.999999999999986
 21
28.5
 31
0.0
  0
LINE
  5
2FD
100
AcDbEntity
  8
0
  6
CONTINUOUS
 62
               7
100
AcDbLine
 10
6.4999999999999858
 20
9.5
 30
0.0
 11
6.4999999999999858
 21
16.400000000000006
 31
0.0
  0
LINE
  5
2FE
100
AcDbEntity
  8
0
  6
CONTINUOUS
 62
               2
100
AcDbLine
 10
3.4999999999999858
 20
16.5
 30
0.0
 11
3.4999999999999858
 21
21.5
 31
0.0
  0
LINE
  5
2FF
100
AcDbEntity
  8
0
  6
CENTER
 62
               2
100
AcDbLine
 10
-2.1694637487714914
 20
19.0
 30
0.0
 11
12.08067613983529
 21
19.0
 31
0.0
  0
LINE
  5
300
100
AcDbEntity
  8
0
  6
CONTINUOUS
 62
               7
100
AcDbLine
 10
-1.0000000000000142
 20
28.499999992019184
 30
0.0
 11
-1.0000000000000142
 21
21.700000000000017
 31
0.0
  0
LINE
  5
301
100
AcDbEntity
  8
0
  6
CONTINUOUS
 62
               7
100
AcDbLine
 10
10.999999999999986
 20
28.5
 30
0.0
 11
10.499999999999986
 21
29.0
 31
0.0
  0
LINE
  5
302
100
AcDbEntity
  8
0
  6
CONTINUOUS
 62
               7
100
AcDbLine
 10
10.999999999999986
 20
9.5
 30
0.0
 11
10.500000000000099
 21
9.0
 31
0.0
  0
LINE
  5
303
100
AcDbEntity
  8
0
  6
CONTINUOUS
 62
               7
100
AcDbLine
 10
-1.0000000000000142
 20
16.299999999999983
 30
0.0
 11
-1.0000000000000142
 21
9.5
 31
0.0
  0
LINE
  5
304
100
AcDbEntity
  8
0
  6
CONTINUOUS
 62
               7
100
AcDbLine
 10
8.800000000000054
 20
22.0
 30
0.0
 11
8.800000000000054
 21
16.0
 31
0.0
  0
CIRCLE
  5
305
100
AcDbEntity
  8
0
  6
CONTINUOUS
 62
               7
100
AcDbCircle
 10
8.4999999999999858
 20
24.5
 30
0.0
 40
1.0
  0
LINE
  5
306
100
AcDbEntity
  8
0
  6
CONTINUOUS
 62
               7
100
AcDbLine
 10
7.9343145750507205
 20
25.065685424949237
 30
0.0
 11
9.0656854249492511
 21
23.934314575050763
 31
0.0
  0
LINE
  5
307
100
AcDbEntity
  8
0
  6
CONTINUOUS
 62
               7
100
AcDbLine
 10
7.9343145750507205
 20
23.934314575050763
 30
0.0
 11
9.0656854249492511
 21
25.065685424949237
 31
0.0
  0
LINE
  5
308
100
AcDbEntity
  8
0
  6
CONTINUOUS
 62
               7
100
AcDbLine
 10
7.5341828670152466
 20
16.0
 30
0.0
 11
6.4999999999999858
 21
16.0
 31
0.0
  0
LINE
  5
309
100
AcDbEntity
  8
0
  6
CONTINUOUS
 62
               7
100
AcDbLine
 10
8.800000000000054
 20
16.0
 30
0.0
 11
8.4658171329848386
 21
16.0
 31
0.0
  0
ARC
  5
30A
100
AcDbEntity
  8
0
  6
CONTINUOUS
 62
               7
100
AcDbCircle
 10
7.9999999999999858
 20
15.800000000000011
 30
0.0
 40
0.5
100
AcDbArc
 50
11.536959032814933
 51
168.46304096718507
  0
CIRCLE
  5
30B
100
AcDbEntity
  8
0
  6
CONTINUOUS
 62
               7
100
AcDbCircle
 10
8.4999999999999858
 20
13.5
 30
0.0
 40
1.0
  0
LINE
  5
30C
100
AcDbEntity
  8
0
  6
CONTINUOUS
 62
               7
100
AcDbLine
 10
7.9343145750508342
 20
14.065685424949237
 30
0.0
 11
9.0656854249492511
 21
12.934314575050763
 31
0.0
  0
LINE
  5
30D
100
AcDbEntity
  8
0
  6
CONTINUOUS
 62
               7
100
AcDbLine
 10
7.9343145750508342
 20
12.934314575050763
 30
0.0
 11
9.0656854249492511
 21
14.065685424949237
 31
0.0
  0
LINE
  5
30E
100
AcDbEntity
  8
0
  6
CONTINUOUS
 62
               7
100
AcDbLine
 10
-0.7999999999999687
 20
16.5
 30
0.0
 11
-1.0000000000000142
 21
16.299999999999983
 31
0.0
  0
LINE
  5
30F
100
AcDbEntity
  8
0
  6
CONTINUOUS
 62
               7
100
AcDbLine
 10
-0.7999999999999687
 20
21.500000000000028
 30
0.0
 11
-1.0000000000000142
 21
21.700000000000017
 31
0.0
  0
ENDBLK
  5
310
100
AcDbEntity
  8
0
100
AcDbBlockEnd
  0
BLOCK
  5
311
100
AcDbEntity
  8
0
100
AcDbBlockBegin
  2
MGALG6-9
 70
               0
 10
0.0
 20
0.0
 30
0.0
  3
MGALG6-9
  1

  0
LINE
  5
312
100
AcDbEntity
  8
0
  6
CONTINUOUS
 62
               2
100
AcDbLine
 10
0.0
 20
-1.2000000000000028
 30
0.0
 11
0.0
 21
6.2000000000000028
 31
0.0
  0
LINE
  5
313
100
AcDbEntity
  8
0
  6
CONTINUOUS
 62
               7
100
AcDbLine
 10
-8.2500000051903442
 20
6.4330127264257726
 30
0.0
 11
-8.2499999944670037
 21
5.5669872600069255
 31
0.0
  0
LINE
  5
314
100
AcDbEntity
  8
0
  6
CONTINUOUS
 62
               7
100
AcDbLine
 10
-7.499999981348509
 20
6.8660254205461797
 30
0.0
 11
-8.2500000302297565
 21
6.4330126780500905
 31
0.0
  0
LINE
  5
315
100
AcDbEntity
  8
0
  6
CONTINUOUS
 62
               7
100
AcDbLine
 10
-6.7499999761581364
 20
6.4330126941204071
 30
0.0
 11
-7.5000000357627812
 21
6.8660254180431366
 31
0.0
  0
LINE
  5
316
100
AcDbEntity
  8
0
  6
CONTINUOUS
 62
               7
100
AcDbLine
 10
-6.749999994809599
 20
5.566987273574199
 30
0.0
 11
-6.7500000055329963
 21
6.4330127399930461
 31
0.0
  0
CIRCLE
  5
317
100
AcDbEntity
  8
0
  6
CONTINUOUS
 62
               7
100
AcDbCircle
 10
-7.4999999999999716
 20
5.9999999999999858
 30
0.0
 40
1.5
  0
LINE
  5
318
100
AcDbEntity
  8
0
  6
CONTINUOUS
 62
               7
100
AcDbLine
 10
-8.2500000238418636
 20
5.5669873058795645
 30
0.0
 11
-7.4999999642372188
 21
5.133974581956835
 31
0.0
  0
LINE
  5
319
100
AcDbEntity
  8
0
  6
CONTINUOUS
 62
               7
100
AcDbLine
 10
-7.500000018651491
 20
5.1339745794537919
 30
0.0
 11
-6.7499999697701867
 21
5.5669873219498811
 31
0.0
  0
CIRCLE
  5
31A
100
AcDbEntity
  8
0
  6
CONTINUOUS
 62
               2
100
AcDbCircle
 10
-7.4999999999999716
 20
5.9999999999999858
 30
0.0
 40
1.25
  0
LINE
  5
31B
100
AcDbEntity
  8
0
  6
CONTINUOUS
 62
               7
100
AcDbLine
 10
3.0000000000000284
 20
0.0
 30
0.0
 11
3.0000000000000284
 21
8.3000000000000114
 31
0.0
  0
LINE
  5
31C
100
AcDbEntity
  8
0
  6
CONTINUOUS
 62
               7
100
AcDbLine
 10
2.2000000000000171
 20
8.3000000000000114
 30
0.0
 11
2.2000000000000171
 21
11.000000007980816
 31
0.0
  0
LINE
  5
31D
100
AcDbEntity
  8
0
  6
CONTINUOUS
 62
               7
100
AcDbLine
 10
1.0000000000000284
 20
11.000000007980816
 30
0.0
 11
2.2000000000000171
 21
11.000000007980816
 31
0.0
  0
LINE
  5
31E
100
AcDbEntity
  8
0
  6
CONTINUOUS
 62
               7
100
AcDbLine
 10
-3.4999999999999716
 20
5.0
 30
0.0
 11
-3.4999999999999716
 21
8.3000000000000114
 31
0.0
  0
LINE
  5
31F
100
AcDbEntity
  8
0
  6
CONTINUOUS
 62
               7
100
AcDbLine
 10
-3.4999999786160458
 20
5.0
 30
0.0
 11
3.0000000000000284
 21
5.0
 31
0.0
  0
LINE
  5
320
100
AcDbEntity
  8
0
  6
CONTINUOUS
 62
               7
100
AcDbLine
 10
-9.9999999999999716
 20
0.0
 30
0.0
 11
3.0000000000000284
 21
0.0
 31
0.0
  0
LINE
  5
321
100
AcDbEntity
  8
0
  6
CONTINUOUS
 62
               7
100
AcDbLine
 10
-6.5999999999999943
 20
9.0
 30
0.0
 11
-6.5999999999999943
 21
8.3000000000000114
 31
0.0
  0
LINE
  5
322
100
AcDbEntity
  8
0
  6
CONTINUOUS
 62
               7
100
AcDbLine
 10
-9.9999999999999716
 20
8.3000000000000114
 30
0.0
 11
3.0000000000000284
 21
8.3000000000000114
 31
0.0
  0
LINE
  5
323
100
AcDbEntity
  8
0
  6
CONTINUOUS
 62
               7
100
AcDbLine
 10
-9.9999999999999716
 20
8.3000000000000114
 30
0.0
 11
-9.9999999999999716
 21
0.0
 31
0.0
  0
LINE
  5
324
100
AcDbEntity
  8
0
  6
CONTINUOUS
 62
               7
100
AcDbLine
 10
-10.499999999999972
 20
29.0
 30
0.0
 11
0.2000000000000171
 21
29.0
 31
0.0
  0
LINE
  5
325
100
AcDbEntity
  8
0
  6
CONTINUOUS
 62
               7
100
AcDbLine
 10
0.2000000000000171
 20
28.5
 30
0.0
 11
1.0000000000000284
 21
28.5
 31
0.0
  0
LINE
  5
326
100
AcDbEntity
  8
0
  6
CONTINUOUS
 62
               7
100
AcDbLine
 10
-10.499999999999972
 20
9.0
 30
0.0
 11
0.2000000000000171
 21
9.0
 31
0.0
  0
LINE
  5
327
100
AcDbEntity
  8
0
  6
CONTINUOUS
 62
               7
100
AcDbLine
 10
0.2000000000000171
 20
9.5
 30
0.0
 11
1.0000000000000284
 21
9.5
 31
0.0
  0
LINE
  5
328
100
AcDbEntity
  8
0
  6
CONTINUOUS
 62
               7
100
AcDbLine
 10
-10.999999999999972
 20
9.4999999999999858
 30
0.0
 11
-10.999999999999972
 21
28.5
 31
0.0
  0
LINE
  5
329
100
AcDbEntity
  8
0
  6
CENTER
 62
               2
100
AcDbLine
 10
2.1694637487715625
 20
19.0
 30
0.0
 11
-12.080676139835219
 21
19.0
 31
0.0
  0
LINE
  5
32A
100
AcDbEntity
  8
0
  6
CONTINUOUS
 62
               7
100
AcDbLine
 10
1.0000000000000284
 20
28.499999992019184
 30
0.0
 11
1.0000000000000284
 21
21.700000000000017
 31
0.0
  0
LINE
  5
32B
100
AcDbEntity
  8
0
  6
CONTINUOUS
 62
               7
100
AcDbLine
 10
0.2000000000000171
 20
9.0
 30
0.0
 11
0.2000000000000171
 21
16.5
 31
0.0
  0
CIRCLE
  5
32C
100
AcDbEntity
  8
0
  6
CONTINUOUS
 62
               7
100
AcDbCircle
 10
-8.9000000000000057
 20
12.5
 30
0.0
 40
1.6000000000000174
  0
CIRCLE
  5
32D
100
AcDbEntity
  8
0
  6
CONTINUOUS
 62
               7
100
AcDbCircle
 10
-8.9000000000000057
 20
12.5
 30
0.0
 40
1.9000000000000148
  0
LINE
  5
32E
100
AcDbEntity
  8
0
  6
CONTINUOUS
 62
               7
100
AcDbLine
 10
-9.3330128635930407
 20
13.250000006632405
 30
0.0
 11
-8.4669872641336212
 21
13.249999987923545
 31
0.0
  0
LINE
  5
32F
100
AcDbEntity
  8
0
  6
CONTINUOUS
 62
               7
100
AcDbLine
 10
-8.4669871364069138
 20
11.749999993367595
 30
0.0
 11
-9.3330127358663901
 21
11.750000012076455
 31
0.0
  0
LINE
  5
330
100
AcDbEntity
  8
0
  6
CONTINUOUS
 62
               7
100
AcDbLine
 10
-9.3330126267856315
 20
11.749999856646781
 30
0.0
 11
-9.7660254103130058
 21
12.500000035460715
 31
0.0
  0
LINE
  5
331
100
AcDbEntity
  8
0
  6
CONTINUOUS
 62
               7
100
AcDbLine
 10
-8.033974509621288
 20
12.500000136720814
 30
0.0
 11
-8.4669873255533332
 21
11.74999997661574
 31
0.0
  0
LINE
  5
332
100
AcDbEntity
  8
0
  6
CONTINUOUS
 62
               7
100
AcDbLine
 10
-8.466987373214323
 20
13.250000143353219
 30
0.0
 11
-8.0339745896869488
 21
12.499999964539285
 31
0.0
  0
LINE
  5
333
100
AcDbEntity
  8
0
  6
CONTINUOUS
 62
               7
100
AcDbLine
 10
-9.7660254903786665
 20
12.499999863279186
 30
0.0
 11
-9.3330126744466213
 21
13.25000002338426
 31
0.0
  0
CIRCLE
  5
334
100
AcDbEntity
  8
0
  6
CONTINUOUS
 62
               7
100
AcDbCircle
 10
-8.9000000000000057
 20
25.5
 30
0.0
 40
1.6000000000000174
  0
CIRCLE
  5
335
100
AcDbEntity
  8
0
  6
CONTINUOUS
 62
               7
100
AcDbCircle
 10
-8.9000000000000057
 20
25.5
 30
0.0
 40
1.9000000000000148
  0
LINE
  5
336
100
AcDbEntity
  8
0
  6
CONTINUOUS
 62
               7
100
AcDbLine
 10
-9.3330128635930407
 20
26.250000006632405
 30
0.0
 11
-8.4669872641336212
 21
26.249999987923545
 31
0.0
  0
LINE
  5
337
100
AcDbEntity
  8
0
  6
CONTINUOUS
 62
               7
100
AcDbLine
 10
-8.4669871364069138
 20
24.749999993367609
 30
0.0
 11
-9.3330127358663901
 21
24.750000012076455
 31
0.0
  0
LINE
  5
338
100
AcDbEntity
  8
0
  6
CONTINUOUS
 62
               7
100
AcDbLine
 10
-9.3330126267856315
 20
24.749999856646781
 30
0.0
 11
-9.7660254103130058
 21
25.500000035460715
 31
0.0
  0
LINE
  5
339
100
AcDbEntity
  8
0
  6
CONTINUOUS
 62
               7
100
AcDbLine
 10
-8.033974509621288
 20
25.500000136720828
 30
0.0
 11
-8.4669873255533332
 21
24.74999997661574
 31
0.0
  0
LINE
  5
33A
100
AcDbEntity
  8
0
  6
CONTINUOUS
 62
               7
100
AcDbLine
 10
-8.466987373214323
 20
26.250000143353219
 30
0.0
 11
-8.0339745896869488
 21
25.499999964539285
 31
0.0
  0
LINE
  5
33B
100
AcDbEntity
  8
0
  6
CONTINUOUS
 62
               7
100
AcDbLine
 10
-9.7660254903786665
 20
25.499999863279172
 30
0.0
 11
-9.3330126744466213
 21
26.25000002338426
 31
0.0
  0
LINE
  5
33C
100
AcDbEntity
  8
0
  6
CONTINUOUS
 62
               7
100
AcDbLine
 10
-10.799999999999983
 20
9.5
 30
0.0
 11
-10.799999999999983
 21
28.500000000000014
 31
0.0
  0
LINE
  5
33D
100
AcDbEntity
  8
0
  6
CONTINUOUS
 62
               2
100
AcDbLine
 10
-3.4999999999999716
 20
14.0
 30
0.0
 11
-3.4999999999999716
 21
24.0
 31
0.0
  0
CIRCLE
  5
33E
100
AcDbEntity
  8
0
  6
CONTINUOUS
 62
               7
100
AcDbCircle
 10
-3.4999999999999716
 20
21.5
 30
0.0
 40
0.5
  0
LINE
  5
33F
100
AcDbEntity
  8
0
  6
CONTINUOUS
 62
               2
100
AcDbLine
 10
-2.4999999999999716
 20
21.5
 30
0.0
 11
-4.4999999999999716
 21
21.5
 31
0.0
  0
CIRCLE
  5
340
100
AcDbEntity
  8
0
  6
CONTINUOUS
 62
               7
100
AcDbCircle
 10
-3.9999999999999716
 20
26.0
 30
0.0
 40
1.25
  0
LINE
  5
341
100
AcDbEntity
  8
0
  6
CONTINUOUS
 62
               2
100
AcDbLine
 10
3.5000000000000284
 20
26.0
 30
0.0
 11
-6.4999999999999716
 21
26.0
 31
0.0
  0
CIRCLE
  5
342
100
AcDbEntity
  8
0
  6
CONTINUOUS
 62
               2
100
AcDbCircle
 10
-3.9999999999999716
 20
26.0
 30
0.0
 40
1.5
  0
LINE
  5
343
100
AcDbEntity
  8
0
  6
CONTINUOUS
 62
               2
100
AcDbLine
 10
-3.9999999999999716
 20
28.5
 30
0.0
 11
-3.9999999999999716
 21
23.5
 31
0.0
  0
CIRCLE
  5
344
100
AcDbEntity
  8
0
  6
CONTINUOUS
 62
               7
100
AcDbCircle
 10
-3.9999999999999716
 20
12.0
 30
0.0
 40
1.25
  0
LINE
  5
345
100
AcDbEntity
  8
0
  6
CONTINUOUS
 62
               2
100
AcDbLine
 10
3.5000000000000284
 20
12.0
 30
0.0
 11
-6.4999999999999716
 21
12.0
 31
0.0
  0
CIRCLE
  5
346
100
AcDbEntity
  8
0
  6
CONTINUOUS
 62
               2
100
AcDbCircle
 10
-3.9999999999999716
 20
12.0
 30
0.0
 40
1.5
  0
LINE
  5
347
100
AcDbEntity
  8
0
  6
CONTINUOUS
 62
               2
100
AcDbLine
 10
-3.9999999999999716
 20
14.5
 30
0.0
 11
-3.9999999999999716
 21
9.5
 31
0.0
  0
LINE
  5
348
100
AcDbEntity
  8
0
  6
CONTINUOUS
 62
               7
100
AcDbLine
 10
-10.299999999999983
 20
29.0
 30
0.0
 11
-10.799999999999983
 21
28.500000000000014
 31
0.0
  0
LINE
  5
349
100
AcDbEntity
  8
0
  6
CONTINUOUS
 62
               7
100
AcDbLine
 10
-10.999999999999972
 20
28.5
 30
0.0
 11
-10.499999999999972
 21
29.0
 31
0.0
  0
LINE
  5
34A
100
AcDbEntity
  8
0
  6
CONTINUOUS
 62
               7
100
AcDbLine
 10
-10.799999999999983
 20
9.5
 30
0.0
 11
-10.30000000000004
 21
9.0
 31
0.0
  0
LINE
  5
34B
100
AcDbEntity
  8
0
  6
CONTINUOUS
 62
               7
100
AcDbLine
 10
-10.499999999999972
 20
9.0
 30
0.0
 11
-10.999999999999972
 21
9.4999999999999858
 31
0.0
  0
ARC
  5
34C
100
AcDbEntity
  8
0
  6
CONTINUOUS
 62
               7
100
AcDbCircle
 10
-8.9000000000000057
 20
25.5
 30
0.0
 40
2.1000000000000001
100
AcDbArc
 50
270.0
 51
90.0
  0
LINE
  5
34D
100
AcDbEntity
  8
0
  6
CONTINUOUS
 62
               7
100
AcDbLine
 10
-8.9000000000000057
 20
27.599999999999994
 30
0.0
 11
-10.799999999999983
 21
27.599999999999994
 31
0.0
  0
LINE
  5
34E
100
AcDbEntity
  8
0
  6
CONTINUOUS
 62
               7
100
AcDbLine
 10
-8.9000000000000057
 20
23.400000000000006
 30
0.0
 11
-10.799999999999983
 21
23.400000000000006
 31
0.0
  0
LINE
  5
34F
100
AcDbEntity
  8
0
  6
CONTINUOUS
 62
               7
100
AcDbLine
 10
-8.9000000000000057
 20
10.400000000000006
 30
0.0
 11
-10.799999999999983
 21
10.400000000000006
 31
0.0
  0
ARC
  5
350
100
AcDbEntity
  8
0
  6
CONTINUOUS
 62
               7
100
AcDbCircle
 10
-8.9000000000000057
 20
12.5
 30
0.0
 40
2.1000000000000001
100
AcDbArc
 50
270.0
 51
90.0
  0
LINE
  5
351
100
AcDbEntity
  8
0
  6
CONTINUOUS
 62
               7
100
AcDbLine
 10
-8.9000000000000057
 20
14.599999999999994
 30
0.0
 11
-10.799999999999983
 21
14.599999999999994
 31
0.0
  0
LINE
  5
352
100
AcDbEntity
  8
0
  6
CONTINUOUS
 62
               7
100
AcDbLine
 10
0.2000000000000171
 20
21.5
 30
0.0
 11
0.2000000000000171
 21
29.0
 31
0.0
  0
CIRCLE
  5
353
100
AcDbEntity
  8
0
  6
CONTINUOUS
 62
               7
100
AcDbCircle
 10
-3.4999999999999716
 20
16.5
 30
0.0
 40
0.5
  0
LINE
  5
354
100
AcDbEntity
  8
0
  6
CONTINUOUS
 62
               2
100
AcDbLine
 10
-2.4999999999999716
 20
16.5
 30
0.0
 11
-4.4999999999999716
 21
16.5
 31
0.0
  0
LINE
  5
355
100
AcDbEntity
  8
0
  6
CONTINUOUS
 62
               7
100
AcDbLine
 10
1.0000000000000284
 20
16.299999999999983
 30
0.0
 11
1.0000000000000284
 21
9.5
 31
0.0
  0
LINE
  5
356
100
AcDbEntity
  8
0
  6
CONTINUOUS
 62
               7
100
AcDbLine
 10
0.7000000000000171
 20
21.400000000000006
 30
0.0
 11
1.0000000000000284
 21
21.700000000000017
 31
0.0
  0
LINE
  5
357
100
AcDbEntity
  8
0
  6
CONTINUOUS
 62
               7
100
AcDbLine
 10
0.7000000000000171
 20
16.599999999999994
 30
0.0
 11
1.0000000000000284
 21
16.299999999999983
 31
0.0
  0
LINE
  5
358
100
AcDbEntity
  8
0
  6
CONTINUOUS
 62
               7
100
AcDbLine
 10
0.7000000000000171
 20
21.400000000000006
 30
0.0
 11
0.7000000000000171
 21
16.599999999999994
 31
0.0
  0
LINE
  5
359
100
AcDbEntity
  8
0
  6
CONTINUOUS
 62
               7
100
AcDbLine
 10
-0.7723636606027924
 20
16.5
 30
0.0
 11
0.2000000000000171
 21
16.5
 31
0.0
  0
LINE
  5
35A
100
AcDbEntity
  8
0
  6
CONTINUOUS
 62
               7
100
AcDbLine
 10
-3.4999999999999716
 20
14.799999999999997
 30
0.0
 11
0.2000000000000171
 21
14.799999999999997
 31
0.0
  0
LINE
  5
35B
100
AcDbEntity
  8
0
  6
CONTINUOUS
 62
               7
100
AcDbLine
 10
-0.7723636606027924
 20
21.5
 30
0.0
 11
0.2000000000000171
 21
21.5
 31
0.0
  0
LINE
  5
35C
100
AcDbEntity
  8
0
  6
CONTINUOUS
 62
               7
100
AcDbLine
 10
-3.4999999999999716
 20
23.200000000000003
 30
0.0
 11
0.2000000000000171
 21
23.200000000000003
 31
0.0
  0
ARC
  5
35D
100
AcDbEntity
  8
0
  6
CONTINUOUS
 62
               7
100
AcDbCircle
 10
-3.4999999999999716
 20
19.0
 30
0.0
 40
4.2000000000000028
100
AcDbArc
 50
90.0
 51
270.0
  0
CIRCLE
  5
35E
100
AcDbEntity
  8
0
  6
CONTINUOUS
 62
               7
100
AcDbCircle
 10
-3.4999999999999716
 20
19.0
 30
0.0
 40
1.2
  0
CIRCLE
  5
35F
100
AcDbEntity
  8
0
  6
CONTINUOUS
 62
               7
100
AcDbCircle
 10
-3.4999999999999716
 20
19.0
 30
0.0
 40
3.7000000000000002
  0
ENDBLK
  5
360
100
AcDbEntity
  8
0
100
AcDbBlockEnd
  0
BLOCK
  5
361
100
AcDbEntity
  8
0
100
AcDbBlockBegin
  2
MGALG6-10
 70
               0
 10
0.0
 20
0.0
 30
0.0
  3
MGALG6-10
  1

  0
LINE
  5
362
100
AcDbEntity
  8
0
  6
CONTINUOUS
 62
               2
100
AcDbLine
 10
65.5
 20
-4.0
 30
0.0
 11
60.5
 21
-4.0
 31
0.0
  0
LINE
  5
363
100
AcDbEntity
  8
0
  6
PHANTOM
 62
               3
100
AcDbLine
 10
25.278109344052154
 20
-5.4208544785292929
 30
0.0
 11
30.24781895957608
 21
-5.4208544785292929
 31
0.0
  0
LINE
  5
364
100
AcDbEntity
  8
0
  6
CONTINUOUS
 62
               2
100
AcDbLine
 10
21.000000002537263
 20
0.5
 30
0.0
 11
21.000000002537263
 21
5.5
 31
0.0
  0
LINE
  5
365
100
AcDbEntity
  8
0
  6
CONTINUOUS
 62
               2
100
AcDbLine
 10
37.000000002537263
 20
0.5
 30
0.0
 11
37.000000002537263
 21
5.5
 31
0.0
  0
LINE
  5
366
100
AcDbEntity
  8
0
  6
CONTINUOUS
 62
               7
100
AcDbLine
 10
31.249999994809627
 20
-3.0669872735742274
 30
0.0
 11
31.250000005532968
 21
-3.9330127399930461
 31
0.0
  0
LINE
  5
367
100
AcDbEntity
  8
0
  6
CONTINUOUS
 62
               7
100
AcDbLine
 10
32.000000018651519
 20
-2.6339745794537919
 30
0.0
 11
31.249999969770215
 21
-3.0669873219499095
 31
0.0
  0
LINE
  5
368
100
AcDbEntity
  8
0
  6
CONTINUOUS
 62
               7
100
AcDbLine
 10
32.750000023841835
 20
-3.0669873058795645
 30
0.0
 11
31.99999996423719
 21
-2.633974581956835
 31
0.0
  0
LINE
  5
369
100
AcDbEntity
  8
0
  6
CONTINUOUS
 62
               7
100
AcDbLine
 10
32.750000005190373
 20
-3.9330127264257726
 30
0.0
 11
32.749999994467032
 21
-3.0669872600069539
 31
0.0
  0
CIRCLE
  5
36A
100
AcDbEntity
  8
0
  6
CONTINUOUS
 62
               7
100
AcDbCircle
 10
32.0
 20
-3.5
 30
0.0
 40
1.5
  0
LINE
  5
36B
100
AcDbEntity
  8
0
  6
CONTINUOUS
 62
               7
100
AcDbLine
 10
31.249999976158165
 20
-3.9330126941204355
 30
0.0
 11
32.00000003576281
 21
-4.366025418043165
 31
0.0
  0
LINE
  5
36C
100
AcDbEntity
  8
0
  6
CONTINUOUS
 62
               7
100
AcDbLine
 10
31.999999981348481
 20
-4.3660254205462081
 30
0.0
 11
32.750000030229785
 21
-3.9330126780500905
 31
0.0
  0
CIRCLE
  5
36D
100
AcDbEntity
  8
0
  6
CONTINUOUS
 62
               2
100
AcDbCircle
 10
32.0
 20
-3.5
 30
0.0
 40
1.25
  0
LINE
  5
36E
100
AcDbEntity
  8
0
  6
CONTINUOUS
 62
               7
100
AcDbLine
 10
15.249999994809684
 20
-3.0669872735742274
 30
0.0
 11
15.250000005533025
 21
-3.9330127399930461
 31
0.0
  0
LINE
  5
36F
100
AcDbEntity
  8
0
  6
CONTINUOUS
 62
               7
100
AcDbLine
 10
16.000000018651519
 20
-2.6339745794537919
 30
0.0
 11
15.249999969770215
 21
-3.0669873219499095
 31
0.0
  0
LINE
  5
370
100
AcDbEntity
  8
0
  6
CONTINUOUS
 62
               7
100
AcDbLine
 10
16.750000023841892
 20
-3.0669873058795645
 30
0.0
 11
15.999999964237247
 21
-2.633974581956835
 31
0.0
  0
LINE
  5
371
100
AcDbEntity
  8
0
  6
CONTINUOUS
 62
               7
100
AcDbLine
 10
16.750000005190373
 20
-3.9330127264257726
 30
0.0
 11
16.749999994467032
 21
-3.0669872600069539
 31
0.0
  0
CIRCLE
  5
372
100
AcDbEntity
  8
0
  6
CONTINUOUS
 62
               7
100
AcDbCircle
 10
16.0
 20
-3.5
 30
0.0
 40
1.5
  0
LINE
  5
373
100
AcDbEntity
  8
0
  6
CONTINUOUS
 62
               7
100
AcDbLine
 10
15.249999976158165
 20
-3.9330126941204355
 30
0.0
 11
16.00000003576281
 21
-4.366025418043165
 31
0.0
  0
LINE
  5
374
100
AcDbEntity
  8
0
  6
CONTINUOUS
 62
               7
100
AcDbLine
 10
15.999999981348537
 20
-4.3660254205462081
 30
0.0
 11
16.750000030229842
 21
-3.9330126780500905
 31
0.0
  0
CIRCLE
  5
375
100
AcDbEntity
  8
0
  6
CONTINUOUS
 62
               2
100
AcDbCircle
 10
16.0
 20
-3.5
 30
0.0
 40
1.25
  0
LINE
  5
376
100
AcDbEntity
  8
0
  6
CONTINUOUS
 62
               7
100
AcDbLine
 10
7.9999999858414981
 20
-8.0
 30
0.0
 11
3.4999999858415549
 21
-8.0
 31
0.0
  0
LINE
  5
377
100
AcDbEntity
  8
0
  6
CONTINUOUS
 62
               7
100
AcDbLine
 10
8.9999999858414981
 20
0.8000000000000114
 30
0.0
 11
3.4999999858415549
 21
0.8000000000000114
 31
0.0
  0
ARC
  5
378
100
AcDbEntity
  8
0
  6
CONTINUOUS
 62
               7
100
AcDbCircle
 10
48.0
 20
0.0
 30
0.0
 40
1.7
100
AcDbArc
 50
298.07248693585325
 51
216.03187907247073
  0
CIRCLE
  5
379
100
AcDbEntity
  8
0
  6
CONTINUOUS
 62
               7
100
AcDbCircle
 10
0.0
 20
0.0
 30
0.0
 40
1.7
  0
LINE
  5
37A
100
AcDbEntity
  8
0
  6
CONTINUOUS
 62
               2
100
AcDbLine
 10
48.0
 20
2.7000000000000171
 30
0.0
 11
48.0
 21
-2.7000000000000171
 31
0.0
  0
LINE
  5
37B
100
AcDbEntity
  8
0
  6
CONTINUOUS
 62
               2
100
AcDbLine
 10
50.699999999999989
 20
0.0
 30
0.0
 11
45.300000000000011
 21
0.0
 31
0.0
  0
LINE
  5
37C
100
AcDbEntity
  8
0
  6
CONTINUOUS
 62
               2
100
AcDbLine
 10
0.0
 20
2.7000000000000171
 30
0.0
 11
0.0
 21
-2.7000000000000171
 31
0.0
  0
LINE
  5
37D
100
AcDbEntity
  8
0
  6
CONTINUOUS
 62
               2
100
AcDbLine
 10
-2.6999999999999318
 20
0.0
 30
0.0
 11
2.7000000000000455
 21
0.0
 31
0.0
  0
LINE
  5
37E
100
AcDbEntity
  8
0
  6
CONTINUOUS
 62
               7
100
AcDbLine
 10
43.0
 20
2.2000000000000171
 30
0.0
 11
5.0
 21
2.2000000000000171
 31
0.0
  0
LINE
  5
37F
100
AcDbEntity
  8
0
  6
CONTINUOUS
 62
               7
100
AcDbLine
 10
0.0
 20
-3.5
 30
0.0
 11
-3.0
 21
-3.5
 31
0.0
  0
ARC
  5
380
100
AcDbEntity
  8
0
  6
CONTINUOUS
 62
               7
100
AcDbCircle
 10
0.0
 20
0.0
 30
0.0
 40
3.5
100
AcDbArc
 50
270.0
 51
0.0
  0
LINE
  5
381
100
AcDbEntity
  8
0
  6
CONTINUOUS
 62
               7
100
AcDbLine
 10
5.0
 20
2.2000000000000171
 30
0.0
 11
5.0
 21
0.8000000000000114
 31
0.0
  0
LINE
  5
382
100
AcDbEntity
  8
0
  6
CONTINUOUS
 62
               7
100
AcDbLine
 10
-3.0
 20
3.0
 30
0.0
 11
-3.0
 21
-10.0
 31
0.0
  0
LINE
  5
383
100
AcDbEntity
  8
0
  6
CONTINUOUS
 62
               7
100
AcDbLine
 10
44.5
 20
0.0
 30
0.0
 11
44.5
 21
3.0
 31
0.0
  0
ARC
  5
384
100
AcDbEntity
  8
0
  6
CONTINUOUS
 62
               7
100
AcDbCircle
 10
48.0
 20
0.0
 30
0.0
 40
3.5
100
AcDbArc
 50
180.0
 51
214.84990457904655
  0
LINE
  5
385
100
AcDbEntity
  8
0
  6
CONTINUOUS
 62
               7
100
AcDbLine
 10
51.0
 20
3.0
 30
0.0
 11
51.0
 21
-1.5
 31
0.0
  0
LINE
  5
386
100
AcDbEntity
  8
0
  6
CONTINUOUS
 62
               7
100
AcDbLine
 10
43.0
 20
2.2000000000000171
 30
0.0
 11
43.0
 21
1.0
 31
0.0
  0
LINE
  5
387
100
AcDbEntity
  8
0
  6
CONTINUOUS
 62
               7
100
AcDbLine
 10
8.5
 20
-10.0
 30
0.0
 11
-3.0
 21
-10.0
 31
0.0
  0
LINE
  5
388
100
AcDbEntity
  8
0
  6
CONTINUOUS
 62
               7
100
AcDbLine
 10
51.0
 20
3.0
 30
0.0
 11
-3.0
 21
3.0
 31
0.0
  0
LINE
  5
389
100
AcDbEntity
  8
0
  6
CONTINUOUS
 62
               7
100
AcDbLine
 10
8.5
 20
-10.699999999999989
 30
0.0
 11
8.5
 21
-7.1999999999999886
 31
0.0
  0
ARC
  5
38A
100
AcDbEntity
  8
0
  6
CONTINUOUS
 62
               7
100
AcDbCircle
 10
8.3000000000000114
 20
-7.7999999999999829
 30
0.0
 40
0.3
100
AcDbArc
 50
90.0
 51
180.0
  0
ARC
  5
38B
100
AcDbEntity
  8
0
  6
CONTINUOUS
 62
               7
100
AcDbCircle
 10
8.3000000000000114
 20
-9.2000000000000171
 30
0.0
 40
0.3
100
AcDbArc
 50
180.0
 51
270.0
  0
LINE
  5
38C
100
AcDbEntity
  8
0
  6
CONTINUOUS
 62
               7
100
AcDbLine
 10
8.5
 20
-7.5
 30
0.0
 11
8.3000000000000114
 21
-7.5
 31
0.0
  0
LINE
  5
38D
100
AcDbEntity
  8
0
  6
CONTINUOUS
 62
               7
100
AcDbLine
 10
8.5
 20
-9.5
 30
0.0
 11
8.3000000000000114
 21
-9.5
 31
0.0
  0
LINE
  5
38E
100
AcDbEntity
  8
0
  6
CONTINUOUS
 62
               7
100
AcDbLine
 10
8.0
 20
-7.7999999999999829
 30
0.0
 11
8.0
 21
-9.2000000000000171
 31
0.0
  0
LINE
  5
38F
100
AcDbEntity
  8
0
  6
CONTINUOUS
 62
               7
100
AcDbLine
 10
8.9999999982455847
 20
-7.1999999999999886
 30
0.0
 11
8.4999999982455847
 21
-7.1999999999999886
 31
0.0
  0
LINE
  5
390
100
AcDbEntity
  8
0
  6
CONTINUOUS
 62
               7
100
AcDbLine
 10
8.9999999982455847
 20
-10.699999999999989
 30
0.0
 11
8.4999999982455847
 21
-10.699999999999989
 31
0.0
  0
LINE
  5
391
100
AcDbEntity
  8
0
  6
CONTINUOUS
 62
               7
100
AcDbLine
 10
44.0
 20
1.0
 30
0.0
 11
5.0
 21
1.0
 31
0.0
  0
LINE
  5
392
100
AcDbEntity
  8
0
  6
CONTINUOUS
 62
               7
100
AcDbLine
 10
48.0
 20
-11.0
 30
0.0
 11
9.0
 21
-11.0
 31
0.0
  0
LINE
  5
393
100
AcDbEntity
  8
0
  6
CONTINUOUS
 62
               7
100
AcDbLine
 10
9.0
 20
1.0
 30
0.0
 11
9.0
 21
-11.0
 31
0.0
  0
LINE
  5
394
100
AcDbEntity
  8
0
  6
CONTINUOUS
 62
               7
100
AcDbLine
 10
44.0
 20
1.0
 30
0.0
 11
44.0
 21
-7.0
 31
0.0
  0
LINE
  5
395
100
AcDbEntity
  8
0
  6
CONTINUOUS
 62
               7
100
AcDbLine
 10
48.000000024143901
 20
-7.0
 30
0.0
 11
9.0
 21
-7.0
 31
0.0
  0
LINE
  5
396
100
AcDbEntity
  8
0
  6
CONTINUOUS
 62
               7
100
AcDbLine
 10
48.000000024143901
 20
-7.0
 30
0.0
 11
48.000000024143901
 21
-10.999999986309405
 31
0.0
  0
CIRCLE
  5
397
100
AcDbEntity
  8
0
  6
CONTINUOUS
 62
               7
100
AcDbCircle
 10
12.0
 20
-2.1999999999999886
 30
0.0
 40
0.8
  0
CIRCLE
  5
398
100
AcDbEntity
  8
0
  6
CONTINUOUS
 62
               2
100
AcDbCircle
 10
12.0
 20
-2.1999999999999886
 30
0.0
 40
1.0
  0
LINE
  5
399
100
AcDbEntity
  8
0
  6
CONTINUOUS
 62
               2
100
AcDbLine
 10
14.0
 20
-2.1999999999999886
 30
0.0
 11
10.0
 21
-2.1999999999999886
 31
0.0
  0
LINE
  5
39A
100
AcDbEntity
  8
0
  6
CONTINUOUS
 62
               2
100
AcDbLine
 10
12.0
 20
-0.1999999999999886
 30
0.0
 11
12.0
 21
-4.1999999999999886
 31
0.0
  0
CIRCLE
  5
39B
100
AcDbEntity
  8
0
  6
CONTINUOUS
 62
               7
100
AcDbCircle
 10
14.0
 20
-8.9000000000000057
 30
0.0
 40
0.8
  0
CIRCLE
  5
39C
100
AcDbEntity
  8
0
  6
CONTINUOUS
 62
               2
100
AcDbCircle
 10
14.0
 20
-8.9000000000000057
 30
0.0
 40
1.0
  0
LINE
  5
39D
100
AcDbEntity
  8
0
  6
CONTINUOUS
 62
               2
100
AcDbLine
 10
16.0
 20
-8.9000000000000057
 30
0.0
 11
12.0
 21
-8.9000000000000057
 31
0.0
  0
LINE
  5
39E
100
AcDbEntity
  8
0
  6
CONTINUOUS
 62
               2
100
AcDbLine
 10
14.0
 20
-6.9000000000000057
 30
0.0
 11
14.0
 21
-10.900000000000006
 31
0.0
  0
CIRCLE
  5
39F
100
AcDbEntity
  8
0
  6
CONTINUOUS
 62
               7
100
AcDbCircle
 10
28.0
 20
-8.9000000000000057
 30
0.0
 40
0.8
  0
CIRCLE
  5
3A0
100
AcDbEntity
  8
0
  6
CONTINUOUS
 62
               2
100
AcDbCircle
 10
28.0
 20
-8.9000000000000057
 30
0.0
 40
1.0
  0
LINE
  5
3A1
100
AcDbEntity
  8
0
  6
CONTINUOUS
 62
               2
100
AcDbLine
 10
30.0
 20
-8.9000000000000057
 30
0.0
 11
26.0
 21
-8.9000000000000057
 31
0.0
  0
LINE
  5
3A2
100
AcDbEntity
  8
0
  6
CONTINUOUS
 62
               2
100
AcDbLine
 10
28.0
 20
-6.9000000000000057
 30
0.0
 11
28.0
 21
-10.900000000000006
 31
0.0
  0
CIRCLE
  5
3A3
100
AcDbEntity
  8
0
  6
CONTINUOUS
 62
               7
100
AcDbCircle
 10
41.0
 20
-2.1999999999999886
 30
0.0
 40
0.8
  0
CIRCLE
  5
3A4
100
AcDbEntity
  8
0
  6
CONTINUOUS
 62
               2
100
AcDbCircle
 10
41.0
 20
-2.1999999999999886
 30
0.0
 40
1.0
  0
LINE
  5
3A5
100
AcDbEntity
  8
0
  6
CONTINUOUS
 62
               2
100
AcDbLine
 10
43.0
 20
-2.1999999999999886
 30
0.0
 11
39.0
 21
-2.1999999999999886
 31
0.0
  0
LINE
  5
3A6
100
AcDbEntity
  8
0
  6
CONTINUOUS
 62
               2
100
AcDbLine
 10
41.0
 20
-0.1999999999999886
 30
0.0
 11
41.0
 21
-4.1999999999999886
 31
0.0
  0
LINE
  5
3A7
100
AcDbEntity
  8
0
  6
CONTINUOUS
 62
               7
100
AcDbLine
 10
44.000000024143901
 20
-6.5
 30
0.0
 11
3.5000000025372628
 21
-6.5
 31
0.0
  0
LINE
  5
3A8
100
AcDbEntity
  8
0
  6
CONTINUOUS
 62
               7
100
AcDbLine
 10
34.5
 20
-6.5000000136905953
 30
0.0
 11
34.5
 21
-4.0
 31
0.0
  0
LINE
  5
3A9
100
AcDbEntity
  8
0
  6
CONTINUOUS
 62
               7
100
AcDbLine
 10
39.5
 20
-6.5000000136905953
 30
0.0
 11
39.5
 21
-4.0
 31
0.0
  0
LINE
  5
3AA
100
AcDbEntity
  8
0
  6
CONTINUOUS
 62
               7
100
AcDbLine
 10
39.5
 20
-4.0
 30
0.0
 11
34.5
 21
-4.0
 31
0.0
  0
LINE
  5
3AB
100
AcDbEntity
  8
0
  6
CONTINUOUS
 62
               7
100
AcDbLine
 10
18.5
 20
-6.5000000136905953
 30
0.0
 11
18.5
 21
-4.0
 31
0.0
  0
LINE
  5
3AC
100
AcDbEntity
  8
0
  6
CONTINUOUS
 62
               7
100
AcDbLine
 10
23.5
 20
-6.5000000136905953
 30
0.0
 11
23.5
 21
-4.0
 31
0.0
  0
LINE
  5
3AD
100
AcDbEntity
  8
0
  6
CONTINUOUS
 62
               7
100
AcDbLine
 10
23.5
 20
-4.0
 30
0.0
 11
18.5
 21
-4.0
 31
0.0
  0
LINE
  5
3AE
100
AcDbEntity
  8
0
  6
CONTINUOUS
 62
               7
100
AcDbLine
 10
48.0
 20
-10.5
 30
0.0
 11
9.0
 21
-10.5
 31
0.0
  0
LINE
  5
3AF
100
AcDbEntity
  8
0
  6
CONTINUOUS
 62
               2
100
AcDbLine
 10
55.398476515372579
 20
-3.5
 30
0.0
 11
42.840896808936577
 21
-3.5
 31
0.0
  0
LINE
  5
3B0
100
AcDbEntity
  8
0
  6
CONTINUOUS
 62
               7
100
AcDbLine
 10
63.0
 20
-10.299999999999983
 30
0.0
 11
48.0
 21
-10.299999999999983
 31
0.0
  0
LINE
  5
3B1
100
AcDbEntity
  8
0
  6
CONTINUOUS
 62
               7
100
AcDbLine
 10
63.0
 20
-10.799999999999983
 30
0.0
 11
48.000000024143901
 21
-10.799999999999983
 31
0.0
  0
LINE
  5
3B2
100
AcDbEntity
  8
0
  6
CONTINUOUS
 62
               7
100
AcDbLine
 10
51.699999999999932
 20
-5.5
 30
0.0
 11
47.499999999999886
 21
-5.5
 31
0.0
  0
LINE
  5
3B3
100
AcDbEntity
  8
0
  6
CONTINUOUS
 62
               7
100
AcDbLine
 10
51.699999999999932
 20
-1.5
 30
0.0
 11
47.499999999999886
 21
-1.5
 31
0.0
  0
LINE
  5
3B4
100
AcDbEntity
  8
0
  6
PHANTOM
 62
               2
100
AcDbLine
 10
53.049999999999955
 20
-0.5
 30
0.0
 11
46.349999999999909
 21
-0.5
 31
0.0
  0
LINE
  5
3B5
100
AcDbEntity
  8
0
  6
PHANTOM
 62
               2
100
AcDbLine
 10
53.049999999999955
 20
-0.799999999999983
 30
0.0
 11
46.349999999999909
 21
-0.799999999999983
 31
0.0
  0
LINE
  5
3B6
100
AcDbEntity
  8
0
  6
CONTINUOUS
 62
               7
100
AcDbLine
 10
54.0
 20
-6.0
 30
0.0
 11
46.199999999999932
 21
-6.0
 31
0.0
  0
LINE
  5
3B7
100
AcDbEntity
  8
0
  6
CONTINUOUS
 62
               7
100
AcDbLine
 10
63.0
 20
0.2000000000000171
 30
0.0
 11
53.199999999999932
 21
0.2000000000000171
 31
0.0
  0
LINE
  5
3B8
100
AcDbEntity
  8
0
  6
CONTINUOUS
 62
               7
100
AcDbLine
 10
54.0
 20
-6.0
 30
0.0
 11
54.0
 21
0.2000000000000171
 31
0.0
  0
LINE
  5
3B9
100
AcDbEntity
  8
0
  6
CONTINUOUS
 62
               7
100
AcDbLine
 10
63.0
 20
-10.799999999999983
 30
0.0
 11
63.0
 21
0.2000000000000171
 31
0.0
  0
LINE
  5
3BA
100
AcDbEntity
  8
0
  6
CONTINUOUS
 62
               7
100
AcDbLine
 10
51.699999999999932
 20
-6.0
 30
0.0
 11
51.699999999999932
 21
-1.0
 31
0.0
  0
LINE
  5
3BB
100
AcDbEntity
  8
0
  6
CONTINUOUS
 62
               7
100
AcDbLine
 10
53.199999999999932
 20
0.2000000000000171
 30
0.0
 11
53.199999999999932
 21
-6.0
 31
0.0
  0
LINE
  5
3BC
100
AcDbEntity
  8
0
  6
CONTINUOUS
 62
               7
100
AcDbLine
 10
51.699999999999932
 20
-1.0
 30
0.0
 11
53.199999999999932
 21
-1.0
 31
0.0
  0
CIRCLE
  5
3BD
100
AcDbEntity
  8
0
  6
CONTINUOUS
 62
               7
100
AcDbCircle
 10
53.049999999999955
 20
-0.6500000000000057
 30
0.0
 40
0.15
  0
LINE
  5
3BE
100
AcDbEntity
  8
0
  6
CONTINUOUS
 62
               2
100
AcDbLine
 10
45.499999999999943
 20
-2.1999999999999886
 30
0.0
 11
45.153589838486141
 21
-2.0
 31
0.0
  0
LINE
  5
3BF
100
AcDbEntity
  8
0
  6
CONTINUOUS
 62
               2
100
AcDbLine
 10
45.5
 20
-4.7999999999999829
 30
0.0
 11
45.153589838486255
 21
-5.0
 31
0.0
  0
LINE
  5
3C0
100
AcDbEntity
  8
0
  6
CONTINUOUS
 62
               2
100
AcDbLine
 10
46.199999999999932
 20
-4.7000000000000171
 30
0.0
 11
45.699999999999932
 21
-2.3000000000000114
 31
0.0
  0
LINE
  5
3C1
100
AcDbEntity
  8
0
  6
CONTINUOUS
 62
               2
100
AcDbLine
 10
45.699999999999932
 20
-4.7000000000000171
 30
0.0
 11
46.199999999999932
 21
-2.3000000000000114
 31
0.0
  0
LINE
  5
3C2
100
AcDbEntity
  8
0
  6
CONTINUOUS
 62
               7
100
AcDbLine
 10
46.199999999999932
 20
-2.3000000000000114
 30
0.0
 11
45.699999999999932
 21
-2.3000000000000114
 31
0.0
  0
LINE
  5
3C3
100
AcDbEntity
  8
0
  6
CONTINUOUS
 62
               7
100
AcDbLine
 10
46.199999999999932
 20
-4.7000000000000171
 30
0.0
 11
45.699999999999932
 21
-4.7000000000000171
 31
0.0
  0
LINE
  5
3C4
100
AcDbEntity
  8
0
  6
CONTINUOUS
 62
               7
100
AcDbLine
 10
45.699999999999932
 20
-0.3000000000000114
 30
0.0
 11
45.499999999999943
 21
-0.3000000000000114
 31
0.0
  0
LINE
  5
3C5
100
AcDbEntity
  8
0
  6
CONTINUOUS
 62
               7
100
AcDbLine
 10
45.699999999999932
 20
-6.7000000000000171
 30
0.0
 11
45.499999999999943
 21
-6.7000000000000171
 31
0.0
  0
LINE
  5
3C6
100
AcDbEntity
  8
0
  6
CONTINUOUS
 62
               7
100
AcDbLine
 10
45.699999999999932
 20
0.1999999999999886
 30
0.0
 11
45.699999999999932
 21
-7.0
 31
0.0
  0
LINE
  5
3C7
100
AcDbEntity
  8
0
  6
CONTINUOUS
 62
               7
100
AcDbLine
 10
46.199999999999932
 20
0.1999999999999886
 30
0.0
 11
45.699999999999932
 21
0.1999999999999886
 31
0.0
  0
LINE
  5
3C8
100
AcDbEntity
  8
0
  6
CONTINUOUS
 62
               7
100
AcDbLine
 10
46.199999999999932
 20
-7.0
 30
0.0
 11
46.199999999999932
 21
0.1999999999999886
 31
0.0
  0
LINE
  5
3C9
100
AcDbEntity
  8
0
  6
CONTINUOUS
 62
               7
100
AcDbLine
 10
47.499999999999886
 20
-6.0
 30
0.0
 11
47.499999999999886
 21
-1.0
 31
0.0
  0
LINE
  5
3CA
100
AcDbEntity
  8
0
  6
CONTINUOUS
 62
               7
100
AcDbLine
 10
47.499999999999886
 20
-1.0
 30
0.0
 11
46.199999999999932
 21
-1.0
 31
0.0
  0
LINE
  5
3CB
100
AcDbEntity
  8
0
  6
CONTINUOUS
 62
               7
100
AcDbLine
 10
45.499999999999943
 20
-0.3000000000000114
 30
0.0
 11
45.499999999999943
 21
-6.7000000000000171
 31
0.0
  0
CIRCLE
  5
3CC
100
AcDbEntity
  8
0
  6
CONTINUOUS
 62
               7
100
AcDbCircle
 10
46.349999999999909
 20
-6.3499999999999943
 30
0.0
 40
0.15
  0
CIRCLE
  5
3CD
100
AcDbEntity
  8
0
  6
CONTINUOUS
 62
               7
100
AcDbCircle
 10
46.349999999999909
 20
-0.6500000000000057
 30
0.0
 40
0.15
  0
LINE
  5
3CE
100
AcDbEntity
  8
0
  6
CONTINUOUS
 62
               7
100
AcDbLine
 10
47.000000024143901
 20
-6.0
 30
0.0
 11
47.000000024143901
 21
-7.0
 31
0.0
  0
LINE
  5
3CF
100
AcDbEntity
  8
0
  6
PHANTOM
 62
               2
100
AcDbLine
 10
47.000000024143901
 20
-6.2000000000000171
 30
0.0
 11
46.349999999999909
 21
-6.2000000000000171
 31
0.0
  0
LINE
  5
3D0
100
AcDbEntity
  8
0
  6
PHANTOM
 62
               2
100
AcDbLine
 10
47.000000024143901
 20
-6.5
 30
0.0
 11
46.349999999999909
 21
-6.5
 31
0.0
  0
LINE
  5
3D1
100
AcDbEntity
  8
0
  6
CONTINUOUS
 62
               7
100
AcDbLine
 10
45.5
 20
-5.0
 30
0.0
 11
44.0
 21
-5.0
 31
0.0
  0
LINE
  5
3D2
100
AcDbEntity
  8
0
  6
CONTINUOUS
 62
               7
100
AcDbLine
 10
45.5
 20
-2.0
 30
0.0
 11
44.0
 21
-2.0
 31
0.0
  0
LINE
  5
3D3
100
AcDbEntity
  8
0
  6
CONTINUOUS
 62
               7
100
AcDbLine
 10
3.5000000025372628
 20
-8.0
 30
0.0
 11
3.5
 21
3.0
 31
0.0
  0
LINE
  5
3D4
100
AcDbEntity
  8
0
  6
PHANTOM
 62
               3
100
AcDbLine
 10
30.24781895957608
 20
-5.4208544785292929
 30
0.0
 11
30.24781895957608
 21
-27.784547748387027
 31
0.0
  0
LINE
  5
3D5
100
AcDbEntity
  8
0
  6
PHANTOM
 62
               3
100
AcDbLine
 10
25.278109344052154
 20
13.0
 30
0.0
 11
25.278109344052154
 21
-5.4208544785292929
 31
0.0
  0
ENDBLK
  5
3D6
100
AcDbEntity
  8
0
100
AcDbBlockEnd
  0
BLOCK
  5
3D7
100
AcDbEntity
  8
0
100
AcDbBlockBegin
  2
MGALG6-11
 70
               0
 10
0.0
 20
0.0
 30
0.0
  3
MGALG6-11
  1

  0
LINE
  5
3D8
100
AcDbEntity
  8
0
  6
CONTINUOUS
 62
               2
100
AcDbLine
 10
65.5
 20
4.0
 30
0.0
 11
60.5
 21
4.0
 31
0.0
  0
CIRCLE
  5
3D9
100
AcDbEntity
  8
0
  6
CONTINUOUS
 62
               7
100
AcDbCircle
 10
48.0
 20
7.0
 30
0.0
 40
1.5
  0
LINE
  5
3DA
100
AcDbEntity
  8
0
  6
CONTINUOUS
 62
               2
100
AcDbLine
 10
48.0
 20
4.5
 30
0.0
 11
48.0
 21
9.5
 31
0.0
  0
LINE
  5
3DB
100
AcDbEntity
  8
0
  6
CONTINUOUS
 62
               2
100
AcDbLine
 10
50.5
 20
7.0
 30
0.0
 11
45.5
 21
7.0
 31
0.0
  0
CIRCLE
  5
3DC
100
AcDbEntity
  8
0
  6
CONTINUOUS
 62
               7
100
AcDbCircle
 10
0.0
 20
7.0
 30
0.0
 40
1.5
  0
LINE
  5
3DD
100
AcDbEntity
  8
0
  6
CONTINUOUS
 62
               2
100
AcDbLine
 10
0.0
 20
4.5
 30
0.0
 11
0.0
 21
9.5
 31
0.0
  0
LINE
  5
3DE
100
AcDbEntity
  8
0
  6
CONTINUOUS
 62
               2
100
AcDbLine
 10
2.5
 20
7.0
 30
0.0
 11
-2.5
 21
7.0
 31
0.0
  0
CIRCLE
  5
3DF
100
AcDbEntity
  8
0
  6
CONTINUOUS
 62
               7
100
AcDbCircle
 10
48.0
 20
0.0
 30
0.0
 40
1.7
  0
LINE
  5
3E0
100
AcDbEntity
  8
0
  6
CONTINUOUS
 62
               2
100
AcDbLine
 10
48.0
 20
-2.7000000000000171
 30
0.0
 11
48.0
 21
2.7000000000000028
 31
0.0
  0
LINE
  5
3E1
100
AcDbEntity
  8
0
  6
CONTINUOUS
 62
               2
100
AcDbLine
 10
45.300000000000011
 20
0.0
 30
0.0
 11
50.699999999999989
 21
0.0
 31
0.0
  0
LINE
  5
3E2
100
AcDbEntity
  8
0
  6
CONTINUOUS
 62
               7
100
AcDbLine
 10
51.0
 20
-3.0
 30
0.0
 11
51.0
 21
10.0
 31
0.0
  0
LINE
  5
3E3
100
AcDbEntity
  8
0
  6
CONTINUOUS
 62
               7
100
AcDbLine
 10
51.0
 20
10.0
 30
0.0
 11
-3.0
 21
10.0
 31
0.0
  0
CIRCLE
  5
3E4
100
AcDbEntity
  8
0
  6
CONTINUOUS
 62
               7
100
AcDbCircle
 10
0.0
 20
0.0
 30
0.0
 40
1.7
  0
LINE
  5
3E5
100
AcDbEntity
  8
0
  6
CONTINUOUS
 62
               2
100
AcDbLine
 10
0.0
 20
-2.7000000000000171
 30
0.0
 11
0.0
 21
2.7000000000000028
 31
0.0
  0
LINE
  5
3E6
100
AcDbEntity
  8
0
  6
CONTINUOUS
 62
               2
100
AcDbLine
 10
-2.6999999999999318
 20
0.0
 30
0.0
 11
2.7000000000000455
 21
0.0
 31
0.0
  0
LINE
  5
3E7
100
AcDbEntity
  8
0
  6
CONTINUOUS
 62
               7
100
AcDbLine
 10
-3.0
 20
-3.0
 30
0.0
 11
-3.0
 21
10.0
 31
0.0
  0
LINE
  5
3E8
100
AcDbEntity
  8
0
  6
CONTINUOUS
 62
               7
100
AcDbLine
 10
51.0
 20
-3.0
 30
0.0
 11
-3.0
 21
-3.0
 31
0.0
  0
LINE
  5
3E9
100
AcDbEntity
  8
0
  6
CONTINUOUS
 62
               7
100
AcDbLine
 10
8.5
 20
10.699999999999989
 30
0.0
 11
8.5
 21
10.0
 31
0.0
  0
LINE
  5
3EA
100
AcDbEntity
  8
0
  6
CONTINUOUS
 62
               7
100
AcDbLine
 10
8.9999999982455847
 20
10.699999999999989
 30
0.0
 11
8.4999999982455847
 21
10.699999999999989
 31
0.0
  0
LINE
  5
3EB
100
AcDbEntity
  8
0
  6
CONTINUOUS
 62
               7
100
AcDbLine
 10
48.0
 20
10.5
 30
0.0
 11
9.0
 21
10.5
 31
0.0
  0
LINE
  5
3EC
100
AcDbEntity
  8
0
  6
CONTINUOUS
 62
               7
100
AcDbLine
 10
48.000000024143901
 20
10.0
 30
0.0
 11
48.000000024143901
 21
10.99999998630939
 31
0.0
  0
LINE
  5
3ED
100
AcDbEntity
  8
0
  6
CONTINUOUS
 62
               7
100
AcDbLine
 10
9.0
 20
10.0
 30
0.0
 11
9.0
 21
11.0
 31
0.0
  0
LINE
  5
3EE
100
AcDbEntity
  8
0
  6
CONTINUOUS
 62
               7
100
AcDbLine
 10
48.0
 20
11.0
 30
0.0
 11
9.0
 21
11.0
 31
0.0
  0
CIRCLE
  5
3EF
100
AcDbEntity
  8
0
  6
CONTINUOUS
 62
               7
100
AcDbCircle
 10
32.0
 20
3.5
 30
0.0
 40
4.25
  0
CIRCLE
  5
3F0
100
AcDbEntity
  8
0
  6
CONTINUOUS
 62
               7
100
AcDbCircle
 10
32.0
 20
3.5
 30
0.0
 40
3.5
  0
LINE
  5
3F1
100
AcDbEntity
  8
0
  6
CONTINUOUS
 62
               7
100
AcDbLine
 10
32.999999995231633
 20
4.0773502697635422
 30
0.0
 11
31.999999983310715
 21
4.6547005464721423
 31
0.0
  0
LINE
  5
3F2
100
AcDbEntity
  8
0
  6
CONTINUOUS
 62
               7
100
AcDbLine
 10
32.999999998112855
 20
2.9226497352268552
 30
0.0
 11
32.999999998664009
 21
4.077350287689427
 31
0.0
  0
LINE
  5
3F3
100
AcDbEntity
  8
0
  6
CONTINUOUS
 62
               7
100
AcDbLine
 10
32.000000002881222
 20
2.3452994654633272
 30
0.0
 11
33.000000015353294
 21
2.9226497412172989
 31
0.0
  0
LINE
  5
3F4
100
AcDbEntity
  8
0
  6
CONTINUOUS
 62
               7
100
AcDbLine
 10
31.000000004768367
 20
2.9226497302364578
 30
0.0
 11
32.000000016689285
 21
2.3452994535278577
 31
0.0
  0
LINE
  5
3F5
100
AcDbEntity
  8
0
  6
CONTINUOUS
 62
               7
100
AcDbLine
 10
31.000000001887202
 20
4.0773502647731448
 30
0.0
 11
31.000000001335991
 21
2.922649712310573
 31
0.0
  0
LINE
  5
3F6
100
AcDbEntity
  8
0
  6
CONTINUOUS
 62
               7
100
AcDbLine
 10
31.999999997118778
 20
4.6547005345366728
 30
0.0
 11
30.999999984646706
 21
4.0773502587827153
 31
0.0
  0
CIRCLE
  5
3F7
100
AcDbEntity
  8
0
  6
CONTINUOUS
 62
               7
100
AcDbCircle
 10
32.0
 20
3.5
 30
0.0
 40
2.6000000000000001
  0
CIRCLE
  5
3F8
100
AcDbEntity
  8
0
  6
CONTINUOUS
 62
               7
100
AcDbCircle
 10
16.0
 20
3.5
 30
0.0
 40
4.25
  0
CIRCLE
  5
3F9
100
AcDbEntity
  8
0
  6
CONTINUOUS
 62
               7
100
AcDbCircle
 10
16.0
 20
3.5
 30
0.0
 40
3.5
  0
LINE
  5
3FA
100
AcDbEntity
  8
0
  6
CONTINUOUS
 62
               7
100
AcDbLine
 10
16.999999995231633
 20
4.0773502697635422
 30
0.0
 11
15.999999983310715
 21
4.6547005464721423
 31
0.0
  0
LINE
  5
3FB
100
AcDbEntity
  8
0
  6
CONTINUOUS
 62
               7
100
AcDbLine
 10
16.999999998112855
 20
2.9226497352268552
 30
0.0
 11
16.999999998664009
 21
4.077350287689427
 31
0.0
  0
LINE
  5
3FC
100
AcDbEntity
  8
0
  6
CONTINUOUS
 62
               7
100
AcDbLine
 10
16.000000002881222
 20
2.3452994654633272
 30
0.0
 11
17.000000015353294
 21
2.9226497412172989
 31
0.0
  0
LINE
  5
3FD
100
AcDbEntity
  8
0
  6
CONTINUOUS
 62
               7
100
AcDbLine
 10
15.000000004768367
 20
2.9226497302364578
 30
0.0
 11
16.000000016689341
 21
2.3452994535278577
 31
0.0
  0
LINE
  5
3FE
100
AcDbEntity
  8
0
  6
CONTINUOUS
 62
               7
100
AcDbLine
 10
15.000000001887202
 20
4.0773502647731448
 30
0.0
 11
15.000000001336048
 21
2.922649712310573
 31
0.0
  0
LINE
  5
3FF
100
AcDbEntity
  8
0
  6
CONTINUOUS
 62
               7
100
AcDbLine
 10
15.999999997118834
 20
4.6547005345366728
 30
0.0
 11
14.999999984646706
 21
4.0773502587827153
 31
0.0
  0
CIRCLE
  5
400
100
AcDbEntity
  8
0
  6
CONTINUOUS
 62
               7
100
AcDbCircle
 10
16.0
 20
3.5
 30
0.0
 40
2.6000000000000001
  0
CIRCLE
  5
401
100
AcDbEntity
  8
0
  6
CONTINUOUS
 62
               7
100
AcDbCircle
 10
53.049999999999955
 20
0.6500000000000057
 30
0.0
 40
0.15
  0
LINE
  5
402
100
AcDbEntity
  8
0
  6
CONTINUOUS
 62
               7
100
AcDbLine
 10
51.699999999999932
 20
1.0
 30
0.0
 11
53.199999999999932
 21
1.0
 31
0.0
  0
LINE
  5
403
100
AcDbEntity
  8
0
  6
CONTINUOUS
 62
               7
100
AcDbLine
 10
53.199999999999932
 20
-0.2000000000000028
 30
0.0
 11
53.199999999999932
 21
6.0
 31
0.0
  0
LINE
  5
404
100
AcDbEntity
  8
0
  6
CONTINUOUS
 62
               7
100
AcDbLine
 10
51.699999999999932
 20
6.0
 30
0.0
 11
51.699999999999932
 21
1.0
 31
0.0
  0
LINE
  5
405
100
AcDbEntity
  8
0
  6
CONTINUOUS
 62
               7
100
AcDbLine
 10
63.0
 20
10.799999999999997
 30
0.0
 11
63.0
 21
-0.2000000000000028
 31
0.0
  0
LINE
  5
406
100
AcDbEntity
  8
0
  6
CONTINUOUS
 62
               7
100
AcDbLine
 10
54.0
 20
6.0
 30
0.0
 11
54.0
 21
-0.2000000000000028
 31
0.0
  0
LINE
  5
407
100
AcDbEntity
  8
0
  6
CONTINUOUS
 62
               7
100
AcDbLine
 10
63.0
 20
-0.2000000000000028
 30
0.0
 11
53.199999999999932
 21
-0.2000000000000028
 31
0.0
  0
LINE
  5
408
100
AcDbEntity
  8
0
  6
CONTINUOUS
 62
               7
100
AcDbLine
 10
54.0
 20
6.0
 30
0.0
 11
51.0
 21
6.0
 31
0.0
  0
LINE
  5
409
100
AcDbEntity
  8
0
  6
PHANTOM
 62
               2
100
AcDbLine
 10
53.049999999999955
 20
0.7999999999999972
 30
0.0
 11
51.0
 21
0.7999999999999972
 31
0.0
  0
LINE
  5
40A
100
AcDbEntity
  8
0
  6
PHANTOM
 62
               2
100
AcDbLine
 10
53.049999999999955
 20
0.5
 30
0.0
 11
51.0
 21
0.5
 31
0.0
  0
LINE
  5
40B
100
AcDbEntity
  8
0
  6
CONTINUOUS
 62
               7
100
AcDbLine
 10
51.699999999999932
 20
1.5
 30
0.0
 11
51.0
 21
1.5
 31
0.0
  0
LINE
  5
40C
100
AcDbEntity
  8
0
  6
CONTINUOUS
 62
               7
100
AcDbLine
 10
51.699999999999932
 20
5.5
 30
0.0
 11
51.0
 21
5.5
 31
0.0
  0
LINE
  5
40D
100
AcDbEntity
  8
0
  6
CONTINUOUS
 62
               2
100
AcDbLine
 10
55.398476515372579
 20
3.5
 30
0.0
 11
48.189536545648309
 21
3.5
 31
0.0
  0
LINE
  5
40E
100
AcDbEntity
  8
0
  6
CONTINUOUS
 62
               7
100
AcDbLine
 10
63.0
 20
10.799999999999997
 30
0.0
 11
48.000000024143901
 21
10.799999999999997
 31
0.0
  0
LINE
  5
40F
100
AcDbEntity
  8
0
  6
CONTINUOUS
 62
               7
100
AcDbLine
 10
63.0
 20
10.299999999999997
 30
0.0
 11
48.0
 21
10.299999999999997
 31
0.0
  0
LINE
  5
410
100
AcDbEntity
  8
0
  6
CENTER
 62
               3
100
AcDbLine
 10
24.0
 20
27.699746894079865
 30
0.0
 11
24.0
 21
-17.005390319101792
 31
0.0
  0
ENDBLK
  5
411
100
AcDbEntity
  8
0
100
AcDbBlockEnd
  0
BLOCK
  5
412
100
AcDbEntity
  8
0
100
AcDbBlockBegin
  2
MGALG6-12
 70
               0
 10
0.0
 20
0.0
 30
0.0
  3
MGALG6-12
  1

  0
LINE
  5
413
100
AcDbEntity
  8
0
  6
CONTINUOUS
 62
               2
100
AcDbLine
 10
65.5
 20
-26.0
 30
0.0
 11
60.5
 21
-26.0
 31
0.0
  0
LINE
  5
414
100
AcDbEntity
  8
0
  6
CONTINUOUS
 62
               2
100
AcDbLine
 10
65.5
 20
-12.0
 30
0.0
 11
60.5
 21
-12.0
 31
0.0
  0
LINE
  5
415
100
AcDbEntity
  8
0
  6
CONTINUOUS
 62
               2
100
AcDbLine
 10
0.0
 20
-6.2000000000000028
 30
0.0
 11
0.0
 21
1.2000000000000028
 31
0.0
  0
LINE
  5
416
100
AcDbEntity
  8
0
  6
CONTINUOUS
 62
               2
100
AcDbLine
 10
47.999999999999972
 20
-6.2000000000000028
 30
0.0
 11
47.999999999999972
 21
1.2000000000000028
 31
0.0
  0
LINE
  5
417
100
AcDbEntity
  8
0
  6
CENTER
 62
               3
100
AcDbLine
 10
23.999999997462737
 20
10.0
 30
0.0
 11
23.999999997462737
 21
-39.0
 31
0.0
  0
LINE
  5
418
100
AcDbEntity
  8
0
  6
CONTINUOUS
 62
               2
100
AcDbLine
 10
17.700000000000045
 20
-5.9999999999999716
 30
0.0
 11
14.300000000000068
 21
-5.9999999999999716
 31
0.0
  0
CIRCLE
  5
419
100
AcDbEntity
  8
0
  6
CONTINUOUS
 62
               7
100
AcDbCircle
 10
16.000000000000057
 20
-5.9999999999999716
 30
0.0
 40
1.1000000000000001
  0
LINE
  5
41A
100
AcDbEntity
  8
0
  6
CONTINUOUS
 62
               2
100
AcDbLine
 10
16.000000000000057
 20
-4.2999999999999829
 30
0.0
 11
16.000000000000057
 21
-7.7000000000000171
 31
0.0
  0
LINE
  5
41B
100
AcDbEntity
  8
0
  6
CONTINUOUS
 62
               2
100
AcDbLine
 10
33.700000000000045
 20
-5.9999999999999716
 30
0.0
 11
30.300000000000068
 21
-5.9999999999999716
 31
0.0
  0
CIRCLE
  5
41C
100
AcDbEntity
  8
0
  6
CONTINUOUS
 62
               7
100
AcDbCircle
 10
32.0
 20
-5.9999999999999716
 30
0.0
 40
1.1000000000000001
  0
LINE
  5
41D
100
AcDbEntity
  8
0
  6
CONTINUOUS
 62
               2
100
AcDbLine
 10
32.0
 20
-4.2999999999999829
 30
0.0
 11
32.0
 21
-7.7000000000000171
 31
0.0
  0
LINE
  5
41E
100
AcDbEntity
  8
0
  6
CONTINUOUS
 62
               7
100
AcDbLine
 10
5.0
 20
-10.0
 30
0.0
 11
3.5
 21
-10.0
 31
0.0
  0
LINE
  5
41F
100
AcDbEntity
  8
0
  6
CONTINUOUS
 62
               7
100
AcDbLine
 10
3.5
 20
-28.0
 30
0.0
 11
3.5
 21
-10.0
 31
0.0
  0
LINE
  5
420
100
AcDbEntity
  8
0
  6
CONTINUOUS
 62
               7
100
AcDbLine
 10
9.0
 20
-28.0
 30
0.0
 11
3.5
 21
-28.0
 31
0.0
  0
LINE
  5
421
100
AcDbEntity
  8
0
  6
CONTINUOUS
 62
               7
100
AcDbLine
 10
3.5
 20
-8.3000000000000114
 30
0.0
 11
3.5
 21
-5.0
 31
0.0
  0
LINE
  5
422
100
AcDbEntity
  8
0
  6
CONTINUOUS
 62
               7
100
AcDbLine
 10
-3.0
 20
-5.0
 30
0.0
 11
3.5
 21
-5.0
 31
0.0
  0
LINE
  5
423
100
AcDbEntity
  8
0
  6
CONTINUOUS
 62
               7
100
AcDbLine
 10
51.0
 20
-5.0
 30
0.0
 11
44.5
 21
-5.0
 31
0.0
  0
LINE
  5
424
100
AcDbEntity
  8
0
  6
CONTINUOUS
 62
               7
100
AcDbLine
 10
44.5
 20
-8.3000000000000114
 30
0.0
 11
44.5
 21
-5.0
 31
0.0
  0
LINE
  5
425
100
AcDbEntity
  8
0
  6
CONTINUOUS
 62
               7
100
AcDbLine
 10
43.0
 20
-11.000000007980816
 30
0.0
 11
43.0
 21
-8.3000000000000114
 31
0.0
  0
LINE
  5
426
100
AcDbEntity
  8
0
  6
CONTINUOUS
 62
               7
100
AcDbLine
 10
5.0
 20
-11.000000007980816
 30
0.0
 11
5.0
 21
-8.3000000000000114
 31
0.0
  0
LINE
  5
427
100
AcDbEntity
  8
0
  6
CONTINUOUS
 62
               7
100
AcDbLine
 10
51.0
 20
-8.3000000000000114
 30
0.0
 11
51.0
 21
0.0
 31
0.0
  0
LINE
  5
428
100
AcDbEntity
  8
0
  6
CONTINUOUS
 62
               7
100
AcDbLine
 10
-3.0
 20
0.0000000136905953
 30
0.0
 11
-3.0
 21
-8.3000000000000114
 31
0.0
  0
LINE
  5
429
100
AcDbEntity
  8
0
  6
CONTINUOUS
 62
               7
100
AcDbLine
 10
51.0
 20
-8.3000000000000114
 30
0.0
 11
-3.0
 21
-8.3000000000000114
 31
0.0
  0
LINE
  5
42A
100
AcDbEntity
  8
0
  6
CONTINUOUS
 62
               7
100
AcDbLine
 10
43.0
 20
-11.000000007980816
 30
0.0
 11
5.0
 21
-11.000000007980816
 31
0.0
  0
LINE
  5
42B
100
AcDbEntity
  8
0
  6
CONTINUOUS
 62
               7
100
AcDbLine
 10
51.0
 20
0.0
 30
0.0
 11
-3.0
 21
0.0
 31
0.0
  0
LINE
  5
42C
100
AcDbEntity
  8
0
  6
CONTINUOUS
 62
               7
100
AcDbLine
 10
62.999999972652063
 20
-9.0
 30
0.0
 11
43.0
 21
-9.0
 31
0.0
  0
LINE
  5
42D
100
AcDbEntity
  8
0
  6
CONTINUOUS
 62
               7
100
AcDbLine
 10
62.999999972652063
 20
-29.0
 30
0.0
 11
9.0
 21
-29.0
 31
0.0
  0
LINE
  5
42E
100
AcDbEntity
  8
0
  6
CONTINUOUS
 62
               7
100
AcDbLine
 10
9.0
 20
-11.000000007980816
 30
0.0
 11
9.0
 21
-29.0
 31
0.0
  0
LINE
  5
42F
100
AcDbEntity
  8
0
  6
CONTINUOUS
 62
               7
100
AcDbLine
 10
44.000000024143958
 20
-28.5
 30
0.0
 11
9.0
 21
-28.5
 31
0.0
  0
LINE
  5
430
100
AcDbEntity
  8
0
  6
CONTINUOUS
 62
               7
100
AcDbLine
 10
44.000000024143958
 20
-9.5
 30
0.0
 11
43.0
 21
-9.5
 31
0.0
  0
LINE
  5
431
100
AcDbEntity
  8
0
  6
CONTINUOUS
 62
               7
100
AcDbLine
 10
44.0
 20
-9.5
 30
0.0
 11
44.0
 21
-28.499999986309405
 31
0.0
  0
LINE
  5
432
100
AcDbEntity
  8
0
  6
CENTER
 62
               2
100
AcDbLine
 10
64.183463893151782
 20
-19.0
 30
0.0
 11
1.5330336488329976
 21
-19.0
 31
0.0
  0
LINE
  5
433
100
AcDbEntity
  8
0
  6
CONTINUOUS
 62
               2
100
AcDbLine
 10
26.5
 20
-26.0
 30
0.0
 11
31.5
 21
-26.0
 31
0.0
  0
CIRCLE
  5
434
100
AcDbEntity
  8
0
  6
CONTINUOUS
 62
               7
100
AcDbCircle
 10
29.0
 20
-26.0
 30
0.0
 40
1.5
  0
LINE
  5
435
100
AcDbEntity
  8
0
  6
CONTINUOUS
 62
               2
100
AcDbLine
 10
29.0
 20
-23.5
 30
0.0
 11
29.0
 21
-28.5
 31
0.0
  0
LINE
  5
436
100
AcDbEntity
  8
0
  6
CONTINUOUS
 62
               2
100
AcDbLine
 10
29.0
 20
-10.14484254200147
 30
0.0
 11
29.0
 21
-14.799999998230334
 31
0.0
  0
LINE
  5
437
100
AcDbEntity
  8
0
  6
CONTINUOUS
 62
               2
100
AcDbLine
 10
31.300000000000011
 20
-12.0
 30
0.0
 11
26.700000000000045
 21
-12.0
 31
0.0
  0
ARC
  5
438
100
AcDbEntity
  8
0
  6
CONTINUOUS
 62
               7
100
AcDbCircle
 10
29.0
 20
-12.5
 30
0.0
 40
1.5
100
AcDbArc
 50
180.0
 51
0.0
  0
LINE
  5
439
100
AcDbEntity
  8
0
  6
CONTINUOUS
 62
               7
100
AcDbLine
 10
27.5
 20
-12.5
 30
0.0
 11
27.5
 21
-11.5
 31
0.0
  0
LINE
  5
43A
100
AcDbEntity
  8
0
  6
CONTINUOUS
 62
               7
100
AcDbLine
 10
30.5
 20
-12.5
 30
0.0
 11
30.5
 21
-11.5
 31
0.0
  0
ARC
  5
43B
100
AcDbEntity
  8
0
  6
CONTINUOUS
 62
               7
100
AcDbCircle
 10
37.0
 20
-12.0
 30
0.0
 40
1.25
100
AcDbArc
 50
126.86989825553344
 51
53.130101744466579
  0
LINE
  5
43C
100
AcDbEntity
  8
0
  6
CONTINUOUS
 62
               2
100
AcDbLine
 10
39.5
 20
-12.0
 30
0.0
 11
34.500000000000057
 21
-12.0
 31
0.0
  0
ARC
  5
43D
100
AcDbEntity
  8
0
  6
CONTINUOUS
 62
               2
100
AcDbCircle
 10
37.0
 20
-12.0
 30
0.0
 40
1.5
100
AcDbArc
 50
138.18968551321313
 51
41.810314486786858
  0
LINE
  5
43E
100
AcDbEntity
  8
0
  6
CONTINUOUS
 62
               2
100
AcDbLine
 10
37.0
 20
-10.14484254200147
 30
0.0
 11
37.0
 21
-14.5
 31
0.0
  0
ARC
  5
43F
100
AcDbEntity
  8
0
  6
CONTINUOUS
 62
               7
100
AcDbCircle
 10
21.0
 20
-12.0
 30
0.0
 40
1.25
100
AcDbArc
 50
126.86989825553344
 51
53.130101744466529
  0
LINE
  5
440
100
AcDbEntity
  8
0
  6
CONTINUOUS
 62
               2
100
AcDbLine
 10
23.5
 20
-12.0
 30
0.0
 11
18.500000000000057
 21
-12.0
 31
0.0
  0
ARC
  5
441
100
AcDbEntity
  8
0
  6
CONTINUOUS
 62
               2
100
AcDbCircle
 10
21.0
 20
-12.0
 30
0.0
 40
1.5
100
AcDbArc
 50
138.18968551321353
 51
41.810314486786453
  0
LINE
  5
442
100
AcDbEntity
  8
0
  6
CONTINUOUS
 62
               2
100
AcDbLine
 10
21.0
 20
-10.14484254200147
 30
0.0
 11
21.0
 21
-14.5
 31
0.0
  0
CIRCLE
  5
443
100
AcDbEntity
  8
0
  6
CONTINUOUS
 62
               7
100
AcDbCircle
 10
37.0
 20
-26.0
 30
0.0
 40
1.25
  0
LINE
  5
444
100
AcDbEntity
  8
0
  6
CONTINUOUS
 62
               2
100
AcDbLine
 10
39.5
 20
-26.0
 30
0.0
 11
34.500000000000057
 21
-26.0
 31
0.0
  0
CIRCLE
  5
445
100
AcDbEntity
  8
0
  6
CONTINUOUS
 62
               2
100
AcDbCircle
 10
37.0
 20
-26.0
 30
0.0
 40
1.5
  0
LINE
  5
446
100
AcDbEntity
  8
0
  6
CONTINUOUS
 62
               2
100
AcDbLine
 10
37.0
 20
-23.5
 30
0.0
 11
37.0
 21
-28.5
 31
0.0
  0
CIRCLE
  5
447
100
AcDbEntity
  8
0
  6
CONTINUOUS
 62
               7
100
AcDbCircle
 10
21.0
 20
-26.0
 30
0.0
 40
1.25
  0
LINE
  5
448
100
AcDbEntity
  8
0
  6
CONTINUOUS
 62
               2
100
AcDbLine
 10
23.5
 20
-26.0
 30
0.0
 11
18.500000000000057
 21
-26.0
 31
0.0
  0
CIRCLE
  5
449
100
AcDbEntity
  8
0
  6
CONTINUOUS
 62
               2
100
AcDbCircle
 10
21.0
 20
-26.0
 30
0.0
 40
1.5
  0
LINE
  5
44A
100
AcDbEntity
  8
0
  6
CONTINUOUS
 62
               2
100
AcDbLine
 10
21.0
 20
-23.5
 30
0.0
 11
21.0
 21
-28.5
 31
0.0
  0
LINE
  5
44B
100
AcDbEntity
  8
0
  6
CONTINUOUS
 62
               7
100
AcDbLine
 10
44.0
 20
-21.700000000000017
 30
0.0
 11
9.0
 21
-21.700000000000017
 31
0.0
  0
LINE
  5
44C
100
AcDbEntity
  8
0
  6
CONTINUOUS
 62
               7
100
AcDbLine
 10
44.0
 20
-21.400000000000006
 30
0.0
 11
9.0
 21
-21.400000000000006
 31
0.0
  0
LINE
  5
44D
100
AcDbEntity
  8
0
  6
CONTINUOUS
 62
               7
100
AcDbLine
 10
44.0
 20
-16.299999999999983
 30
0.0
 11
9.0
 21
-16.299999999999983
 31
0.0
  0
LINE
  5
44E
100
AcDbEntity
  8
0
  6
CONTINUOUS
 62
               7
100
AcDbLine
 10
44.0
 20
-16.599999999999994
 30
0.0
 11
9.0
 21
-16.599999999999994
 31
0.0
  0
ARC
  5
44F
100
AcDbEntity
  8
0
  6
CONTINUOUS
 62
               7
100
AcDbCircle
 10
29.0
 20
-11.5
 30
0.0
 40
1.5
100
AcDbArc
 50
160.52877968884599
 51
180.0
  0
ARC
  5
450
100
AcDbEntity
  8
0
  6
CONTINUOUS
 62
               7
100
AcDbCircle
 10
29.0
 20
-11.5
 30
0.0
 40
1.5
100
AcDbArc
 50
0.0
 51
19.471220311154021
  0
LINE
  5
451
100
AcDbEntity
  8
0
  6
CONTINUOUS
 62
               7
100
AcDbLine
 10
44.5
 20
-15.699999999999989
 30
0.0
 11
44.5
 21
-17.5
 31
0.0
  0
LINE
  5
452
100
AcDbEntity
  8
0
  6
CONTINUOUS
 62
               7
100
AcDbLine
 10
45.0
 20
-17.5
 30
0.0
 11
45.0
 21
-16.799999999999983
 31
0.0
  0
LINE
  5
453
100
AcDbEntity
  8
0
  6
CONTINUOUS
 62
               7
100
AcDbLine
 10
44.5
 20
-15.699999999999989
 30
0.0
 11
44.0
 21
-15.699999999999989
 31
0.0
  0
LINE
  5
454
100
AcDbEntity
  8
0
  6
CONTINUOUS
 62
               7
100
AcDbLine
 10
44.5
 20
-16.5
 30
0.0
 11
44.700000000000045
 21
-16.5
 31
0.0
  0
ARC
  5
455
100
AcDbEntity
  8
0
  6
CONTINUOUS
 62
               7
100
AcDbCircle
 10
44.700000000000045
 20
-16.799999999999983
 30
0.0
 40
0.3
100
AcDbArc
 50
0.0
 51
90.0
  0
LINE
  5
456
100
AcDbEntity
  8
0
  6
CONTINUOUS
 62
               7
100
AcDbLine
 10
44.5
 20
-20.5
 30
0.0
 11
44.5
 21
-22.299999999999983
 31
0.0
  0
LINE
  5
457
100
AcDbEntity
  8
0
  6
CONTINUOUS
 62
               7
100
AcDbLine
 10
45.0
 20
-21.200000000000017
 30
0.0
 11
45.0
 21
-20.5
 31
0.0
  0
LINE
  5
458
100
AcDbEntity
  8
0
  6
CONTINUOUS
 62
               7
100
AcDbLine
 10
44.5
 20
-22.299999999999983
 30
0.0
 11
44.0
 21
-22.299999999999983
 31
0.0
  0
ARC
  5
459
100
AcDbEntity
  8
0
  6
CONTINUOUS
 62
               7
100
AcDbCircle
 10
44.700000000000045
 20
-21.200000000000017
 30
0.0
 40
0.3
100
AcDbArc
 50
270.0
 51
0.0
  0
LINE
  5
45A
100
AcDbEntity
  8
0
  6
CONTINUOUS
 62
               7
100
AcDbLine
 10
44.5
 20
-21.5
 30
0.0
 11
44.700000000000045
 21
-21.5
 31
0.0
  0
LINE
  5
45B
100
AcDbEntity
  8
0
  6
CONTINUOUS
 62
               7
100
AcDbLine
 10
45.5
 20
-17.5
 30
0.0
 11
44.0
 21
-17.5
 31
0.0
  0
LINE
  5
45C
100
AcDbEntity
  8
0
  6
CONTINUOUS
 62
               7
100
AcDbLine
 10
45.5
 20
-20.5
 30
0.0
 11
44.0
 21
-20.5
 31
0.0
  0
LINE
  5
45D
100
AcDbEntity
  8
0
  6
CONTINUOUS
 62
               7
100
AcDbLine
 10
48.000000024143958
 20
-17.0
 30
0.0
 11
48.000000024143958
 21
-16.0
 31
0.0
  0
LINE
  5
45E
100
AcDbEntity
  8
0
  6
CONTINUOUS
 62
               7
100
AcDbLine
 10
48.000000024143958
 20
-21.0
 30
0.0
 11
48.000000024143958
 21
-22.0
 31
0.0
  0
LINE
  5
45F
100
AcDbEntity
  8
0
  6
CONTINUOUS
 62
               7
100
AcDbLine
 10
48.000000024143958
 20
-22.0
 30
0.0
 11
47.000000024143958
 21
-22.0
 31
0.0
  0
LINE
  5
460
100
AcDbEntity
  8
0
  6
CONTINUOUS
 62
               7
100
AcDbLine
 10
48.000000024143958
 20
-16.0
 30
0.0
 11
47.000000024143958
 21
-16.0
 31
0.0
  0
LINE
  5
461
100
AcDbEntity
  8
0
  6
CONTINUOUS
 62
               7
100
AcDbLine
 10
54.000000024143958
 20
-23.0
 30
0.0
 11
47.000000024143958
 21
-23.0
 31
0.0
  0
LINE
  5
462
100
AcDbEntity
  8
0
  6
CONTINUOUS
 62
               7
100
AcDbLine
 10
54.000000024143958
 20
-15.0
 30
0.0
 11
47.000000024143958
 21
-15.0
 31
0.0
  0
LINE
  5
463
100
AcDbEntity
  8
0
  6
CONTINUOUS
 62
               7
100
AcDbLine
 10
51.699999999999932
 20
-21.0
 30
0.0
 11
47.499999999999943
 21
-21.0
 31
0.0
  0
LINE
  5
464
100
AcDbEntity
  8
0
  6
CONTINUOUS
 62
               7
100
AcDbLine
 10
51.699999999999932
 20
-17.0
 30
0.0
 11
47.499999999999943
 21
-17.0
 31
0.0
  0
LINE
  5
465
100
AcDbEntity
  8
0
  6
CONTINUOUS
 62
               7
100
AcDbLine
 10
51.699999999999932
 20
-21.5
 30
0.0
 11
53.199999999999932
 21
-21.5
 31
0.0
  0
LINE
  5
466
100
AcDbEntity
  8
0
  6
CONTINUOUS
 62
               7
100
AcDbLine
 10
47.499999999999943
 20
-21.5
 30
0.0
 11
46.199999999999932
 21
-21.5
 31
0.0
  0
LINE
  5
467
100
AcDbEntity
  8
0
  6
PHANTOM
 62
               2
100
AcDbLine
 10
53.049999999999955
 20
-22.0
 30
0.0
 11
46.349999999999966
 21
-22.0
 31
0.0
  0
CIRCLE
  5
468
100
AcDbEntity
  8
0
  6
CONTINUOUS
 62
               7
100
AcDbCircle
 10
46.349999999999966
 20
-21.849999999999994
 30
0.0
 40
0.15
  0
LINE
  5
469
100
AcDbEntity
  8
0
  6
PHANTOM
 62
               2
100
AcDbLine
 10
53.049999999999955
 20
-21.700000000000017
 30
0.0
 11
46.349999999999966
 21
-21.700000000000017
 31
0.0
  0
CIRCLE
  5
46A
100
AcDbEntity
  8
0
  6
CONTINUOUS
 62
               7
100
AcDbCircle
 10
53.049999999999955
 20
-21.849999999999994
 30
0.0
 40
0.15
  0
LINE
  5
46B
100
AcDbEntity
  8
0
  6
CONTINUOUS
 62
               7
100
AcDbLine
 10
56.200000000000045
 20
-21.0
 30
0.0
 11
54.0
 21
-21.0
 31
0.0
  0
LINE
  5
46C
100
AcDbEntity
  8
0
  6
CONTINUOUS
 62
               7
100
AcDbLine
 10
54.0
 20
-22.700000000000017
 30
0.0
 11
53.199999999999932
 21
-22.700000000000017
 31
0.0
  0
LINE
  5
46D
100
AcDbEntity
  8
0
  6
CONTINUOUS
 62
               7
100
AcDbLine
 10
54.0
 20
-15.299999999999983
 30
0.0
 11
53.199999999999932
 21
-15.299999999999983
 31
0.0
  0
LINE
  5
46E
100
AcDbEntity
  8
0
  6
PHANTOM
 62
               2
100
AcDbLine
 10
53.049999999999955
 20
-16.0
 30
0.0
 11
46.349999999999966
 21
-16.0
 31
0.0
  0
LINE
  5
46F
100
AcDbEntity
  8
0
  6
CONTINUOUS
 62
               7
100
AcDbLine
 10
47.499999999999943
 20
-16.5
 30
0.0
 11
46.199999999999932
 21
-16.5
 31
0.0
  0
LINE
  5
470
100
AcDbEntity
  8
0
  6
CONTINUOUS
 62
               7
100
AcDbLine
 10
46.199999999999932
 20
-15.5
 30
0.0
 11
46.199999999999932
 21
-22.5
 31
0.0
  0
LINE
  5
471
100
AcDbEntity
  8
0
  6
CONTINUOUS
 62
               7
100
AcDbLine
 10
51.699999999999932
 20
-16.5
 30
0.0
 11
51.699999999999932
 21
-21.5
 31
0.0
  0
LINE
  5
472
100
AcDbEntity
  8
0
  6
CONTINUOUS
 62
               7
100
AcDbLine
 10
51.699999999999932
 20
-16.5
 30
0.0
 11
53.199999999999932
 21
-16.5
 31
0.0
  0
CIRCLE
  5
473
100
AcDbEntity
  8
0
  6
CONTINUOUS
 62
               7
100
AcDbCircle
 10
46.349999999999966
 20
-16.150000000000006
 30
0.0
 40
0.15
  0
CIRCLE
  5
474
100
AcDbEntity
  8
0
  6
CONTINUOUS
 62
               7
100
AcDbCircle
 10
53.049999999999955
 20
-16.150000000000006
 30
0.0
 40
0.15
  0
LINE
  5
475
100
AcDbEntity
  8
0
  6
PHANTOM
 62
               2
100
AcDbLine
 10
53.049999999999955
 20
-16.299999999999983
 30
0.0
 11
46.349999999999966
 21
-16.299999999999983
 31
0.0
  0
LINE
  5
476
100
AcDbEntity
  8
0
  6
CONTINUOUS
 62
               7
100
AcDbLine
 10
53.199999999999932
 20
-15.299999999999983
 30
0.0
 11
53.199999999999932
 21
-22.700000000000017
 31
0.0
  0
LINE
  5
477
100
AcDbEntity
  8
0
  6
CONTINUOUS
 62
               7
100
AcDbLine
 10
47.499999999999943
 20
-16.5
 30
0.0
 11
47.499999999999943
 21
-21.5
 31
0.0
  0
LINE
  5
478
100
AcDbEntity
  8
0
  6
CONTINUOUS
 62
               7
100
AcDbLine
 10
56.200000000000045
 20
-17.0
 30
0.0
 11
54.0
 21
-17.0
 31
0.0
  0
LINE
  5
479
100
AcDbEntity
  8
0
  6
CONTINUOUS
 62
               7
100
AcDbLine
 10
45.5
 20
-15.799999999999983
 30
0.0
 11
45.5
 21
-22.200000000000017
 31
0.0
  0
LINE
  5
47A
100
AcDbEntity
  8
0
  6
CONTINUOUS
 62
               7
100
AcDbLine
 10
56.200000000000045
 20
-16.500000000000028
 30
0.0
 11
54.0
 21
-16.500000000000028
 31
0.0
  0
LINE
  5
47B
100
AcDbEntity
  8
0
  6
CONTINUOUS
 62
               7
100
AcDbLine
 10
56.200000000000045
 20
-21.5
 30
0.0
 11
54.0
 21
-21.5
 31
0.0
  0
LINE
  5
47C
100
AcDbEntity
  8
0
  6
CONTINUOUS
 62
               7
100
AcDbLine
 10
58.700000000000045
 20
-22.700000000000017
 30
0.0
 11
56.200000000000045
 21
-22.700000000000017
 31
0.0
  0
LINE
  5
47D
100
AcDbEntity
  8
0
  6
CONTINUOUS
 62
               7
100
AcDbLine
 10
58.700000000000045
 20
-15.299999999999983
 30
0.0
 11
56.200000000000045
 21
-15.299999999999983
 31
0.0
  0
LINE
  5
47E
100
AcDbEntity
  8
0
  6
CONTINUOUS
 62
               7
100
AcDbLine
 10
58.700000000000045
 20
-22.700000000000017
 30
0.0
 11
58.700000000000045
 21
-15.299999999999983
 31
0.0
  0
LINE
  5
47F
100
AcDbEntity
  8
0
  6
CONTINUOUS
 62
               7
100
AcDbLine
 10
56.200000000000045
 20
-23.200000000000017
 30
0.0
 11
56.200000000000045
 21
-14.799999999999983
 31
0.0
  0
LINE
  5
480
100
AcDbEntity
  8
0
  6
CONTINUOUS
 62
               7
100
AcDbLine
 10
63.0
 20
-23.200000000000017
 30
0.0
 11
56.200000000000045
 21
-23.200000000000017
 31
0.0
  0
LINE
  5
481
100
AcDbEntity
  8
0
  6
CONTINUOUS
 62
               7
100
AcDbLine
 10
63.0
 20
-14.799999999999983
 30
0.0
 11
56.200000000000045
 21
-14.799999999999983
 31
0.0
  0
LINE
  5
482
100
AcDbEntity
  8
0
  6
CONTINUOUS
 62
               7
100
AcDbLine
 10
47.000000024143958
 20
-15.599999999999994
 30
0.0
 11
46.199999999999932
 21
-15.599999999999994
 31
0.0
  0
LINE
  5
483
100
AcDbEntity
  8
0
  6
CONTINUOUS
 62
               7
100
AcDbLine
 10
47.000000024143958
 20
-22.400000000000006
 30
0.0
 11
46.199999999999932
 21
-22.400000000000006
 31
0.0
  0
LINE
  5
484
100
AcDbEntity
  8
0
  6
CONTINUOUS
 62
               7
100
AcDbLine
 10
46.199999999999932
 20
-15.5
 30
0.0
 11
45.699999999999989
 21
-15.5
 31
0.0
  0
LINE
  5
485
100
AcDbEntity
  8
0
  6
CONTINUOUS
 62
               7
100
AcDbLine
 10
46.199999999999932
 20
-22.5
 30
0.0
 11
45.699999999999989
 21
-22.5
 31
0.0
  0
LINE
  5
486
100
AcDbEntity
  8
0
  6
CONTINUOUS
 62
               7
100
AcDbLine
 10
45.699999999999989
 20
-15.799999999999983
 30
0.0
 11
45.5
 21
-15.799999999999983
 31
0.0
  0
LINE
  5
487
100
AcDbEntity
  8
0
  6
CONTINUOUS
 62
               7
100
AcDbLine
 10
45.699999999999989
 20
-22.200000000000017
 30
0.0
 11
45.5
 21
-22.200000000000017
 31
0.0
  0
LINE
  5
488
100
AcDbEntity
  8
0
  6
CONTINUOUS
 62
               7
100
AcDbLine
 10
45.699999999999989
 20
-15.5
 30
0.0
 11
45.699999999999989
 21
-22.5
 31
0.0
  0
LINE
  5
489
100
AcDbEntity
  8
0
  6
CONTINUOUS
 62
               7
100
AcDbLine
 10
45.699999999999989
 20
-15.599999999999994
 30
0.0
 11
44.0
 21
-15.599999999999994
 31
0.0
  0
LINE
  5
48A
100
AcDbEntity
  8
0
  6
CONTINUOUS
 62
               7
100
AcDbLine
 10
45.699999999999989
 20
-22.400000000000006
 30
0.0
 11
44.0
 21
-22.400000000000006
 31
0.0
  0
LINE
  5
48B
100
AcDbEntity
  8
0
  6
CONTINUOUS
 62
               2
100
AcDbLine
 10
45.5
 20
-20.299999999999983
 30
0.0
 11
45.153589838486198
 21
-20.5
 31
0.0
  0
LINE
  5
48C
100
AcDbEntity
  8
0
  6
CONTINUOUS
 62
               2
100
AcDbLine
 10
45.5
 20
-17.700000000000017
 30
0.0
 11
45.153589838486198
 21
-17.5
 31
0.0
  0
LINE
  5
48D
100
AcDbEntity
  8
0
  6
CONTINUOUS
 62
               7
100
AcDbLine
 10
47.000000024143958
 20
-22.0
 30
0.0
 11
47.000000024143958
 21
-29.0
 31
0.0
  0
LINE
  5
48E
100
AcDbEntity
  8
0
  6
CONTINUOUS
 62
               7
100
AcDbLine
 10
54.0
 20
-29.0
 30
0.0
 11
54.0
 21
-9.0
 31
0.0
  0
LINE
  5
48F
100
AcDbEntity
  8
0
  6
CONTINUOUS
 62
               7
100
AcDbLine
 10
47.000000024143958
 20
-16.0
 30
0.0
 11
47.000000024143958
 21
-9.0
 31
0.0
  0
LINE
  5
490
100
AcDbEntity
  8
0
  6
CONTINUOUS
 62
               7
100
AcDbLine
 10
63.0
 20
-8.9999999863094047
 30
0.0
 11
63.0
 21
-28.999999986309405
 31
0.0
  0
ENDBLK
  5
491
100
AcDbEntity
  8
0
100
AcDbBlockEnd
  0
ENDSEC
  0
SECTION
  2
ENTITIES
  0
INSERT
  5
492
100
AcDbEntity
  8
0
  6
ByBlock
100
AcDbBlockReference
  2
MGALG6-12
 10
100.0
 20
-60.0
 30
0.0
  0
INSERT
  5
493
100
AcDbEntity
  8
0
  6
ByBlock
100
AcDbBlockReference
  2
MGALG6-11
 10
100.0
 20
-30.0
 30
0.0
  0
INSERT
  5
494
100
AcDbEntity
  8
0
  6
ByBlock
100
AcDbBlockReference
  2
MGALG6-10
 10
100.0
 20
95.0
 30
0.0
  0
INSERT
  5
495
100
AcDbEntity
  8
0
  6
ByBlock
100
AcDbBlockReference
  2
MGALG6-9
 10
220.0
 20
10.0
 30
0.0
  0
INSERT
  5
496
100
AcDbEntity
  8
0
  6
ByBlock
100
AcDbBlockReference
  2
MGALG6-8
 10
50.0
 20
10.0
 30
0.0
  0
INSERT
  5
497
100
AcDbEntity
  8
0
  6
ByBlock
100
AcDbBlockReference
  2
MGALG6-7
 10
100.0
 20
10.0
 30
0.0
  0
INSERT
  5
498
100
AcDbEntity
  8
0
  6
ByBlock
100
AcDbBlockReference
  2
MGALG6-6
 10
-150.0
 20
-60.0
 30
0.0
 50
359.99999998461936
  0
INSERT
  5
499
100
AcDbEntity
  8
0
  6
ByBlock
100
AcDbBlockReference
  2
MGALG6-5
 10
-150.0
 20
-30.0
 30
0.0
  0
INSERT
  5
49A
100
AcDbEntity
  8
0
  6
ByBlock
100
AcDbBlockReference
  2
MGALG6-4
 10
-150.0
 20
95.0
 30
0.0
 50
359.99999999896056
  0
INSERT
  5
49B
100
AcDbEntity
  8
0
  6
ByBlock
100
AcDbBlockReference
  2
MGALG6-3
 10
-50.0
 20
10.0
 30
0.0
  0
INSERT
  5
49C
100
AcDbEntity
  8
0
  6
ByBlock
100
AcDbBlockReference
  2
MGALG6-2
 10
-220.0
 20
10.0
 30
0.0
  0
INSERT
  5
49D
100
AcDbEntity
  8
0
  6
ByBlock
100
AcDbBlockReference
  2
MGALG6-1
 10
-150.0
 20
10.0
 30
0.0
  0
MTEXT
  5
49E
100
AcDbEntity
  8
0
  6
CONTINUOUS
 62
               3
100
AcDbMText
 10
99.076925910690818
 20
113.0
 30
0.0
 40
4.5
 41
0.0
 71
               4
 72
               1
  1
\W1.065;\A1;STRETCH LINE
  0
MTEXT
  5
49F
100
AcDbEntity
  8
0
  6
CONTINUOUS
 62
               7
100
AcDbMText
 10
26.548816566638664
 20
-163.44223545487409
 30
0.0
 40
4.5
 41
0.0
 71
               4
 72
               1
  1
\W1.065;\A1;STRETCH LINE
  0
LINE
  5
4A0
100
AcDbEntity
  8
0
  6
CONTINUOUS
 62
               7
100
AcDbLine
 10
10.0
 20
-177.0
 30
0.0
 11
95.5
 21
-177.0
 31
0.0
  0
LINE
  5
4A1
100
AcDbEntity
  8
0
  6
CONTINUOUS
 62
               7
100
AcDbLine
 10
10.0
 20
-185.0
 30
0.0
 11
95.5
 21
-185.0
 31
0.0
  0
LINE
  5
4A2
100
AcDbEntity
  8
0
  6
CONTINUOUS
 62
               7
100
AcDbLine
 10
50.5
 20
-185.0
 30
0.0
 11
50.5
 21
-169.0
 31
0.0
  0
LINE
  5
4A3
100
AcDbEntity
  8
0
  6
CONTINUOUS
 62
               7
100
AcDbLine
 10
65.5
 20
-185.0
 30
0.0
 11
65.5
 21
-169.0
 31
0.0
  0
LINE
  5
4A4
100
AcDbEntity
  8
0
  6
CONTINUOUS
 62
               7
100
AcDbLine
 10
80.5
 20
-185.0
 30
0.0
 11
80.5
 21
-169.0
 31
0.0
  0
MTEXT
  5
4A5
100
AcDbEntity
  8
0
  6
CONTINUOUS
 62
               7
100
AcDbMText
 10
71.650000021457672
 20
-181.0
 30
0.0
 40
4.5
 41
0.0
 71
               4
 72
               1
  1
\W1.200;\A1;0
  0
MTEXT
  5
4A6
100
AcDbEntity
  8
0
  6
CONTINUOUS
 62
               7
100
AcDbMText
 10
56.650000021457672
 20
-181.0
 30
0.0
 40
4.5
 41
0.0
 71
               4
 72
               1
  1
\W1.200;\A1;0
  0
MTEXT
  5
4A7
100
AcDbEntity
  8
0
  6
CONTINUOUS
 62
               7
100
AcDbMText
 10
69.5
 20
-173.0
 30
0.0
 40
4.5
 41
0.0
 71
               4
 72
               1
  1
\W1.333;\A1;10
  0
MTEXT
  5
4A8
100
AcDbEntity
  8
0
  6
CONTINUOUS
 62
               7
100
AcDbMText
 10
56.5
 20
-173.0
 30
0.0
 40
4.5
 41
0.0
 71
               4
 72
               1
  1
\A1;5
  0
LINE
  5
4A9
100
AcDbEntity
  8
0
  6
CONTINUOUS
 62
               7
100
AcDbLine
 10
10.0
 20
-185.0
 30
0.0
 11
10.0
 21
-169.0
 31
0.0
  0
LINE
  5
4AA
100
AcDbEntity
  8
0
  6
CONTINUOUS
 62
               7
100
AcDbLine
 10
10.0
 20
-169.0
 30
0.0
 11
95.5
 21
-169.0
 31
0.0
  0
MTEXT
  5
4AB
100
AcDbEntity
  8
0
  6
CONTINUOUS
 62
               7
100
AcDbMText
 10
17.5
 20
-173.0
 30
0.0
 40
4.5
 41
0.0
 71
               4
 72
               1
  1
\A1;STROKE
  0
MTEXT
  5
4AC
100
AcDbEntity
  8
0
  6
CONTINUOUS
 62
               7
100
AcDbMText
 10
15.25
 20
-181.0
 30
0.0
 40
4.5
 41
0.0
 71
               4
 72
               1
  1
\A1;STRETCH
  0
MTEXT
  5
4AD
100
AcDbEntity
  8
0
  6
CONTINUOUS
 62
               7
100
AcDbMText
 10
84.399999989271166
 20
-173.0
 30
0.0
 40
4.5
 41
0.0
 71
               4
 72
               1
  1
\W1.200;\A1;15
  0
MTEXT
  5
4AE
100
AcDbEntity
  8
0
  6
CONTINUOUS
 62
               7
100
AcDbMText
 10
86.5
 20
-181.0
 30
0.0
 40
4.5
 41
0.0
 71
               4
 72
               1
  1
\A1;5
  0
LINE
  5
4AF
100
AcDbEntity
  8
0
  6
CONTINUOUS
 62
               7
100
AcDbLine
 10
95.5
 20
-185.0
 30
0.0
 11
95.5
 21
-169.0
 31
0.0
  0
LINE
  5
4B0
100
AcDbEntity
  8
0
  6
CONTINUOUS
 62
               7
100
AcDbLine
 10
-185.75
 20
-185.0
 30
0.0
 11
-185.75
 21
-169.0
 31
0.0
  0
MTEXT
  5
4B1
100
AcDbEntity
  8
0
  6
CONTINUOUS
 62
               7
100
AcDbMText
 10
-194.75
 20
-181.0
 30
0.0
 40
4.5
 41
0.0
 71
               4
 72
               1
  1
\A1;5
  0
MTEXT
  5
4B2
100
AcDbEntity
  8
0
  6
CONTINUOUS
 62
               7
100
AcDbMText
 10
-196.85000001072885
 20
-173.0
 30
0.0
 40
4.5
 41
0.0
 71
               4
 72
               1
  1
\W1.200;\A1;15
  0
MTEXT
  5
4B3
100
AcDbEntity
  8
0
  6
CONTINUOUS
 62
               7
100
AcDbMText
 10
13.018548324299079
 20
160.5
 30
0.0
 40
6.3000001907348633
 41
0.0
 71
               4
 72
               1
  1
\W1.113;\A1;MODEL:MGALG6*st(5,10)-L
  0
MTEXT
  5
4B4
100
AcDbEntity
  8
0
  6
CONTINUOUS
 62
               3
100
AcDbMText
 10
-153.47929277717765
 20
112.99999999958777
 30
0.0
 40
4.5
 41
0.0
 71
               4
 72
               1
  1
\W1.065;\A1;STRETCH LINE
  0
LINE
  5
4B5
100
AcDbEntity
  8
0
  6
CONTINUOUS
 62
               7
100
AcDbLine
 10
0.0
 20
-195.0
 30
0.0
 11
0.0
 21
195.5
 31
0.0
  0
MTEXT
  5
4B6
100
AcDbEntity
  8
0
  6
CONTINUOUS
 62
               7
100
AcDbMText
 10
-266.0
 20
-181.0
 30
0.0
 40
4.5
 41
0.0
 71
               4
 72
               1
  1
\A1;STRETCH
  0
MTEXT
  5
4B7
100
AcDbEntity
  8
0
  6
CONTINUOUS
 62
               7
100
AcDbMText
 10
-263.75
 20
-173.0
 30
0.0
 40
4.5
 41
0.0
 71
               4
 72
               1
  1
\A1;STROKE
  0
MTEXT
  5
4B8
100
AcDbEntity
  8
0
  6
CONTINUOUS
 62
               7
100
AcDbMText
 10
-254.70118343336134
 20
-163.44223545487409
 30
0.0
 40
4.5
 41
0.0
 71
               4
 72
               1
  1
\W1.065;\A1;STRETCH LINE
  0
LINE
  5
4B9
100
AcDbEntity
  8
0
  6
CONTINUOUS
 62
               7
100
AcDbLine
 10
-271.25
 20
-169.0
 30
0.0
 11
-185.75
 21
-169.0
 31
0.0
  0
LINE
  5
4BA
100
AcDbEntity
  8
0
  6
CONTINUOUS
 62
               7
100
AcDbLine
 10
-271.25
 20
-185.0
 30
0.0
 11
-271.25
 21
-169.0
 31
0.0
  0
MTEXT
  5
4BB
100
AcDbEntity
  8
0
  6
CONTINUOUS
 62
               7
100
AcDbMText
 10
-224.75
 20
-173.0
 30
0.0
 40
4.5
 41
0.0
 71
               4
 72
               1
  1
\A1;5
  0
MTEXT
  5
4BC
100
AcDbEntity
  8
0
  6
CONTINUOUS
 62
               7
100
AcDbMText
 10
-211.75
 20
-173.0
 30
0.0
 40
4.5
 41
0.0
 71
               4
 72
               1
  1
\W1.333;\A1;10
  0
MTEXT
  5
4BD
100
AcDbEntity
  8
0
  6
CONTINUOUS
 62
               7
100
AcDbMText
 10
-224.59999997854231
 20
-181.0
 30
0.0
 40
4.5
 41
0.0
 71
               4
 72
               1
  1
\W1.200;\A1;0
  0
MTEXT
  5
4BE
100
AcDbEntity
  8
0
  6
CONTINUOUS
 62
               7
100
AcDbMText
 10
-209.59999997854231
 20
-181.0
 30
0.0
 40
4.5
 41
0.0
 71
               4
 72
               1
  1
\W1.200;\A1;0
  0
LINE
  5
4BF
100
AcDbEntity
  8
0
  6
CONTINUOUS
 62
               7
100
AcDbLine
 10
-200.75
 20
-185.0
 30
0.0
 11
-200.75
 21
-169.0
 31
0.0
  0
LINE
  5
4C0
100
AcDbEntity
  8
0
  6
CONTINUOUS
 62
               7
100
AcDbLine
 10
-215.75
 20
-185.0
 30
0.0
 11
-215.75
 21
-169.0
 31
0.0
  0
LINE
  5
4C1
100
AcDbEntity
  8
0
  6
CONTINUOUS
 62
               7
100
AcDbLine
 10
-230.75
 20
-185.0
 30
0.0
 11
-230.75
 21
-169.0
 31
0.0
  0
LINE
  5
4C2
100
AcDbEntity
  8
0
  6
CONTINUOUS
 62
               7
100
AcDbLine
 10
-271.25
 20
-185.0
 30
0.0
 11
-185.75
 21
-185.0
 31
0.0
  0
LINE
  5
4C3
100
AcDbEntity
  8
0
  6
CONTINUOUS
 62
               7
100
AcDbLine
 10
-271.25
 20
-177.0
 30
0.0
 11
-185.75
 21
-177.0
 31
0.0
  0
MTEXT
  5
4C4
100
AcDbEntity
  8
0
  6
CONTINUOUS
 62
               7
100
AcDbMText
 10
-273.59932894557409
 20
189.625
 30
0.0
 40
6.3000001907348633
 41
0.0
 71
               4
 72
               1
  1
\W1.143;\A1;MINI GUIDE SLIDER
  0
MTEXT
  5
4C5
100
AcDbEntity
  8
0
  6
CONTINUOUS
 62
               7
100
AcDbMText
 10
-239.10000054041544
 20
182.125
 30
0.0
 40
6.3000001907348633
 41
0.0
 71
               4
 72
               1
  1
\A1;MGALG6
  0
LINE
  5
4C6
100
AcDbEntity
  8
0
  6
CONTINUOUS
 62
               7
100
AcDbLine
 10
-281.25
 20
175.5
 30
0.0
 11
-161.25
 21
175.5
 31
0.0
  0
LINE
  5
4C7
100
AcDbEntity
  8
0
  6
CONTINUOUS
 62
               7
100
AcDbLine
 10
-161.25
 20
195.5
 30
0.0
 11
-161.25
 21
175.5
 31
0.0
  0
LINE
  5
4C8
100
AcDbEntity
  8
0
  6
CONTINUOUS
 62
               7
100
AcDbLine
 10
162.0999755859375
 20
-175.0
 30
0.0
 11
162.0999755859375
 21
-195.0
 31
0.0
  0
LINE
  5
4C9
100
AcDbEntity
  8
0
  6
CONTINUOUS
 62
               7
100
AcDbLine
 10
162.0999755859375
 20
-175.0
 30
0.0
 11
282.099853515625
 21
-175.0
 31
0.0
  0
MTEXT
  5
4CA
100
AcDbEntity
  8
0
  6
CONTINUOUS
 62
               7
100
AcDbMText
 10
170.28101006437726
 20
-185.0
 30
0.0
 40
9.0
 41
0.0
 71
               4
 72
               1
  1
\W1.121;\A1;KOGANEI CORP.
  0
MTEXT
  5
4CB
100
AcDbEntity
  8
0
  6
CONTINUOUS
 62
               7
100
AcDbMText
 10
198.2770240315611
 20
185.5
 30
0.0
 40
6.3000001907348633
 41
0.0
 71
               4
 72
               1
  1
\W1.311;\A1;Ver. 1.0
  0
LINE
  5
4CC
100
AcDbEntity
  8
0
  6
CONTINUOUS
 62
               7
100
AcDbLine
 10
162.0999755859375
 20
175.5
 30
0.0
 11
282.099853515625
 21
175.5
 31
0.0
  0
LINE
  5
4CD
100
AcDbEntity
  8
0
  6
CONTINUOUS
 62
               7
100
AcDbLine
 10
162.0999755859375
 20
195.5
 30
0.0
 11
162.0999755859375
 21
175.5
 31
0.0
  0
LINE
  5
4CE
100
AcDbEntity
  8
0
  6
CONTINUOUS
 62
               7
100
AcDbLine
 10
282.099853515625
 20
195.5
 30
0.0
 11
282.099853515625
 21
-195.0
 31
0.0
  0
LINE
  5
4CF
100
AcDbEntity
  8
0
  6
CONTINUOUS
 62
               7
100
AcDbLine
 10
-281.25
 20
195.5
 30
0.0
 11
282.099853515625
 21
195.5
 31
0.0
  0
LINE
  5
4D0
100
AcDbEntity
  8
0
  6
CONTINUOUS
 62
               7
100
AcDbLine
 10
-281.25
 20
195.5
 30
0.0
 11
-281.25
 21
-195.0
 31
0.0
  0
LINE
  5
4D1
100
AcDbEntity
  8
0
  6
CONTINUOUS
 62
               7
100
AcDbLine
 10
-281.25
 20
-195.0
 30
0.0
 11
282.099853515625
 21
-195.0
 31
0.0
  0
MTEXT
  5
4D2
100
AcDbEntity
  8
0
  6
CONTINUOUS
 62
               7
100
AcDbMText
 10
-268.2314516757009
 20
160.5
 30
0.0
 40
6.3000001907348633
 41
0.0
 71
               4
 72
               1
  1
\W1.113;\A1;MODEL:MGALG6*st(5,10)-R
  0
ENDSEC
  0
SECTION
  2
OBJECTS
  0
DICTIONARY
  5
19
100
AcDbDictionary
  3
ACAD_GROUP
350
1A
  3
ACAD_MLINESTYLE
350
1B
  0
DICTIONARY
  5
1A
102
{ACAD_REACTORS
330
19
102
}
100
AcDbDictionary
  0
DICTIONARY
  5
1B
102
{ACAD_REACTORS
330
19
102
}
100
AcDbDictionary
  3
STANDARD
350
1C
  0
MLINESTYLE
  5
1C
102
{ACAD_REACTORS
330
1B
102
}
100
AcDbMlineStyle
  2
Standard
 70
               0
  3

 62
               0
 51
90.0
 52
90.0
 71
               2
 49
0.5
 62
             256
  6
ByLayer
 49
-0.5
 62
             256
  6
ByLayer
  0
ENDSEC
  0
EOF
