  0
SECTION
  2
HEADER
  9
$ACADVER
  1
AC1012
  9
$DWGCODEPAGE
  3
dos932
  9
$INSBASE
 10
0.0
 20
0.0
 30
0.0
  9
$EXTMIN
 10
-281.25
 20
-195.0
 30
0.0
  9
$EXTMAX
 10
285.6319057062413
 20
195.5
 30
0.0
  9
$LIMMIN
 10
-281.25
 20
-195.0
  9
$LIMMAX
 10
285.6319057062413
 20
195.5
  9
$ORTHOMODE
 70
               0
  9
$REGENMODE
 70
               1
  9
$FILLMODE
 70
               1
  9
$QTEXTMODE
 70
               0
  9
$MIRRTEXT
 70
               1
  9
$DRAGMODE
 70
               2
  9
$LTSCALE
 40
1.0
  9
$OSMODE
 70
               0
  9
$ATTMODE
 70
               1
  9
$TEXTSIZE
 40
3.2000000476837158
  9
$TRACEWID
 40
0.05
  9
$TEXTSTYLE
  7
MX_NOTE_STANDARD
  9
$CLAYER
  8
0
  9
$CELTYPE
  6
CONTINUOUS
  9
$CECOLOR
 62
             256
  9
$CELTSCALE
 40
1.0
  9
$DELOBJ
 70
               1
  9
$DISPSILH
 70
               0
  9
$DIMSCALE
 40
1.0
  9
$DIMASZ
 40
2.5
  9
$DIMEXO
 40
1.5
  9
$DIMDLI
 40
3.75
  9
$DIMRND
 40
0.0
  9
$DIMDLE
 40
0.0
  9
$DIMEXE
 40
1.5
  9
$DIMTP
 40
0.0
  9
$DIMTM
 40
0.0
  9
$DIMTXT
 40
3.2000000476837158
  9
$DIMCEN
 40
2.5
  9
$DIMTSZ
 40
0.0
  9
$DIMTOL
 70
               0
  9
$DIMLIM
 70
               0
  9
$DIMTIH
 70
               0
  9
$DIMTOH
 70
               0
  9
$DIMSE1
 70
               0
  9
$DIMSE2
 70
               0
  9
$DIMTAD
 70
               1
  9
$DIMZIN
 70
               8
  9
$DIMBLK
  1

  9
$DIMASO
 70
               1
  9
$DIMSHO
 70
               1
  9
$DIMPOST
  1

  9
$DIMAPOST
  1

  9
$DIMALT
 70
               0
  9
$DIMALTD
 70
               4
  9
$DIMALTF
 40
0.03937007874016
  9
$DIMLFAC
 40
1.0
  9
$DIMTOFL
 70
               1
  9
$DIMTVP
 40
0.0
  9
$DIMTIX
 70
               0
  9
$DIMSOXD
 70
               0
  9
$DIMSAH
 70
               0
  9
$DIMBLK1
  1

  9
$DIMBLK2
  1

  9
$DIMSTYLE
  2
MXDIMSTYLE
  9
$DIMCLRD
 70
               0
  9
$DIMCLRE
 70
               0
  9
$DIMCLRT
 70
               0
  9
$DIMTFAC
 40
1.0
  9
$DIMGAP
 40
1.0
  9
$DIMJUST
 70
               0
  9
$DIMSD1
 70
               0
  9
$DIMSD2
 70
               0
  9
$DIMTOLJ
 70
               1
  9
$DIMTZIN
 70
               0
  9
$DIMALTZ
 70
               0
  9
$DIMALTTZ
 70
               0
  9
$DIMFIT
 70
               3
  9
$DIMUPT
 70
               1
  9
$DIMUNIT
 70
               2
  9
$DIMDEC
 70
               4
  9
$DIMTDEC
 70
               4
  9
$DIMALTU
 70
               2
  9
$DIMALTTD
 70
               4
  9
$DIMTXSTY
  7
MX_NOTE_STANDARD
  9
$DIMAUNIT
 70
               0
  9
$LUNITS
 70
               2
  9
$LUPREC
 70
               4
  9
$SKETCHINC
 40
0.1
  9
$FILLETRAD
 40
0.0
  9
$AUNITS
 70
               0
  9
$AUPREC
 70
               0
  9
$MENU
  1
acad
  9
$ELEVATION
 40
0.0
  9
$PELEVATION
 40
0.0
  9
$THICKNESS
 40
0.0
  9
$LIMCHECK
 70
               0
  9
$BLIPMODE
 70
               1
  9
$CHAMFERA
 40
0.0
  9
$CHAMFERB
 40
0.0
  9
$CHAMFERC
 40
0.0
  9
$CHAMFERD
 40
0.0
  9
$SKPOLY
 70
               0
  9
$TDCREATE
 40
2453378.356678241
  9
$TDUPDATE
 40
2453378.356678241
  9
$TDINDWG
 40
0.0000000000
  9
$TDUSRTIMER
 40
0.0000000000
  9
$USRTIMER
 70
               1
  9
$ANGBASE
 50
0.0
  9
$ANGDIR
 70
               0
  9
$PDMODE
 70
               0
  9
$PDSIZE
 40
0.0
  9
$PLINEWID
 40
0.0
  9
$COORDS
 70
               1
  9
$SPLFRAME
 70
               0
  9
$SPLINETYPE
 70
               6
  9
$SPLINESEGS
 70
               8
  9
$ATTDIA
 70
               0
  9
$ATTREQ
 70
               1
  9
$HANDLING
 70
               1
  9
$HANDSEED
  5
6D1
  9
$SURFTAB1
 70
               6
  9
$SURFTAB2
 70
               6
  9
$SURFTYPE
 70
               6
  9
$SURFU
 70
               6
  9
$SURFV
 70
               6
  9
$UCSNAME
  2

  9
$UCSORG
 10
0.0
 20
0.0
 30
0.0
  9
$UCSXDIR
 10
1.0
 20
0.0
 30
0.0
  9
$UCSYDIR
 10
0.0
 20
1.0
 30
0.0
  9
$PUCSNAME
  2

  9
$PUCSORG
 10
0.0
 20
0.0
 30
0.0
  9
$PUCSXDIR
 10
1.0
 20
0.0
 30
0.0
  9
$PUCSYDIR
 10
0.0
 20
1.0
 30
0.0
  9
$USERI1
 70
               0
  9
$USERI2
 70
               0
  9
$USERI3
 70
               0
  9
$USERI4
 70
               0
  9
$USERI5
 70
               0
  9
$USERR1
 40
0.0
  9
$USERR2
 40
0.0
  9
$USERR3
 40
0.0
  9
$USERR4
 40
0.0
  9
$USERR5
 40
0.0
  9
$WORLDVIEW
 70
               1
  9
$SHADEDGE
 70
               3
  9
$SHADEDIF
 70
              70
  9
$TILEMODE
 70
               1
  9
$MAXACTVP
 70
              16
  9
$PINSBASE
 10
0.0
 20
0.0
 30
0.0
  9
$PLIMCHECK
 70
               0
  9
$PEXTMIN
 10
1.0000000000000000E+20
 20
1.0000000000000000E+20
 30
1.0000000000000000E+20
  9
$PEXTMAX
 10
-1.0000000000000000E+20
 20
-1.0000000000000000E+20
 30
-1.0000000000000000E+20
  9
$PLIMMIN
 10
0.0
 20
0.0
  9
$PLIMMAX
 10
12.0
 20
9.0
  9
$UNITMODE
 70
               0
  9
$VISRETAIN
 70
               0
  9
$PLINEGEN
 70
               1
  9
$PSLTSCALE
 70
               0
  9
$TREEDEPTH
 70
            3020
  9
$PICKSTYLE
 70
               1
  9
$CMLSTYLE
  2
Standard
  9
$CMLJUST
 70
               0
  9
$CMLSCALE
 40
1.0
  9
$SAVEIMAGES
 70
               0
  0
ENDSEC
  0
SECTION
  2
CLASSES
  0
CLASS
  1
LWPOLYLINE
  2
AcDbPolyline
  3
"AutoCAD"
 90
        0
280
               0
281
               1
  0
CLASS
  1
IMAGE
  2
AcDbRasterImage
  3
ISM
 90
      127
280
               0
281
               1
  0
CLASS
  1
OLE2FRAME
  2
AcDbOle2Frame
  3
""
 90
        0
280
               0
281
               1
  0
CLASS
  1
HATCH
  2
AcDbHatch
  3
"ACAD_SEDONA"
 90
        0
280
               0
281
               1
  0
CLASS
  1
DICTIONARYVAR
  2
AcDbDictionaryVar
  3
"AutoCAD"
 90
        0
280
               0
281
               0
  0
CLASS
  1
RASTERVARIABLES
  2
AcDbRasterVariables
  3
ISM
 90
        0
280
               0
281
               0
  0
CLASS
  1
IMAGEDEF
  2
AcDbRasterImageDef
  3
ISM
 90
        0
280
               0
281
               0
  0
CLASS
  1
IMAGEDEF_REACTOR
  2
AcDbRasterImageDefReactor
  3
ISM
 90
        1
280
               0
281
               0
  0
CLASS
  1
IDBUFFER
  2
AcDbIdBuffer
  3
"Acad"
 90
        0
280
               0
281
               0
  0
CLASS
  1
SPATIAL_FILTER
  2
AcDbSpatialFilter
  3
"Acad"
 90
        0
280
               0
281
               0
  0
CLASS
  1
XRECORD
  2
AcDbXrecord
  3
"<Built In>"
 90
        0
280
               0
281
               0
  0
CLASS
  1
SORTENTSTABLE
  2
AcDbSortentsTable
  3
"AutoCAD"
 90
        0
280
               0
281
               0
  0
CLASS
  1
LAYER_INDEX
  2
AcDbLayerIndex
  3
"Acad"
 90
        0
280
               0
281
               0
  0
CLASS
  1
SPATIAL_INDEX
  2
AcDbSpatialIndex
  3
"Acad"
 90
        0
280
               0
281
               0
  0
CLASS
  1
OBJECT_PTR
  2
CAseDLPNTableRecord
  3
"ASE-LPNTableRecord"
 90
        1
280
               0
281
               0
  0
CLASS
  1
LAYOUT
  2
AcDbLayout
  3
"AutoCAD 2000"
 90
        1
280
               0
281
               0
  0
CLASS
  1
PLOTSETTINGS
  2
AcDbPlotSettings
  3
"AutoCAD 2000"
 90
        1
280
               0
281
               0
  0
CLASS
  1
ACDBDICTIONARYWDFLT
  2
AcDbDictionaryWithDefault
  3
"AutoCAD 2000"
 90
        1
280
               0
281
               0
  0
CLASS
  1
ACDBPLACEHOLDER
  2
AcDbPlaceHolder
  3
"AutoCAD 2000"
 90
        1
280
               0
281
               0
  0
ENDSEC
  0
SECTION
  2
TABLES
  0
TABLE
  2
VPORT
  5
7
100
AcDbSymbolTable
 70
               1
  0
VPORT
  5
15
100
AcDbSymbolTableRecord
100
AcDbViewportTableRecord
  2
*ACTIVE
 70
               0
 10
0.0
 20
0.0
 11
1.0
 21
1.0
 12
2.1909528531206206
 22
0.25
 13
0.0
 23
0.0
 14
1.0
 24
1.0
 15
0.0
 25
0.0
 16
0.0
 26
0.0
 36
1.0
 17
0.0
 27
0.0
 37
0.0
 40
394.40500000000003
 41
1.7320508075688772
 42
50.0
 43
0.0
 44
0.0
 50
0.0
 51
0.0
 71
               0
 72
             100
 73
               1
 74
               1
 75
               0
 76
               0
 77
               0
 78
               0
  0
ENDTAB
  0
TABLE
  2
LTYPE
  5
4
100
AcDbSymbolTable
 70
               6
  0
LTYPE
  5
11
100
AcDbSymbolTableRecord
100
AcDbLinetypeTableRecord
  2
BYBLOCK
 70
              64
  3

 72
              65
 73
               0
 40
0.0
  0
LTYPE
  5
12
100
AcDbSymbolTableRecord
100
AcDbLinetypeTableRecord
  2
BYLAYER
 70
              64
  3

 72
              65
 73
               0
 40
0.0
  0
LTYPE
  5
13
100
AcDbSymbolTableRecord
100
AcDbLinetypeTableRecord
  2
CONTINUOUS
 70
              64
  3
Solid line
 72
              65
 73
               0
 40
0.0
  0
LTYPE
  5
37
100
AcDbSymbolTableRecord
100
AcDbLinetypeTableRecord
  2
PHANTOM
 70
              64
  3
Phantom ______  __  __  ______  __  __  ______
 72
              65
 73
               6
 40
30.0
 49
20.0
 74
               0
 49
-2.0
 74
               0
 49
2.0
 74
               0
 49
-2.0
 74
               0
 49
2.0
 74
               0
 49
-2.0
 74
               0
  0
LTYPE
  5
3E
100
AcDbSymbolTableRecord
100
AcDbLinetypeTableRecord
  2
DASHED
 70
              64
  3
Dashed __ __ __ __ __ __ __ __ __ __ __ __ __ _
 72
              65
 73
               2
 40
4.0
 49
2.0
 74
               0
 49
-2.0
 74
               0
  0
LTYPE
  5
1A7
100
AcDbSymbolTableRecord
100
AcDbLinetypeTableRecord
  2
CENTER
 70
              64
  3
Center ____ _ ____ _ ____ _ ____ _ ____ _ ____
 72
              65
 73
               4
 40
26.0
 49
20.0
 74
               0
 49
-2.0
 74
               0
 49
2.0
 74
               0
 49
-2.0
 74
               0
  0
ENDTAB
  0
TABLE
  2
LAYER
  5
2
100
AcDbSymbolTable
 70
               2
  0
LAYER
  5
14
100
AcDbSymbolTableRecord
100
AcDbLayerTableRecord
  2
0
 70
               0
 62
               7
  6
CONTINUOUS
  0
LAYER
  5
1D
100
AcDbSymbolTableRecord
100
AcDbLayerTableRecord
  2
DEFPOINTS
 70
               0
 62
               7
  6
CONTINUOUS
  0
ENDTAB
  0
TABLE
  2
STYLE
  5
3
100
AcDbSymbolTable
 70
               1
  0
STYLE
  5
17
100
AcDbSymbolTableRecord
100
AcDbTextStyleTableRecord
  2
MX_NOTE_STANDARD
 70
               0
 40
0.0
 41
1.0
 50
0.0
 71
               0
 42
3.2000000476837158
  3
txt.shx
  4
extfont.shx
  0
ENDTAB
  0
TABLE
  2
VIEW
  5
5
100
AcDbSymbolTable
 70
               0
  0
ENDTAB
  0
TABLE
  2
UCS
  5
6
100
AcDbSymbolTable
 70
               0
  0
ENDTAB
  0
TABLE
  2
APPID
  5
8
100
AcDbSymbolTable
 70
               1
  0
APPID
  5
16
100
AcDbSymbolTableRecord
100
AcDbRegAppTableRecord
  2
ACAD
 70
               0
  0
ENDTAB
  0
TABLE
  2
DIMSTYLE
  5
9
100
AcDbSymbolTable
 70
               1
  0
DIMSTYLE
105
18
100
AcDbSymbolTableRecord
100
AcDbDimStyleTableRecord
  2
MXDIMSTYLE
 70
               0
  3

  4

  5

  6

  7

 40
1.0
 41
2.5
 42
1.5
 43
3.75
 44
1.5
 45
0.0
 46
0.0
 47
0.0
 48
0.0
 71
               0
 72
               0
 73
               0
 74
               0
 75
               0
 76
               0
 77
               1
 78
               8
140
3.2000000476837158
141
2.5
142
0.0
143
0.03937007874016
144
1.0
145
0.0
146
1.0
147
1.0
170
               0
171
               4
172
               1
173
               0
174
               0
175
               0
176
               0
177
               0
178
               0
270
               2
271
               4
272
               4
273
               2
274
               4
275
               0
280
               0
281
               0
282
               0
283
               1
284
               0
285
               0
286
               0
287
               3
288
               1
340
17
  0
ENDTAB
  0
TABLE
  2
BLOCK_RECORD
  5
1
100
AcDbSymbolTable
 70
              24
  0
BLOCK_RECORD
  5
A
100
AcDbSymbolTableRecord
100
AcDbBlockTableRecord
  2
*MODEL_SPACE
  0
BLOCK_RECORD
  5
B
100
AcDbSymbolTableRecord
100
AcDbBlockTableRecord
  2
*PAPER_SPACE
  0
BLOCK_RECORD
  5
1E
100
AcDbSymbolTableRecord
100
AcDbBlockTableRecord
  2
MGAL6-L-1
  0
BLOCK_RECORD
  5
1F
100
AcDbSymbolTableRecord
100
AcDbBlockTableRecord
  2
MGAL6-L-2
  0
BLOCK_RECORD
  5
20
100
AcDbSymbolTableRecord
100
AcDbBlockTableRecord
  2
MGAL6-L-3
  0
BLOCK_RECORD
  5
21
100
AcDbSymbolTableRecord
100
AcDbBlockTableRecord
  2
MGAL6-L-4
  0
BLOCK_RECORD
  5
22
100
AcDbSymbolTableRecord
100
AcDbBlockTableRecord
  2
MGAL6-L-5
  0
BLOCK_RECORD
  5
23
100
AcDbSymbolTableRecord
100
AcDbBlockTableRecord
  2
MGAL6-L-6
  0
BLOCK_RECORD
  5
24
100
AcDbSymbolTableRecord
100
AcDbBlockTableRecord
  2
MGAL6-L-7
  0
BLOCK_RECORD
  5
25
100
AcDbSymbolTableRecord
100
AcDbBlockTableRecord
  2
MGAL6-L-8
  0
BLOCK_RECORD
  5
26
100
AcDbSymbolTableRecord
100
AcDbBlockTableRecord
  2
MGAL6-L-9
  0
BLOCK_RECORD
  5
27
100
AcDbSymbolTableRecord
100
AcDbBlockTableRecord
  2
MGAL6-L-10
  0
BLOCK_RECORD
  5
28
100
AcDbSymbolTableRecord
100
AcDbBlockTableRecord
  2
MGAL6-L-11
  0
BLOCK_RECORD
  5
29
100
AcDbSymbolTableRecord
100
AcDbBlockTableRecord
  2
MGAL6-L-12
  0
BLOCK_RECORD
  5
2A
100
AcDbSymbolTableRecord
100
AcDbBlockTableRecord
  2
MGAL6-L-13
  0
BLOCK_RECORD
  5
2B
100
AcDbSymbolTableRecord
100
AcDbBlockTableRecord
  2
MGAL6-L-14
  0
BLOCK_RECORD
  5
2C
100
AcDbSymbolTableRecord
100
AcDbBlockTableRecord
  2
MGAL6-L-15
  0
BLOCK_RECORD
  5
2D
100
AcDbSymbolTableRecord
100
AcDbBlockTableRecord
  2
MGAL6-L-16
  0
BLOCK_RECORD
  5
2E
100
AcDbSymbolTableRecord
100
AcDbBlockTableRecord
  2
MGAL6-L-17
  0
BLOCK_RECORD
  5
2F
100
AcDbSymbolTableRecord
100
AcDbBlockTableRecord
  2
MGAL6-L-18
  0
BLOCK_RECORD
  5
30
100
AcDbSymbolTableRecord
100
AcDbBlockTableRecord
  2
MGAL6-L-19
  0
BLOCK_RECORD
  5
31
100
AcDbSymbolTableRecord
100
AcDbBlockTableRecord
  2
MGAL6-L-20
  0
BLOCK_RECORD
  5
32
100
AcDbSymbolTableRecord
100
AcDbBlockTableRecord
  2
MGAL6-L-21
  0
BLOCK_RECORD
  5
33
100
AcDbSymbolTableRecord
100
AcDbBlockTableRecord
  2
MGAL6-L-22
  0
BLOCK_RECORD
  5
34
100
AcDbSymbolTableRecord
100
AcDbBlockTableRecord
  2
MGAL6-L-23
  0
BLOCK_RECORD
  5
35
100
AcDbSymbolTableRecord
100
AcDbBlockTableRecord
  2
MGAL6-L-24
  0
ENDTAB
  0
ENDSEC
  0
SECTION
  2
BLOCKS
  0
BLOCK
  5
D
100
AcDbEntity
  8
0
100
AcDbBlockBegin
  2
*MODEL_SPACE
 70
               0
 10
0.0
 20
0.0
 30
0.0
  3
*MODEL_SPACE
  1

  0
ENDBLK
  5
E
100
AcDbEntity
  8
0
100
AcDbBlockEnd
  0
BLOCK
  5
F
100
AcDbEntity
 67
               1
  8
0
100
AcDbBlockBegin
  2
*PAPER_SPACE
 70
               0
 10
0.0
 20
0.0
 30
0.0
  3
*PAPER_SPACE
  1

  0
ENDBLK
  5
10
100
AcDbEntity
 67
               1
  8
0
100
AcDbBlockEnd
  0
BLOCK
  5
36
100
AcDbEntity
  8
0
100
AcDbBlockBegin
  2
MGAL6-L-1
 70
               0
 10
0.0
 20
0.0
 30
0.0
  3
MGAL6-L-1
  1

  0
LINE
  5
38
100
AcDbEntity
  8
0
  6
PHANTOM
 62
               3
100
AcDbLine
 10
29.880458023713516
 20
48.82135129229286
 30
0.0
 11
29.880458023713516
 21
-16.906591367289892
 31
0.0
  0
LINE
  5
39
100
AcDbEntity
  8
0
  6
CONTINUOUS
 62
               7
100
AcDbLine
 10
8.4999999999999432
 20
21.599999999999994
 30
0.0
 11
3.4999999999999432
 21
21.599999999999994
 31
0.0
  0
LINE
  5
3A
100
AcDbEntity
  8
0
  6
CONTINUOUS
 62
               7
100
AcDbLine
 10
8.4999999999999432
 20
16.400000000000006
 30
0.0
 11
3.4999999999999432
 21
16.400000000000006
 31
0.0
  0
LINE
  5
3B
100
AcDbEntity
  8
0
  6
CONTINUOUS
 62
               7
100
AcDbLine
 10
8.9999999999999432
 20
10.0
 30
0.0
 11
3.4999999999999432
 21
10.0
 31
0.0
  0
LINE
  5
3C
100
AcDbEntity
  8
0
  6
CONTINUOUS
 62
               7
100
AcDbLine
 10
3.4999999999999432
 20
28.0
 30
0.0
 11
3.4999999999999432
 21
10.0
 31
0.0
  0
LINE
  5
3D
100
AcDbEntity
  8
0
  6
CONTINUOUS
 62
               7
100
AcDbLine
 10
8.9999999999999432
 20
28.0
 30
0.0
 11
3.4999999999999432
 21
28.0
 31
0.0
  0
LINE
  5
3F
100
AcDbEntity
  8
0
  6
DASHED
 62
               2
100
AcDbLine
 10
3.5
 20
8.3000000000000043
 30
0.0
 11
3.5
 21
5.0
 31
0.0
  0
LINE
  5
40
100
AcDbEntity
  8
0
  6
DASHED
 62
               2
100
AcDbLine
 10
-3.0
 20
5.0
 30
0.0
 11
3.5
 21
5.0
 31
0.0
  0
LINE
  5
41
100
AcDbEntity
  8
0
  6
CONTINUOUS
 62
               2
100
AcDbLine
 10
0.0
 20
6.2000000000000028
 30
0.0
 11
0.0
 21
-1.2000000000000028
 31
0.0
  0
LINE
  5
42
100
AcDbEntity
  8
0
  6
CONTINUOUS
 62
               2
100
AcDbLine
 10
47.999999999999943
 20
6.2000000000000028
 30
0.0
 11
47.999999999999943
 21
-1.2000000000000028
 31
0.0
  0
LINE
  5
43
100
AcDbEntity
  8
0
  6
DASHED
 62
               2
100
AcDbLine
 10
50.999999999999943
 20
5.0
 30
0.0
 11
44.499999999999943
 21
5.0
 31
0.0
  0
LINE
  5
44
100
AcDbEntity
  8
0
  6
DASHED
 62
               2
100
AcDbLine
 10
44.499999999999943
 20
8.3000000000000043
 30
0.0
 11
44.499999999999943
 21
5.0
 31
0.0
  0
LINE
  5
45
100
AcDbEntity
  8
0
  6
CONTINUOUS
 62
               7
100
AcDbLine
 10
8.9999999999999432
 20
9.5
 30
0.0
 11
5.0
 21
9.5
 31
0.0
  0
LINE
  5
46
100
AcDbEntity
  8
0
  6
CONTINUOUS
 62
               7
100
AcDbLine
 10
42.999999999999943
 20
9.0
 30
0.0
 11
42.999999999999943
 21
8.3000000000000043
 31
0.0
  0
LINE
  5
47
100
AcDbEntity
  8
0
  6
CONTINUOUS
 62
               7
100
AcDbLine
 10
5.0
 20
10.0
 30
0.0
 11
5.0
 21
8.3000000000000043
 31
0.0
  0
LINE
  5
48
100
AcDbEntity
  8
0
  6
CONTINUOUS
 62
               7
100
AcDbLine
 10
50.999999999999943
 20
8.3000000000000043
 30
0.0
 11
50.999999999999943
 21
0.0
 31
0.0
  0
LINE
  5
49
100
AcDbEntity
  8
0
  6
CONTINUOUS
 62
               7
100
AcDbLine
 10
-3.0
 20
-0.0000000136906095
 30
0.0
 11
-3.0
 21
8.3000000000000043
 31
0.0
  0
LINE
  5
4A
100
AcDbEntity
  8
0
  6
CONTINUOUS
 62
               7
100
AcDbLine
 10
50.999999999999943
 20
8.3000000000000043
 30
0.0
 11
-3.0
 21
8.3000000000000043
 31
0.0
  0
LINE
  5
4B
100
AcDbEntity
  8
0
  6
CONTINUOUS
 62
               7
100
AcDbLine
 10
50.999999999999943
 20
0.0
 30
0.0
 11
-3.0
 21
0.0
 31
0.0
  0
LINE
  5
4C
100
AcDbEntity
  8
0
  6
CONTINUOUS
 62
               2
100
AcDbLine
 10
27.499999999999943
 20
12.0
 30
0.0
 11
16.599999999999966
 21
12.0
 31
0.0
  0
LINE
  5
4D
100
AcDbEntity
  8
0
  6
CONTINUOUS
 62
               2
100
AcDbLine
 10
19.999999999999943
 20
8.5999999999999943
 30
0.0
 11
19.999999999999943
 21
15.400000000000006
 31
0.0
  0
CIRCLE
  5
4E
100
AcDbEntity
  8
0
  6
CONTINUOUS
 62
               7
100
AcDbCircle
 10
19.999999999999943
 20
12.0
 30
0.0
 40
2.3999999999999999
  0
CIRCLE
  5
4F
100
AcDbEntity
  8
0
  6
CONTINUOUS
 62
               7
100
AcDbCircle
 10
24.999999999999943
 20
12.0
 30
0.0
 40
1.25
  0
CIRCLE
  5
50
100
AcDbEntity
  8
0
  6
CONTINUOUS
 62
               2
100
AcDbCircle
 10
24.999999999999943
 20
12.0
 30
0.0
 40
1.5
  0
LINE
  5
51
100
AcDbEntity
  8
0
  6
CONTINUOUS
 62
               2
100
AcDbLine
 10
24.999999999999943
 20
14.5
 30
0.0
 11
24.999999999999943
 21
9.5
 31
0.0
  0
ARC
  5
52
100
AcDbEntity
  8
0
  6
CONTINUOUS
 62
               7
100
AcDbCircle
 10
8.2999999999999545
 20
14.200000000000003
 30
0.0
 40
0.3
100
AcDbArc
 50
90.0
 51
180.0
  0
ARC
  5
53
100
AcDbEntity
  8
0
  6
CONTINUOUS
 62
               7
100
AcDbCircle
 10
8.2999999999999545
 20
12.799999999999997
 30
0.0
 40
0.3
100
AcDbArc
 50
180.0
 51
270.0
  0
LINE
  5
54
100
AcDbEntity
  8
0
  6
CONTINUOUS
 62
               7
100
AcDbLine
 10
8.4999999999999432
 20
14.5
 30
0.0
 11
8.2999999999999545
 21
14.5
 31
0.0
  0
LINE
  5
55
100
AcDbEntity
  8
0
  6
CONTINUOUS
 62
               7
100
AcDbLine
 10
8.4999999999999432
 20
12.5
 30
0.0
 11
8.2999999999999545
 21
12.5
 31
0.0
  0
LINE
  5
56
100
AcDbEntity
  8
0
  6
CONTINUOUS
 62
               7
100
AcDbLine
 10
7.9999999999999432
 20
14.200000000000003
 30
0.0
 11
7.9999999999999432
 21
12.799999999999997
 31
0.0
  0
LINE
  5
57
100
AcDbEntity
  8
0
  6
CONTINUOUS
 62
               7
100
AcDbLine
 10
8.9999999999999432
 20
11.699999999999989
 30
0.0
 11
8.4999999999999432
 21
11.699999999999989
 31
0.0
  0
LINE
  5
58
100
AcDbEntity
  8
0
  6
CONTINUOUS
 62
               2
100
AcDbLine
 10
9.9720609170535113
 20
13.5
 30
0.0
 11
7.3585000633178197
 21
13.5
 31
0.0
  0
LINE
  5
59
100
AcDbEntity
  8
0
  6
CONTINUOUS
 62
               7
100
AcDbLine
 10
7.9999999999999432
 20
23.799999999999997
 30
0.0
 11
7.9999999999999432
 21
25.200000000000003
 31
0.0
  0
ARC
  5
5A
100
AcDbEntity
  8
0
  6
CONTINUOUS
 62
               7
100
AcDbCircle
 10
8.2999999999999545
 20
25.200000000000003
 30
0.0
 40
0.3
100
AcDbArc
 50
90.0
 51
180.0
  0
ARC
  5
5B
100
AcDbEntity
  8
0
  6
CONTINUOUS
 62
               7
100
AcDbCircle
 10
8.2999999999999545
 20
23.799999999999997
 30
0.0
 40
0.3
100
AcDbArc
 50
180.0
 51
270.0
  0
LINE
  5
5C
100
AcDbEntity
  8
0
  6
CONTINUOUS
 62
               7
100
AcDbLine
 10
8.4999999999999432
 20
23.5
 30
0.0
 11
8.2999999999999545
 21
23.5
 31
0.0
  0
LINE
  5
5D
100
AcDbEntity
  8
0
  6
CONTINUOUS
 62
               7
100
AcDbLine
 10
8.4999999999999432
 20
25.5
 30
0.0
 11
8.2999999999999545
 21
25.5
 31
0.0
  0
LINE
  5
5E
100
AcDbEntity
  8
0
  6
CONTINUOUS
 62
               7
100
AcDbLine
 10
8.9999999999999432
 20
26.300000000000011
 30
0.0
 11
8.4999999999999432
 21
26.300000000000011
 31
0.0
  0
LINE
  5
5F
100
AcDbEntity
  8
0
  6
CONTINUOUS
 62
               7
100
AcDbLine
 10
8.4999999999999432
 20
26.300000000000011
 30
0.0
 11
8.4999999999999432
 21
11.699999999999989
 31
0.0
  0
LINE
  5
60
100
AcDbEntity
  8
0
  6
CONTINUOUS
 62
               2
100
AcDbLine
 10
9.9720609170535113
 20
24.5
 30
0.0
 11
7.3585000633178197
 21
24.5
 31
0.0
  0
LINE
  5
61
100
AcDbEntity
  8
0
  6
CONTINUOUS
 62
               2
100
AcDbLine
 10
19.999999999999943
 20
29.400000000000006
 30
0.0
 11
19.999999999999943
 21
22.599999999999994
 31
0.0
  0
CIRCLE
  5
62
100
AcDbEntity
  8
0
  6
CONTINUOUS
 62
               7
100
AcDbCircle
 10
19.999999999999943
 20
26.0
 30
0.0
 40
2.3999999999999999
  0
LINE
  5
63
100
AcDbEntity
  8
0
  6
CONTINUOUS
 62
               2
100
AcDbLine
 10
27.499999999999943
 20
26.0
 30
0.0
 11
16.599999999999966
 21
26.0
 31
0.0
  0
LINE
  5
64
100
AcDbEntity
  8
0
  6
CONTINUOUS
 62
               7
100
AcDbLine
 10
52.999999972652006
 20
9.5
 30
0.0
 11
8.9999999999999432
 21
9.5
 31
0.0
  0
LINE
  5
65
100
AcDbEntity
  8
0
  6
CONTINUOUS
 62
               7
100
AcDbLine
 10
52.999999972652006
 20
28.5
 30
0.0
 11
8.9999999999999432
 21
28.5
 31
0.0
  0
LINE
  5
66
100
AcDbEntity
  8
0
  6
CONTINUOUS
 62
               2
100
AcDbLine
 10
54.183463893151668
 20
19.0
 30
0.0
 11
1.5330336488329408
 21
19.0
 31
0.0
  0
LINE
  5
67
100
AcDbEntity
  8
0
  6
CONTINUOUS
 62
               7
100
AcDbLine
 10
52.999999999999943
 20
9.0
 30
0.0
 11
52.999999999999943
 21
29.0
 31
0.0
  0
LINE
  5
68
100
AcDbEntity
  8
0
  6
CONTINUOUS
 62
               7
100
AcDbLine
 10
47.999999999999943
 20
9.0
 30
0.0
 11
47.999999999999943
 21
29.0
 31
0.0
  0
LINE
  5
69
100
AcDbEntity
  8
0
  6
CONTINUOUS
 62
               7
100
AcDbLine
 10
8.9999999999999432
 20
9.0
 30
0.0
 11
8.9999999999999432
 21
29.0
 31
0.0
  0
LINE
  5
6A
100
AcDbEntity
  8
0
  6
CONTINUOUS
 62
               7
100
AcDbLine
 10
52.999999972652006
 20
9.0
 30
0.0
 11
8.9999999999999432
 21
9.0
 31
0.0
  0
LINE
  5
6B
100
AcDbEntity
  8
0
  6
CONTINUOUS
 62
               2
100
AcDbLine
 10
54.046306739465592
 20
12.5
 30
0.0
 11
49.214634622136316
 21
12.5
 31
0.0
  0
LINE
  5
6C
100
AcDbEntity
  8
0
  6
CONTINUOUS
 62
               7
100
AcDbLine
 10
52.199999999999989
 20
14.400000000000006
 30
0.0
 11
50.499999999999943
 21
14.400000000000006
 31
0.0
  0
LINE
  5
6D
100
AcDbEntity
  8
0
  6
CONTINUOUS
 62
               7
100
AcDbLine
 10
52.199999999999989
 20
10.599999999999994
 30
0.0
 11
50.499999999999943
 21
10.599999999999994
 31
0.0
  0
LINE
  5
6E
100
AcDbEntity
  8
0
  6
CONTINUOUS
 62
               7
100
AcDbLine
 10
52.499999999999943
 20
14.099999999999994
 30
0.0
 11
52.199999999999989
 21
14.400000000000006
 31
0.0
  0
LINE
  5
6F
100
AcDbEntity
  8
0
  6
CONTINUOUS
 62
               7
100
AcDbLine
 10
52.499999999999943
 20
10.900000000000006
 30
0.0
 11
52.199999999999989
 21
10.599999999999994
 31
0.0
  0
LINE
  5
70
100
AcDbEntity
  8
0
  6
CONTINUOUS
 62
               7
100
AcDbLine
 10
52.499999999999943
 20
10.900000000000006
 30
0.0
 11
52.499999999999943
 21
14.099999999999994
 31
0.0
  0
LINE
  5
71
100
AcDbEntity
  8
0
  6
CONTINUOUS
 62
               7
100
AcDbLine
 10
52.199999999999989
 20
10.599999999999994
 30
0.0
 11
52.199999999999989
 21
14.400000000000006
 31
0.0
  0
LINE
  5
72
100
AcDbEntity
  8
0
  6
CONTINUOUS
 62
               2
100
AcDbLine
 10
35.999999999999943
 20
8.6000000000000014
 30
0.0
 11
35.999999999999943
 21
15.400000000000006
 31
0.0
  0
CIRCLE
  5
73
100
AcDbEntity
  8
0
  6
CONTINUOUS
 62
               7
100
AcDbCircle
 10
35.999999999999943
 20
12.0
 30
0.0
 40
2.3999999999999999
  0
LINE
  5
74
100
AcDbEntity
  8
0
  6
CONTINUOUS
 62
               2
100
AcDbLine
 10
40.999999999999943
 20
16.5
 30
0.0
 11
40.999999999999943
 21
21.5
 31
0.0
  0
CIRCLE
  5
75
100
AcDbEntity
  8
0
  6
CONTINUOUS
 62
               7
100
AcDbCircle
 10
40.999999999999943
 20
19.0
 30
0.0
 40
1.5
  0
LINE
  5
76
100
AcDbEntity
  8
0
  6
CONTINUOUS
 62
               7
100
AcDbLine
 10
25.499999999999943
 20
17.5
 30
0.0
 11
24.499999999999943
 21
17.5
 31
0.0
  0
LINE
  5
77
100
AcDbEntity
  8
0
  6
CONTINUOUS
 62
               7
100
AcDbLine
 10
25.499999999999943
 20
20.5
 30
0.0
 11
24.499999999999943
 21
20.5
 31
0.0
  0
ARC
  5
78
100
AcDbEntity
  8
0
  6
CONTINUOUS
 62
               7
100
AcDbCircle
 10
24.499999999999943
 20
19.0
 30
0.0
 40
1.5
100
AcDbArc
 50
90.0
 51
270.0
  0
ARC
  5
79
100
AcDbEntity
  8
0
  6
CONTINUOUS
 62
               7
100
AcDbCircle
 10
25.499999999999943
 20
19.0
 30
0.0
 40
1.5
100
AcDbArc
 50
270.0
 51
90.0
  0
LINE
  5
7A
100
AcDbEntity
  8
0
  6
CONTINUOUS
 62
               2
100
AcDbLine
 10
24.999999999999943
 20
16.5
 30
0.0
 11
24.999999999999943
 21
21.5
 31
0.0
  0
CIRCLE
  5
7B
100
AcDbEntity
  8
0
  6
CONTINUOUS
 62
               7
100
AcDbCircle
 10
40.999999999999943
 20
12.0
 30
0.0
 40
1.25
  0
CIRCLE
  5
7C
100
AcDbEntity
  8
0
  6
CONTINUOUS
 62
               2
100
AcDbCircle
 10
40.999999999999943
 20
12.0
 30
0.0
 40
1.5
  0
LINE
  5
7D
100
AcDbEntity
  8
0
  6
CONTINUOUS
 62
               2
100
AcDbLine
 10
40.999999999999943
 20
14.5
 30
0.0
 11
40.999999999999943
 21
9.5
 31
0.0
  0
LINE
  5
7E
100
AcDbEntity
  8
0
  6
CONTINUOUS
 62
               2
100
AcDbLine
 10
54.046306739465592
 20
25.5
 30
0.0
 11
49.214634622136316
 21
25.5
 31
0.0
  0
LINE
  5
7F
100
AcDbEntity
  8
0
  6
CONTINUOUS
 62
               7
100
AcDbLine
 10
52.199999999999989
 20
27.400000000000006
 30
0.0
 11
52.199999999999989
 21
23.599999999999994
 31
0.0
  0
LINE
  5
80
100
AcDbEntity
  8
0
  6
CONTINUOUS
 62
               7
100
AcDbLine
 10
52.499999999999943
 20
27.099999999999994
 30
0.0
 11
52.499999999999943
 21
23.900000000000006
 31
0.0
  0
LINE
  5
81
100
AcDbEntity
  8
0
  6
CONTINUOUS
 62
               7
100
AcDbLine
 10
50.499999999999943
 20
27.599999999999994
 30
0.0
 11
50.499999999999943
 21
23.400000000000006
 31
0.0
  0
LINE
  5
82
100
AcDbEntity
  8
0
  6
CONTINUOUS
 62
               7
100
AcDbLine
 10
52.499999999999943
 20
27.099999999999994
 30
0.0
 11
52.199999999999989
 21
27.400000000000006
 31
0.0
  0
LINE
  5
83
100
AcDbEntity
  8
0
  6
CONTINUOUS
 62
               7
100
AcDbLine
 10
52.499999999999943
 20
23.900000000000006
 30
0.0
 11
52.199999999999989
 21
23.599999999999994
 31
0.0
  0
LINE
  5
84
100
AcDbEntity
  8
0
  6
CONTINUOUS
 62
               7
100
AcDbLine
 10
52.199999999999989
 20
27.400000000000006
 30
0.0
 11
50.499999999999943
 21
27.400000000000006
 31
0.0
  0
LINE
  5
85
100
AcDbEntity
  8
0
  6
CONTINUOUS
 62
               7
100
AcDbLine
 10
52.199999999999989
 20
23.599999999999994
 30
0.0
 11
50.499999999999943
 21
23.599999999999994
 31
0.0
  0
LINE
  5
86
100
AcDbEntity
  8
0
  6
DASHED
 62
               2
100
AcDbLine
 10
43.999999999999943
 20
28.5
 30
0.0
 11
43.999999999999943
 21
9.5
 31
0.0
  0
LINE
  5
87
100
AcDbEntity
  8
0
  6
CONTINUOUS
 62
               2
100
AcDbLine
 10
40.999999999999943
 20
23.5
 30
0.0
 11
40.999999999999943
 21
28.5
 31
0.0
  0
CIRCLE
  5
88
100
AcDbEntity
  8
0
  6
CONTINUOUS
 62
               7
100
AcDbCircle
 10
40.999999999999943
 20
26.0
 30
0.0
 40
1.25
  0
CIRCLE
  5
89
100
AcDbEntity
  8
0
  6
CONTINUOUS
 62
               2
100
AcDbCircle
 10
40.999999999999943
 20
26.0
 30
0.0
 40
1.5
  0
LINE
  5
8A
100
AcDbEntity
  8
0
  6
CONTINUOUS
 62
               2
100
AcDbLine
 10
35.999999999999943
 20
29.400000000000006
 30
0.0
 11
35.999999999999943
 21
22.599999999999994
 31
0.0
  0
CIRCLE
  5
8B
100
AcDbEntity
  8
0
  6
CONTINUOUS
 62
               7
100
AcDbCircle
 10
35.999999999999943
 20
26.0
 30
0.0
 40
2.3999999999999999
  0
CIRCLE
  5
8C
100
AcDbEntity
  8
0
  6
CONTINUOUS
 62
               7
100
AcDbCircle
 10
24.999999999999943
 20
26.0
 30
0.0
 40
1.25
  0
CIRCLE
  5
8D
100
AcDbEntity
  8
0
  6
CONTINUOUS
 62
               2
100
AcDbCircle
 10
24.999999999999943
 20
26.0
 30
0.0
 40
1.5
  0
LINE
  5
8E
100
AcDbEntity
  8
0
  6
CONTINUOUS
 62
               2
100
AcDbLine
 10
24.999999999999943
 20
23.5
 30
0.0
 11
24.999999999999943
 21
28.5
 31
0.0
  0
LINE
  5
8F
100
AcDbEntity
  8
0
  6
CONTINUOUS
 62
               7
100
AcDbLine
 10
52.999999972652006
 20
29.0
 30
0.0
 11
8.9999999999999432
 21
29.0
 31
0.0
  0
LINE
  5
90
100
AcDbEntity
  8
0
  6
CONTINUOUS
 62
               2
100
AcDbLine
 10
43.499999999999943
 20
26.0
 30
0.0
 11
32.599999999999966
 21
26.0
 31
0.0
  0
LINE
  5
91
100
AcDbEntity
  8
0
  6
CONTINUOUS
 62
               2
100
AcDbLine
 10
43.499999999999943
 20
12.0
 30
0.0
 11
32.599999999999966
 21
12.0
 31
0.0
  0
LINE
  5
92
100
AcDbEntity
  8
0
  6
CONTINUOUS
 62
               7
100
AcDbLine
 10
52.999999999999943
 20
27.599999999999994
 30
0.0
 11
50.499999999999943
 21
27.599999999999994
 31
0.0
  0
LINE
  5
93
100
AcDbEntity
  8
0
  6
CONTINUOUS
 62
               7
100
AcDbLine
 10
52.999999999999943
 20
23.400000000000006
 30
0.0
 11
50.499999999999943
 21
23.400000000000006
 31
0.0
  0
LINE
  5
94
100
AcDbEntity
  8
0
  6
CONTINUOUS
 62
               7
100
AcDbLine
 10
52.999999999999943
 20
10.400000000000006
 30
0.0
 11
50.499999999999943
 21
10.400000000000006
 31
0.0
  0
LINE
  5
95
100
AcDbEntity
  8
0
  6
CONTINUOUS
 62
               7
100
AcDbLine
 10
50.499999999999943
 20
10.400000000000006
 30
0.0
 11
50.499999999999943
 21
14.599999999999994
 31
0.0
  0
LINE
  5
96
100
AcDbEntity
  8
0
  6
CONTINUOUS
 62
               7
100
AcDbLine
 10
52.999999999999943
 20
14.599999999999994
 30
0.0
 11
50.499999999999943
 21
14.599999999999994
 31
0.0
  0
ENDBLK
  5
97
100
AcDbEntity
  8
0
100
AcDbBlockEnd
  0
BLOCK
  5
98
100
AcDbEntity
  8
0
100
AcDbBlockBegin
  2
MGAL6-L-2
 70
               0
 10
0.0
 20
0.0
 30
0.0
  3
MGAL6-L-2
  1

  0
LINE
  5
99
100
AcDbEntity
  8
0
  6
PHANTOM
 62
               3
100
AcDbLine
 10
30.803532154157807
 20
18.908031223761725
 30
0.0
 11
30.803532154157807
 21
-27.761436943270624
 31
0.0
  0
LINE
  5
9A
100
AcDbEntity
  8
0
  6
CONTINUOUS
 62
               4
100
AcDbLine
 10
43.999999999999943
 20
0.9000000000000057
 30
0.0
 11
8.9999999999999432
 21
0.9000000000000057
 31
0.0
  0
LINE
  5
9B
100
AcDbEntity
  8
0
  6
CONTINUOUS
 62
               7
100
AcDbLine
 10
8.9999999999999432
 20
1.0
 30
0.0
 11
8.9999999999999432
 21
-11.000000000000028
 31
0.0
  0
LINE
  5
9C
100
AcDbEntity
  8
0
  6
CONTINUOUS
 62
               4
100
AcDbLine
 10
43.999999999999943
 20
-5.8000000000000114
 30
0.0
 11
8.9999999999999432
 21
-5.8000000000000114
 31
0.0
  0
LINE
  5
9D
100
AcDbEntity
  8
0
  6
CONTINUOUS
 62
               4
100
AcDbLine
 10
10.718399438202312
 20
-0.5999999999999943
 30
0.0
 11
8.9999999999999432
 21
-0.5999999999999943
 31
0.0
  0
LINE
  5
9E
100
AcDbEntity
  8
0
  6
CONTINUOUS
 62
               4
100
AcDbLine
 10
10.718399438202368
 20
-3.8000000000000114
 30
0.0
 11
8.9999999999999432
 21
-3.8000000000000114
 31
0.0
  0
LINE
  5
9F
100
AcDbEntity
  8
0
  6
CONTINUOUS
 62
               4
100
AcDbLine
 10
39.718399438202312
 20
-0.5999999999999943
 30
0.0
 11
13.281600561797575
 21
-0.5999999999999943
 31
0.0
  0
LINE
  5
A0
100
AcDbEntity
  8
0
  6
CONTINUOUS
 62
               4
100
AcDbLine
 10
39.718399438202368
 20
-3.8000000000000114
 30
0.0
 11
13.281600561797575
 21
-3.8000000000000114
 31
0.0
  0
LINE
  5
A1
100
AcDbEntity
  8
0
  6
CONTINUOUS
 62
             200
100
AcDbLine
 10
11.999999999999943
 20
0.8499999999999943
 30
0.0
 11
11.999999999999943
 21
-5.25
 31
0.0
  0
LINE
  5
A2
100
AcDbEntity
  8
0
  6
CONTINUOUS
 62
             200
100
AcDbLine
 10
8.9499999999999886
 20
-2.1999999999999886
 30
0.0
 11
15.049999999999955
 21
-2.1999999999999886
 31
0.0
  0
CIRCLE
  5
A3
100
AcDbEntity
  8
0
  6
CONTINUOUS
 62
               4
100
AcDbCircle
 10
11.999999999999943
 20
-2.1999999999999886
 30
0.0
 40
1.9000000000000148
  0
CIRCLE
  5
A4
100
AcDbEntity
  8
0
  6
CONTINUOUS
 62
               4
100
AcDbCircle
 10
11.999999999999943
 20
-2.1999999999999886
 30
0.0
 40
2.0499999999999998
  0
CIRCLE
  5
A5
100
AcDbEntity
  8
0
  6
CONTINUOUS
 62
               4
100
AcDbCircle
 10
11.999999999999943
 20
-2.1999999999999886
 30
0.0
 40
1.6000000000000174
  0
LINE
  5
A6
100
AcDbEntity
  8
0
  6
CONTINUOUS
 62
               4
100
AcDbLine
 10
11.999999863279129
 20
-3.0660254903786779
 30
0.0
 11
12.750000023384246
 21
-2.6330126744466327
 31
0.0
  0
LINE
  5
A7
100
AcDbEntity
  8
0
  6
CONTINUOUS
 62
               4
100
AcDbLine
 10
12.750000006632376
 20
-2.6330128635930521
 30
0.0
 11
12.749999987923502
 21
-1.7669872641336042
 31
0.0
  0
LINE
  5
A8
100
AcDbEntity
  8
0
  6
CONTINUOUS
 62
               4
100
AcDbLine
 10
12.750000143353191
 20
-1.7669873732143628
 30
0.0
 11
11.999999964539256
 21
-1.3339745896869886
 31
0.0
  0
LINE
  5
A9
100
AcDbEntity
  8
0
  6
CONTINUOUS
 62
               4
100
AcDbLine
 10
12.000000136720757
 20
-1.3339745096213278
 30
0.0
 11
11.249999976615698
 21
-1.766987325553373
 31
0.0
  0
LINE
  5
AA
100
AcDbEntity
  8
0
  6
CONTINUOUS
 62
               4
100
AcDbLine
 10
11.249999993367567
 20
-1.7669871364069536
 30
0.0
 11
11.250000012076441
 21
-2.6330127358663731
 31
0.0
  0
LINE
  5
AB
100
AcDbEntity
  8
0
  6
CONTINUOUS
 62
               4
100
AcDbLine
 10
11.249999856646753
 20
-2.6330126267856429
 30
0.0
 11
12.000000035460687
 21
-3.0660254103130171
 31
0.0
  0
LINE
  5
AC
100
AcDbEntity
  8
0
  6
CONTINUOUS
 62
               4
100
AcDbLine
 10
43.999999999999943
 20
-9.0
 30
0.0
 11
8.9999999999999432
 21
-9.0
 31
0.0
  0
LINE
  5
AD
100
AcDbEntity
  8
0
  6
CONTINUOUS
 62
               4
100
AcDbLine
 10
43.999999999999943
 20
-10.5
 30
0.0
 11
8.9999999999999432
 21
-10.5
 31
0.0
  0
LINE
  5
AE
100
AcDbEntity
  8
0
  6
CONTINUOUS
 62
               7
100
AcDbLine
 10
47.999999999999943
 20
-11.000000000000028
 30
0.0
 11
8.9999999999999432
 21
-11.000000000000028
 31
0.0
  0
LINE
  5
AF
100
AcDbEntity
  8
0
  6
CONTINUOUS
 62
               4
100
AcDbLine
 10
27.391723746970058
 20
-10.700000000000017
 30
0.0
 11
14.608276253029828
 21
-10.700000000000017
 31
0.0
  0
LINE
  5
B0
100
AcDbEntity
  8
0
  6
CONTINUOUS
 62
               4
100
AcDbLine
 10
13.391723746970058
 20
-10.700000000000017
 30
0.0
 11
11.999999999999943
 21
-10.700000000000017
 31
0.0
  0
LINE
  5
B1
100
AcDbEntity
  8
0
  6
CONTINUOUS
 62
               4
100
AcDbLine
 10
29.999999999999943
 20
-10.700000000000017
 30
0.0
 11
28.608276253029828
 21
-10.700000000000017
 31
0.0
  0
ARC
  5
B2
100
AcDbEntity
  8
0
  6
CONTINUOUS
 62
               4
100
AcDbCircle
 10
13.999999999999943
 20
-8.9000000000000057
 30
0.0
 40
1.9000000000000148
100
AcDbArc
 50
237.36310249644498
 51
302.63689750355508
  0
LINE
  5
B3
100
AcDbEntity
  8
0
  6
CONTINUOUS
 62
               4
100
AcDbLine
 10
11.999999999999943
 20
-10.5
 30
0.0
 11
11.999999999999943
 21
-10.700000000000017
 31
0.0
  0
ARC
  5
B4
100
AcDbEntity
  8
0
  6
CONTINUOUS
 62
               4
100
AcDbCircle
 10
27.999999999999943
 20
-8.9000000000000057
 30
0.0
 40
1.9000000000000148
100
AcDbArc
 50
237.36310249644498
 51
302.63689750355508
  0
LINE
  5
B5
100
AcDbEntity
  8
0
  6
CONTINUOUS
 62
               4
100
AcDbLine
 10
29.999999999999943
 20
-10.5
 30
0.0
 11
29.999999999999943
 21
-10.700000000000017
 31
0.0
  0
LINE
  5
B6
100
AcDbEntity
  8
0
  6
CONTINUOUS
 62
               4
100
AcDbLine
 10
43.999999999999943
 20
1.0
 30
0.0
 11
43.999999999999943
 21
-10.5
 31
0.0
  0
LINE
  5
B7
100
AcDbEntity
  8
0
  6
CONTINUOUS
 62
               7
100
AcDbLine
 10
48.000000024143901
 20
-7.0000000000000284
 30
0.0
 11
43.999999999999943
 21
-7.0000000000000284
 31
0.0
  0
LINE
  5
B8
100
AcDbEntity
  8
0
  6
CONTINUOUS
 62
               4
100
AcDbLine
 10
43.999999999999943
 20
-3.8000000000000114
 30
0.0
 11
42.281600561797575
 21
-3.8000000000000114
 31
0.0
  0
LINE
  5
B9
100
AcDbEntity
  8
0
  6
CONTINUOUS
 62
               4
100
AcDbLine
 10
43.999999999999943
 20
-0.5999999999999943
 30
0.0
 11
42.281600561797575
 21
-0.5999999999999943
 31
0.0
  0
CIRCLE
  5
BA
100
AcDbEntity
  8
0
  6
CONTINUOUS
 62
               4
100
AcDbCircle
 10
40.999999999999943
 20
-2.1999999999999886
 30
0.0
 40
1.6000000000000174
  0
CIRCLE
  5
BB
100
AcDbEntity
  8
0
  6
CONTINUOUS
 62
               4
100
AcDbCircle
 10
40.999999999999943
 20
-2.1999999999999886
 30
0.0
 40
2.0499999999999998
  0
CIRCLE
  5
BC
100
AcDbEntity
  8
0
  6
CONTINUOUS
 62
               4
100
AcDbCircle
 10
40.999999999999943
 20
-2.1999999999999886
 30
0.0
 40
1.9000000000000148
  0
LINE
  5
BD
100
AcDbEntity
  8
0
  6
CONTINUOUS
 62
             200
100
AcDbLine
 10
44.049999999999955
 20
-2.1999999999999886
 30
0.0
 11
37.949999999999989
 21
-2.1999999999999886
 31
0.0
  0
LINE
  5
BE
100
AcDbEntity
  8
0
  6
CONTINUOUS
 62
             200
100
AcDbLine
 10
40.999999999999943
 20
0.8499999999999943
 30
0.0
 11
40.999999999999943
 21
-5.25
 31
0.0
  0
LINE
  5
BF
100
AcDbEntity
  8
0
  6
CONTINUOUS
 62
               4
100
AcDbLine
 10
41.750000143353191
 20
-2.6330126267856429
 30
0.0
 11
40.999999964539256
 21
-3.0660254103130171
 31
0.0
  0
LINE
  5
C0
100
AcDbEntity
  8
0
  6
CONTINUOUS
 62
               4
100
AcDbLine
 10
41.750000006632376
 20
-1.7669871364069536
 30
0.0
 11
41.749999987923502
 21
-2.6330127358663731
 31
0.0
  0
LINE
  5
C1
100
AcDbEntity
  8
0
  6
CONTINUOUS
 62
               4
100
AcDbLine
 10
40.999999863279129
 20
-1.3339745096213278
 30
0.0
 11
41.750000023384246
 21
-1.766987325553373
 31
0.0
  0
LINE
  5
C2
100
AcDbEntity
  8
0
  6
CONTINUOUS
 62
               4
100
AcDbLine
 10
40.249999856646753
 20
-1.7669873732143628
 30
0.0
 11
41.000000035460687
 21
-1.3339745896869886
 31
0.0
  0
LINE
  5
C3
100
AcDbEntity
  8
0
  6
CONTINUOUS
 62
               4
100
AcDbLine
 10
40.249999993367567
 20
-2.6330128635930521
 30
0.0
 11
40.250000012076441
 21
-1.7669872641336042
 31
0.0
  0
LINE
  5
C4
100
AcDbEntity
  8
0
  6
CONTINUOUS
 62
               4
100
AcDbLine
 10
41.000000136720757
 20
-3.0660254903786779
 30
0.0
 11
40.249999976615698
 21
-2.6330126744466327
 31
0.0
  0
LINE
  5
C5
100
AcDbEntity
  8
0
  6
CONTINUOUS
 62
               7
100
AcDbLine
 10
3.5000000025372628
 20
-8.0
 30
0.0
 11
3.5
 21
3.0
 31
0.0
  0
LINE
  5
C6
100
AcDbEntity
  8
0
  6
CONTINUOUS
 62
               7
100
AcDbLine
 10
7.9999999858414981
 20
-8.0
 30
0.0
 11
3.4999999858414981
 21
-8.0
 31
0.0
  0
LINE
  5
C7
100
AcDbEntity
  8
0
  6
CONTINUOUS
 62
               7
100
AcDbLine
 10
8.9999999858414981
 20
0.8000000000000114
 30
0.0
 11
3.4999999858414981
 21
0.8000000000000114
 31
0.0
  0
ARC
  5
C8
100
AcDbEntity
  8
0
  6
CONTINUOUS
 62
               7
100
AcDbCircle
 10
47.999999999999943
 20
0.0
 30
0.0
 40
1.7
100
AcDbArc
 50
6.7563270305879719
 51
173.24367296941207
  0
ARC
  5
C9
100
AcDbEntity
  8
0
  6
DASHED
 62
               2
100
AcDbCircle
 10
47.999999999999943
 20
0.0
 30
0.0
 40
1.7
100
AcDbArc
 50
173.24367296941205
 51
6.7563270305879213
  0
CIRCLE
  5
CA
100
AcDbEntity
  8
0
  6
CONTINUOUS
 62
               7
100
AcDbCircle
 10
0.0
 20
0.0
 30
0.0
 40
1.7
  0
LINE
  5
CB
100
AcDbEntity
  8
0
  6
CONTINUOUS
 62
               2
100
AcDbLine
 10
47.999999999999943
 20
2.7000000000000171
 30
0.0
 11
47.999999999999943
 21
-2.7000000000000171
 31
0.0
  0
LINE
  5
CC
100
AcDbEntity
  8
0
  6
CONTINUOUS
 62
               2
100
AcDbLine
 10
50.699999999999989
 20
0.0
 30
0.0
 11
45.300000000000011
 21
0.0
 31
0.0
  0
LINE
  5
CD
100
AcDbEntity
  8
0
  6
CONTINUOUS
 62
               2
100
AcDbLine
 10
0.0
 20
2.7000000000000171
 30
0.0
 11
0.0
 21
-2.7000000000000171
 31
0.0
  0
LINE
  5
CE
100
AcDbEntity
  8
0
  6
CONTINUOUS
 62
               2
100
AcDbLine
 10
-2.6999999999999886
 20
0.0
 30
0.0
 11
2.6999999999999886
 21
0.0
 31
0.0
  0
LINE
  5
CF
100
AcDbEntity
  8
0
  6
CONTINUOUS
 62
               7
100
AcDbLine
 10
42.999999999999943
 20
2.2000000000000171
 30
0.0
 11
5.0
 21
2.2000000000000171
 31
0.0
  0
LINE
  5
D0
100
AcDbEntity
  8
0
  6
CONTINUOUS
 62
               7
100
AcDbLine
 10
0.0
 20
-3.5
 30
0.0
 11
-3.0
 21
-3.5
 31
0.0
  0
ARC
  5
D1
100
AcDbEntity
  8
0
  6
CONTINUOUS
 62
               7
100
AcDbCircle
 10
0.0
 20
0.0
 30
0.0
 40
3.5
100
AcDbArc
 50
270.0
 51
0.0
  0
LINE
  5
D2
100
AcDbEntity
  8
0
  6
CONTINUOUS
 62
               7
100
AcDbLine
 10
5.0
 20
2.2000000000000171
 30
0.0
 11
5.0
 21
0.8000000000000114
 31
0.0
  0
LINE
  5
D3
100
AcDbEntity
  8
0
  6
CONTINUOUS
 62
               7
100
AcDbLine
 10
-3.0
 20
3.0
 30
0.0
 11
-3.0
 21
-10.0
 31
0.0
  0
LINE
  5
D4
100
AcDbEntity
  8
0
  6
CONTINUOUS
 62
               7
100
AcDbLine
 10
44.499999999999943
 20
0.0
 30
0.0
 11
44.499999999999943
 21
3.0
 31
0.0
  0
ARC
  5
D5
100
AcDbEntity
  8
0
  6
CONTINUOUS
 62
               7
100
AcDbCircle
 10
47.999999999999943
 20
0.0
 30
0.0
 40
3.5
100
AcDbArc
 50
180.0
 51
214.84990457904655
  0
LINE
  5
D6
100
AcDbEntity
  8
0
  6
CONTINUOUS
 62
               7
100
AcDbLine
 10
50.999999999999943
 20
3.0
 30
0.0
 11
50.999999999999943
 21
0.2000000000000171
 31
0.0
  0
LINE
  5
D7
100
AcDbEntity
  8
0
  6
CONTINUOUS
 62
               7
100
AcDbLine
 10
42.999999999999943
 20
2.2000000000000171
 30
0.0
 11
42.999999999999943
 21
1.0
 31
0.0
  0
LINE
  5
D8
100
AcDbEntity
  8
0
  6
CONTINUOUS
 62
               7
100
AcDbLine
 10
8.4999999999999432
 20
-10.0
 30
0.0
 11
-3.0
 21
-10.0
 31
0.0
  0
LINE
  5
D9
100
AcDbEntity
  8
0
  6
CONTINUOUS
 62
               7
100
AcDbLine
 10
50.999999999999943
 20
3.0
 30
0.0
 11
-3.0
 21
3.0
 31
0.0
  0
LINE
  5
DA
100
AcDbEntity
  8
0
  6
CONTINUOUS
 62
               7
100
AcDbLine
 10
8.4999999999999432
 20
-10.699999999999989
 30
0.0
 11
8.4999999999999432
 21
-7.1999999999999886
 31
0.0
  0
ARC
  5
DB
100
AcDbEntity
  8
0
  6
CONTINUOUS
 62
               7
100
AcDbCircle
 10
8.2999999999999545
 20
-7.7999999999999972
 30
0.0
 40
0.3
100
AcDbArc
 50
90.0
 51
180.0
  0
ARC
  5
DC
100
AcDbEntity
  8
0
  6
CONTINUOUS
 62
               7
100
AcDbCircle
 10
8.2999999999999545
 20
-9.2000000000000028
 30
0.0
 40
0.3
100
AcDbArc
 50
180.0
 51
270.0
  0
LINE
  5
DD
100
AcDbEntity
  8
0
  6
CONTINUOUS
 62
               7
100
AcDbLine
 10
8.4999999999999432
 20
-7.5
 30
0.0
 11
8.2999999999999545
 21
-7.5
 31
0.0
  0
LINE
  5
DE
100
AcDbEntity
  8
0
  6
CONTINUOUS
 62
               7
100
AcDbLine
 10
8.4999999999999432
 20
-9.5
 30
0.0
 11
8.2999999999999545
 21
-9.5
 31
0.0
  0
LINE
  5
DF
100
AcDbEntity
  8
0
  6
CONTINUOUS
 62
               7
100
AcDbLine
 10
7.9999999999999432
 20
-7.7999999999999972
 30
0.0
 11
7.9999999999999432
 21
-9.2000000000000028
 31
0.0
  0
LINE
  5
E0
100
AcDbEntity
  8
0
  6
CONTINUOUS
 62
               7
100
AcDbLine
 10
8.9999999982455279
 20
-7.1999999999999886
 30
0.0
 11
8.4999999982455279
 21
-7.1999999999999886
 31
0.0
  0
LINE
  5
E1
100
AcDbEntity
  8
0
  6
CONTINUOUS
 62
               7
100
AcDbLine
 10
8.9999999982455279
 20
-10.699999999999989
 30
0.0
 11
8.4999999982455279
 21
-10.699999999999989
 31
0.0
  0
LINE
  5
E2
100
AcDbEntity
  8
0
  6
CONTINUOUS
 62
               2
100
AcDbLine
 10
9.9720609170535113
 20
-8.5
 30
0.0
 11
7.3585000633178197
 21
-8.5
 31
0.0
  0
LINE
  5
E3
100
AcDbEntity
  8
0
  6
CONTINUOUS
 62
               7
100
AcDbLine
 10
43.999999999999943
 20
1.0
 30
0.0
 11
5.0
 21
1.0
 31
0.0
  0
LINE
  5
E4
100
AcDbEntity
  8
0
  6
CONTINUOUS
 62
               7
100
AcDbLine
 10
48.000000024143901
 20
-7.0
 30
0.0
 11
48.000000024143901
 21
-10.99999998630939
 31
0.0
  0
LINE
  5
E5
100
AcDbEntity
  8
0
  6
CONTINUOUS
 62
               7
100
AcDbLine
 10
52.999999999999943
 20
-10.799999999999997
 30
0.0
 11
47.999999999999943
 21
-10.799999999999997
 31
0.0
  0
LINE
  5
E6
100
AcDbEntity
  8
0
  6
CONTINUOUS
 62
               7
100
AcDbLine
 10
52.999999972652006
 20
0.2000000000000171
 30
0.0
 11
47.499999999999943
 21
0.2000000000000171
 31
0.0
  0
LINE
  5
E7
100
AcDbEntity
  8
0
  6
CONTINUOUS
 62
               7
100
AcDbLine
 10
47.499999999999943
 20
0.2000000000000171
 30
0.0
 11
47.499999999999943
 21
-7.0
 31
0.0
  0
LINE
  5
E8
100
AcDbEntity
  8
0
  6
CONTINUOUS
 62
               7
100
AcDbLine
 10
52.999999999999943
 20
-10.799999999999997
 30
0.0
 11
52.999999999999943
 21
0.2000000000000171
 31
0.0
  0
LINE
  5
E9
100
AcDbEntity
  8
0
  6
CONTINUOUS
 62
               2
100
AcDbLine
 10
54.455680109367961
 20
-3.5
 30
0.0
 11
43.346044624153819
 21
-3.5
 31
0.0
  0
LINE
  5
EA
100
AcDbEntity
  8
0
  6
CONTINUOUS
 62
               7
100
AcDbLine
 10
8.9999999999999432
 20
-6.5
 30
0.0
 11
3.5000000025372628
 21
-6.5
 31
0.0
  0
LINE
  5
EB
100
AcDbEntity
  8
0
  6
CONTINUOUS
 62
               7
100
AcDbLine
 10
45.999999999999943
 20
0.2000000000000171
 30
0.0
 11
47.499999999999943
 21
0.2000000000000171
 31
0.0
  0
LINE
  5
EC
100
AcDbEntity
  8
0
  6
CONTINUOUS
 62
               7
100
AcDbLine
 10
45.999999999999943
 20
0.2000000000000171
 30
0.0
 11
45.999999999999943
 21
-7.0
 31
0.0
  0
LINE
  5
ED
100
AcDbEntity
  8
0
  6
CONTINUOUS
 62
               7
100
AcDbLine
 10
45.499999999999943
 20
-5.0
 30
0.0
 11
43.999999999999943
 21
-5.0
 31
0.0
  0
LINE
  5
EE
100
AcDbEntity
  8
0
  6
CONTINUOUS
 62
               7
100
AcDbLine
 10
45.499999999999943
 20
-2.0
 30
0.0
 11
43.999999999999943
 21
-2.0
 31
0.0
  0
LINE
  5
EF
100
AcDbEntity
  8
0
  6
CONTINUOUS
 62
               7
100
AcDbLine
 10
52.999999999999943
 20
-10.299999999999997
 30
0.0
 11
47.999999999999943
 21
-10.299999999999997
 31
0.0
  0
LINE
  5
F0
100
AcDbEntity
  8
0
  6
CONTINUOUS
 62
               7
100
AcDbLine
 10
47.499999999999943
 20
-2.2999999999999829
 30
0.0
 11
45.999999999999943
 21
-2.2999999999999829
 31
0.0
  0
LINE
  5
F1
100
AcDbEntity
  8
0
  6
CONTINUOUS
 62
               7
100
AcDbLine
 10
47.499999999999943
 20
-4.7000000000000171
 30
0.0
 11
45.999999999999943
 21
-4.7000000000000171
 31
0.0
  0
LINE
  5
F2
100
AcDbEntity
  8
0
  6
CONTINUOUS
 62
               2
100
AcDbLine
 10
45.999999999999943
 20
-2.2999999999999829
 30
0.0
 11
47.499999999999943
 21
-4.7000000000000171
 31
0.0
  0
LINE
  5
F3
100
AcDbEntity
  8
0
  6
CONTINUOUS
 62
               2
100
AcDbLine
 10
47.499999999999943
 20
-2.2999999999999829
 30
0.0
 11
45.999999999999943
 21
-4.7000000000000171
 31
0.0
  0
LINE
  5
F4
100
AcDbEntity
  8
0
  6
CONTINUOUS
 62
               7
100
AcDbLine
 10
45.499999999999943
 20
-1.0
 30
0.0
 11
45.499999999999943
 21
-6.0
 31
0.0
  0
LINE
  5
F5
100
AcDbEntity
  8
0
  6
CONTINUOUS
 62
               7
100
AcDbLine
 10
45.499999999999943
 20
-6.0
 30
0.0
 11
45.999999999999943
 21
-6.0
 31
0.0
  0
LINE
  5
F6
100
AcDbEntity
  8
0
  6
CONTINUOUS
 62
               7
100
AcDbLine
 10
45.499999999999943
 20
-1.0
 30
0.0
 11
45.999999999999943
 21
-1.0
 31
0.0
  0
ENDBLK
  5
F7
100
AcDbEntity
  8
0
100
AcDbBlockEnd
  0
BLOCK
  5
F8
100
AcDbEntity
  8
0
100
AcDbBlockBegin
  2
MGAL6-L-3
 70
               0
 10
0.0
 20
0.0
 30
0.0
  3
MGAL6-L-3
  1

  0
LINE
  5
F9
100
AcDbEntity
  8
0
  6
PHANTOM
 62
               3
100
AcDbLine
 10
24.096874223396838
 20
22.591300282355348
 30
0.0
 11
24.096874223396838
 21
-14.897857282738663
 31
0.0
  0
CIRCLE
  5
FA
100
AcDbEntity
  8
0
  6
CONTINUOUS
 62
               7
100
AcDbCircle
 10
47.999999999999943
 20
7.0
 30
0.0
 40
1.5
  0
LINE
  5
FB
100
AcDbEntity
  8
0
  6
CONTINUOUS
 62
               2
100
AcDbLine
 10
47.999999999999943
 20
4.5
 30
0.0
 11
47.999999999999943
 21
9.5
 31
0.0
  0
LINE
  5
FC
100
AcDbEntity
  8
0
  6
CONTINUOUS
 62
               2
100
AcDbLine
 10
50.499999999999943
 20
7.0
 30
0.0
 11
45.499999999999943
 21
7.0
 31
0.0
  0
CIRCLE
  5
FD
100
AcDbEntity
  8
0
  6
CONTINUOUS
 62
               7
100
AcDbCircle
 10
0.0
 20
7.0
 30
0.0
 40
1.5
  0
LINE
  5
FE
100
AcDbEntity
  8
0
  6
CONTINUOUS
 62
               2
100
AcDbLine
 10
0.0
 20
4.5
 30
0.0
 11
0.0
 21
9.5
 31
0.0
  0
LINE
  5
FF
100
AcDbEntity
  8
0
  6
CONTINUOUS
 62
               2
100
AcDbLine
 10
2.5
 20
7.0
 30
0.0
 11
-2.5
 21
7.0
 31
0.0
  0
CIRCLE
  5
100
100
AcDbEntity
  8
0
  6
CONTINUOUS
 62
               7
100
AcDbCircle
 10
47.999999999999943
 20
0.0
 30
0.0
 40
1.7
  0
LINE
  5
101
100
AcDbEntity
  8
0
  6
CONTINUOUS
 62
               2
100
AcDbLine
 10
47.999999999999943
 20
-2.7000000000000028
 30
0.0
 11
47.999999999999943
 21
2.7000000000000028
 31
0.0
  0
LINE
  5
102
100
AcDbEntity
  8
0
  6
CONTINUOUS
 62
               2
100
AcDbLine
 10
45.300000000000011
 20
0.0
 30
0.0
 11
50.699999999999989
 21
0.0
 31
0.0
  0
LINE
  5
103
100
AcDbEntity
  8
0
  6
CONTINUOUS
 62
               7
100
AcDbLine
 10
50.999999999999943
 20
-3.0
 30
0.0
 11
50.999999999999943
 21
10.0
 31
0.0
  0
LINE
  5
104
100
AcDbEntity
  8
0
  6
CONTINUOUS
 62
               7
100
AcDbLine
 10
50.999999999999943
 20
10.0
 30
0.0
 11
-3.0
 21
10.0
 31
0.0
  0
CIRCLE
  5
105
100
AcDbEntity
  8
0
  6
CONTINUOUS
 62
               7
100
AcDbCircle
 10
0.0
 20
0.0
 30
0.0
 40
1.7
  0
LINE
  5
106
100
AcDbEntity
  8
0
  6
CONTINUOUS
 62
               2
100
AcDbLine
 10
0.0
 20
-2.7000000000000028
 30
0.0
 11
0.0
 21
2.7000000000000028
 31
0.0
  0
LINE
  5
107
100
AcDbEntity
  8
0
  6
CONTINUOUS
 62
               2
100
AcDbLine
 10
-2.6999999999999886
 20
0.0
 30
0.0
 11
2.6999999999999886
 21
0.0
 31
0.0
  0
LINE
  5
108
100
AcDbEntity
  8
0
  6
CONTINUOUS
 62
               7
100
AcDbLine
 10
-3.0
 20
-3.0
 30
0.0
 11
-3.0
 21
10.0
 31
0.0
  0
LINE
  5
109
100
AcDbEntity
  8
0
  6
CONTINUOUS
 62
               7
100
AcDbLine
 10
50.999999999999943
 20
-3.0
 30
0.0
 11
-3.0
 21
-3.0
 31
0.0
  0
LINE
  5
10A
100
AcDbEntity
  8
0
  6
CONTINUOUS
 62
               7
100
AcDbLine
 10
8.4999999999999432
 20
10.699999999999996
 30
0.0
 11
8.4999999999999432
 21
10.0
 31
0.0
  0
LINE
  5
10B
100
AcDbEntity
  8
0
  6
CONTINUOUS
 62
               7
100
AcDbLine
 10
8.9999999982455279
 20
10.699999999999996
 30
0.0
 11
8.4999999982455279
 21
10.699999999999996
 31
0.0
  0
LINE
  5
10C
100
AcDbEntity
  8
0
  6
CONTINUOUS
 62
               7
100
AcDbLine
 10
52.999999999999943
 20
10.299999999999997
 30
0.0
 11
47.999999999999943
 21
10.299999999999997
 31
0.0
  0
LINE
  5
10D
100
AcDbEntity
  8
0
  6
CONTINUOUS
 62
               7
100
AcDbLine
 10
47.999999999999943
 20
10.5
 30
0.0
 11
8.9999999999999432
 21
10.5
 31
0.0
  0
LINE
  5
10E
100
AcDbEntity
  8
0
  6
CONTINUOUS
 62
               7
100
AcDbLine
 10
52.999999999999943
 20
10.799999999999997
 30
0.0
 11
52.999999999999943
 21
-0.2000000000000028
 31
0.0
  0
LINE
  5
10F
100
AcDbEntity
  8
0
  6
CONTINUOUS
 62
               7
100
AcDbLine
 10
52.999999972652006
 20
-0.2000000000000028
 30
0.0
 11
50.999999999999943
 21
-0.2000000000000028
 31
0.0
  0
LINE
  5
110
100
AcDbEntity
  8
0
  6
CONTINUOUS
 62
               7
100
AcDbLine
 10
52.999999999999943
 20
10.799999999999997
 30
0.0
 11
47.999999999999943
 21
10.799999999999997
 31
0.0
  0
LINE
  5
111
100
AcDbEntity
  8
0
  6
CONTINUOUS
 62
               7
100
AcDbLine
 10
48.000000024143901
 20
10.0
 30
0.0
 11
48.000000024143901
 21
10.99999998630939
 31
0.0
  0
LINE
  5
112
100
AcDbEntity
  8
0
  6
CONTINUOUS
 62
               7
100
AcDbLine
 10
8.9999999999999432
 20
10.0
 30
0.0
 11
8.9999999999999432
 21
11.0
 31
0.0
  0
LINE
  5
113
100
AcDbEntity
  8
0
  6
CONTINUOUS
 62
               7
100
AcDbLine
 10
47.999999999999943
 20
11.0
 30
0.0
 11
8.9999999999999432
 21
11.0
 31
0.0
  0
CIRCLE
  5
114
100
AcDbEntity
  8
0
  6
CONTINUOUS
 62
               7
100
AcDbCircle
 10
31.999999999999943
 20
3.5
 30
0.0
 40
4.25
  0
LINE
  5
115
100
AcDbEntity
  8
0
  6
CONTINUOUS
 62
               2
100
AcDbLine
 10
31.999999999999943
 20
8.9500000000000028
 30
0.0
 11
31.999999999999943
 21
-1.9500000000000028
 31
0.0
  0
CIRCLE
  5
116
100
AcDbEntity
  8
0
  6
CONTINUOUS
 62
               7
100
AcDbCircle
 10
31.999999999999943
 20
3.5
 30
0.0
 40
3.5
  0
LINE
  5
117
100
AcDbEntity
  8
0
  6
CONTINUOUS
 62
               7
100
AcDbLine
 10
32.999999995231576
 20
4.0773502697635351
 30
0.0
 11
31.999999983310659
 21
4.6547005464721423
 31
0.0
  0
LINE
  5
118
100
AcDbEntity
  8
0
  6
CONTINUOUS
 62
               7
100
AcDbLine
 10
32.999999998112798
 20
2.9226497352268623
 30
0.0
 11
32.999999998663952
 21
4.077350287689427
 31
0.0
  0
LINE
  5
119
100
AcDbEntity
  8
0
  6
CONTINUOUS
 62
               7
100
AcDbLine
 10
32.000000002881166
 20
2.3452994654633272
 30
0.0
 11
33.000000015353237
 21
2.9226497412172918
 31
0.0
  0
LINE
  5
11A
100
AcDbEntity
  8
0
  6
CONTINUOUS
 62
               7
100
AcDbLine
 10
31.00000000476831
 20
2.9226497302364649
 30
0.0
 11
32.000000016689285
 21
2.3452994535278577
 31
0.0
  0
LINE
  5
11B
100
AcDbEntity
  8
0
  6
CONTINUOUS
 62
               7
100
AcDbLine
 10
31.000000001887145
 20
4.0773502647731377
 30
0.0
 11
31.000000001335991
 21
2.922649712310573
 31
0.0
  0
LINE
  5
11C
100
AcDbEntity
  8
0
  6
CONTINUOUS
 62
               7
100
AcDbLine
 10
31.999999997118778
 20
4.6547005345366728
 30
0.0
 11
30.999999984646649
 21
4.0773502587827153
 31
0.0
  0
CIRCLE
  5
11D
100
AcDbEntity
  8
0
  6
CONTINUOUS
 62
               7
100
AcDbCircle
 10
31.999999999999943
 20
3.5
 30
0.0
 40
2.6000000000000001
  0
LINE
  5
11E
100
AcDbEntity
  8
0
  6
CONTINUOUS
 62
               2
100
AcDbLine
 10
37.449999999999989
 20
3.5
 30
0.0
 11
26.549999999999955
 21
3.5
 31
0.0
  0
CIRCLE
  5
11F
100
AcDbEntity
  8
0
  6
CONTINUOUS
 62
               7
100
AcDbCircle
 10
16.0
 20
3.5
 30
0.0
 40
4.25
  0
LINE
  5
120
100
AcDbEntity
  8
0
  6
CONTINUOUS
 62
               2
100
AcDbLine
 10
16.0
 20
8.9500000000000028
 30
0.0
 11
16.0
 21
-1.9500000000000028
 31
0.0
  0
CIRCLE
  5
121
100
AcDbEntity
  8
0
  6
CONTINUOUS
 62
               7
100
AcDbCircle
 10
16.0
 20
3.5
 30
0.0
 40
3.5
  0
LINE
  5
122
100
AcDbEntity
  8
0
  6
CONTINUOUS
 62
               7
100
AcDbLine
 10
16.999999995231633
 20
4.0773502697635351
 30
0.0
 11
15.999999983310715
 21
4.6547005464721423
 31
0.0
  0
LINE
  5
123
100
AcDbEntity
  8
0
  6
CONTINUOUS
 62
               7
100
AcDbLine
 10
16.999999998112855
 20
2.9226497352268623
 30
0.0
 11
16.999999998664009
 21
4.077350287689427
 31
0.0
  0
LINE
  5
124
100
AcDbEntity
  8
0
  6
CONTINUOUS
 62
               7
100
AcDbLine
 10
16.000000002881222
 20
2.3452994654633272
 30
0.0
 11
17.000000015353294
 21
2.9226497412172918
 31
0.0
  0
LINE
  5
125
100
AcDbEntity
  8
0
  6
CONTINUOUS
 62
               7
100
AcDbLine
 10
15.000000004768367
 20
2.9226497302364649
 30
0.0
 11
16.000000016689285
 21
2.3452994535278577
 31
0.0
  0
LINE
  5
126
100
AcDbEntity
  8
0
  6
CONTINUOUS
 62
               7
100
AcDbLine
 10
15.000000001887145
 20
4.0773502647731377
 30
0.0
 11
15.000000001335991
 21
2.922649712310573
 31
0.0
  0
LINE
  5
127
100
AcDbEntity
  8
0
  6
CONTINUOUS
 62
               7
100
AcDbLine
 10
15.999999997118778
 20
4.6547005345366728
 30
0.0
 11
14.999999984646706
 21
4.0773502587827153
 31
0.0
  0
CIRCLE
  5
128
100
AcDbEntity
  8
0
  6
CONTINUOUS
 62
               7
100
AcDbCircle
 10
16.0
 20
3.5
 30
0.0
 40
2.6000000000000001
  0
LINE
  5
129
100
AcDbEntity
  8
0
  6
CONTINUOUS
 62
               2
100
AcDbLine
 10
21.449999999999989
 20
3.5
 30
0.0
 11
10.550000000000011
 21
3.5
 31
0.0
  0
LINE
  5
12A
100
AcDbEntity
  8
0
  6
PHANTOM
 62
               3
100
AcDbLine
 10
30.880458026250835
 20
22.593408632710108
 30
0.0
 11
24.096874223396838
 21
22.593408632710108
 31
0.0
  0
ENDBLK
  5
12B
100
AcDbEntity
  8
0
100
AcDbBlockEnd
  0
BLOCK
  5
12C
100
AcDbEntity
  8
0
100
AcDbBlockBegin
  2
MGAL6-L-4
 70
               0
 10
0.0
 20
0.0
 30
0.0
  3
MGAL6-L-4
  1

  0
LINE
  5
12D
100
AcDbEntity
  8
0
  6
PHANTOM
 62
               3
100
AcDbLine
 10
24.096874220859519
 20
11.022168717261341
 30
0.0
 11
24.096874220859519
 21
-46.000275776001132
 31
0.0
  0
LINE
  5
12E
100
AcDbEntity
  8
0
  6
CONTINUOUS
 62
               4
100
AcDbLine
 10
8.9999999999999432
 20
-28.5
 30
0.0
 11
8.9999999999999432
 21
-38.500000000000071
 31
0.0
  0
LINE
  5
12F
100
AcDbEntity
  8
0
  6
CONTINUOUS
 62
               7
100
AcDbLine
 10
44.610756261704495
 20
-29.0
 30
0.0
 11
43.999999999999943
 21
-29.0
 31
0.0
  0
LINE
  5
130
100
AcDbEntity
  8
0
  6
CONTINUOUS
 62
               4
100
AcDbLine
 10
43.999999999999943
 20
-29.0
 30
0.0
 11
43.999999999999943
 21
-38.500000000000071
 31
0.0
  0
LINE
  5
131
100
AcDbEntity
  8
0
  6
CONTINUOUS
 62
               7
100
AcDbLine
 10
52.999999972651949
 20
-29.0
 30
0.0
 11
44.610756261704495
 21
-29.0
 31
0.0
  0
LINE
  5
132
100
AcDbEntity
  8
0
  6
CONTINUOUS
 62
               7
100
AcDbLine
 10
37.999999999999943
 20
-29.0
 30
0.0
 11
14.999999999999943
 21
-29.0
 31
0.0
  0
LINE
  5
133
100
AcDbEntity
  8
0
  6
CONTINUOUS
 62
               4
100
AcDbLine
 10
43.999999976460174
 20
-38.500000000000071
 30
0.0
 11
8.9999999999999432
 21
-38.500000000000071
 31
0.0
  0
LINE
  5
134
100
AcDbEntity
  8
0
  6
CONTINUOUS
 62
               4
100
AcDbLine
 10
37.999999999999943
 20
-32.5
 30
0.0
 11
14.999999999999943
 21
-32.5
 31
0.0
  0
LINE
  5
135
100
AcDbEntity
  8
0
  6
CONTINUOUS
 62
               4
100
AcDbLine
 10
26.099999999999909
 20
-31.700000000000003
 30
0.0
 11
26.099999999999909
 21
-30.0
 31
0.0
  0
LINE
  5
136
100
AcDbEntity
  8
0
  6
CONTINUOUS
 62
               4
100
AcDbLine
 10
29.899999999999977
 20
-31.700000000000003
 30
0.0
 11
29.899999999999977
 21
-30.0
 31
0.0
  0
LINE
  5
137
100
AcDbEntity
  8
0
  6
CONTINUOUS
 62
               4
100
AcDbLine
 10
26.399999999999977
 20
-32.0
 30
0.0
 11
26.099999999999909
 21
-31.700000000000003
 31
0.0
  0
LINE
  5
138
100
AcDbEntity
  8
0
  6
CONTINUOUS
 62
               4
100
AcDbLine
 10
29.599999999999909
 20
-32.0
 30
0.0
 11
29.899999999999977
 21
-31.700000000000003
 31
0.0
  0
LINE
  5
139
100
AcDbEntity
  8
0
  6
CONTINUOUS
 62
               4
100
AcDbLine
 10
29.599999999999909
 20
-32.0
 30
0.0
 11
26.399999999999977
 21
-32.0
 31
0.0
  0
LINE
  5
13A
100
AcDbEntity
  8
0
  6
CONTINUOUS
 62
               4
100
AcDbLine
 10
29.899999999999977
 20
-31.700000000000003
 30
0.0
 11
26.099999999999909
 21
-31.700000000000003
 31
0.0
  0
LINE
  5
13B
100
AcDbEntity
  8
0
  6
CONTINUOUS
 62
               4
100
AcDbLine
 10
15.899999999999977
 20
-31.700000000000003
 30
0.0
 11
15.899999999999977
 21
-30.0
 31
0.0
  0
LINE
  5
13C
100
AcDbEntity
  8
0
  6
CONTINUOUS
 62
               4
100
AcDbLine
 10
15.599999999999909
 20
-32.0
 30
0.0
 11
15.899999999999977
 21
-31.700000000000003
 31
0.0
  0
LINE
  5
13D
100
AcDbEntity
  8
0
  6
CONTINUOUS
 62
               4
100
AcDbLine
 10
15.599999999999909
 20
-32.0
 30
0.0
 11
14.999999999999943
 21
-32.0
 31
0.0
  0
LINE
  5
13E
100
AcDbEntity
  8
0
  6
CONTINUOUS
 62
               4
100
AcDbLine
 10
15.899999999999977
 20
-31.700000000000003
 30
0.0
 11
14.999999999999943
 21
-31.700000000000003
 31
0.0
  0
LINE
  5
13F
100
AcDbEntity
  8
0
  6
CONTINUOUS
 62
               4
100
AcDbLine
 10
29.999999999999943
 20
-30.0
 30
0.0
 11
14.999999999999943
 21
-30.0
 31
0.0
  0
LINE
  5
140
100
AcDbEntity
  8
0
  6
CONTINUOUS
 62
               4
100
AcDbLine
 10
22.999999999999943
 20
-31.700000000000017
 30
0.0
 11
18.999999999999943
 21
-31.700000000000017
 31
0.0
  0
LINE
  5
141
100
AcDbEntity
  8
0
  6
CONTINUOUS
 62
               4
100
AcDbLine
 10
18.999999999999943
 20
-29.0
 30
0.0
 11
18.999999999999943
 21
-31.700000000000017
 31
0.0
  0
LINE
  5
142
100
AcDbEntity
  8
0
  6
CONTINUOUS
 62
               4
100
AcDbLine
 10
22.999999999999943
 20
-29.0
 30
0.0
 11
22.999999999999943
 21
-31.700000000000017
 31
0.0
  0
LINE
  5
143
100
AcDbEntity
  8
0
  6
CONTINUOUS
 62
             200
100
AcDbLine
 10
27.999999999999943
 20
-32.530849323642016
 30
0.0
 11
27.999999999999943
 21
-29.07757486326706
 31
0.0
  0
LINE
  5
144
100
AcDbEntity
  8
0
  6
CONTINUOUS
 62
               4
100
AcDbLine
 10
29.999999999999943
 20
-29.0
 30
0.0
 11
29.999999999999943
 21
-30.0
 31
0.0
  0
LINE
  5
145
100
AcDbEntity
  8
0
  6
CONTINUOUS
 62
               4
100
AcDbLine
 10
37.999999999999943
 20
-32.5
 30
0.0
 11
37.999999999999943
 21
-28.5
 31
0.0
  0
LINE
  5
146
100
AcDbEntity
  8
0
  6
CONTINUOUS
 62
               4
100
AcDbLine
 10
14.999999999999943
 20
-32.5
 30
0.0
 11
14.999999999999943
 21
-28.5
 31
0.0
  0
LINE
  5
147
100
AcDbEntity
  8
0
  6
CONTINUOUS
 62
               2
100
AcDbLine
 10
17.699999999999932
 20
-5.9999999999999858
 30
0.0
 11
14.299999999999955
 21
-5.9999999999999858
 31
0.0
  0
CIRCLE
  5
148
100
AcDbEntity
  8
0
  6
CONTINUOUS
 62
               7
100
AcDbCircle
 10
16.0
 20
-5.9999999999999858
 30
0.0
 40
1.1000000000000001
  0
LINE
  5
149
100
AcDbEntity
  8
0
  6
CONTINUOUS
 62
               2
100
AcDbLine
 10
16.0
 20
-4.2999999999999972
 30
0.0
 11
16.0
 21
-7.7000000000000028
 31
0.0
  0
LINE
  5
14A
100
AcDbEntity
  8
0
  6
CONTINUOUS
 62
               2
100
AcDbLine
 10
33.699999999999932
 20
-5.9999999999999858
 30
0.0
 11
30.299999999999955
 21
-5.9999999999999858
 31
0.0
  0
CIRCLE
  5
14B
100
AcDbEntity
  8
0
  6
CONTINUOUS
 62
               7
100
AcDbCircle
 10
31.999999999999943
 20
-5.9999999999999858
 30
0.0
 40
1.1000000000000001
  0
LINE
  5
14C
100
AcDbEntity
  8
0
  6
CONTINUOUS
 62
               2
100
AcDbLine
 10
31.999999999999943
 20
-4.2999999999999972
 30
0.0
 11
31.999999999999943
 21
-7.7000000000000028
 31
0.0
  0
LINE
  5
14D
100
AcDbEntity
  8
0
  6
CONTINUOUS
 62
               7
100
AcDbLine
 10
5.0
 20
-10.0
 30
0.0
 11
3.4999999999999432
 21
-10.0
 31
0.0
  0
LINE
  5
14E
100
AcDbEntity
  8
0
  6
CONTINUOUS
 62
               7
100
AcDbLine
 10
3.4999999999999432
 20
-28.0
 30
0.0
 11
3.4999999999999432
 21
-10.0
 31
0.0
  0
LINE
  5
14F
100
AcDbEntity
  8
0
  6
CONTINUOUS
 62
               7
100
AcDbLine
 10
8.9999999999999432
 20
-28.0
 30
0.0
 11
3.4999999999999432
 21
-28.0
 31
0.0
  0
LINE
  5
150
100
AcDbEntity
  8
0
  6
CONTINUOUS
 62
               7
100
AcDbLine
 10
3.5
 20
-8.3000000000000114
 30
0.0
 11
3.5
 21
-5.0
 31
0.0
  0
LINE
  5
151
100
AcDbEntity
  8
0
  6
CONTINUOUS
 62
               7
100
AcDbLine
 10
-3.0
 20
-5.0
 30
0.0
 11
3.5
 21
-5.0
 31
0.0
  0
LINE
  5
152
100
AcDbEntity
  8
0
  6
CONTINUOUS
 62
               2
100
AcDbLine
 10
0.0
 20
-6.2000000000000028
 30
0.0
 11
0.0
 21
1.2000000000000028
 31
0.0
  0
LINE
  5
153
100
AcDbEntity
  8
0
  6
CONTINUOUS
 62
               2
100
AcDbLine
 10
47.999999999999943
 20
-6.2000000000000028
 30
0.0
 11
47.999999999999943
 21
1.2000000000000028
 31
0.0
  0
LINE
  5
154
100
AcDbEntity
  8
0
  6
CONTINUOUS
 62
               7
100
AcDbLine
 10
50.999999999999943
 20
-5.0
 30
0.0
 11
44.499999999999943
 21
-5.0
 31
0.0
  0
LINE
  5
155
100
AcDbEntity
  8
0
  6
CONTINUOUS
 62
               7
100
AcDbLine
 10
44.499999999999943
 20
-8.3000000000000114
 30
0.0
 11
44.499999999999943
 21
-5.0
 31
0.0
  0
LINE
  5
156
100
AcDbEntity
  8
0
  6
CONTINUOUS
 62
               7
100
AcDbLine
 10
42.999999999999943
 20
-11.000000007980816
 30
0.0
 11
42.999999999999943
 21
-8.3000000000000114
 31
0.0
  0
LINE
  5
157
100
AcDbEntity
  8
0
  6
CONTINUOUS
 62
               7
100
AcDbLine
 10
5.0
 20
-11.000000007980816
 30
0.0
 11
5.0
 21
-8.3000000000000114
 31
0.0
  0
LINE
  5
158
100
AcDbEntity
  8
0
  6
CONTINUOUS
 62
               7
100
AcDbLine
 10
50.999999999999943
 20
-8.3000000000000114
 30
0.0
 11
50.999999999999943
 21
0.0
 31
0.0
  0
LINE
  5
159
100
AcDbEntity
  8
0
  6
CONTINUOUS
 62
               7
100
AcDbLine
 10
-3.0
 20
0.0000000136906095
 30
0.0
 11
-3.0
 21
-8.3000000000000114
 31
0.0
  0
LINE
  5
15A
100
AcDbEntity
  8
0
  6
CONTINUOUS
 62
               7
100
AcDbLine
 10
50.999999999999943
 20
-8.3000000000000114
 30
0.0
 11
-3.0
 21
-8.3000000000000114
 31
0.0
  0
LINE
  5
15B
100
AcDbEntity
  8
0
  6
CONTINUOUS
 62
               7
100
AcDbLine
 10
42.999999999999943
 20
-11.000000007980816
 30
0.0
 11
5.0
 21
-11.000000007980816
 31
0.0
  0
LINE
  5
15C
100
AcDbEntity
  8
0
  6
CONTINUOUS
 62
               7
100
AcDbLine
 10
50.999999999999943
 20
0.0
 30
0.0
 11
-3.0
 21
0.0
 31
0.0
  0
LINE
  5
15D
100
AcDbEntity
  8
0
  6
CONTINUOUS
 62
               7
100
AcDbLine
 10
44.499999999999943
 20
-21.5
 30
0.0
 11
44.699999999999932
 21
-21.5
 31
0.0
  0
ARC
  5
15E
100
AcDbEntity
  8
0
  6
CONTINUOUS
 62
               7
100
AcDbCircle
 10
44.699999999999932
 20
-21.200000000000003
 30
0.0
 40
0.3
100
AcDbArc
 50
270.0
 51
0.0
  0
LINE
  5
15F
100
AcDbEntity
  8
0
  6
CONTINUOUS
 62
               7
100
AcDbLine
 10
44.499999999999943
 20
-22.299999999999997
 30
0.0
 11
43.999999999999943
 21
-22.299999999999997
 31
0.0
  0
LINE
  5
160
100
AcDbEntity
  8
0
  6
CONTINUOUS
 62
               7
100
AcDbLine
 10
44.999999999999943
 20
-21.200000000000003
 30
0.0
 11
44.999999999999943
 21
-20.5
 31
0.0
  0
LINE
  5
161
100
AcDbEntity
  8
0
  6
CONTINUOUS
 62
               7
100
AcDbLine
 10
44.499999999999943
 20
-20.5
 30
0.0
 11
44.499999999999943
 21
-22.299999999999997
 31
0.0
  0
ARC
  5
162
100
AcDbEntity
  8
0
  6
CONTINUOUS
 62
               7
100
AcDbCircle
 10
44.699999999999932
 20
-16.799999999999997
 30
0.0
 40
0.3
100
AcDbArc
 50
0.0
 51
90.0
  0
LINE
  5
163
100
AcDbEntity
  8
0
  6
CONTINUOUS
 62
               7
100
AcDbLine
 10
44.499999999999943
 20
-16.5
 30
0.0
 11
44.699999999999932
 21
-16.5
 31
0.0
  0
LINE
  5
164
100
AcDbEntity
  8
0
  6
CONTINUOUS
 62
               7
100
AcDbLine
 10
44.499999999999943
 20
-15.699999999999989
 30
0.0
 11
43.999999999999943
 21
-15.699999999999989
 31
0.0
  0
LINE
  5
165
100
AcDbEntity
  8
0
  6
CONTINUOUS
 62
               7
100
AcDbLine
 10
44.999999999999943
 20
-17.5
 30
0.0
 11
44.999999999999943
 21
-16.799999999999997
 31
0.0
  0
LINE
  5
166
100
AcDbEntity
  8
0
  6
CONTINUOUS
 62
               7
100
AcDbLine
 10
44.499999999999943
 20
-15.699999999999989
 30
0.0
 11
44.499999999999943
 21
-17.5
 31
0.0
  0
LINE
  5
167
100
AcDbEntity
  8
0
  6
CONTINUOUS
 62
               7
100
AcDbLine
 10
52.999999972651949
 20
-9.0
 30
0.0
 11
42.999999999999943
 21
-9.0
 31
0.0
  0
LINE
  5
168
100
AcDbEntity
  8
0
  6
CONTINUOUS
 62
               7
100
AcDbLine
 10
8.9999999999999432
 20
-11.000000007980816
 30
0.0
 11
8.9999999999999432
 21
-28.5
 31
0.0
  0
LINE
  5
169
100
AcDbEntity
  8
0
  6
CONTINUOUS
 62
               7
100
AcDbLine
 10
44.000000024143901
 20
-28.5
 30
0.0
 11
8.9999999999999432
 21
-28.5
 31
0.0
  0
LINE
  5
16A
100
AcDbEntity
  8
0
  6
CONTINUOUS
 62
               7
100
AcDbLine
 10
44.000000024143901
 20
-9.5
 30
0.0
 11
42.999999999999943
 21
-9.5
 31
0.0
  0
LINE
  5
16B
100
AcDbEntity
  8
0
  6
CONTINUOUS
 62
               7
100
AcDbLine
 10
43.999999999999943
 20
-9.5
 30
0.0
 11
43.999999999999943
 21
-29.0
 31
0.0
  0
LINE
  5
16C
100
AcDbEntity
  8
0
  6
CONTINUOUS
 62
               7
100
AcDbLine
 10
52.999999999999943
 20
-8.9999999863093905
 30
0.0
 11
52.999999999999943
 21
-28.99999998630939
 31
0.0
  0
LINE
  5
16D
100
AcDbEntity
  8
0
  6
CONTINUOUS
 62
               2
100
AcDbLine
 10
54.988731881786748
 20
-19.0
 30
0.0
 11
1.2940348662665428
 21
-19.0
 31
0.0
  0
LINE
  5
16E
100
AcDbEntity
  8
0
  6
CONTINUOUS
 62
               7
100
AcDbLine
 10
47.499999999999943
 20
-29.0
 30
0.0
 11
47.499999999999943
 21
-9.0
 31
0.0
  0
LINE
  5
16F
100
AcDbEntity
  8
0
  6
CONTINUOUS
 62
               7
100
AcDbLine
 10
45.499999999999943
 20
-17.5
 30
0.0
 11
43.999999999999943
 21
-17.5
 31
0.0
  0
LINE
  5
170
100
AcDbEntity
  8
0
  6
CONTINUOUS
 62
               7
100
AcDbLine
 10
45.499999999999943
 20
-20.5
 30
0.0
 11
43.999999999999943
 21
-20.5
 31
0.0
  0
LINE
  5
171
100
AcDbEntity
  8
0
  6
CONTINUOUS
 62
               7
100
AcDbLine
 10
47.499999999999943
 20
-15.5
 30
0.0
 11
45.999999999999943
 21
-15.5
 31
0.0
  0
LINE
  5
172
100
AcDbEntity
  8
0
  6
CONTINUOUS
 62
               7
100
AcDbLine
 10
47.499999999999943
 20
-22.5
 30
0.0
 11
45.999999999999943
 21
-22.5
 31
0.0
  0
LINE
  5
173
100
AcDbEntity
  8
0
  6
CONTINUOUS
 62
               2
100
AcDbLine
 10
26.499999999999943
 20
-26.0
 30
0.0
 11
31.499999999999943
 21
-26.0
 31
0.0
  0
CIRCLE
  5
174
100
AcDbEntity
  8
0
  6
CONTINUOUS
 62
               7
100
AcDbCircle
 10
28.999999999999943
 20
-26.0
 30
0.0
 40
1.5
  0
LINE
  5
175
100
AcDbEntity
  8
0
  6
CONTINUOUS
 62
               2
100
AcDbLine
 10
28.999999999999943
 20
-23.5
 30
0.0
 11
28.999999999999943
 21
-28.5
 31
0.0
  0
LINE
  5
176
100
AcDbEntity
  8
0
  6
CONTINUOUS
 62
               2
100
AcDbLine
 10
28.999999999999943
 20
-10.14484254200147
 30
0.0
 11
28.999999999999943
 21
-14.799999998230319
 31
0.0
  0
LINE
  5
177
100
AcDbEntity
  8
0
  6
CONTINUOUS
 62
               2
100
AcDbLine
 10
31.299999999999955
 20
-12.0
 30
0.0
 11
26.699999999999932
 21
-12.0
 31
0.0
  0
ARC
  5
178
100
AcDbEntity
  8
0
  6
CONTINUOUS
 62
               7
100
AcDbCircle
 10
28.999999999999943
 20
-12.5
 30
0.0
 40
1.5
100
AcDbArc
 50
180.0
 51
0.0
  0
LINE
  5
179
100
AcDbEntity
  8
0
  6
CONTINUOUS
 62
               7
100
AcDbLine
 10
27.499999999999943
 20
-12.5
 30
0.0
 11
27.499999999999943
 21
-11.5
 31
0.0
  0
LINE
  5
17A
100
AcDbEntity
  8
0
  6
CONTINUOUS
 62
               7
100
AcDbLine
 10
30.499999999999943
 20
-12.5
 30
0.0
 11
30.499999999999943
 21
-11.5
 31
0.0
  0
ARC
  5
17B
100
AcDbEntity
  8
0
  6
CONTINUOUS
 62
               7
100
AcDbCircle
 10
36.999999999999943
 20
-12.0
 30
0.0
 40
1.25
100
AcDbArc
 50
126.86989825553344
 51
53.13010174446655
  0
LINE
  5
17C
100
AcDbEntity
  8
0
  6
CONTINUOUS
 62
               2
100
AcDbLine
 10
39.499999999999943
 20
-12.0
 30
0.0
 11
34.5
 21
-12.0
 31
0.0
  0
ARC
  5
17D
100
AcDbEntity
  8
0
  6
CONTINUOUS
 62
               2
100
AcDbCircle
 10
36.999999999999943
 20
-12.0
 30
0.0
 40
1.5
100
AcDbArc
 50
138.18968551321313
 51
41.810314486786858
  0
LINE
  5
17E
100
AcDbEntity
  8
0
  6
CONTINUOUS
 62
               2
100
AcDbLine
 10
36.999999999999943
 20
-10.14484254200147
 30
0.0
 11
36.999999999999943
 21
-14.5
 31
0.0
  0
ARC
  5
17F
100
AcDbEntity
  8
0
  6
CONTINUOUS
 62
               7
100
AcDbCircle
 10
20.999999999999943
 20
-12.0
 30
0.0
 40
1.25
100
AcDbArc
 50
126.86989825553344
 51
53.13010174446655
  0
LINE
  5
180
100
AcDbEntity
  8
0
  6
CONTINUOUS
 62
               2
100
AcDbLine
 10
23.499999999999943
 20
-12.0
 30
0.0
 11
18.5
 21
-12.0
 31
0.0
  0
ARC
  5
181
100
AcDbEntity
  8
0
  6
CONTINUOUS
 62
               2
100
AcDbCircle
 10
20.999999999999943
 20
-12.0
 30
0.0
 40
1.5
100
AcDbArc
 50
138.18968551321353
 51
41.810314486786453
  0
LINE
  5
182
100
AcDbEntity
  8
0
  6
CONTINUOUS
 62
               2
100
AcDbLine
 10
20.999999999999943
 20
-10.14484254200147
 30
0.0
 11
20.999999999999943
 21
-14.5
 31
0.0
  0
CIRCLE
  5
183
100
AcDbEntity
  8
0
  6
CONTINUOUS
 62
               7
100
AcDbCircle
 10
36.999999999999943
 20
-26.0
 30
0.0
 40
1.25
  0
LINE
  5
184
100
AcDbEntity
  8
0
  6
CONTINUOUS
 62
               2
100
AcDbLine
 10
39.499999999999943
 20
-26.0
 30
0.0
 11
34.5
 21
-26.0
 31
0.0
  0
CIRCLE
  5
185
100
AcDbEntity
  8
0
  6
CONTINUOUS
 62
               2
100
AcDbCircle
 10
36.999999999999943
 20
-26.0
 30
0.0
 40
1.5
  0
LINE
  5
186
100
AcDbEntity
  8
0
  6
CONTINUOUS
 62
               2
100
AcDbLine
 10
36.999999999999943
 20
-23.5
 30
0.0
 11
36.999999999999943
 21
-28.5
 31
0.0
  0
CIRCLE
  5
187
100
AcDbEntity
  8
0
  6
CONTINUOUS
 62
               7
100
AcDbCircle
 10
20.999999999999943
 20
-26.0
 30
0.0
 40
1.25
  0
LINE
  5
188
100
AcDbEntity
  8
0
  6
CONTINUOUS
 62
               2
100
AcDbLine
 10
23.499999999999943
 20
-26.0
 30
0.0
 11
18.5
 21
-26.0
 31
0.0
  0
CIRCLE
  5
189
100
AcDbEntity
  8
0
  6
CONTINUOUS
 62
               2
100
AcDbCircle
 10
20.999999999999943
 20
-26.0
 30
0.0
 40
1.5
  0
LINE
  5
18A
100
AcDbEntity
  8
0
  6
CONTINUOUS
 62
               2
100
AcDbLine
 10
20.999999999999943
 20
-23.5
 30
0.0
 11
20.999999999999943
 21
-28.5
 31
0.0
  0
LINE
  5
18B
100
AcDbEntity
  8
0
  6
CONTINUOUS
 62
               7
100
AcDbLine
 10
49.999999999999943
 20
-16.5
 30
0.0
 11
47.499999999999943
 21
-16.5
 31
0.0
  0
LINE
  5
18C
100
AcDbEntity
  8
0
  6
CONTINUOUS
 62
               7
100
AcDbLine
 10
49.999999999999943
 20
-21.5
 30
0.0
 11
47.499999999999943
 21
-21.5
 31
0.0
  0
LINE
  5
18D
100
AcDbEntity
  8
0
  6
CONTINUOUS
 62
               7
100
AcDbLine
 10
52.499999999999943
 20
-22.700000000000003
 30
0.0
 11
49.999999999999943
 21
-22.700000000000003
 31
0.0
  0
LINE
  5
18E
100
AcDbEntity
  8
0
  6
CONTINUOUS
 62
               7
100
AcDbLine
 10
52.499999999999943
 20
-15.299999999999997
 30
0.0
 11
49.999999999999943
 21
-15.299999999999997
 31
0.0
  0
LINE
  5
18F
100
AcDbEntity
  8
0
  6
CONTINUOUS
 62
               7
100
AcDbLine
 10
52.999999999999943
 20
-15.0
 30
0.0
 11
49.999999999999943
 21
-15.0
 31
0.0
  0
LINE
  5
190
100
AcDbEntity
  8
0
  6
CONTINUOUS
 62
               7
100
AcDbLine
 10
52.999999999999943
 20
-23.0
 30
0.0
 11
49.999999999999943
 21
-23.0
 31
0.0
  0
LINE
  5
191
100
AcDbEntity
  8
0
  6
CONTINUOUS
 62
               7
100
AcDbLine
 10
52.499999999999943
 20
-22.700000000000003
 30
0.0
 11
52.499999999999943
 21
-15.299999999999997
 31
0.0
  0
LINE
  5
192
100
AcDbEntity
  8
0
  6
CONTINUOUS
 62
               7
100
AcDbLine
 10
49.999999999999943
 20
-23.0
 30
0.0
 11
49.999999999999943
 21
-15.0
 31
0.0
  0
LINE
  5
193
100
AcDbEntity
  8
0
  6
CONTINUOUS
 62
               7
100
AcDbLine
 10
49.999999999999943
 20
-16.800000000000011
 30
0.0
 11
47.499999999999943
 21
-16.800000000000011
 31
0.0
  0
LINE
  5
194
100
AcDbEntity
  8
0
  6
CONTINUOUS
 62
               7
100
AcDbLine
 10
49.999999999999943
 20
-21.200000000000003
 30
0.0
 11
47.499999999999943
 21
-21.200000000000003
 31
0.0
  0
LINE
  5
195
100
AcDbEntity
  8
0
  6
CONTINUOUS
 62
               7
100
AcDbLine
 10
43.999999999999943
 20
-21.700000000000003
 30
0.0
 11
8.9999999999999432
 21
-21.700000000000003
 31
0.0
  0
LINE
  5
196
100
AcDbEntity
  8
0
  6
CONTINUOUS
 62
               7
100
AcDbLine
 10
43.999999999999943
 20
-21.400000000000006
 30
0.0
 11
8.9999999999999432
 21
-21.400000000000006
 31
0.0
  0
LINE
  5
197
100
AcDbEntity
  8
0
  6
CONTINUOUS
 62
               7
100
AcDbLine
 10
43.999999999999943
 20
-16.299999999999997
 30
0.0
 11
8.9999999999999432
 21
-16.299999999999997
 31
0.0
  0
LINE
  5
198
100
AcDbEntity
  8
0
  6
CONTINUOUS
 62
               7
100
AcDbLine
 10
43.999999999999943
 20
-16.599999999999994
 30
0.0
 11
8.9999999999999432
 21
-16.599999999999994
 31
0.0
  0
LINE
  5
199
100
AcDbEntity
  8
0
  6
CONTINUOUS
 62
               7
100
AcDbLine
 10
45.499999999999943
 20
-16.5
 30
0.0
 11
45.499999999999943
 21
-21.5
 31
0.0
  0
LINE
  5
19A
100
AcDbEntity
  8
0
  6
CONTINUOUS
 62
               7
100
AcDbLine
 10
45.499999999999943
 20
-21.5
 30
0.0
 11
45.999999999999943
 21
-21.5
 31
0.0
  0
LINE
  5
19B
100
AcDbEntity
  8
0
  6
CONTINUOUS
 62
               7
100
AcDbLine
 10
45.499999999999943
 20
-16.5
 30
0.0
 11
45.999999999999943
 21
-16.5
 31
0.0
  0
LINE
  5
19C
100
AcDbEntity
  8
0
  6
CONTINUOUS
 62
               7
100
AcDbLine
 10
45.999999999999943
 20
-15.5
 30
0.0
 11
45.999999999999943
 21
-22.5
 31
0.0
  0
ARC
  5
19D
100
AcDbEntity
  8
0
  6
CONTINUOUS
 62
               7
100
AcDbCircle
 10
28.999999999999943
 20
-11.5
 30
0.0
 40
1.5
100
AcDbArc
 50
160.52877968884599
 51
180.0
  0
ARC
  5
19E
100
AcDbEntity
  8
0
  6
CONTINUOUS
 62
               7
100
AcDbCircle
 10
28.999999999999943
 20
-11.5
 30
0.0
 40
1.5
100
AcDbArc
 50
0.0
 51
19.471220311154021
  0
ENDBLK
  5
19F
100
AcDbEntity
  8
0
100
AcDbBlockEnd
  0
BLOCK
  5
1A0
100
AcDbEntity
  8
0
100
AcDbBlockBegin
  2
MGAL6-L-5
 70
               0
 10
0.0
 20
0.0
 30
0.0
  3
MGAL6-L-5
  1

  0
LINE
  5
1A1
100
AcDbEntity
  8
0
  6
CONTINUOUS
 62
               4
100
AcDbLine
 10
0.0
 20
0.0
 30
0.0
 11
22.0
 21
0.0
 31
0.0
  0
LINE
  5
1A2
100
AcDbEntity
  8
0
  6
CONTINUOUS
 62
               4
100
AcDbLine
 10
4.6999999999999886
 20
-4.5999999999999943
 30
0.0
 11
22.0
 21
-4.5999999999999943
 31
0.0
  0
LINE
  5
1A3
100
AcDbEntity
  8
0
  6
CONTINUOUS
 62
               4
100
AcDbLine
 10
22.0
 20
0.0
 30
0.0
 11
22.0
 21
-4.5999999999999943
 31
0.0
  0
LINE
  5
1A4
100
AcDbEntity
  8
0
  6
CONTINUOUS
 62
               4
100
AcDbLine
 10
0.0
 20
-1.8000000000000114
 30
0.0
 11
0.0
 21
0.0
 31
0.0
  0
LINE
  5
1A5
100
AcDbEntity
  8
0
  6
CONTINUOUS
 62
               4
100
AcDbLine
 10
4.6999999999999886
 20
-3.039999999999992
 30
0.0
 11
4.6999999999999886
 21
-4.5999999999999943
 31
0.0
  0
LINE
  5
1A6
100
AcDbEntity
  8
0
  6
CONTINUOUS
 62
               4
100
AcDbLine
 10
0.0
 20
-1.8000000000000114
 30
0.0
 11
4.25
 21
-1.8000000000000114
 31
0.0
  0
LINE
  5
1A8
100
AcDbEntity
  8
0
  6
CENTER
 62
             200
100
AcDbLine
 10
2.0
 20
0.8000000000000114
 30
0.0
 11
2.0
 21
-5.4300000000000068
 31
0.0
  0
LINE
  5
1A9
100
AcDbEntity
  8
0
  6
CONTINUOUS
 62
               4
100
AcDbLine
 10
4.25
 20
-1.8000000000000114
 30
0.0
 11
4.25
 21
-3.039999999999992
 31
0.0
  0
LINE
  5
1AA
100
AcDbEntity
  8
0
  6
CONTINUOUS
 62
               4
100
AcDbLine
 10
4.0
 20
-1.8000000000000114
 30
0.0
 11
4.0
 21
-2.5999999999999943
 31
0.0
  0
LINE
  5
1AB
100
AcDbEntity
  8
0
  6
CONTINUOUS
 62
               4
100
AcDbLine
 10
0.0
 20
-1.8000000000000114
 30
0.0
 11
0.0
 21
-2.5999999999999943
 31
0.0
  0
LINE
  5
1AC
100
AcDbEntity
  8
0
  6
CONTINUOUS
 62
               4
100
AcDbLine
 10
0.0
 20
-2.5999999999999943
 30
0.0
 11
4.0
 21
-2.5999999999999943
 31
0.0
  0
LINE
  5
1AD
100
AcDbEntity
  8
0
  6
CONTINUOUS
 62
               4
100
AcDbLine
 10
4.1999999999999886
 20
-1.8000000000000114
 30
0.0
 11
4.1999999999999886
 21
-3.8000000000000114
 31
0.0
  0
LINE
  5
1AE
100
AcDbEntity
  8
0
  6
CONTINUOUS
 62
               4
100
AcDbLine
 10
4.1999999999999886
 20
-3.8000000000000114
 30
0.0
 11
4.6999999999999886
 21
-3.8000000000000114
 31
0.0
  0
LINE
  5
1AF
100
AcDbEntity
  8
0
  6
CONTINUOUS
 62
               4
100
AcDbLine
 10
4.25
 20
-3.039999999999992
 30
0.0
 11
4.6999999999999886
 21
-3.039999999999992
 31
0.0
  0
LINE
  5
1B0
100
AcDbEntity
  8
0
  6
CONTINUOUS
 62
               4
100
AcDbLine
 10
30.5
 20
-1.0
 30
0.0
 11
30.5
 21
-3.5999999999999943
 31
0.0
  0
LINE
  5
1B1
100
AcDbEntity
  8
0
  6
CENTER
 62
             200
100
AcDbLine
 10
28.77000000000001
 20
-1.8499999999999943
 30
0.0
 11
40.699999999999989
 21
-1.8499999999999943
 31
0.0
  0
LINE
  5
1B2
100
AcDbEntity
  8
0
  6
CENTER
 62
             200
100
AcDbLine
 10
28.819999999999993
 20
-2.75
 30
0.0
 11
40.75
 21
-2.75
 31
0.0
  0
LINE
  5
1B3
100
AcDbEntity
  8
0
  6
CONTINUOUS
 62
               4
100
AcDbLine
 10
40.5
 20
-1.5999999999999943
 30
0.0
 11
40.5
 21
-2.0999999999999943
 31
0.0
  0
LINE
  5
1B4
100
AcDbEntity
  8
0
  6
CONTINUOUS
 62
               4
100
AcDbLine
 10
40.5
 20
-2.5
 30
0.0
 11
40.5
 21
-3.0
 31
0.0
  0
LINE
  5
1B5
100
AcDbEntity
  8
0
  6
CONTINUOUS
 62
               4
100
AcDbLine
 10
37.5
 20
-1.4000000000000057
 30
0.0
 11
37.5
 21
-3.1999999999999886
 31
0.0
  0
LINE
  5
1B6
100
AcDbEntity
  8
0
  6
CONTINUOUS
 62
               4
100
AcDbLine
 10
30.5
 20
-3.1999999999999886
 30
0.0
 11
34.5
 21
-3.1999999999999886
 31
0.0
  0
LINE
  5
1B7
100
AcDbEntity
  8
0
  6
CONTINUOUS
 62
               4
100
AcDbLine
 10
30.5
 20
-2.3000000000000114
 30
0.0
 11
33.97999999999999
 21
-2.3000000000000114
 31
0.0
  0
LINE
  5
1B8
100
AcDbEntity
  8
0
  6
CONTINUOUS
 62
               4
100
AcDbLine
 10
35.47999999999999
 20
-2.3000000000000114
 30
0.0
 11
37.5
 21
-2.3000000000000114
 31
0.0
  0
LINE
  5
1B9
100
AcDbEntity
  8
0
  6
CONTINUOUS
 62
               4
100
AcDbLine
 10
36.0
 20
-3.1999999999999886
 30
0.0
 11
37.5
 21
-3.1999999999999886
 31
0.0
  0
LINE
  5
1BA
100
AcDbEntity
  8
0
  6
CONTINUOUS
 62
               4
100
AcDbLine
 10
30.5
 20
-1.4000000000000057
 30
0.0
 11
33.460000000000008
 21
-1.4000000000000057
 31
0.0
  0
LINE
  5
1BB
100
AcDbEntity
  8
0
  6
CONTINUOUS
 62
               4
100
AcDbLine
 10
34.960000000000008
 20
-1.4000000000000057
 30
0.0
 11
37.5
 21
-1.4000000000000057
 31
0.0
  0
LINE
  5
1BC
100
AcDbEntity
  8
0
  6
CONTINUOUS
 62
               4
100
AcDbLine
 10
37.5
 20
-1.5999999999999943
 30
0.0
 11
40.5
 21
-1.5999999999999943
 31
0.0
  0
LINE
  5
1BD
100
AcDbEntity
  8
0
  6
CONTINUOUS
 62
               4
100
AcDbLine
 10
37.5
 20
-2.0999999999999943
 30
0.0
 11
40.5
 21
-2.0999999999999943
 31
0.0
  0
LINE
  5
1BE
100
AcDbEntity
  8
0
  6
CONTINUOUS
 62
               4
100
AcDbLine
 10
37.5
 20
-2.5
 30
0.0
 11
40.5
 21
-2.5
 31
0.0
  0
LINE
  5
1BF
100
AcDbEntity
  8
0
  6
CONTINUOUS
 62
               4
100
AcDbLine
 10
37.5
 20
-3.0
 30
0.0
 11
40.5
 21
-3.0
 31
0.0
  0
LINE
  5
1C0
100
AcDbEntity
  8
0
  6
CONTINUOUS
 62
             200
100
AcDbLine
 10
34.22999999999999
 20
-0.1299999999999955
 30
0.0
 11
36.72999999999999
 21
-4.460000000000008
 31
0.0
  0
LINE
  5
1C1
100
AcDbEntity
  8
0
  6
CENTER
 62
             200
100
AcDbLine
 10
20.680000000000007
 20
-2.3000000000000114
 30
0.0
 11
30.5
 21
-2.3000000000000114
 31
0.0
  0
LINE
  5
1C2
100
AcDbEntity
  8
0
  6
CONTINUOUS
 62
             200
100
AcDbLine
 10
32.72999999999999
 20
-0.1299999999999955
 30
0.0
 11
35.22999999999999
 21
-4.460000000000008
 31
0.0
  0
LINE
  5
1C3
100
AcDbEntity
  8
0
  6
CONTINUOUS
 62
             200
100
AcDbLine
 10
25.25
 20
-0.1299999999999955
 30
0.0
 11
27.75
 21
-4.460000000000008
 31
0.0
  0
LINE
  5
1C4
100
AcDbEntity
  8
0
  6
CONTINUOUS
 62
             200
100
AcDbLine
 10
23.75
 20
-0.1299999999999955
 30
0.0
 11
26.25
 21
-4.460000000000008
 31
0.0
  0
LINE
  5
1C5
100
AcDbEntity
  8
0
  6
CONTINUOUS
 62
               4
100
AcDbLine
 10
0.9699999999999989
 20
-4.0
 30
0.0
 11
3.0200000000000102
 21
-4.0
 31
0.0
  0
LINE
  5
1C6
100
AcDbEntity
  8
0
  6
CONTINUOUS
 62
               4
100
AcDbLine
 10
3.0200000000000102
 20
-4.0
 30
0.0
 11
3.25
 21
-3.7700000000000102
 31
0.0
  0
LINE
  5
1C7
100
AcDbEntity
  8
0
  6
CONTINUOUS
 62
               4
100
AcDbLine
 10
0.9699999999999989
 20
-4.0
 30
0.0
 11
0.75
 21
-3.7700000000000102
 31
0.0
  0
LINE
  5
1C8
100
AcDbEntity
  8
0
  6
CONTINUOUS
 62
               4
100
AcDbLine
 10
0.75
 20
-2.5900000000000034
 30
0.0
 11
0.75
 21
-3.7700000000000102
 31
0.0
  0
LINE
  5
1C9
100
AcDbEntity
  8
0
  6
CONTINUOUS
 62
             200
100
AcDbLine
 10
0.9699999999999989
 20
-2.5900000000000034
 30
0.0
 11
0.9699999999999989
 21
-4.0
 31
0.0
  0
LINE
  5
1CA
100
AcDbEntity
  8
0
  6
CONTINUOUS
 62
             200
100
AcDbLine
 10
3.0200000000000102
 20
-2.5900000000000034
 30
0.0
 11
3.0200000000000102
 21
-4.0
 31
0.0
  0
LINE
  5
1CB
100
AcDbEntity
  8
0
  6
CONTINUOUS
 62
               4
100
AcDbLine
 10
3.25
 20
-2.5900000000000034
 30
0.0
 11
3.25
 21
-3.7700000000000102
 31
0.0
  0
LINE
  5
1CC
100
AcDbEntity
  8
0
  6
CONTINUOUS
 62
               4
100
AcDbLine
 10
0.75
 20
-3.7700000000000102
 30
0.0
 11
3.25
 21
-3.7700000000000102
 31
0.0
  0
LINE
  5
1CD
100
AcDbEntity
  8
0
  6
CONTINUOUS
 62
               4
100
AcDbLine
 10
0.75
 20
0.5
 30
0.0
 11
0.75
 21
0.0
 31
0.0
  0
LINE
  5
1CE
100
AcDbEntity
  8
0
  6
CONTINUOUS
 62
             200
100
AcDbLine
 10
0.9699999999999989
 20
0.5
 30
0.0
 11
0.9699999999999989
 21
0.0
 31
0.0
  0
LINE
  5
1CF
100
AcDbEntity
  8
0
  6
CONTINUOUS
 62
             200
100
AcDbLine
 10
3.0200000000000102
 20
0.5
 30
0.0
 11
3.0200000000000102
 21
0.0
 31
0.0
  0
LINE
  5
1D0
100
AcDbEntity
  8
0
  6
CONTINUOUS
 62
               4
100
AcDbLine
 10
3.25
 20
0.5
 30
0.0
 11
3.25
 21
0.0
 31
0.0
  0
LINE
  5
1D1
100
AcDbEntity
  8
0
  6
CONTINUOUS
 62
               4
100
AcDbLine
 10
0.75
 20
0.5
 30
0.0
 11
3.25
 21
0.5
 31
0.0
  0
LINE
  5
1D2
100
AcDbEntity
  8
0
  6
CONTINUOUS
 62
               4
100
AcDbLine
 10
0.0
 20
-1.0
 30
0.0
 11
22.0
 21
-1.0
 31
0.0
  0
LINE
  5
1D3
100
AcDbEntity
  8
0
  6
CONTINUOUS
 62
               4
100
AcDbLine
 10
0.0
 20
-0.4499999999999886
 30
0.0
 11
22.0
 21
-0.4499999999999886
 31
0.0
  0
LINE
  5
1D4
100
AcDbEntity
  8
0
  6
CONTINUOUS
 62
               4
100
AcDbLine
 10
22.0
 20
-1.0
 30
0.0
 11
24.25
 21
-1.0
 31
0.0
  0
LINE
  5
1D5
100
AcDbEntity
  8
0
  6
CONTINUOUS
 62
               4
100
AcDbLine
 10
22.0
 20
-3.5999999999999943
 30
0.0
 11
25.75
 21
-3.5999999999999943
 31
0.0
  0
LINE
  5
1D6
100
AcDbEntity
  8
0
  6
CONTINUOUS
 62
               4
100
AcDbLine
 10
25.75
 20
-1.0
 30
0.0
 11
30.5
 21
-1.0
 31
0.0
  0
LINE
  5
1D7
100
AcDbEntity
  8
0
  6
CONTINUOUS
 62
               4
100
AcDbLine
 10
27.25
 20
-3.5999999999999943
 30
0.0
 11
30.5
 21
-3.5999999999999943
 31
0.0
  0
ENDBLK
  5
1D8
100
AcDbEntity
  8
0
100
AcDbBlockEnd
  0
BLOCK
  5
1D9
100
AcDbEntity
  8
0
100
AcDbBlockBegin
  2
MGAL6-L-6
 70
               0
 10
0.0
 20
0.0
 30
0.0
  3
MGAL6-L-6
  1

  0
LINE
  5
1DA
100
AcDbEntity
  8
0
  6
CENTER
 62
             200
100
AcDbLine
 10
0.0
 20
2.0500000000000114
 30
0.0
 11
0.0
 21
-6.6599999999999966
 31
0.0
  0
LINE
  5
1DB
100
AcDbEntity
  8
0
  6
CONTINUOUS
 62
               4
100
AcDbLine
 10
-2.0500000000000114
 20
-1.0
 30
0.0
 11
-2.0500000000000114
 21
-2.5500000000000114
 31
0.0
  0
LINE
  5
1DC
100
AcDbEntity
  8
0
  6
CONTINUOUS
 62
               4
100
AcDbLine
 10
-2.0500000000000114
 20
-1.0
 30
0.0
 11
-1.5
 21
-0.4499999999999886
 31
0.0
  0
LINE
  5
1DD
100
AcDbEntity
  8
0
  6
CONTINUOUS
 62
               4
100
AcDbLine
 10
-1.5
 20
0.0
 30
0.0
 11
-1.5
 21
-0.4499999999999886
 31
0.0
  0
LINE
  5
1DE
100
AcDbEntity
  8
0
  6
CONTINUOUS
 62
               4
100
AcDbLine
 10
-1.5
 20
0.0
 30
0.0
 11
1.5
 21
0.0
 31
0.0
  0
LINE
  5
1DF
100
AcDbEntity
  8
0
  6
CONTINUOUS
 62
               4
100
AcDbLine
 10
1.5
 20
0.0
 30
0.0
 11
1.5
 21
-0.4499999999999886
 31
0.0
  0
LINE
  5
1E0
100
AcDbEntity
  8
0
  6
CONTINUOUS
 62
               4
100
AcDbLine
 10
2.0500000000000114
 20
-1.0
 30
0.0
 11
1.5
 21
-0.4499999999999886
 31
0.0
  0
LINE
  5
1E1
100
AcDbEntity
  8
0
  6
CONTINUOUS
 62
               4
100
AcDbLine
 10
2.0500000000000114
 20
-1.0
 30
0.0
 11
2.0500000000000114
 21
-2.5500000000000114
 31
0.0
  0
LINE
  5
1E2
100
AcDbEntity
  8
0
  6
CONTINUOUS
 62
               4
100
AcDbLine
 10
-2.0500000000000114
 20
-1.8000000000000114
 30
0.0
 11
2.0500000000000114
 21
-1.8000000000000114
 31
0.0
  0
LINE
  5
1E3
100
AcDbEntity
  8
0
  6
CONTINUOUS
 62
               4
100
AcDbLine
 10
-2.0500000000000114
 20
-2.5900000000000034
 30
0.0
 11
2.0500000000000114
 21
-2.5900000000000034
 31
0.0
  0
LINE
  5
1E4
100
AcDbEntity
  8
0
  6
CONTINUOUS
 62
               4
100
AcDbLine
 10
-1.0200000000000102
 20
-4.0
 30
0.0
 11
1.0200000000000102
 21
-4.0
 31
0.0
  0
LINE
  5
1E5
100
AcDbEntity
  8
0
  6
CONTINUOUS
 62
               4
100
AcDbLine
 10
1.0200000000000102
 20
-4.0
 30
0.0
 11
1.25
 21
-3.7700000000000102
 31
0.0
  0
LINE
  5
1E6
100
AcDbEntity
  8
0
  6
CONTINUOUS
 62
               4
100
AcDbLine
 10
-1.0200000000000102
 20
-4.0
 30
0.0
 11
-1.25
 21
-3.7700000000000102
 31
0.0
  0
LINE
  5
1E7
100
AcDbEntity
  8
0
  6
CONTINUOUS
 62
               4
100
AcDbLine
 10
-1.25
 20
-2.5900000000000034
 30
0.0
 11
-1.25
 21
-3.7700000000000102
 31
0.0
  0
LINE
  5
1E8
100
AcDbEntity
  8
0
  6
CONTINUOUS
 62
             200
100
AcDbLine
 10
-1.0200000000000102
 20
-2.5900000000000034
 30
0.0
 11
-1.0200000000000102
 21
-4.0
 31
0.0
  0
LINE
  5
1E9
100
AcDbEntity
  8
0
  6
CONTINUOUS
 62
             200
100
AcDbLine
 10
1.0200000000000102
 20
-2.5900000000000034
 30
0.0
 11
1.0200000000000102
 21
-4.0
 31
0.0
  0
LINE
  5
1EA
100
AcDbEntity
  8
0
  6
CONTINUOUS
 62
               4
100
AcDbLine
 10
1.25
 20
-2.5900000000000034
 30
0.0
 11
1.25
 21
-3.7700000000000102
 31
0.0
  0
LINE
  5
1EB
100
AcDbEntity
  8
0
  6
CONTINUOUS
 62
               4
100
AcDbLine
 10
-1.25
 20
-3.7700000000000102
 30
0.0
 11
1.25
 21
-3.7700000000000102
 31
0.0
  0
LINE
  5
1EC
100
AcDbEntity
  8
0
  6
CONTINUOUS
 62
               4
100
AcDbLine
 10
-1.25
 20
0.5
 30
0.0
 11
-1.25
 21
0.0
 31
0.0
  0
LINE
  5
1ED
100
AcDbEntity
  8
0
  6
CONTINUOUS
 62
             200
100
AcDbLine
 10
-1.0200000000000102
 20
0.5
 30
0.0
 11
-1.0200000000000102
 21
0.0
 31
0.0
  0
LINE
  5
1EE
100
AcDbEntity
  8
0
  6
CONTINUOUS
 62
             200
100
AcDbLine
 10
1.0200000000000102
 20
0.5
 30
0.0
 11
1.0200000000000102
 21
0.0
 31
0.0
  0
LINE
  5
1EF
100
AcDbEntity
  8
0
  6
CONTINUOUS
 62
               4
100
AcDbLine
 10
1.25
 20
0.5
 30
0.0
 11
1.25
 21
0.0
 31
0.0
  0
LINE
  5
1F0
100
AcDbEntity
  8
0
  6
CONTINUOUS
 62
               4
100
AcDbLine
 10
-1.25
 20
0.5
 30
0.0
 11
1.25
 21
0.5
 31
0.0
  0
ARC
  5
1F1
100
AcDbEntity
  8
0
  6
CONTINUOUS
 62
               4
100
AcDbCircle
 10
0.000002288819644
 20
-2.5499977111803673
 30
0.0
 40
2.0500022888209148
100
AcDbArc
 50
180.00006397051655
 51
269.99993602948348
  0
ARC
  5
1F2
100
AcDbEntity
  8
0
  6
CONTINUOUS
 62
               4
100
AcDbCircle
 10
-0.000002288819644
 20
-2.5499977111803673
 30
0.0
 40
2.0500022888209148
100
AcDbArc
 50
270.00006397051652
 51
359.99993602948348
  0
ENDBLK
  5
1F3
100
AcDbEntity
  8
0
100
AcDbBlockEnd
  0
BLOCK
  5
1F4
100
AcDbEntity
  8
0
100
AcDbBlockBegin
  2
MGAL6-L-7
 70
               0
 10
0.0
 20
0.0
 30
0.0
  3
MGAL6-L-7
  1

  0
LINE
  5
1F5
100
AcDbEntity
  8
0
  6
CENTER
 62
             200
100
AcDbLine
 10
-2.8000000000000114
 20
0.0
 30
0.0
 11
27.400000000000006
 21
0.0
 31
0.0
  0
LINE
  5
1F6
100
AcDbEntity
  8
0
  6
CONTINUOUS
 62
               4
100
AcDbLine
 10
0.0
 20
-1.5
 30
0.0
 11
22.0
 21
-1.5
 31
0.0
  0
LINE
  5
1F7
100
AcDbEntity
  8
0
  6
CONTINUOUS
 62
               4
100
AcDbLine
 10
0.0
 20
1.5
 30
0.0
 11
22.0
 21
1.5
 31
0.0
  0
LINE
  5
1F8
100
AcDbEntity
  8
0
  6
CONTINUOUS
 62
               4
100
AcDbLine
 10
0.0
 20
-2.0499999999999972
 30
0.0
 11
22.0
 21
-2.0499999999999972
 31
0.0
  0
LINE
  5
1F9
100
AcDbEntity
  8
0
  6
CONTINUOUS
 62
               4
100
AcDbLine
 10
0.0
 20
2.0499999999999972
 30
0.0
 11
22.0
 21
2.0499999999999972
 31
0.0
  0
LINE
  5
1FA
100
AcDbEntity
  8
0
  6
CONTINUOUS
 62
               4
100
AcDbLine
 10
0.0
 20
2.0499999999999972
 30
0.0
 11
0.0
 21
-2.0499999999999972
 31
0.0
  0
LINE
  5
1FB
100
AcDbEntity
  8
0
  6
CONTINUOUS
 62
               4
100
AcDbLine
 10
22.0
 20
2.0499999999999972
 30
0.0
 11
22.0
 21
-2.0499999999999972
 31
0.0
  0
LINE
  5
1FC
100
AcDbEntity
  8
0
  6
CENTER
 62
             200
100
AcDbLine
 10
2.0
 20
2.8299999999999983
 30
0.0
 11
2.0
 21
-2.75
 31
0.0
  0
LINE
  5
1FD
100
AcDbEntity
  8
0
  6
CONTINUOUS
 62
               4
100
AcDbLine
 10
0.9499999999999886
 20
-0.7099999999999938
 30
0.0
 11
2.6800000000000068
 21
1.019999999999996
 31
0.0
  0
LINE
  5
1FE
100
AcDbEntity
  8
0
  6
CONTINUOUS
 62
               4
100
AcDbLine
 10
1.3000000000000114
 20
-1.0600000000000023
 30
0.0
 11
2.9399999999999977
 21
0.5600000000000023
 31
0.0
  0
LINE
  5
1FF
100
AcDbEntity
  8
0
  6
CONTINUOUS
 62
             200
100
AcDbLine
 10
23.079999999999984
 20
2.1599999999999966
 30
0.0
 11
25.579999999999984
 21
-2.1599999999999966
 31
0.0
  0
LINE
  5
200
100
AcDbEntity
  8
0
  6
CONTINUOUS
 62
               4
100
AcDbLine
 10
22.0
 20
1.2999999999999972
 30
0.0
 11
23.579999999999984
 21
1.2999999999999972
 31
0.0
  0
LINE
  5
201
100
AcDbEntity
  8
0
  6
CONTINUOUS
 62
               4
100
AcDbLine
 10
22.0
 20
-1.2999999999999972
 30
0.0
 11
25.090000000000003
 21
-1.2999999999999972
 31
0.0
  0
CIRCLE
  5
202
100
AcDbEntity
  8
0
  6
CONTINUOUS
 62
               4
100
AcDbCircle
 10
2.0000152587890625
 20
0.0
 30
0.0
 40
1.25
  0
CIRCLE
  5
203
100
AcDbEntity
  8
0
  6
CONTINUOUS
 62
               4
100
AcDbCircle
 10
2.0000152587890625
 20
0.0
 30
0.0
 40
1.3999996185302734
  0
ENDBLK
  5
204
100
AcDbEntity
  8
0
100
AcDbBlockEnd
  0
BLOCK
  5
205
100
AcDbEntity
  8
0
100
AcDbBlockBegin
  2
MGAL6-L-8
 70
               0
 10
0.0
 20
0.0
 30
0.0
  3
MGAL6-L-8
  1

  0
LINE
  5
206
100
AcDbEntity
  8
0
  6
CONTINUOUS
 62
               4
100
AcDbLine
 10
0.0
 20
0.0
 30
0.0
 11
16.100000000000001
 21
0.0
 31
0.0
  0
LINE
  5
207
100
AcDbEntity
  8
0
  6
CONTINUOUS
 62
               4
100
AcDbLine
 10
4.7000000000000028
 20
-4.5999999999999943
 30
0.0
 11
22.0
 21
-4.5999999999999943
 31
0.0
  0
LINE
  5
208
100
AcDbEntity
  8
0
  6
CONTINUOUS
 62
               4
100
AcDbLine
 10
22.0
 20
6.9000000000000057
 30
0.0
 11
22.0
 21
-4.5999999999999943
 31
0.0
  0
LINE
  5
209
100
AcDbEntity
  8
0
  6
CONTINUOUS
 62
               4
100
AcDbLine
 10
0.0
 20
-2.5999999999999943
 30
0.0
 11
0.0
 21
0.0
 31
0.0
  0
LINE
  5
20A
100
AcDbEntity
  8
0
  6
CONTINUOUS
 62
               4
100
AcDbLine
 10
4.7000000000000028
 20
-2.9799999999999898
 30
0.0
 11
4.7000000000000028
 21
-4.5999999999999943
 31
0.0
  0
LINE
  5
20B
100
AcDbEntity
  8
0
  6
CENTER
 62
             200
100
AcDbLine
 10
2.0
 20
0.7299999999999898
 30
0.0
 11
2.0
 21
-5.1699999999999875
 31
0.0
  0
LINE
  5
20C
100
AcDbEntity
  8
0
  6
CONTINUOUS
 62
               4
100
AcDbLine
 10
16.100000000000001
 20
6.9000000000000057
 30
0.0
 11
16.100000000000001
 21
0.0
 31
0.0
  0
LINE
  5
20D
100
AcDbEntity
  8
0
  6
CONTINUOUS
 62
               4
100
AcDbLine
 10
0.0
 20
-1.8000000000000114
 30
0.0
 11
4.269999999999996
 21
-1.8000000000000114
 31
0.0
  0
LINE
  5
20E
100
AcDbEntity
  8
0
  6
CONTINUOUS
 62
               4
100
AcDbLine
 10
0.0
 20
-2.5999999999999943
 30
0.0
 11
4.0
 21
-2.5999999999999943
 31
0.0
  0
LINE
  5
20F
100
AcDbEntity
  8
0
  6
CONTINUOUS
 62
               4
100
AcDbLine
 10
4.0
 20
-1.8000000000000114
 30
0.0
 11
4.0
 21
-2.5999999999999943
 31
0.0
  0
LINE
  5
210
100
AcDbEntity
  8
0
  6
CONTINUOUS
 62
               4
100
AcDbLine
 10
16.100000000000001
 20
6.9000000000000057
 30
0.0
 11
22.0
 21
6.9000000000000057
 31
0.0
  0
LINE
  5
211
100
AcDbEntity
  8
0
  6
CONTINUOUS
 62
               4
100
AcDbLine
 10
4.2000000000000028
 20
-3.8000000000000114
 30
0.0
 11
4.7000000000000028
 21
-3.8000000000000114
 31
0.0
  0
LINE
  5
212
100
AcDbEntity
  8
0
  6
CONTINUOUS
 62
               4
100
AcDbLine
 10
4.2000000000000028
 20
-1.8000000000000114
 30
0.0
 11
4.2000000000000028
 21
-3.8000000000000114
 31
0.0
  0
LINE
  5
213
100
AcDbEntity
  8
0
  6
CONTINUOUS
 62
               4
100
AcDbLine
 10
4.269999999999996
 20
-2.9799999999999898
 30
0.0
 11
4.7000000000000028
 21
-2.9799999999999898
 31
0.0
  0
LINE
  5
214
100
AcDbEntity
  8
0
  6
CONTINUOUS
 62
               4
100
AcDbLine
 10
4.269999999999996
 20
-1.8000000000000114
 30
0.0
 11
4.269999999999996
 21
-2.9799999999999898
 31
0.0
  0
LINE
  5
215
100
AcDbEntity
  8
0
  6
CONTINUOUS
 62
               4
100
AcDbLine
 10
0.0
 20
-1.0
 30
0.0
 11
22.0
 21
-1.0
 31
0.0
  0
LINE
  5
216
100
AcDbEntity
  8
0
  6
CONTINUOUS
 62
               4
100
AcDbLine
 10
0.0
 20
-0.4499999999999886
 30
0.0
 11
22.0
 21
-0.4499999999999886
 31
0.0
  0
LINE
  5
217
100
AcDbEntity
  8
0
  6
CONTINUOUS
 62
               4
100
AcDbLine
 10
16.100000000000001
 20
1.1500000000000057
 30
0.0
 11
22.0
 21
1.1500000000000057
 31
0.0
  0
LINE
  5
218
100
AcDbEntity
  8
0
  6
CONTINUOUS
 62
               4
100
AcDbLine
 10
16.100000000000001
 20
0.4000000000000057
 30
0.0
 11
22.0
 21
0.4000000000000057
 31
0.0
  0
LINE
  5
219
100
AcDbEntity
  8
0
  6
CONTINUOUS
 62
               4
100
AcDbLine
 10
16.100000000000001
 20
5.4000000000000057
 30
0.0
 11
22.0
 21
5.4000000000000057
 31
0.0
  0
LINE
  5
21A
100
AcDbEntity
  8
0
  6
CONTINUOUS
 62
               4
100
AcDbLine
 10
18.100000000000001
 20
15.400000000000006
 30
0.0
 11
20.700000000000003
 21
15.400000000000006
 31
0.0
  0
LINE
  5
21B
100
AcDbEntity
  8
0
  6
CENTER
 62
             200
100
AcDbLine
 10
18.950000000000003
 20
13.669999999999987
 30
0.0
 11
18.950000000000003
 21
25.599999999999994
 31
0.0
  0
LINE
  5
21C
100
AcDbEntity
  8
0
  6
CENTER
 62
             200
100
AcDbLine
 10
19.850000000000001
 20
13.719999999999999
 30
0.0
 11
19.850000000000001
 21
25.650000000000006
 31
0.0
  0
LINE
  5
21D
100
AcDbEntity
  8
0
  6
CONTINUOUS
 62
               4
100
AcDbLine
 10
18.700000000000003
 20
25.400000000000006
 30
0.0
 11
19.200000000000003
 21
25.400000000000006
 31
0.0
  0
LINE
  5
21E
100
AcDbEntity
  8
0
  6
CONTINUOUS
 62
               4
100
AcDbLine
 10
19.600000000000001
 20
25.400000000000006
 30
0.0
 11
20.100000000000001
 21
25.400000000000006
 31
0.0
  0
LINE
  5
21F
100
AcDbEntity
  8
0
  6
CONTINUOUS
 62
               4
100
AcDbLine
 10
18.5
 20
22.400000000000006
 30
0.0
 11
20.299999999999997
 21
22.400000000000006
 31
0.0
  0
LINE
  5
220
100
AcDbEntity
  8
0
  6
CONTINUOUS
 62
               4
100
AcDbLine
 10
20.299999999999997
 20
15.400000000000006
 30
0.0
 11
20.299999999999997
 21
19.400000000000006
 31
0.0
  0
LINE
  5
221
100
AcDbEntity
  8
0
  6
CONTINUOUS
 62
               4
100
AcDbLine
 10
19.399999999999999
 20
15.400000000000006
 30
0.0
 11
19.399999999999999
 21
18.879999999999995
 31
0.0
  0
LINE
  5
222
100
AcDbEntity
  8
0
  6
CONTINUOUS
 62
               4
100
AcDbLine
 10
19.399999999999999
 20
20.379999999999995
 30
0.0
 11
19.399999999999999
 21
22.400000000000006
 31
0.0
  0
LINE
  5
223
100
AcDbEntity
  8
0
  6
CONTINUOUS
 62
               4
100
AcDbLine
 10
20.299999999999997
 20
20.900000000000006
 30
0.0
 11
20.299999999999997
 21
22.400000000000006
 31
0.0
  0
LINE
  5
224
100
AcDbEntity
  8
0
  6
CONTINUOUS
 62
               4
100
AcDbLine
 10
18.5
 20
15.400000000000006
 30
0.0
 11
18.5
 21
18.360000000000014
 31
0.0
  0
LINE
  5
225
100
AcDbEntity
  8
0
  6
CONTINUOUS
 62
               4
100
AcDbLine
 10
18.5
 20
19.860000000000014
 30
0.0
 11
18.5
 21
22.400000000000006
 31
0.0
  0
LINE
  5
226
100
AcDbEntity
  8
0
  6
CONTINUOUS
 62
               4
100
AcDbLine
 10
18.700000000000003
 20
22.400000000000006
 30
0.0
 11
18.700000000000003
 21
25.400000000000006
 31
0.0
  0
LINE
  5
227
100
AcDbEntity
  8
0
  6
CONTINUOUS
 62
               4
100
AcDbLine
 10
19.200000000000003
 20
22.400000000000006
 30
0.0
 11
19.200000000000003
 21
25.400000000000006
 31
0.0
  0
LINE
  5
228
100
AcDbEntity
  8
0
  6
CONTINUOUS
 62
               4
100
AcDbLine
 10
19.600000000000001
 20
22.400000000000006
 30
0.0
 11
19.600000000000001
 21
25.400000000000006
 31
0.0
  0
LINE
  5
229
100
AcDbEntity
  8
0
  6
CONTINUOUS
 62
               4
100
AcDbLine
 10
20.100000000000001
 20
22.400000000000006
 30
0.0
 11
20.100000000000001
 21
25.400000000000006
 31
0.0
  0
LINE
  5
22A
100
AcDbEntity
  8
0
  6
CONTINUOUS
 62
             200
100
AcDbLine
 10
17.239999999999995
 20
19.129999999999995
 30
0.0
 11
21.57
 21
21.629999999999995
 31
0.0
  0
LINE
  5
22B
100
AcDbEntity
  8
0
  6
CENTER
 62
             200
100
AcDbLine
 10
19.399999999999999
 20
5.5800000000000125
 30
0.0
 11
19.399999999999999
 21
15.400000000000006
 31
0.0
  0
LINE
  5
22C
100
AcDbEntity
  8
0
  6
CONTINUOUS
 62
             200
100
AcDbLine
 10
17.239999999999995
 20
17.629999999999995
 30
0.0
 11
21.57
 21
20.129999999999995
 31
0.0
  0
LINE
  5
22D
100
AcDbEntity
  8
0
  6
CONTINUOUS
 62
             200
100
AcDbLine
 10
17.239999999999995
 20
10.150000000000006
 30
0.0
 11
21.57
 21
12.650000000000006
 31
0.0
  0
LINE
  5
22E
100
AcDbEntity
  8
0
  6
CONTINUOUS
 62
             200
100
AcDbLine
 10
17.239999999999995
 20
8.6500000000000057
 30
0.0
 11
21.57
 21
11.150000000000006
 31
0.0
  0
LINE
  5
22F
100
AcDbEntity
  8
0
  6
CONTINUOUS
 62
               4
100
AcDbLine
 10
0.9699999999999989
 20
-4.0
 30
0.0
 11
3.0200000000000031
 21
-4.0
 31
0.0
  0
LINE
  5
230
100
AcDbEntity
  8
0
  6
CONTINUOUS
 62
               4
100
AcDbLine
 10
3.0200000000000031
 20
-4.0
 30
0.0
 11
3.25
 21
-3.7700000000000102
 31
0.0
  0
LINE
  5
231
100
AcDbEntity
  8
0
  6
CONTINUOUS
 62
               4
100
AcDbLine
 10
0.9699999999999989
 20
-4.0
 30
0.0
 11
0.75
 21
-3.7700000000000102
 31
0.0
  0
LINE
  5
232
100
AcDbEntity
  8
0
  6
CONTINUOUS
 62
               4
100
AcDbLine
 10
0.75
 20
-2.5999999999999943
 30
0.0
 11
0.75
 21
-3.7700000000000102
 31
0.0
  0
LINE
  5
233
100
AcDbEntity
  8
0
  6
CONTINUOUS
 62
             200
100
AcDbLine
 10
0.9699999999999989
 20
-2.5999999999999943
 30
0.0
 11
0.9699999999999989
 21
-4.0
 31
0.0
  0
LINE
  5
234
100
AcDbEntity
  8
0
  6
CONTINUOUS
 62
             200
100
AcDbLine
 10
3.0200000000000031
 20
-2.5999999999999943
 30
0.0
 11
3.0200000000000031
 21
-4.0
 31
0.0
  0
LINE
  5
235
100
AcDbEntity
  8
0
  6
CONTINUOUS
 62
               4
100
AcDbLine
 10
3.25
 20
-2.5999999999999943
 30
0.0
 11
3.25
 21
-3.7700000000000102
 31
0.0
  0
LINE
  5
236
100
AcDbEntity
  8
0
  6
CONTINUOUS
 62
               4
100
AcDbLine
 10
0.75
 20
-3.7700000000000102
 30
0.0
 11
3.25
 21
-3.7700000000000102
 31
0.0
  0
LINE
  5
237
100
AcDbEntity
  8
0
  6
CONTINUOUS
 62
               4
100
AcDbLine
 10
0.75
 20
0.5
 30
0.0
 11
0.75
 21
0.0
 31
0.0
  0
LINE
  5
238
100
AcDbEntity
  8
0
  6
CONTINUOUS
 62
             200
100
AcDbLine
 10
0.9699999999999989
 20
0.5
 30
0.0
 11
0.9699999999999989
 21
0.0
 31
0.0
  0
LINE
  5
239
100
AcDbEntity
  8
0
  6
CONTINUOUS
 62
             200
100
AcDbLine
 10
3.0200000000000031
 20
0.5
 30
0.0
 11
3.0200000000000031
 21
0.0
 31
0.0
  0
LINE
  5
23A
100
AcDbEntity
  8
0
  6
CONTINUOUS
 62
               4
100
AcDbLine
 10
3.25
 20
0.5
 30
0.0
 11
3.25
 21
0.0
 31
0.0
  0
LINE
  5
23B
100
AcDbEntity
  8
0
  6
CONTINUOUS
 62
               4
100
AcDbLine
 10
0.75
 20
0.5
 30
0.0
 11
3.25
 21
0.5
 31
0.0
  0
LINE
  5
23C
100
AcDbEntity
  8
0
  6
CONTINUOUS
 62
               4
100
AcDbLine
 10
20.700000000000003
 20
6.9000000000000057
 30
0.0
 11
20.700000000000003
 21
10.650000000000006
 31
0.0
  0
LINE
  5
23D
100
AcDbEntity
  8
0
  6
CONTINUOUS
 62
               4
100
AcDbLine
 10
18.100000000000001
 20
6.9000000000000057
 30
0.0
 11
18.100000000000001
 21
9.1500000000000057
 31
0.0
  0
LINE
  5
23E
100
AcDbEntity
  8
0
  6
CONTINUOUS
 62
               4
100
AcDbLine
 10
18.100000000000001
 20
10.650000000000006
 30
0.0
 11
18.100000000000001
 21
15.400000000000006
 31
0.0
  0
LINE
  5
23F
100
AcDbEntity
  8
0
  6
CONTINUOUS
 62
               4
100
AcDbLine
 10
20.700000000000003
 20
12.150000000000006
 30
0.0
 11
20.700000000000003
 21
15.400000000000006
 31
0.0
  0
ENDBLK
  5
240
100
AcDbEntity
  8
0
100
AcDbBlockEnd
  0
BLOCK
  5
241
100
AcDbEntity
  8
0
100
AcDbBlockBegin
  2
MGAL6-L-9
 70
               0
 10
0.0
 20
0.0
 30
0.0
  3
MGAL6-L-9
  1

  0
LINE
  5
242
100
AcDbEntity
  8
0
  6
CONTINUOUS
 62
               4
100
AcDbLine
 10
-2.25
 20
5.4000000000000057
 30
0.0
 11
2.25
 21
5.4000000000000057
 31
0.0
  0
LINE
  5
243
100
AcDbEntity
  8
0
  6
CONTINUOUS
 62
               4
100
AcDbLine
 10
-2.25
 20
6.9000000000000057
 30
0.0
 11
-2.25
 21
1.1500000000000057
 31
0.0
  0
LINE
  5
244
100
AcDbEntity
  8
0
  6
CONTINUOUS
 62
               4
100
AcDbLine
 10
-1.5
 20
0.4000000000000057
 30
0.0
 11
-2.25
 21
1.1500000000000057
 31
0.0
  0
LINE
  5
245
100
AcDbEntity
  8
0
  6
CONTINUOUS
 62
               4
100
AcDbLine
 10
-1.5
 20
-0.4499999999999886
 30
0.0
 11
-1.5
 21
0.4000000000000057
 31
0.0
  0
LINE
  5
246
100
AcDbEntity
  8
0
  6
CONTINUOUS
 62
               4
100
AcDbLine
 10
-2.0499999999999972
 20
-1.0
 30
0.0
 11
-1.5
 21
-0.4499999999999886
 31
0.0
  0
LINE
  5
247
100
AcDbEntity
  8
0
  6
CONTINUOUS
 62
               4
100
AcDbLine
 10
-2.0499999999999972
 20
-1.0
 30
0.0
 11
-2.0499999999999972
 21
-2.5500000000000114
 31
0.0
  0
LINE
  5
248
100
AcDbEntity
  8
0
  6
CONTINUOUS
 62
               4
100
AcDbLine
 10
2.0499999999999972
 20
-1.0
 30
0.0
 11
2.0499999999999972
 21
-2.5500000000000114
 31
0.0
  0
LINE
  5
249
100
AcDbEntity
  8
0
  6
CONTINUOUS
 62
               4
100
AcDbLine
 10
2.0499999999999972
 20
-1.0
 30
0.0
 11
1.5
 21
-0.4499999999999886
 31
0.0
  0
LINE
  5
24A
100
AcDbEntity
  8
0
  6
CONTINUOUS
 62
               4
100
AcDbLine
 10
1.5
 20
-0.4499999999999886
 30
0.0
 11
1.5
 21
0.4000000000000057
 31
0.0
  0
LINE
  5
24B
100
AcDbEntity
  8
0
  6
CONTINUOUS
 62
               4
100
AcDbLine
 10
1.5
 20
0.4000000000000057
 30
0.0
 11
2.25
 21
1.1500000000000057
 31
0.0
  0
LINE
  5
24C
100
AcDbEntity
  8
0
  6
CONTINUOUS
 62
               4
100
AcDbLine
 10
2.25
 20
6.9000000000000057
 30
0.0
 11
2.25
 21
1.1500000000000057
 31
0.0
  0
LINE
  5
24D
100
AcDbEntity
  8
0
  6
CENTER
 62
             200
100
AcDbLine
 10
0.0
 20
12.560000000000002
 30
0.0
 11
0.0
 21
-6.0600000000000023
 31
0.0
  0
LINE
  5
24E
100
AcDbEntity
  8
0
  6
CONTINUOUS
 62
               4
100
AcDbLine
 10
-1.5
 20
0.0
 30
0.0
 11
1.5
 21
0.0
 31
0.0
  0
LINE
  5
24F
100
AcDbEntity
  8
0
  6
CONTINUOUS
 62
               4
100
AcDbLine
 10
-2.0499999999999972
 20
-1.8000000000000114
 30
0.0
 11
2.0499999999999972
 21
-1.8000000000000114
 31
0.0
  0
LINE
  5
250
100
AcDbEntity
  8
0
  6
CONTINUOUS
 62
               4
100
AcDbLine
 10
-2.0499999999999972
 20
-2.5999999999999943
 30
0.0
 11
2.0499999999999972
 21
-2.5999999999999943
 31
0.0
  0
LINE
  5
251
100
AcDbEntity
  8
0
  6
CONTINUOUS
 62
               4
100
AcDbLine
 10
-2.25
 20
6.9000000000000057
 30
0.0
 11
2.25
 21
6.9000000000000057
 31
0.0
  0
LINE
  5
252
100
AcDbEntity
  8
0
  6
CONTINUOUS
 62
             200
100
AcDbLine
 10
-2.1599999999999966
 20
8.6500000000000057
 30
0.0
 11
2.1599999999999966
 21
11.150000000000006
 31
0.0
  0
LINE
  5
253
100
AcDbEntity
  8
0
  6
CONTINUOUS
 62
               4
100
AcDbLine
 10
-1.019999999999996
 20
-4.0
 30
0.0
 11
1.019999999999996
 21
-4.0
 31
0.0
  0
LINE
  5
254
100
AcDbEntity
  8
0
  6
CONTINUOUS
 62
               4
100
AcDbLine
 10
1.019999999999996
 20
-4.0
 30
0.0
 11
1.25
 21
-3.7700000000000102
 31
0.0
  0
LINE
  5
255
100
AcDbEntity
  8
0
  6
CONTINUOUS
 62
               4
100
AcDbLine
 10
-1.019999999999996
 20
-4.0
 30
0.0
 11
-1.25
 21
-3.7700000000000102
 31
0.0
  0
LINE
  5
256
100
AcDbEntity
  8
0
  6
CONTINUOUS
 62
               4
100
AcDbLine
 10
-1.25
 20
-2.5999999999999943
 30
0.0
 11
-1.25
 21
-3.7700000000000102
 31
0.0
  0
LINE
  5
257
100
AcDbEntity
  8
0
  6
CONTINUOUS
 62
             200
100
AcDbLine
 10
-1.019999999999996
 20
-2.5999999999999943
 30
0.0
 11
-1.019999999999996
 21
-4.0
 31
0.0
  0
LINE
  5
258
100
AcDbEntity
  8
0
  6
CONTINUOUS
 62
             200
100
AcDbLine
 10
1.019999999999996
 20
-2.5999999999999943
 30
0.0
 11
1.019999999999996
 21
-4.0
 31
0.0
  0
LINE
  5
259
100
AcDbEntity
  8
0
  6
CONTINUOUS
 62
               4
100
AcDbLine
 10
1.25
 20
-2.5999999999999943
 30
0.0
 11
1.25
 21
-3.7700000000000102
 31
0.0
  0
LINE
  5
25A
100
AcDbEntity
  8
0
  6
CONTINUOUS
 62
               4
100
AcDbLine
 10
-1.25
 20
-3.7700000000000102
 30
0.0
 11
1.25
 21
-3.7700000000000102
 31
0.0
  0
LINE
  5
25B
100
AcDbEntity
  8
0
  6
CONTINUOUS
 62
               4
100
AcDbLine
 10
-1.25
 20
0.5
 30
0.0
 11
-1.25
 21
0.0
 31
0.0
  0
LINE
  5
25C
100
AcDbEntity
  8
0
  6
CONTINUOUS
 62
             200
100
AcDbLine
 10
-1.019999999999996
 20
0.5
 30
0.0
 11
-1.019999999999996
 21
0.0
 31
0.0
  0
LINE
  5
25D
100
AcDbEntity
  8
0
  6
CONTINUOUS
 62
             200
100
AcDbLine
 10
1.019999999999996
 20
0.5
 30
0.0
 11
1.019999999999996
 21
0.0
 31
0.0
  0
LINE
  5
25E
100
AcDbEntity
  8
0
  6
CONTINUOUS
 62
               4
100
AcDbLine
 10
1.25
 20
0.5
 30
0.0
 11
1.25
 21
0.0
 31
0.0
  0
LINE
  5
25F
100
AcDbEntity
  8
0
  6
CONTINUOUS
 62
               4
100
AcDbLine
 10
-1.25
 20
0.5
 30
0.0
 11
1.25
 21
0.5
 31
0.0
  0
LINE
  5
260
100
AcDbEntity
  8
0
  6
CONTINUOUS
 62
               4
100
AcDbLine
 10
-1.2999999999999972
 20
9.1500000000000057
 30
0.0
 11
-1.2999999999999972
 21
6.9000000000000057
 31
0.0
  0
LINE
  5
261
100
AcDbEntity
  8
0
  6
CONTINUOUS
 62
               4
100
AcDbLine
 10
1.2999999999999972
 20
10.650000000000006
 30
0.0
 11
1.2999999999999972
 21
6.9000000000000057
 31
0.0
  0
ARC
  5
262
100
AcDbEntity
  8
0
  6
CONTINUOUS
 62
               4
100
AcDbCircle
 10
0.000002288819644
 20
-2.5499977111803673
 30
0.0
 40
2.0500022888209148
100
AcDbArc
 50
180.00006397051655
 51
269.99993602948348
  0
ARC
  5
263
100
AcDbEntity
  8
0
  6
CONTINUOUS
 62
               4
100
AcDbCircle
 10
-0.000002288819644
 20
-2.5499977111803673
 30
0.0
 40
2.0500022888209148
100
AcDbArc
 50
270.00006397051652
 51
359.99993602948348
  0
ENDBLK
  5
264
100
AcDbEntity
  8
0
100
AcDbBlockEnd
  0
BLOCK
  5
265
100
AcDbEntity
  8
0
100
AcDbBlockBegin
  2
MGAL6-L-10
 70
               0
 10
0.0
 20
0.0
 30
0.0
  3
MGAL6-L-10
  1

  0
LINE
  5
266
100
AcDbEntity
  8
0
  6
CENTER
 62
             200
100
AcDbLine
 10
-1.3200000000000003
 20
0.0
 30
0.0
 11
23.579999999999998
 21
0.0
 31
0.0
  0
LINE
  5
267
100
AcDbEntity
  8
0
  6
CONTINUOUS
 62
               4
100
AcDbLine
 10
0.0
 20
-1.5
 30
0.0
 11
16.560000000000002
 21
-1.5
 31
0.0
  0
LINE
  5
268
100
AcDbEntity
  8
0
  6
CONTINUOUS
 62
               4
100
AcDbLine
 10
0.0
 20
1.5
 30
0.0
 11
16.560000000000002
 21
1.5
 31
0.0
  0
LINE
  5
269
100
AcDbEntity
  8
0
  6
CONTINUOUS
 62
               4
100
AcDbLine
 10
0.0
 20
-2.0499999999999972
 30
0.0
 11
16.909999999999997
 21
-2.0499999999999972
 31
0.0
  0
LINE
  5
26A
100
AcDbEntity
  8
0
  6
CONTINUOUS
 62
               4
100
AcDbLine
 10
0.0
 20
2.0499999999999972
 30
0.0
 11
16.909999999999997
 21
2.0499999999999972
 31
0.0
  0
LINE
  5
26B
100
AcDbEntity
  8
0
  6
CONTINUOUS
 62
               4
100
AcDbLine
 10
0.0
 20
2.0499999999999972
 30
0.0
 11
0.0
 21
-2.0499999999999972
 31
0.0
  0
LINE
  5
26C
100
AcDbEntity
  8
0
  6
CENTER
 62
             200
100
AcDbLine
 10
2.0
 20
2.8299999999999983
 30
0.0
 11
2.0
 21
-2.75
 31
0.0
  0
LINE
  5
26D
100
AcDbEntity
  8
0
  6
CONTINUOUS
 62
               4
100
AcDbLine
 10
17.079999999999998
 20
2.25
 30
0.0
 11
22.0
 21
2.25
 31
0.0
  0
LINE
  5
26E
100
AcDbEntity
  8
0
  6
CONTINUOUS
 62
               4
100
AcDbLine
 10
17.079999999999998
 20
-2.25
 30
0.0
 11
22.0
 21
-2.25
 31
0.0
  0
LINE
  5
26F
100
AcDbEntity
  8
0
  6
CONTINUOUS
 62
               4
100
AcDbLine
 10
22.0
 20
2.25
 30
0.0
 11
22.0
 21
-2.25
 31
0.0
  0
LINE
  5
270
100
AcDbEntity
  8
0
  6
CONTINUOUS
 62
               4
100
AcDbLine
 10
1.3500000000000014
 20
-1.0699999999999932
 30
0.0
 11
3.0700000000000003
 21
0.6400000000000006
 31
0.0
  0
LINE
  5
271
100
AcDbEntity
  8
0
  6
CONTINUOUS
 62
               4
100
AcDbLine
 10
0.9299999999999997
 20
-0.6400000000000006
 30
0.0
 11
2.6400000000000006
 21
1.0699999999999932
 31
0.0
  0
ARC
  5
272
100
AcDbEntity
  8
0
  6
CONTINUOUS
 62
               4
100
AcDbCircle
 10
19.5
 20
0.0
 30
0.0
 40
3.3043758866085451
100
AcDbArc
 50
137.08479304051025
 51
222.91520695948975
  0
CIRCLE
  5
273
100
AcDbEntity
  8
0
  6
CONTINUOUS
 62
               4
100
AcDbCircle
 10
2.0
 20
0.0
 30
0.0
 40
1.25
  0
CIRCLE
  5
274
100
AcDbEntity
  8
0
  6
CONTINUOUS
 62
               4
100
AcDbCircle
 10
2.0
 20
0.0
 30
0.0
 40
1.3999996185302734
  0
CIRCLE
  5
275
100
AcDbEntity
  8
0
  6
CONTINUOUS
 62
               4
100
AcDbCircle
 10
19.4073486328125
 20
0.0
 30
0.0
 40
1.2999992370605469
  0
CIRCLE
  5
276
100
AcDbEntity
  8
0
  6
CONTINUOUS
 62
               4
100
AcDbCircle
 10
19.729156494140625
 20
-0.34100341796875
 30
0.0
 40
0.449999988079071
  0
CIRCLE
  5
277
100
AcDbEntity
  8
0
  6
CONTINUOUS
 62
               4
100
AcDbCircle
 10
19.117279052734375
 20
0.3181533813476563
 30
0.0
 40
0.449999988079071
  0
CIRCLE
  5
278
100
AcDbEntity
  8
0
  6
CONTINUOUS
 62
               4
100
AcDbCircle
 10
19.729156494140625
 20
-0.34100341796875
 30
0.0
 40
0.25
  0
CIRCLE
  5
279
100
AcDbEntity
  8
0
  6
CONTINUOUS
 62
               4
100
AcDbCircle
 10
19.117279052734375
 20
0.3181533813476563
 30
0.0
 40
0.25
  0
ENDBLK
  5
27A
100
AcDbEntity
  8
0
100
AcDbBlockEnd
  0
BLOCK
  5
27B
100
AcDbEntity
  8
0
100
AcDbBlockBegin
  2
MGAL6-L-11
 70
               0
 10
0.0
 20
0.0
 30
0.0
  3
MGAL6-L-11
  1

  0
LINE
  5
27C
100
AcDbEntity
  8
0
  6
CENTER
 62
             200
100
AcDbLine
 10
14.651603608812607
 20
-2.4999995223464566
 30
0.0
 11
33.252631006551169
 21
-2.4999995223464566
 31
0.0
  0
LINE
  5
27D
100
AcDbEntity
  8
0
  6
CONTINUOUS
 62
               4
100
AcDbLine
 10
20.753464203233264
 20
-3.799999522346468
 30
0.0
 11
23.999999995231647
 21
-3.799999522346468
 31
0.0
  0
LINE
  5
27E
100
AcDbEntity
  8
0
  6
CONTINUOUS
 62
               4
100
AcDbLine
 10
19.252309468822162
 20
-1.1999995223464452
 30
0.0
 11
23.999999995231647
 21
-1.1999995223464452
 31
0.0
  0
LINE
  5
27F
100
AcDbEntity
  8
0
  6
CONTINUOUS
 62
               4
100
AcDbLine
 10
15.500000000000014
 20
-3.799999522346468
 30
0.0
 11
19.253464203233264
 21
-3.799999522346468
 31
0.0
  0
LINE
  5
280
100
AcDbEntity
  8
0
  6
CONTINUOUS
 62
               4
100
AcDbLine
 10
15.500000000000014
 20
-1.1999995223464452
 30
0.0
 11
17.752309468822162
 21
-1.1999995223464452
 31
0.0
  0
LINE
  5
281
100
AcDbEntity
  8
0
  6
CONTINUOUS
 62
               4
100
AcDbLine
 10
-0.000000004768367
 20
0.0
 30
0.0
 11
15.500000000000014
 21
0.0
 31
0.0
  0
LINE
  5
282
100
AcDbEntity
  8
0
  6
CONTINUOUS
 62
               4
100
AcDbLine
 10
-0.000000004768367
 20
-0.5499999965940106
 30
0.0
 11
15.500000000000014
 21
-0.5499999965940106
 31
0.0
  0
LINE
  5
283
100
AcDbEntity
  8
0
  6
CONTINUOUS
 62
               4
100
AcDbLine
 10
-0.000000004768367
 20
-1.1000000027247836
 30
0.0
 11
15.500000000000014
 21
-1.1000000027247836
 31
0.0
  0
LINE
  5
284
100
AcDbEntity
  8
0
  6
CONTINUOUS
 62
               4
100
AcDbLine
 10
-0.000000004768367
 20
-2.6000000027247836
 30
0.0
 11
3.9999999952316472
 21
-2.6000000027247836
 31
0.0
  0
LINE
  5
285
100
AcDbEntity
  8
0
  6
CONTINUOUS
 62
               4
100
AcDbLine
 10
-0.000000004768367
 20
-1.8000000027247722
 30
0.0
 11
4.2999999986376025
 21
-1.8000000027247722
 31
0.0
  0
LINE
  5
286
100
AcDbEntity
  8
0
  6
CONTINUOUS
 62
               4
100
AcDbLine
 10
4.2999999986376025
 20
-4.5999995223464509
 30
0.0
 11
15.499999995231647
 21
-4.5999995223464509
 31
0.0
  0
LINE
  5
287
100
AcDbEntity
  8
0
  6
CONTINUOUS
 62
               4
100
AcDbLine
 10
23.999999995231647
 20
-1.1999995223464452
 30
0.0
 11
23.999999995231647
 21
-3.799999522346468
 31
0.0
  0
LINE
  5
288
100
AcDbEntity
  8
0
  6
CONTINUOUS
 62
               4
100
AcDbLine
 10
15.500000000000014
 20
-4.5999995223464509
 30
0.0
 11
15.500000000000014
 21
0.0
 31
0.0
  0
LINE
  5
289
100
AcDbEntity
  8
0
  6
CONTINUOUS
 62
               4
100
AcDbLine
 10
4.3000000000000256
 20
-1.8000000027247722
 30
0.0
 11
4.3000000000000256
 21
-4.5999995223464509
 31
0.0
  0
LINE
  5
28A
100
AcDbEntity
  8
0
  6
CONTINUOUS
 62
               4
100
AcDbLine
 10
3.2514285714285762
 20
-2.5998640027247859
 30
0.0
 11
3.2514285714285762
 21
-3.8998640027247689
 31
0.0
  0
LINE
  5
28B
100
AcDbEntity
  8
0
  6
CONTINUOUS
 62
               4
100
AcDbLine
 10
3.2514285714285762
 20
-3.8998640027247689
 30
0.0
 11
2.7514285714285762
 21
-4.3998640027247689
 31
0.0
  0
LINE
  5
28C
100
AcDbEntity
  8
0
  6
CONTINUOUS
 62
               4
100
AcDbLine
 10
1.2514285714285762
 20
-4.3998640027247689
 30
0.0
 11
2.7514285714285762
 21
-4.3998640027247689
 31
0.0
  0
LINE
  5
28D
100
AcDbEntity
  8
0
  6
CONTINUOUS
 62
               4
100
AcDbLine
 10
1.2514285714285762
 20
-4.3998640027247689
 30
0.0
 11
0.7514285714285762
 21
-3.8998640027247689
 31
0.0
  0
LINE
  5
28E
100
AcDbEntity
  8
0
  6
CONTINUOUS
 62
             200
100
AcDbLine
 10
0.7514285714285762
 20
-3.8998640027247689
 30
0.0
 11
3.2514285714285762
 21
-3.8998640027247689
 31
0.0
  0
LINE
  5
28F
100
AcDbEntity
  8
0
  6
CONTINUOUS
 62
               4
100
AcDbLine
 10
0.7514285714285762
 20
-2.5998640027247859
 30
0.0
 11
0.7514285714285762
 21
-3.8998640027247689
 31
0.0
  0
LINE
  5
290
100
AcDbEntity
  8
0
  6
CONTINUOUS
 62
               4
100
AcDbLine
 10
0.0
 20
-1.7998640027247745
 30
0.0
 11
0.0
 21
-2.6000000027247836
 31
0.0
  0
LINE
  5
291
100
AcDbEntity
  8
0
  6
CONTINUOUS
 62
               4
100
AcDbLine
 10
4.0000000000000142
 20
-1.8000000027247722
 30
0.0
 11
4.0000000000000142
 21
-2.6000000027247836
 31
0.0
  0
LINE
  5
292
100
AcDbEntity
  8
0
  6
CENTER
 62
             200
100
AcDbLine
 10
2.0
 20
1.2864823084401849
 30
0.0
 11
2.0
 21
-5.0670362493540893
 31
0.0
  0
LINE
  5
293
100
AcDbEntity
  8
0
  6
CONTINUOUS
 62
               4
100
AcDbLine
 10
0.0
 20
-1.7998640027247745
 30
0.0
 11
0.0
 21
0.0
 31
0.0
  0
LINE
  5
294
100
AcDbEntity
  8
0
  6
CONTINUOUS
 62
               4
100
AcDbLine
 10
0.9514285714285791
 20
0.6001359972752312
 30
0.0
 11
3.0514285714285876
 21
0.6001359972752312
 31
0.0
  0
LINE
  5
295
100
AcDbEntity
  8
0
  6
CONTINUOUS
 62
             200
100
AcDbLine
 10
3.0500000000000256
 20
-2.5998640027247859
 30
0.0
 11
3.0500000000000256
 21
-4.1012925741533479
 31
0.0
  0
LINE
  5
296
100
AcDbEntity
  8
0
  6
CONTINUOUS
 62
             200
100
AcDbLine
 10
0.9500000000000028
 20
-2.5998640027247859
 30
0.0
 11
0.9500000000000028
 21
-4.0984354312961955
 31
0.0
  0
LINE
  5
297
100
AcDbEntity
  8
0
  6
CONTINUOUS
 62
               4
100
AcDbLine
 10
0.7514285714285762
 20
0.0
 30
0.0
 11
0.7514285714285762
 21
0.4001359972752141
 31
0.0
  0
LINE
  5
298
100
AcDbEntity
  8
0
  6
CONTINUOUS
 62
               4
100
AcDbLine
 10
3.2514285714285762
 20
0.4001359972752141
 30
0.0
 11
3.2514285714285762
 21
0.0
 31
0.0
  0
LINE
  5
299
100
AcDbEntity
  8
0
  6
CONTINUOUS
 62
               4
100
AcDbLine
 10
0.7514285714285762
 20
0.4001359972752141
 30
0.0
 11
0.9514285714285791
 21
0.6001359972752312
 31
0.0
  0
LINE
  5
29A
100
AcDbEntity
  8
0
  6
CONTINUOUS
 62
               4
100
AcDbLine
 10
3.0514285714285876
 20
0.6001359972752312
 30
0.0
 11
3.2514285714285762
 21
0.4001359972752141
 31
0.0
  0
LINE
  5
29B
100
AcDbEntity
  8
0
  6
CONTINUOUS
 62
               4
100
AcDbLine
 10
0.7514285714285762
 20
0.4001359972752141
 30
0.0
 11
3.2514285714285762
 21
0.4001359972752141
 31
0.0
  0
LINE
  5
29C
100
AcDbEntity
  8
0
  6
CONTINUOUS
 62
             200
100
AcDbLine
 10
3.0500000000000256
 20
0.6001359972752312
 30
0.0
 11
3.0500000000000256
 21
0.0
 31
0.0
  0
LINE
  5
29D
100
AcDbEntity
  8
0
  6
CONTINUOUS
 62
             200
100
AcDbLine
 10
0.9500000000000028
 20
0.6001359972752312
 30
0.0
 11
0.9500000000000028
 21
0.0
 31
0.0
  0
LINE
  5
29E
100
AcDbEntity
  8
0
  6
CONTINUOUS
 62
               4
100
AcDbLine
 10
23.999999995231647
 20
-3.6499995223464339
 30
0.0
 11
28.146859122401807
 21
-3.6499995223464339
 31
0.0
  0
LINE
  5
29F
100
AcDbEntity
  8
0
  6
CONTINUOUS
 62
               4
100
AcDbLine
 10
23.999999995231647
 20
-2.6499995223464339
 30
0.0
 11
27.569491916859093
 21
-2.6499995223464339
 31
0.0
  0
LINE
  5
2A0
100
AcDbEntity
  8
0
  6
CONTINUOUS
 62
               4
100
AcDbLine
 10
30.999999995231647
 20
-2.6499995223464339
 30
0.0
 11
30.999999995231647
 21
-3.6499995223464339
 31
0.0
  0
LINE
  5
2A1
100
AcDbEntity
  8
0
  6
CONTINUOUS
 62
               4
100
AcDbLine
 10
29.646859122401864
 20
-3.6499995223464339
 30
0.0
 11
30.999999995231647
 21
-3.6499995223464339
 31
0.0
  0
LINE
  5
2A2
100
AcDbEntity
  8
0
  6
CONTINUOUS
 62
               4
100
AcDbLine
 10
29.069491916859093
 20
-2.6499995223464339
 30
0.0
 11
30.999999995231647
 21
-2.6499995223464339
 31
0.0
  0
LINE
  5
2A3
100
AcDbEntity
  8
0
  6
CONTINUOUS
 62
               4
100
AcDbLine
 10
33.999999995231647
 20
-3.4399995300630621
 30
0.0
 11
33.999999995231647
 21
-2.8599995212075271
 31
0.0
  0
LINE
  5
2A4
100
AcDbEntity
  8
0
  6
CONTINUOUS
 62
               4
100
AcDbLine
 10
30.999999995231647
 20
-2.8599995223464703
 30
0.0
 11
34.000000000212552
 21
-2.8599995223464703
 31
0.0
  0
LINE
  5
2A5
100
AcDbEntity
  8
0
  6
CONTINUOUS
 62
               4
100
AcDbLine
 10
30.999999995231647
 20
-3.4399995223464543
 30
0.0
 11
34.000000000212552
 21
-3.4399995223464543
 31
0.0
  0
LINE
  5
2A6
100
AcDbEntity
  8
0
  6
CONTINUOUS
 62
               4
100
AcDbLine
 10
23.999999995231647
 20
-1.3499995223464509
 30
0.0
 11
26.81891454965357
 21
-1.3499995223464509
 31
0.0
  0
LINE
  5
2A7
100
AcDbEntity
  8
0
  6
CONTINUOUS
 62
               4
100
AcDbLine
 10
23.999999995231647
 20
-2.3499995223464509
 30
0.0
 11
27.396281755196313
 21
-2.3499995223464509
 31
0.0
  0
LINE
  5
2A8
100
AcDbEntity
  8
0
  6
CONTINUOUS
 62
               4
100
AcDbLine
 10
28.318914549653599
 20
-1.3499995223464509
 30
0.0
 11
30.999999995231647
 21
-1.3499995223464509
 31
0.0
  0
LINE
  5
2A9
100
AcDbEntity
  8
0
  6
CONTINUOUS
 62
               4
100
AcDbLine
 10
28.896281755196313
 20
-2.3499995223464509
 30
0.0
 11
30.999999995231647
 21
-2.3499995223464509
 31
0.0
  0
LINE
  5
2AA
100
AcDbEntity
  8
0
  6
CONTINUOUS
 62
               4
100
AcDbLine
 10
30.999999995231647
 20
-2.3499995223464509
 30
0.0
 11
30.999999995231647
 21
-1.3499995223464509
 31
0.0
  0
LINE
  5
2AB
100
AcDbEntity
  8
0
  6
CONTINUOUS
 62
               4
100
AcDbLine
 10
30.999999995231647
 20
-2.139999522346443
 30
0.0
 11
34.000000000212552
 21
-2.139999522346443
 31
0.0
  0
LINE
  5
2AC
100
AcDbEntity
  8
0
  6
CONTINUOUS
 62
               4
100
AcDbLine
 10
30.999999995231647
 20
-1.5599995223464589
 30
0.0
 11
34.000000000212552
 21
-1.5599995223464589
 31
0.0
  0
LINE
  5
2AD
100
AcDbEntity
  8
0
  6
CONTINUOUS
 62
               4
100
AcDbLine
 10
33.999999995231647
 20
-1.5599995146298227
 30
0.0
 11
33.999999995231647
 21
-2.1399995234853577
 31
0.0
  0
LINE
  5
2AE
100
AcDbEntity
  8
0
  6
CENTER
 62
             200
100
AcDbLine
 10
22.31999999523164
 20
-3.1499995223464339
 30
0.0
 11
34.199999995231636
 21
-3.1499995223464339
 31
0.0
  0
LINE
  5
2AF
100
AcDbEntity
  8
0
  6
CENTER
 62
             200
100
AcDbLine
 10
22.269999995231629
 20
-1.8499995223464509
 30
0.0
 11
34.199999995231636
 21
-1.8499995223464509
 31
0.0
  0
LINE
  5
2B0
100
AcDbEntity
  8
0
  6
CONTINUOUS
 62
             200
100
AcDbLine
 10
17.250000000000014
 20
-0.3299995223464407
 30
0.0
 11
19.750000000000014
 21
-4.6599995223464532
 31
0.0
  0
LINE
  5
2B1
100
AcDbEntity
  8
0
  6
CONTINUOUS
 62
             200
100
AcDbLine
 10
18.750000000000014
 20
-0.3299995223464407
 30
0.0
 11
21.250000000000014
 21
-4.6599995223464532
 31
0.0
  0
LINE
  5
2B2
100
AcDbEntity
  8
0
  6
CONTINUOUS
 62
             200
100
AcDbLine
 10
26.229999999999976
 20
-0.3299995223464407
 30
0.0
 11
28.729999999999976
 21
-4.6599995223464532
 31
0.0
  0
LINE
  5
2B3
100
AcDbEntity
  8
0
  6
CONTINUOUS
 62
             200
100
AcDbLine
 10
27.729999999999976
 20
-0.3299995223464407
 30
0.0
 11
30.229999999999976
 21
-4.6599995223464532
 31
0.0
  0
ENDBLK
  5
2B4
100
AcDbEntity
  8
0
100
AcDbBlockEnd
  0
BLOCK
  5
2B5
100
AcDbEntity
  8
0
100
AcDbBlockBegin
  2
MGAL6-L-12
 70
               0
 10
0.0
 20
0.0
 30
0.0
  3
MGAL6-L-12
  1

  0
LINE
  5
2B6
100
AcDbEntity
  8
0
  6
CONTINUOUS
 62
               7
100
AcDbLine
 10
-3.0
 20
0.0
 30
0.0
 11
-3.0
 21
8.3000000000000043
 31
0.0
  0
LINE
  5
2B7
100
AcDbEntity
  8
0
  6
CONTINUOUS
 62
               7
100
AcDbLine
 10
-2.2000000000000455
 20
8.3000000000000043
 30
0.0
 11
-2.2000000000000455
 21
11.000000007980816
 31
0.0
  0
LINE
  5
2B8
100
AcDbEntity
  8
0
  6
CONTINUOUS
 62
               7
100
AcDbLine
 10
2.5773502141343556
 20
25.50000004945862
 30
0.0
 11
3.1547005325662099
 21
24.499999930249331
 31
0.0
  0
LINE
  5
2B9
100
AcDbEntity
  8
0
  6
CONTINUOUS
 62
               7
100
AcDbLine
 10
3.1547005536840516
 20
24.500000072408554
 30
0.0
 11
2.5773502058772237
 21
23.499999970158882
 31
0.0
  0
LINE
  5
2BA
100
AcDbEntity
  8
0
  6
CONTINUOUS
 62
               7
100
AcDbLine
 10
1.4226497858655875
 20
23.49999995054138
 30
0.0
 11
0.8452994674337333
 21
24.500000069750669
 31
0.0
  0
LINE
  5
2BB
100
AcDbEntity
  8
0
  6
CONTINUOUS
 62
               7
100
AcDbLine
 10
0.8452994463159484
 20
24.499999927591446
 30
0.0
 11
1.4226497941227194
 21
25.500000029841118
 31
0.0
  0
CIRCLE
  5
2BC
100
AcDbEntity
  8
0
  6
CONTINUOUS
 62
               7
100
AcDbCircle
 10
2.0
 20
24.5
 30
0.0
 40
2.5
  0
LINE
  5
2BD
100
AcDbEntity
  8
0
  6
CONTINUOUS
 62
               2
100
AcDbLine
 10
2.0
 20
28.0
 30
0.0
 11
2.0
 21
21.0
 31
0.0
  0
LINE
  5
2BE
100
AcDbEntity
  8
0
  6
CONTINUOUS
 62
               2
100
AcDbLine
 10
5.5
 20
24.5
 30
0.0
 11
-1.5
 21
24.5
 31
0.0
  0
CIRCLE
  5
2BF
100
AcDbEntity
  8
0
  6
CONTINUOUS
 62
               7
100
AcDbCircle
 10
2.0
 20
24.5
 30
0.0
 40
2.25
  0
LINE
  5
2C0
100
AcDbEntity
  8
0
  6
CONTINUOUS
 62
               7
100
AcDbLine
 10
1.4226496604503041
 20
25.499999977050066
 30
0.0
 11
2.5773503266889861
 21
25.499999960090449
 31
0.0
  0
LINE
  5
2C1
100
AcDbEntity
  8
0
  6
CONTINUOUS
 62
               7
100
AcDbLine
 10
2.5773503395496391
 20
23.500000022949934
 30
0.0
 11
1.4226496733110139
 21
23.500000039909551
 31
0.0
  0
CIRCLE
  5
2C2
100
AcDbEntity
  8
0
  6
CONTINUOUS
 62
               7
100
AcDbCircle
 10
2.0
 20
24.5
 30
0.0
 40
1.95
  0
CIRCLE
  5
2C3
100
AcDbEntity
  8
0
  6
CONTINUOUS
 62
               2
100
AcDbCircle
 10
3.5
 20
19.0
 30
0.0
 40
1.5
  0
CIRCLE
  5
2C4
100
AcDbEntity
  8
0
  6
CONTINUOUS
 62
               7
100
AcDbCircle
 10
3.5
 20
19.0
 30
0.0
 40
1.25
  0
CIRCLE
  5
2C5
100
AcDbEntity
  8
0
  6
CONTINUOUS
 62
               7
100
AcDbCircle
 10
2.0
 20
13.5
 30
0.0
 40
2.5
  0
LINE
  5
2C6
100
AcDbEntity
  8
0
  6
CONTINUOUS
 62
               7
100
AcDbLine
 10
-0.8000000000000114
 20
10.0
 30
0.0
 11
6.5
 21
10.0
 31
0.0
  0
LINE
  5
2C7
100
AcDbEntity
  8
0
  6
CONTINUOUS
 62
               7
100
AcDbLine
 10
-0.8000000000000114
 20
28.0
 30
0.0
 11
6.5
 21
28.0
 31
0.0
  0
LINE
  5
2C8
100
AcDbEntity
  8
0
  6
CONTINUOUS
 62
               7
100
AcDbLine
 10
-0.8000000000000114
 20
28.0
 30
0.0
 11
-0.8000000000000114
 21
10.0
 31
0.0
  0
LINE
  5
2C9
100
AcDbEntity
  8
0
  6
CONTINUOUS
 62
               7
100
AcDbLine
 10
6.5
 20
16.400000000000006
 30
0.0
 11
8.0
 21
16.400000000000006
 31
0.0
  0
LINE
  5
2CA
100
AcDbEntity
  8
0
  6
CONTINUOUS
 62
               7
100
AcDbLine
 10
8.0
 20
16.400000000000006
 30
0.0
 11
8.0
 21
21.599999999999994
 31
0.0
  0
LINE
  5
2CB
100
AcDbEntity
  8
0
  6
CONTINUOUS
 62
               7
100
AcDbLine
 10
6.5
 20
21.599999999999994
 30
0.0
 11
8.0
 21
21.599999999999994
 31
0.0
  0
LINE
  5
2CC
100
AcDbEntity
  8
0
  6
CONTINUOUS
 62
               2
100
AcDbLine
 10
2.0
 20
10.0
 30
0.0
 11
2.0
 21
17.0
 31
0.0
  0
LINE
  5
2CD
100
AcDbEntity
  8
0
  6
CONTINUOUS
 62
               2
100
AcDbLine
 10
5.5
 20
13.5
 30
0.0
 11
-1.5
 21
13.5
 31
0.0
  0
CIRCLE
  5
2CE
100
AcDbEntity
  8
0
  6
CONTINUOUS
 62
               7
100
AcDbCircle
 10
2.0
 20
13.5
 30
0.0
 40
2.25
  0
LINE
  5
2CF
100
AcDbEntity
  8
0
  6
CONTINUOUS
 62
               7
100
AcDbLine
 10
2.5773502141343556
 20
12.49999995054138
 30
0.0
 11
3.1547005325662099
 21
13.500000069750669
 31
0.0
  0
LINE
  5
2D0
100
AcDbEntity
  8
0
  6
CONTINUOUS
 62
               7
100
AcDbLine
 10
1.4226496604503041
 20
12.500000022949934
 30
0.0
 11
2.5773503266889861
 21
12.500000039909551
 31
0.0
  0
LINE
  5
2D1
100
AcDbEntity
  8
0
  6
CONTINUOUS
 62
               7
100
AcDbLine
 10
0.8452994463159484
 20
13.500000072408554
 30
0.0
 11
1.4226497941227194
 21
12.499999970158882
 31
0.0
  0
LINE
  5
2D2
100
AcDbEntity
  8
0
  6
CONTINUOUS
 62
               7
100
AcDbLine
 10
1.4226497858655875
 20
14.50000004945862
 30
0.0
 11
0.8452994674337333
 21
13.499999930249331
 31
0.0
  0
LINE
  5
2D3
100
AcDbEntity
  8
0
  6
CONTINUOUS
 62
               7
100
AcDbLine
 10
2.5773503395496391
 20
14.499999977050066
 30
0.0
 11
1.4226496733110139
 21
14.499999960090449
 31
0.0
  0
LINE
  5
2D4
100
AcDbEntity
  8
0
  6
CONTINUOUS
 62
               7
100
AcDbLine
 10
3.1547005536840516
 20
13.499999927591446
 30
0.0
 11
2.5773502058772237
 21
14.500000029841118
 31
0.0
  0
CIRCLE
  5
2D5
100
AcDbEntity
  8
0
  6
CONTINUOUS
 62
               7
100
AcDbCircle
 10
2.0
 20
13.5
 30
0.0
 40
1.95
  0
LINE
  5
2D6
100
AcDbEntity
  8
0
  6
CONTINUOUS
 62
               2
100
AcDbLine
 10
9.75
 20
5.9999999999999858
 30
0.0
 11
5.25
 21
5.9999999999999858
 31
0.0
  0
LINE
  5
2D7
100
AcDbEntity
  8
0
  6
CONTINUOUS
 62
               7
100
AcDbLine
 10
3.5
 20
5.0
 30
0.0
 11
3.5
 21
8.3000000000000043
 31
0.0
  0
LINE
  5
2D8
100
AcDbEntity
  8
0
  6
CONTINUOUS
 62
               2
100
AcDbLine
 10
0.0
 20
-1.2000000000000028
 30
0.0
 11
0.0
 21
6.2000000000000028
 31
0.0
  0
CIRCLE
  5
2D9
100
AcDbEntity
  8
0
  6
CONTINUOUS
 62
               2
100
AcDbCircle
 10
7.5
 20
5.9999999999999858
 30
0.0
 40
1.5
  0
LINE
  5
2DA
100
AcDbEntity
  8
0
  6
CONTINUOUS
 62
               7
100
AcDbLine
 10
6.5999999999999659
 20
9.5
 30
0.0
 11
6.5999999999999659
 21
8.3000000000000043
 31
0.0
  0
LINE
  5
2DB
100
AcDbEntity
  8
0
  6
CONTINUOUS
 62
               7
100
AcDbLine
 10
10.0
 20
8.3000000000000043
 30
0.0
 11
10.0
 21
0.0
 31
0.0
  0
LINE
  5
2DC
100
AcDbEntity
  8
0
  6
CONTINUOUS
 62
               2
100
AcDbLine
 10
7.5
 20
8.2499999999999858
 30
0.0
 11
7.5
 21
3.7499999999999858
 31
0.0
  0
CIRCLE
  5
2DD
100
AcDbEntity
  8
0
  6
CONTINUOUS
 62
               7
100
AcDbCircle
 10
7.5
 20
5.9999999999999858
 30
0.0
 40
1.25
  0
LINE
  5
2DE
100
AcDbEntity
  8
0
  6
CONTINUOUS
 62
               7
100
AcDbLine
 10
-0.1999999999999886
 20
28.5
 30
0.0
 11
-0.1999999999999886
 21
29.0
 31
0.0
  0
LINE
  5
2DF
100
AcDbEntity
  8
0
  6
CONTINUOUS
 62
               7
100
AcDbLine
 10
7.1999999999999886
 20
15.599999999999994
 30
0.0
 11
7.0
 21
15.599999999999994
 31
0.0
  0
LINE
  5
2E0
100
AcDbEntity
  8
0
  6
CONTINUOUS
 62
               7
100
AcDbLine
 10
7.1999999999999886
 20
22.400000000000006
 30
0.0
 11
7.0
 21
22.400000000000006
 31
0.0
  0
LINE
  5
2E1
100
AcDbEntity
  8
0
  6
CONTINUOUS
 62
               7
100
AcDbLine
 10
9.1999999999999318
 20
22.099999999999994
 30
0.0
 11
9.1999999999999318
 21
15.900000000000006
 31
0.0
  0
LINE
  5
2E2
100
AcDbEntity
  8
0
  6
CONTINUOUS
 62
               7
100
AcDbLine
 10
7.1999999999999886
 20
26.300000000000011
 30
0.0
 11
10.699999999999989
 21
26.300000000000011
 31
0.0
  0
LINE
  5
2E3
100
AcDbEntity
  8
0
  6
CONTINUOUS
 62
               7
100
AcDbLine
 10
7.1999999999999886
 20
26.300000000000011
 30
0.0
 11
7.1999999999999886
 21
22.099999999999994
 31
0.0
  0
LINE
  5
2E4
100
AcDbEntity
  8
0
  6
CONTINUOUS
 62
               7
100
AcDbLine
 10
7.1999999999999886
 20
22.099999999999994
 30
0.0
 11
9.1999999999999318
 21
22.099999999999994
 31
0.0
  0
LINE
  5
2E5
100
AcDbEntity
  8
0
  6
CONTINUOUS
 62
               7
100
AcDbLine
 10
7.1999999999999886
 20
15.900000000000006
 30
0.0
 11
9.1999999999999318
 21
15.900000000000006
 31
0.0
  0
LINE
  5
2E6
100
AcDbEntity
  8
0
  6
CONTINUOUS
 62
               7
100
AcDbLine
 10
7.1999999999999886
 20
11.699999999999989
 30
0.0
 11
7.1999999999999886
 21
15.900000000000006
 31
0.0
  0
LINE
  5
2E7
100
AcDbEntity
  8
0
  6
CONTINUOUS
 62
               7
100
AcDbLine
 10
7.1999999999999886
 20
11.699999999999989
 30
0.0
 11
10.699999999999989
 21
11.699999999999989
 31
0.0
  0
LINE
  5
2E8
100
AcDbEntity
  8
0
  6
CONTINUOUS
 62
               7
100
AcDbLine
 10
10.699999999999989
 20
11.699999999999989
 30
0.0
 11
10.699999999999989
 21
26.300000000000011
 31
0.0
  0
ARC
  5
2E9
100
AcDbEntity
  8
0
  6
CONTINUOUS
 62
               7
100
AcDbCircle
 10
8.0
 20
22.199999999999989
 30
0.0
 40
0.5
100
AcDbArc
 50
191.53695903281499
 51
348.46304096718507
  0
LINE
  5
2EA
100
AcDbEntity
  8
0
  6
CONTINUOUS
 62
               7
100
AcDbLine
 10
7.534182867015204
 20
22.0
 30
0.0
 11
6.5
 21
22.0
 31
0.0
  0
LINE
  5
2EB
100
AcDbEntity
  8
0
  6
CONTINUOUS
 62
               7
100
AcDbLine
 10
7.0
 20
29.0
 30
0.0
 11
7.0
 21
22.400000000000006
 31
0.0
  0
LINE
  5
2EC
100
AcDbEntity
  8
0
  6
CONTINUOUS
 62
               7
100
AcDbLine
 10
6.5
 20
28.5
 30
0.0
 11
6.5
 21
21.599999999999994
 31
0.0
  0
LINE
  5
2ED
100
AcDbEntity
  8
0
  6
CONTINUOUS
 62
               7
100
AcDbLine
 10
8.7999999999999545
 20
22.0
 30
0.0
 11
8.4658171329847391
 21
22.0
 31
0.0
  0
LINE
  5
2EE
100
AcDbEntity
  8
0
  6
CONTINUOUS
 62
               7
100
AcDbLine
 10
10.499999999999943
 20
29.0
 30
0.0
 11
-0.1999999999999886
 21
29.0
 31
0.0
  0
LINE
  5
2EF
100
AcDbEntity
  8
0
  6
CONTINUOUS
 62
               7
100
AcDbLine
 10
6.5
 20
28.5
 30
0.0
 11
-1.0
 21
28.5
 31
0.0
  0
LINE
  5
2F0
100
AcDbEntity
  8
0
  6
CONTINUOUS
 62
               7
100
AcDbLine
 10
10.500000000000057
 20
9.0
 30
0.0
 11
6.5999999999999659
 21
9.0
 31
0.0
  0
LINE
  5
2F1
100
AcDbEntity
  8
0
  6
CONTINUOUS
 62
               7
100
AcDbLine
 10
6.5999999999999659
 20
9.5
 30
0.0
 11
-1.0
 21
9.5
 31
0.0
  0
LINE
  5
2F2
100
AcDbEntity
  8
0
  6
CONTINUOUS
 62
               7
100
AcDbLine
 10
7.0
 20
9.0
 30
0.0
 11
7.0
 21
15.599999999999994
 31
0.0
  0
LINE
  5
2F3
100
AcDbEntity
  8
0
  6
CONTINUOUS
 62
               7
100
AcDbLine
 10
11.0
 20
9.5
 30
0.0
 11
11.0
 21
28.5
 31
0.0
  0
LINE
  5
2F4
100
AcDbEntity
  8
0
  6
CONTINUOUS
 62
               7
100
AcDbLine
 10
6.5
 20
9.5
 30
0.0
 11
6.5
 21
16.400000000000006
 31
0.0
  0
LINE
  5
2F5
100
AcDbEntity
  8
0
  6
CONTINUOUS
 62
               2
100
AcDbLine
 10
3.5
 20
16.5
 30
0.0
 11
3.5
 21
21.5
 31
0.0
  0
LINE
  5
2F6
100
AcDbEntity
  8
0
  6
CONTINUOUS
 62
               2
100
AcDbLine
 10
-2.1694637487715909
 20
19.0
 30
0.0
 11
12.080676139835248
 21
19.0
 31
0.0
  0
LINE
  5
2F7
100
AcDbEntity
  8
0
  6
CONTINUOUS
 62
               7
100
AcDbLine
 10
-1.0
 20
28.499999992019184
 30
0.0
 11
-1.0
 21
21.700000000000017
 31
0.0
  0
LINE
  5
2F8
100
AcDbEntity
  8
0
  6
CONTINUOUS
 62
               7
100
AcDbLine
 10
11.0
 20
28.5
 30
0.0
 11
10.499999999999943
 21
29.0
 31
0.0
  0
LINE
  5
2F9
100
AcDbEntity
  8
0
  6
CONTINUOUS
 62
               7
100
AcDbLine
 10
11.0
 20
9.5
 30
0.0
 11
10.500000000000057
 21
9.0
 31
0.0
  0
LINE
  5
2FA
100
AcDbEntity
  8
0
  6
CONTINUOUS
 62
               7
100
AcDbLine
 10
-1.0
 20
16.299999999999983
 30
0.0
 11
-1.0
 21
9.5
 31
0.0
  0
LINE
  5
2FB
100
AcDbEntity
  8
0
  6
CONTINUOUS
 62
               7
100
AcDbLine
 10
8.7999999999999545
 20
22.0
 30
0.0
 11
8.7999999999999545
 21
16.0
 31
0.0
  0
CIRCLE
  5
2FC
100
AcDbEntity
  8
0
  6
CONTINUOUS
 62
               7
100
AcDbCircle
 10
8.5
 20
24.5
 30
0.0
 40
1.0
  0
LINE
  5
2FD
100
AcDbEntity
  8
0
  6
CONTINUOUS
 62
               7
100
AcDbLine
 10
7.9343145750507347
 20
25.065685424949237
 30
0.0
 11
9.0656854249492085
 21
23.934314575050763
 31
0.0
  0
LINE
  5
2FE
100
AcDbEntity
  8
0
  6
CONTINUOUS
 62
               7
100
AcDbLine
 10
7.9343145750507347
 20
23.934314575050763
 30
0.0
 11
9.0656854249492085
 21
25.065685424949237
 31
0.0
  0
LINE
  5
2FF
100
AcDbEntity
  8
0
  6
CONTINUOUS
 62
               7
100
AcDbLine
 10
7.534182867015204
 20
16.0
 30
0.0
 11
6.5
 21
16.0
 31
0.0
  0
LINE
  5
300
100
AcDbEntity
  8
0
  6
CONTINUOUS
 62
               7
100
AcDbLine
 10
8.7999999999999545
 20
16.0
 30
0.0
 11
8.4658171329847391
 21
16.0
 31
0.0
  0
ARC
  5
301
100
AcDbEntity
  8
0
  6
CONTINUOUS
 62
               7
100
AcDbCircle
 10
8.0
 20
15.800000000000011
 30
0.0
 40
0.5
100
AcDbArc
 50
11.536959032814933
 51
168.46304096718507
  0
CIRCLE
  5
302
100
AcDbEntity
  8
0
  6
CONTINUOUS
 62
               7
100
AcDbCircle
 10
8.5
 20
13.5
 30
0.0
 40
1.0
  0
LINE
  5
303
100
AcDbEntity
  8
0
  6
CONTINUOUS
 62
               7
100
AcDbLine
 10
7.9343145750507347
 20
14.065685424949237
 30
0.0
 11
9.0656854249492085
 21
12.934314575050763
 31
0.0
  0
LINE
  5
304
100
AcDbEntity
  8
0
  6
CONTINUOUS
 62
               7
100
AcDbLine
 10
7.9343145750507347
 20
12.934314575050763
 30
0.0
 11
9.0656854249492085
 21
14.065685424949237
 31
0.0
  0
LINE
  5
305
100
AcDbEntity
  8
0
  6
CONTINUOUS
 62
               7
100
AcDbLine
 10
-0.8000000000000114
 20
16.5
 30
0.0
 11
-1.0
 21
16.299999999999983
 31
0.0
  0
LINE
  5
306
100
AcDbEntity
  8
0
  6
CONTINUOUS
 62
               7
100
AcDbLine
 10
-0.8000000000000114
 20
21.500000000000028
 30
0.0
 11
-1.0
 21
21.700000000000017
 31
0.0
  0
LINE
  5
307
100
AcDbEntity
  8
0
  6
CONTINUOUS
 62
               7
100
AcDbLine
 10
10.0
 20
8.3000000000000043
 30
0.0
 11
-3.0
 21
8.3000000000000043
 31
0.0
  0
LINE
  5
308
100
AcDbEntity
  8
0
  6
CONTINUOUS
 62
               7
100
AcDbLine
 10
10.0
 20
0.0
 30
0.0
 11
-3.0
 21
0.0
 31
0.0
  0
LINE
  5
309
100
AcDbEntity
  8
0
  6
CONTINUOUS
 62
               7
100
AcDbLine
 10
3.4999999786160743
 20
5.0
 30
0.0
 11
-3.0
 21
5.0
 31
0.0
  0
LINE
  5
30A
100
AcDbEntity
  8
0
  6
CONTINUOUS
 62
               7
100
AcDbLine
 10
-1.0
 20
11.000000007980816
 30
0.0
 11
-2.2000000000000455
 21
11.000000007980816
 31
0.0
  0
ENDBLK
  5
30B
100
AcDbEntity
  8
0
100
AcDbBlockEnd
  0
BLOCK
  5
30C
100
AcDbEntity
  8
0
100
AcDbBlockBegin
  2
MGAL6-L-13
 70
               0
 10
0.0
 20
0.0
 30
0.0
  3
MGAL6-L-13
  1

  0
LINE
  5
30D
100
AcDbEntity
  8
0
  6
CONTINUOUS
 62
               4
100
AcDbLine
 10
-1.0499999989098201
 20
0.6001360019073729
 30
0.0
 11
1.0500000010901742
 21
0.6001359980926679
 31
0.0
  0
LINE
  5
30E
100
AcDbEntity
  8
0
  6
CONTINUOUS
 62
               4
100
AcDbLine
 10
-1.2499999992731425
 20
0.4001360022706327
 30
0.0
 11
1.2500000007268575
 21
0.4001359977293172
 31
0.0
  0
LINE
  5
30F
100
AcDbEntity
  8
0
  6
CONTINUOUS
 62
               4
100
AcDbLine
 10
-1.501428571428562
 20
0.0000000027273843
 30
0.0
 11
1.5
 21
-0.0000000027247893
 31
0.0
  0
LINE
  5
310
100
AcDbEntity
  8
0
  6
CONTINUOUS
 62
               4
100
AcDbLine
 10
-1.2500000070790149
 20
-3.8970068548721977
 30
0.0
 11
1.2499999929209851
 21
-3.8970068594135134
 31
0.0
  0
LINE
  5
311
100
AcDbEntity
  8
0
  6
CONTINUOUS
 62
               4
100
AcDbLine
 10
1.2499999929209851
 20
-3.8970068594135134
 30
0.0
 11
0.7471428491504079
 21
-4.3998640013572121
 31
0.0
  0
ARC
  5
312
100
AcDbEntity
  8
0
  6
CONTINUOUS
 62
               4
100
AcDbCircle
 10
-0.0000000046321398
 20
-2.5499989233983342
 30
0.0
 40
2.050000596223347
100
AcDbArc
 50
179.95630153623421
 51
359.99999989592072
  0
LINE
  5
313
100
AcDbEntity
  8
0
  6
CONTINUOUS
 62
               4
100
AcDbLine
 10
-2.0500000032697443
 20
-1.7999999962761326
 30
0.0
 11
2.0499999967302642
 21
-1.8000000037238901
 31
0.0
  0
LINE
  5
314
100
AcDbEntity
  8
0
  6
CONTINUOUS
 62
               4
100
AcDbLine
 10
-2.0500000047229654
 20
-2.5999999962761442
 30
0.0
 11
2.0493907186030591
 21
-2.6000000037227946
 31
0.0
  0
LINE
  5
315
100
AcDbEntity
  8
0
  6
CONTINUOUS
 62
               4
100
AcDbLine
 10
1.4999999928701631
 20
-0.5499999965940106
 30
0.0
 11
2.0499999980018324
 21
-1.1000000037239015
 31
0.0
  0
LINE
  5
316
100
AcDbEntity
  8
0
  6
CONTINUOUS
 62
               4
100
AcDbLine
 10
1.4999999990009105
 20
-0.5500000027248007
 30
0.0
 11
1.5
 21
0.0
 31
0.0
  0
LINE
  5
317
100
AcDbEntity
  8
0
  6
CONTINUOUS
 62
               4
100
AcDbLine
 10
1.2499999952772789
 20
-2.5998640022706829
 30
0.0
 11
1.2499999929209851
 21
-3.8970068594135134
 31
0.0
  0
LINE
  5
318
100
AcDbEntity
  8
0
  6
CONTINUOUS
 62
               4
100
AcDbLine
 10
2.0499999980018324
 20
-1.1000000037239015
 30
0.0
 11
2.0499999953707118
 21
-2.5484354322953302
 31
0.0
  0
LINE
  5
319
100
AcDbEntity
  8
0
  6
CONTINUOUS
 62
               4
100
AcDbLine
 10
1.2500000007268575
 20
0.4001359977293172
 30
0.0
 11
1.25
 21
-0.0000000022706577
 31
0.0
  0
LINE
  5
31A
100
AcDbEntity
  8
0
  6
CONTINUOUS
 62
               4
100
AcDbLine
 10
1.0500000010901742
 20
0.6001359980926679
 30
0.0
 11
1.2500000007268575
 21
0.4001359977293172
 31
0.0
  0
LINE
  5
31B
100
AcDbEntity
  8
0
  6
CONTINUOUS
 62
               4
100
AcDbLine
 10
-1.5000000009938859
 20
-0.5471354139418736
 30
0.0
 11
-1.5
 21
0.0000000054495786
 31
0.0
  0
LINE
  5
31C
100
AcDbEntity
  8
0
  6
CENTER
 62
             200
100
AcDbLine
 10
-0.000000009204404
 20
-5.0670362466293
 30
0.0
 11
0.0000000023369288
 21
1.2864823111649457
 31
0.0
  0
LINE
  5
31D
100
AcDbEntity
  8
0
  6
CONTINUOUS
 62
               4
100
AcDbLine
 10
-0.7471428651353157
 20
-4.3998639986428039
 30
0.0
 11
0.7471428491504079
 21
-4.3998640013572121
 31
0.0
  0
LINE
  5
31E
100
AcDbEntity
  8
0
  6
CONTINUOUS
 62
               4
100
AcDbLine
 10
-0.7471428651353157
 20
-4.3998639986428039
 30
0.0
 11
-1.2500000070790149
 21
-3.8970068548721977
 31
0.0
  0
LINE
  5
31F
100
AcDbEntity
  8
0
  6
CONTINUOUS
 62
               4
100
AcDbLine
 10
-1.250000004722968
 20
-2.5999999977293649
 30
0.0
 11
-1.2500000070790149
 21
-3.8970068548721977
 31
0.0
  0
LINE
  5
320
100
AcDbEntity
  8
0
  6
CONTINUOUS
 62
               4
100
AcDbLine
 10
-2.0500000019981761
 20
-1.099999996276144
 30
0.0
 11
-1.5014285724250565
 21
-0.548571425844065
 31
0.0
  0
LINE
  5
321
100
AcDbEntity
  8
0
  6
CONTINUOUS
 62
               4
100
AcDbLine
 10
-2.0500000019981761
 20
-1.099999996276144
 30
0.0
 11
-2.0500000046292968
 21
-2.5484354248475731
 31
0.0
  0
LINE
  5
322
100
AcDbEntity
  8
0
  6
CONTINUOUS
 62
               4
100
AcDbLine
 10
-1.25
 20
0.0000000022706577
 30
0.0
 11
-1.2499999992731425
 21
0.4001360022706327
 31
0.0
  0
LINE
  5
323
100
AcDbEntity
  8
0
  6
CONTINUOUS
 62
               4
100
AcDbLine
 10
-1.2499999992731425
 20
0.4001360022706327
 30
0.0
 11
-1.0499999989098201
 21
0.6001360019073729
 31
0.0
  0
LINE
  5
324
100
AcDbEntity
  8
0
  6
CONTINUOUS
 62
             200
100
AcDbLine
 10
-1.0500000074423033
 20
-4.0970068552354917
 30
0.0
 11
-1.050000004722951
 21
-2.5999999980926702
 31
0.0
  0
LINE
  5
325
100
AcDbEntity
  8
0
  6
CONTINUOUS
 62
             200
100
AcDbLine
 10
1.0499999925576911
 20
-4.0970068590501967
 30
0.0
 11
1.0499999952770434
 21
-2.6000000019073752
 31
0.0
  0
LINE
  5
326
100
AcDbEntity
  8
0
  6
CONTINUOUS
 62
             200
100
AcDbLine
 10
-1.0499999999999829
 20
0.0000000019073525
 30
0.0
 11
-1.0499999989098201
 21
0.6001360019073729
 31
0.0
  0
LINE
  5
327
100
AcDbEntity
  8
0
  6
CONTINUOUS
 62
             200
100
AcDbLine
 10
1.0500000000000114
 20
-0.0000000019073525
 30
0.0
 11
1.0500000010901742
 21
0.6001359980926679
 31
0.0
  0
ENDBLK
  5
328
100
AcDbEntity
  8
0
100
AcDbBlockEnd
  0
BLOCK
  5
329
100
AcDbEntity
  8
0
100
AcDbBlockBegin
  2
MGAL6-L-14
 70
               0
 10
0.0
 20
0.0
 30
0.0
  3
MGAL6-L-14
  1

  0
LINE
  5
32A
100
AcDbEntity
  8
0
  6
CONTINUOUS
 62
               4
100
AcDbLine
 10
0.0
 20
-2.0499999999999972
 30
0.0
 11
15.500000004768381
 21
-2.0499999999999972
 31
0.0
  0
LINE
  5
32B
100
AcDbEntity
  8
0
  6
CONTINUOUS
 62
               4
100
AcDbLine
 10
0.0
 20
2.0500000000000114
 30
0.0
 11
15.500000004768381
 21
2.0500000000000114
 31
0.0
  0
LINE
  5
32C
100
AcDbEntity
  8
0
  6
CONTINUOUS
 62
               4
100
AcDbLine
 10
8.0000000047683812
 20
-0.5999999999999943
 30
0.0
 11
9.6000000047683756
 21
-0.5999999999999943
 31
0.0
  0
LINE
  5
32D
100
AcDbEntity
  8
0
  6
CONTINUOUS
 62
               4
100
AcDbLine
 10
8.0000000047683812
 20
0.9000000000000057
 30
0.0
 11
9.6000000047683756
 21
0.9000000000000057
 31
0.0
  0
LINE
  5
32E
100
AcDbEntity
  8
0
  6
CONTINUOUS
 62
               4
100
AcDbLine
 10
1.3107513189315796
 20
-1.0428020722525559
 30
0.0
 11
3.0428021124431126
 21
0.6892487212589913
 31
0.0
  0
LINE
  5
32F
100
AcDbEntity
  8
0
  6
CONTINUOUS
 62
               4
100
AcDbLine
 10
0.9571978986753322
 20
-0.6892486978790089
 30
0.0
 11
2.6892487026473901
 21
1.0428021060930348
 31
0.0
  0
CIRCLE
  5
330
100
AcDbEntity
  8
0
  6
CONTINUOUS
 62
             200
100
AcDbCircle
 10
2.000000004768367
 20
0.0
 30
0.0
 40
1.05
  0
CIRCLE
  5
331
100
AcDbEntity
  8
0
  6
CONTINUOUS
 62
               4
100
AcDbCircle
 10
2.000000004768367
 20
0.0
 30
0.0
 40
1.25
  0
CIRCLE
  5
332
100
AcDbEntity
  8
0
  6
CONTINUOUS
 62
               4
100
AcDbCircle
 10
2.000000004768367
 20
0.0
 30
0.0
 40
1.3999999999999997
  0
LINE
  5
333
100
AcDbEntity
  8
0
  6
CONTINUOUS
 62
               4
100
AcDbLine
 10
0.0
 20
-1.5
 30
0.0
 11
15.500000004768381
 21
-1.5
 31
0.0
  0
LINE
  5
334
100
AcDbEntity
  8
0
  6
CONTINUOUS
 62
               4
100
AcDbLine
 10
0.0
 20
1.5
 30
0.0
 11
15.500000004768381
 21
1.5
 31
0.0
  0
LINE
  5
335
100
AcDbEntity
  8
0
  6
CONTINUOUS
 62
               4
100
AcDbLine
 10
15.500000004768381
 20
-2.0499999999999972
 30
0.0
 11
15.500000004768381
 21
2.0500000000000114
 31
0.0
  0
LINE
  5
336
100
AcDbEntity
  8
0
  6
CONTINUOUS
 62
               4
100
AcDbLine
 10
0.0
 20
-2.0499999999999972
 30
0.0
 11
0.0
 21
2.0500000000000114
 31
0.0
  0
LINE
  5
337
100
AcDbEntity
  8
0
  6
CONTINUOUS
 62
               4
100
AcDbLine
 10
9.6000000047683756
 20
-0.5999999999999943
 30
0.0
 11
9.6000000047683756
 21
0.9000000000000057
 31
0.0
  0
LINE
  5
338
100
AcDbEntity
  8
0
  6
CONTINUOUS
 62
               4
100
AcDbLine
 10
8.0000000047683812
 20
-0.5999999999999943
 30
0.0
 11
8.0000000047683812
 21
0.9000000000000057
 31
0.0
  0
LINE
  5
339
100
AcDbEntity
  8
0
  6
CONTINUOUS
 62
               4
100
AcDbLine
 10
10.400000004768359
 20
-1.5
 30
0.0
 11
10.400000004768359
 21
1.5
 31
0.0
  0
LINE
  5
33A
100
AcDbEntity
  8
0
  6
CONTINUOUS
 62
               4
100
AcDbLine
 10
3.9000000047683585
 20
-1.5
 30
0.0
 11
3.9000000047683585
 21
1.5
 31
0.0
  0
LINE
  5
33B
100
AcDbEntity
  8
0
  6
CENTER
 62
             200
100
AcDbLine
 10
2.000000004768367
 20
2.9428571428571502
 30
0.0
 11
2.000000004768367
 21
-3.2999846734234666
 31
0.0
  0
LINE
  5
33C
100
AcDbEntity
  8
0
  6
CONTINUOUS
 62
               4
100
AcDbLine
 10
15.500000004768381
 20
1.3000000000000114
 30
0.0
 11
17.752309473590529
 21
1.3000000000000114
 31
0.0
  0
LINE
  5
33D
100
AcDbEntity
  8
0
  6
CONTINUOUS
 62
               4
100
AcDbLine
 10
15.500000004768381
 20
-1.2999999999999972
 30
0.0
 11
19.253464208001631
 21
-1.2999999999999972
 31
0.0
  0
LINE
  5
33E
100
AcDbEntity
  8
0
  6
CONTINUOUS
 62
             200
100
AcDbLine
 10
17.250000004768381
 20
2.1700000000000159
 30
0.0
 11
19.750000004768381
 21
-2.1599999999999966
 31
0.0
  0
LINE
  5
33F
100
AcDbEntity
  8
0
  6
CENTER
 62
             200
100
AcDbLine
 10
-1.4104017530168846
 20
0.0
 30
0.0
 11
21.50288684079608
 21
0.0
 31
0.0
  0
ENDBLK
  5
340
100
AcDbEntity
  8
0
100
AcDbBlockEnd
  0
BLOCK
  5
341
100
AcDbEntity
  8
0
100
AcDbBlockBegin
  2
MGAL6-L-15
 70
               0
 10
0.0
 20
0.0
 30
0.0
  3
MGAL6-L-15
  1

  0
LINE
  5
342
100
AcDbEntity
  8
0
  6
CONTINUOUS
 62
               4
100
AcDbLine
 10
11.559999997275213
 20
21.397976315961245
 30
0.0
 11
11.559999997275213
 21
24.397976315961245
 31
0.0
  0
LINE
  5
343
100
AcDbEntity
  8
0
  6
CONTINUOUS
 62
               4
100
AcDbLine
 10
12.139999997275197
 20
21.397976315961245
 30
0.0
 11
12.139999997275197
 21
24.397976315961245
 31
0.0
  0
LINE
  5
344
100
AcDbEntity
  8
0
  6
CONTINUOUS
 62
               4
100
AcDbLine
 10
12.139999990463252
 20
24.397976315961245
 30
0.0
 11
11.559999998637608
 21
24.397976315961245
 31
0.0
  0
LINE
  5
345
100
AcDbEntity
  8
0
  6
CONTINUOUS
 62
               4
100
AcDbLine
 10
12.860000009536748
 20
24.397976315961245
 30
0.0
 11
13.440000001362392
 21
24.397976315961245
 31
0.0
  0
LINE
  5
346
100
AcDbEntity
  8
0
  6
CONTINUOUS
 62
               4
100
AcDbLine
 10
13.440000002724787
 20
21.397976315961245
 30
0.0
 11
13.440000002724787
 21
24.397976315961245
 31
0.0
  0
LINE
  5
347
100
AcDbEntity
  8
0
  6
CONTINUOUS
 62
               4
100
AcDbLine
 10
12.860000002724803
 20
21.397976315961245
 30
0.0
 11
12.860000002724803
 21
24.397976315961245
 31
0.0
  0
LINE
  5
348
100
AcDbEntity
  8
0
  6
CENTER
 62
             200
100
AcDbLine
 10
13.150000002724795
 20
12.667976315961255
 30
0.0
 11
13.150000002724795
 21
24.647976315961245
 31
0.0
  0
LINE
  5
349
100
AcDbEntity
  8
0
  6
CENTER
 62
             200
100
AcDbLine
 10
11.849999997275233
 20
12.667976315961255
 30
0.0
 11
11.849999997275233
 21
24.597976315961233
 31
0.0
  0
LINE
  5
34A
100
AcDbEntity
  8
0
  6
CONTINUOUS
 62
               4
100
AcDbLine
 10
12.349999999999994
 20
19.288484399102117
 30
0.0
 11
12.349999999999994
 21
21.397976315961245
 31
0.0
  0
LINE
  5
34B
100
AcDbEntity
  8
0
  6
CONTINUOUS
 62
               4
100
AcDbLine
 10
11.349999999999994
 20
18.711117193559403
 30
0.0
 11
11.349999999999994
 21
21.397976315961245
 31
0.0
  0
LINE
  5
34C
100
AcDbEntity
  8
0
  6
CONTINUOUS
 62
               4
100
AcDbLine
 10
13.650000000000006
 20
20.039061766307668
 30
0.0
 11
13.650000000000006
 21
21.397976315961245
 31
0.0
  0
LINE
  5
34D
100
AcDbEntity
  8
0
  6
CONTINUOUS
 62
               4
100
AcDbLine
 10
12.650000000000006
 20
19.461694560764954
 30
0.0
 11
12.650000000000006
 21
21.397976315961245
 31
0.0
  0
LINE
  5
34E
100
AcDbEntity
  8
0
  6
CONTINUOUS
 62
               4
100
AcDbLine
 10
12.650000000000006
 20
21.397976315961245
 30
0.0
 11
13.650000005449556
 21
21.397976315961245
 31
0.0
  0
LINE
  5
34F
100
AcDbEntity
  8
0
  6
CONTINUOUS
 62
               4
100
AcDbLine
 10
11.3500000020436
 20
21.397976315961245
 30
0.0
 11
12.349999999999994
 21
21.397976315961245
 31
0.0
  0
LINE
  5
350
100
AcDbEntity
  8
0
  6
CONTINUOUS
 62
               4
100
AcDbLine
 10
11.349999999999994
 20
14.397976315961245
 30
0.0
 11
11.349999999999994
 21
17.211117193559403
 31
0.0
  0
LINE
  5
351
100
AcDbEntity
  8
0
  6
CONTINUOUS
 62
               4
100
AcDbLine
 10
13.650000000000006
 20
14.397976315961245
 30
0.0
 11
13.650000000000006
 21
18.539061766307668
 31
0.0
  0
LINE
  5
352
100
AcDbEntity
  8
0
  6
CONTINUOUS
 62
               4
100
AcDbLine
 10
12.650000000000006
 20
14.397976315961245
 30
0.0
 11
12.650000000000006
 21
17.961694560764954
 31
0.0
  0
LINE
  5
353
100
AcDbEntity
  8
0
  6
CONTINUOUS
 62
               4
100
AcDbLine
 10
12.349999999999994
 20
14.397976315961245
 30
0.0
 11
12.349999999999994
 21
17.788484399102117
 31
0.0
  0
LINE
  5
354
100
AcDbEntity
  8
0
  6
CONTINUOUS
 62
               4
100
AcDbLine
 10
10.400000005449556
 20
1.4979762335365194
 30
0.0
 11
15.0
 21
1.4979762335365194
 31
0.0
  0
LINE
  5
355
100
AcDbEntity
  8
0
  6
CONTINUOUS
 62
               4
100
AcDbLine
 10
10.399999988419665
 20
0.9479762301305641
 30
0.0
 11
14.999999995231633
 21
0.9479762301305641
 31
0.0
  0
LINE
  5
356
100
AcDbEntity
  8
0
  6
CONTINUOUS
 62
               4
100
AcDbLine
 10
-0.000000004768367
 20
-0.5500000000000114
 30
0.0
 11
15.0
 21
-0.5500000000000114
 31
0.0
  0
LINE
  5
357
100
AcDbEntity
  8
0
  6
CONTINUOUS
 62
               4
100
AcDbLine
 10
-0.000000004768367
 20
-1.1000000082564156
 30
0.0
 11
14.999999995231633
 21
-1.1000000082564156
 31
0.0
  0
LINE
  5
358
100
AcDbEntity
  8
0
  6
CONTINUOUS
 62
               4
100
AcDbLine
 10
-0.000000004768367
 20
-2.6000000000000227
 30
0.0
 11
3.999999995231633
 21
-2.6000000000000227
 31
0.0
  0
LINE
  5
359
100
AcDbEntity
  8
0
  6
CONTINUOUS
 62
               4
100
AcDbLine
 10
0.0
 20
-1.8000000000000114
 30
0.0
 11
4.3000000000000114
 21
-1.8000000000000114
 31
0.0
  0
LINE
  5
35A
100
AcDbEntity
  8
0
  6
CONTINUOUS
 62
               4
100
AcDbLine
 10
-0.000000004768367
 20
0.0
 30
0.0
 11
14.999999995231633
 21
0.0
 31
0.0
  0
LINE
  5
35B
100
AcDbEntity
  8
0
  6
CONTINUOUS
 62
               4
100
AcDbLine
 10
4.2999999986376167
 20
-4.6000000000000227
 30
0.0
 11
14.999999995231633
 21
-4.6000000000000227
 31
0.0
  0
LINE
  5
35C
100
AcDbEntity
  8
0
  6
CONTINUOUS
 62
               4
100
AcDbLine
 10
13.800000000000011
 20
5.8979763159612446
 30
0.0
 11
13.800000000000011
 21
9.6456668471390685
 31
0.0
  0
LINE
  5
35D
100
AcDbEntity
  8
0
  6
CONTINUOUS
 62
               4
100
AcDbLine
 10
11.199999999999989
 20
5.8979763159612446
 30
0.0
 11
11.199999999999989
 21
8.1445121127279663
 31
0.0
  0
LINE
  5
35E
100
AcDbEntity
  8
0
  6
CONTINUOUS
 62
               4
100
AcDbLine
 10
11.199999999999989
 20
14.397976315961245
 30
0.0
 11
13.800000000000011
 21
14.397976315961245
 31
0.0
  0
LINE
  5
35F
100
AcDbEntity
  8
0
  6
CONTINUOUS
 62
               4
100
AcDbLine
 10
15.0
 20
-4.6000000000000227
 30
0.0
 11
15.0
 21
4.8979763159612446
 31
0.0
  0
LINE
  5
360
100
AcDbEntity
  8
0
  6
CONTINUOUS
 62
               4
100
AcDbLine
 10
4.3000000000000114
 20
-1.8000000000000114
 30
0.0
 11
4.3000000000000114
 21
-4.6000000000000227
 31
0.0
  0
LINE
  5
361
100
AcDbEntity
  8
0
  6
CONTINUOUS
 62
               4
100
AcDbLine
 10
3.251428571428562
 20
-2.6020236840387554
 30
0.0
 11
3.251428571428562
 21
-3.9020236840387383
 31
0.0
  0
LINE
  5
362
100
AcDbEntity
  8
0
  6
CONTINUOUS
 62
               4
100
AcDbLine
 10
3.251428571428562
 20
-3.9020236840387383
 30
0.0
 11
2.751428571428562
 21
-4.4020236840387383
 31
0.0
  0
LINE
  5
363
100
AcDbEntity
  8
0
  6
CONTINUOUS
 62
               4
100
AcDbLine
 10
1.251428571428562
 20
-4.4020236840387383
 30
0.0
 11
2.751428571428562
 21
-4.4020236840387383
 31
0.0
  0
LINE
  5
364
100
AcDbEntity
  8
0
  6
CONTINUOUS
 62
               4
100
AcDbLine
 10
1.251428571428562
 20
-4.4020236840387383
 30
0.0
 11
0.751428571428562
 21
-3.9020236840387383
 31
0.0
  0
LINE
  5
365
100
AcDbEntity
  8
0
  6
CONTINUOUS
 62
             200
100
AcDbLine
 10
0.751428571428562
 20
-3.9020236840387383
 30
0.0
 11
3.251428571428562
 21
-3.9020236840387383
 31
0.0
  0
LINE
  5
366
100
AcDbEntity
  8
0
  6
CONTINUOUS
 62
               4
100
AcDbLine
 10
0.751428571428562
 20
-2.6020236840387554
 30
0.0
 11
0.751428571428562
 21
-3.9020236840387383
 31
0.0
  0
LINE
  5
367
100
AcDbEntity
  8
0
  6
CONTINUOUS
 62
               4
100
AcDbLine
 10
0.0
 20
-1.8020236840387724
 30
0.0
 11
0.0
 21
-2.6020236840387554
 31
0.0
  0
LINE
  5
368
100
AcDbEntity
  8
0
  6
CONTINUOUS
 62
               4
100
AcDbLine
 10
4.0
 20
-1.8020236840387724
 30
0.0
 11
4.0
 21
-2.6020236840387554
 31
0.0
  0
LINE
  5
369
100
AcDbEntity
  8
0
  6
CENTER
 62
             200
100
AcDbLine
 10
2.0
 20
1.2843226271262154
 30
0.0
 11
2.0
 21
-5.0691959306680587
 31
0.0
  0
LINE
  5
36A
100
AcDbEntity
  8
0
  6
CONTINUOUS
 62
               4
100
AcDbLine
 10
0.0
 20
-1.8020236840387724
 30
0.0
 11
0.0
 21
0.0
 31
0.0
  0
LINE
  5
36B
100
AcDbEntity
  8
0
  6
CONTINUOUS
 62
               4
100
AcDbLine
 10
0.9514285714285791
 20
0.5979763159612617
 30
0.0
 11
3.0514285714285734
 21
0.5979763159612617
 31
0.0
  0
LINE
  5
36C
100
AcDbEntity
  8
0
  6
CONTINUOUS
 62
             200
100
AcDbLine
 10
3.0500000000000114
 20
-2.6020236840387554
 30
0.0
 11
3.0500000000000114
 21
-4.1034522554673174
 31
0.0
  0
LINE
  5
36D
100
AcDbEntity
  8
0
  6
CONTINUOUS
 62
             200
100
AcDbLine
 10
0.9499999999999886
 20
-2.6020236840387554
 30
0.0
 11
0.9499999999999886
 21
-4.100595112610165
 31
0.0
  0
LINE
  5
36E
100
AcDbEntity
  8
0
  6
CONTINUOUS
 62
               4
100
AcDbLine
 10
0.751428571428562
 20
-0.0020236840387611
 30
0.0
 11
0.751428571428562
 21
0.3979763159612446
 31
0.0
  0
LINE
  5
36F
100
AcDbEntity
  8
0
  6
CONTINUOUS
 62
               4
100
AcDbLine
 10
3.251428571428562
 20
0.3979763159612446
 30
0.0
 11
3.251428571428562
 21
-0.0020236840387611
 31
0.0
  0
LINE
  5
370
100
AcDbEntity
  8
0
  6
CONTINUOUS
 62
               4
100
AcDbLine
 10
0.751428571428562
 20
0.3979763159612446
 30
0.0
 11
0.9514285714285791
 21
0.5979763159612617
 31
0.0
  0
LINE
  5
371
100
AcDbEntity
  8
0
  6
CONTINUOUS
 62
               4
100
AcDbLine
 10
3.0514285714285734
 20
0.5979763159612617
 30
0.0
 11
3.251428571428562
 21
0.3979763159612446
 31
0.0
  0
LINE
  5
372
100
AcDbEntity
  8
0
  6
CONTINUOUS
 62
               4
100
AcDbLine
 10
0.751428571428562
 20
0.3979763159612446
 30
0.0
 11
3.251428571428562
 21
0.3979763159612446
 31
0.0
  0
LINE
  5
373
100
AcDbEntity
  8
0
  6
CONTINUOUS
 62
             200
100
AcDbLine
 10
3.0500000000000114
 20
0.5979763159612617
 30
0.0
 11
3.0500000000000114
 21
-0.0020236840387611
 31
0.0
  0
LINE
  5
374
100
AcDbEntity
  8
0
  6
CONTINUOUS
 62
             200
100
AcDbLine
 10
0.9499999999999886
 20
0.5979763159612617
 30
0.0
 11
0.9499999999999886
 21
-0.0020236840387611
 31
0.0
  0
LINE
  5
375
100
AcDbEntity
  8
0
  6
CENTER
 62
             200
100
AcDbLine
 10
12.5
 20
5.3933952003748118
 30
0.0
 11
12.5
 21
17.186465534727631
 31
0.0
  0
LINE
  5
376
100
AcDbEntity
  8
0
  6
CONTINUOUS
 62
               4
100
AcDbLine
 10
15.0
 20
3.8979763159612446
 30
0.0
 11
10.400000000000006
 21
3.8979763159612446
 31
0.0
  0
LINE
  5
377
100
AcDbEntity
  8
0
  6
CONTINUOUS
 62
               4
100
AcDbLine
 10
10.400000000000006
 20
5.8979763159612446
 30
0.0
 11
14.600000000000023
 21
5.8979763159612446
 31
0.0
  0
LINE
  5
378
100
AcDbEntity
  8
0
  6
CONTINUOUS
 62
               4
100
AcDbLine
 10
10.400000000000006
 20
-0.0020236840387611
 30
0.0
 11
10.400000000000006
 21
5.8979763159612446
 31
0.0
  0
LINE
  5
379
100
AcDbEntity
  8
0
  6
CONTINUOUS
 62
               4
100
AcDbLine
 10
14.600000000000023
 20
4.8979763159612446
 30
0.0
 11
14.600000000000023
 21
5.8979763159612446
 31
0.0
  0
LINE
  5
37A
100
AcDbEntity
  8
0
  6
CONTINUOUS
 62
               4
100
AcDbLine
 10
12.949044336704674
 20
4.8979763159612446
 30
0.0
 11
15.0
 21
4.8979763159612446
 31
0.0
  0
LINE
  5
37B
100
AcDbEntity
  8
0
  6
CONTINUOUS
 62
               4
100
AcDbLine
 10
12.949044336704674
 20
4.8979763118740607
 30
0.0
 11
12.949044336704674
 21
5.8979763118740607
 31
0.0
  0
LINE
  5
37C
100
AcDbEntity
  8
0
  6
CONTINUOUS
 62
               4
100
AcDbLine
 10
12.050955663295326
 20
1.4979762296661931
 30
0.0
 11
12.050955663295326
 21
5.8979763159612446
 31
0.0
  0
LINE
  5
37D
100
AcDbEntity
  8
0
  6
CONTINUOUS
 62
               4
100
AcDbLine
 10
10.400000005449556
 20
0.9479762348989311
 30
0.0
 11
12.050955663295326
 21
1.4979762296661931
 31
0.0
  0
LINE
  5
37E
100
AcDbEntity
  8
0
  6
CONTINUOUS
 62
             200
100
AcDbLine
 10
10.340000000000003
 20
9.1479763159612446
 30
0.0
 11
14.669999999999987
 21
11.647976315961245
 31
0.0
  0
LINE
  5
37F
100
AcDbEntity
  8
0
  6
CONTINUOUS
 62
             200
100
AcDbLine
 10
10.340000000000003
 20
7.6479763159612446
 30
0.0
 11
14.669999999999987
 21
10.147976315961245
 31
0.0
  0
LINE
  5
380
100
AcDbEntity
  8
0
  6
CONTINUOUS
 62
             200
100
AcDbLine
 10
10.340000000000003
 20
18.127976315961234
 30
0.0
 11
14.669999999999987
 21
20.627976315961234
 31
0.0
  0
LINE
  5
381
100
AcDbEntity
  8
0
  6
CONTINUOUS
 62
             200
100
AcDbLine
 10
10.340000000000003
 20
16.627976315961234
 30
0.0
 11
14.669999999999987
 21
19.127976315961234
 31
0.0
  0
LINE
  5
382
100
AcDbEntity
  8
0
  6
CONTINUOUS
 62
               4
100
AcDbLine
 10
13.800000000000011
 20
11.145666847139069
 30
0.0
 11
13.800000000000011
 21
14.397976315961245
 31
0.0
  0
LINE
  5
383
100
AcDbEntity
  8
0
  6
CONTINUOUS
 62
               4
100
AcDbLine
 10
11.199999999999989
 20
9.6445121127279663
 30
0.0
 11
11.199999999999989
 21
14.397976315961245
 31
0.0
  0
ENDBLK
  5
384
100
AcDbEntity
  8
0
100
AcDbBlockEnd
  0
BLOCK
  5
385
100
AcDbEntity
  8
0
100
AcDbBlockBegin
  2
MGAL6-L-16
 70
               0
 10
0.0
 20
0.0
 30
0.0
  3
MGAL6-L-16
  1

  0
LINE
  5
386
100
AcDbEntity
  8
0
  6
CONTINUOUS
 62
             200
100
AcDbLine
 10
-1.0250000000000057
 20
-0.0000000014444481
 30
0.0
 11
-1.0250000000000057
 21
0.5979763159612617
 31
0.0
  0
LINE
  5
387
100
AcDbEntity
  8
0
  6
CONTINUOUS
 62
             200
100
AcDbLine
 10
1.0250000000000057
 20
-0.0000000014444481
 30
0.0
 11
1.0250000000000057
 21
0.5979763159612617
 31
0.0
  0
LINE
  5
388
100
AcDbEntity
  8
0
  6
CONTINUOUS
 62
             200
100
AcDbLine
 10
1.0250000000000057
 20
-4.1241665411816086
 30
0.0
 11
1.0250000000000057
 21
-2.6000000000000227
 31
0.0
  0
LINE
  5
389
100
AcDbEntity
  8
0
  6
CONTINUOUS
 62
             200
100
AcDbLine
 10
-1.0250000000000057
 20
-4.1241665411816086
 30
0.0
 11
-1.0250000000000057
 21
-2.6000000000000227
 31
0.0
  0
LINE
  5
38A
100
AcDbEntity
  8
0
  6
CENTER
 62
             200
100
AcDbLine
 10
0.0
 20
-5.5464060491292457
 30
0.0
 11
0.0
 21
9.6693480170655448
 31
0.0
  0
LINE
  5
38B
100
AcDbEntity
  8
0
  6
CONTINUOUS
 62
               4
100
AcDbLine
 10
1.2999999999999829
 20
5.8979762296661988
 30
0.0
 11
1.2999999999999829
 21
9.6456667608439943
 31
0.0
  0
LINE
  5
38C
100
AcDbEntity
  8
0
  6
CONTINUOUS
 62
               4
100
AcDbLine
 10
-1.3000000000000114
 20
5.8979762296661988
 30
0.0
 11
-1.3000000000000114
 21
8.1445120264329205
 31
0.0
  0
LINE
  5
38D
100
AcDbEntity
  8
0
  6
CONTINUOUS
 62
               4
100
AcDbLine
 10
-1.9994048873898294
 20
-2.6000000000000227
 30
0.0
 11
2.0005951126101706
 21
-2.6000000000000227
 31
0.0
  0
LINE
  5
38E
100
AcDbEntity
  8
0
  6
CONTINUOUS
 62
               4
100
AcDbLine
 10
-2.0500000000000114
 20
-1.8000000000000114
 30
0.0
 11
2.0499999999999829
 21
-1.8000000000000114
 31
0.0
  0
LINE
  5
38F
100
AcDbEntity
  8
0
  6
CONTINUOUS
 62
               4
100
AcDbLine
 10
-1.5000000019615243
 20
0.0
 30
0.0
 11
1.4999999980384757
 21
0.0
 31
0.0
  0
LINE
  5
390
100
AcDbEntity
  8
0
  6
CONTINUOUS
 62
               4
100
AcDbLine
 10
1.5
 20
-0.5500000048504319
 30
0.0
 11
1.5
 21
0.9479762301305641
 31
0.0
  0
LINE
  5
391
100
AcDbEntity
  8
0
  6
CONTINUOUS
 62
               4
100
AcDbLine
 10
-1.5
 20
-0.5511933238986444
 30
0.0
 11
-1.5
 21
0.9479762301305641
 31
0.0
  0
LINE
  5
392
100
AcDbEntity
  8
0
  6
CONTINUOUS
 62
               4
100
AcDbLine
 10
-2.050000005367508
 20
1.4979762335365194
 30
0.0
 11
-1.5
 21
0.9479762281690114
 31
0.0
  0
LINE
  5
393
100
AcDbEntity
  8
0
  6
CONTINUOUS
 62
               4
100
AcDbLine
 10
1.5
 20
0.9479762320920884
 30
0.0
 11
2.0500000014444595
 21
1.4979762335365194
 31
0.0
  0
LINE
  5
394
100
AcDbEntity
  8
0
  6
CONTINUOUS
 62
               4
100
AcDbLine
 10
2.0499999999999829
 20
1.4979762320920713
 30
0.0
 11
2.0499999999999829
 21
5.8979762296661988
 31
0.0
  0
LINE
  5
395
100
AcDbEntity
  8
0
  6
CONTINUOUS
 62
               4
100
AcDbLine
 10
-2.0500000000000114
 20
1.4979762281690228
 30
0.0
 11
-2.0500000000000114
 21
5.8979762296661988
 31
0.0
  0
ARC
  5
396
100
AcDbEntity
  8
0
  6
CONTINUOUS
 62
               4
100
AcDbCircle
 10
0.0
 20
-2.5500000000000114
 30
0.0
 40
2.0499999999999994
100
AcDbArc
 50
180.0
 51
0.0
  0
LINE
  5
397
100
AcDbEntity
  8
0
  6
CONTINUOUS
 62
               4
100
AcDbLine
 10
2.0499999999999829
 20
-2.6411128569469895
 30
0.0
 11
2.0499999999999829
 21
-1.1000000082564156
 31
0.0
  0
LINE
  5
398
100
AcDbEntity
  8
0
  6
CONTINUOUS
 62
               4
100
AcDbLine
 10
-2.0500000000000114
 20
-2.550595112610182
 30
0.0
 11
-2.0500000000000114
 21
-1.1020236840387554
 31
0.0
  0
LINE
  5
399
100
AcDbEntity
  8
0
  6
CONTINUOUS
 62
               4
100
AcDbLine
 10
-0.7471428571428476
 20
-4.4020236840387383
 30
0.0
 11
0.7471428571428476
 21
-4.4020236840387383
 31
0.0
  0
LINE
  5
39A
100
AcDbEntity
  8
0
  6
CONTINUOUS
 62
               4
100
AcDbLine
 10
-1.9994048873898294
 20
-1.8000000000000114
 30
0.0
 11
-1.9994048873898294
 21
-2.6020236840387554
 31
0.0
  0
LINE
  5
39B
100
AcDbEntity
  8
0
  6
CONTINUOUS
 62
               4
100
AcDbLine
 10
2.0005951126101706
 20
-1.8000000000000114
 30
0.0
 11
2.0005951126101706
 21
-2.6020236840387554
 31
0.0
  0
LINE
  5
39C
100
AcDbEntity
  8
0
  6
CONTINUOUS
 62
               4
100
AcDbLine
 10
-0.7471428571428476
 20
-4.4020236840387383
 30
0.0
 11
-1.25
 21
-3.8991665411816143
 31
0.0
  0
LINE
  5
39D
100
AcDbEntity
  8
0
  6
CONTINUOUS
 62
               4
100
AcDbLine
 10
1.25
 20
-3.8991665411816143
 30
0.0
 11
0.7471428571428476
 21
-4.4020236840387383
 31
0.0
  0
LINE
  5
39E
100
AcDbEntity
  8
0
  6
CONTINUOUS
 62
               4
100
AcDbLine
 10
-1.25
 20
-3.8991665411816143
 30
0.0
 11
1.25
 21
-3.8991665411816143
 31
0.0
  0
LINE
  5
39F
100
AcDbEntity
  8
0
  6
CONTINUOUS
 62
               4
100
AcDbLine
 10
-1.25
 20
-2.6000000000000227
 30
0.0
 11
-1.25
 21
-3.8991665411816143
 31
0.0
  0
LINE
  5
3A0
100
AcDbEntity
  8
0
  6
CONTINUOUS
 62
               4
100
AcDbLine
 10
1.25
 20
-2.6000000000000227
 30
0.0
 11
1.25
 21
-3.8991665411816143
 31
0.0
  0
LINE
  5
3A1
100
AcDbEntity
  8
0
  6
CONTINUOUS
 62
               4
100
AcDbLine
 10
2.0499999999999829
 20
-1.1000000000000227
 30
0.0
 11
1.5
 21
-0.5500000000000114
 31
0.0
  0
LINE
  5
3A2
100
AcDbEntity
  8
0
  6
CONTINUOUS
 62
               4
100
AcDbLine
 10
-2.0479763159612503
 20
-1.1020236840387554
 30
0.0
 11
-1.5
 21
-0.5511933247651939
 31
0.0
  0
LINE
  5
3A3
100
AcDbEntity
  8
0
  6
CONTINUOUS
 62
               4
100
AcDbLine
 10
-1.25
 20
0.0
 30
0.0
 11
-1.25
 21
0.3979763159612446
 31
0.0
  0
LINE
  5
3A4
100
AcDbEntity
  8
0
  6
CONTINUOUS
 62
               4
100
AcDbLine
 10
1.25
 20
0.3979763159612446
 30
0.0
 11
1.25
 21
0.0
 31
0.0
  0
LINE
  5
3A5
100
AcDbEntity
  8
0
  6
CONTINUOUS
 62
               4
100
AcDbLine
 10
-1.25
 20
0.3979763159612446
 30
0.0
 11
1.25
 21
0.3979763159612446
 31
0.0
  0
LINE
  5
3A6
100
AcDbEntity
  8
0
  6
CONTINUOUS
 62
               4
100
AcDbLine
 10
1.0499999999999829
 20
0.5979763159612617
 30
0.0
 11
1.25
 21
0.3979763159612446
 31
0.0
  0
LINE
  5
3A7
100
AcDbEntity
  8
0
  6
CONTINUOUS
 62
               4
100
AcDbLine
 10
-1.25
 20
0.3979763159612446
 30
0.0
 11
-1.0500000000000114
 21
0.5979763159612617
 31
0.0
  0
LINE
  5
3A8
100
AcDbEntity
  8
0
  6
CONTINUOUS
 62
               4
100
AcDbLine
 10
-1.0500000000000114
 20
0.5979763159612617
 30
0.0
 11
1.0499999999999829
 21
0.5979763159612617
 31
0.0
  0
LINE
  5
3A9
100
AcDbEntity
  8
0
  6
CONTINUOUS
 62
               4
100
AcDbLine
 10
-2.0500000000000114
 20
3.8979762296661988
 30
0.0
 11
2.0499999999999829
 21
3.8979762296661988
 31
0.0
  0
LINE
  5
3AA
100
AcDbEntity
  8
0
  6
CONTINUOUS
 62
               4
100
AcDbLine
 10
-2.0500000000000114
 20
5.8979762296661988
 30
0.0
 11
2.0499999999999829
 21
5.8979762296661988
 31
0.0
  0
LINE
  5
3AB
100
AcDbEntity
  8
0
  6
CONTINUOUS
 62
             200
100
AcDbLine
 10
-2.1599999999999966
 20
7.6479762296661988
 30
0.0
 11
2.1699999999999875
 21
10.147976229666199
 31
0.0
  0
ENDBLK
  5
3AC
100
AcDbEntity
  8
0
100
AcDbBlockEnd
  0
BLOCK
  5
3AD
100
AcDbEntity
  8
0
100
AcDbBlockBegin
  2
MGAL6-L-17
 70
               0
 10
0.0
 20
0.0
 30
0.0
  3
MGAL6-L-17
  1

  0
CIRCLE
  5
3AE
100
AcDbEntity
  8
0
  6
CONTINUOUS
 62
               4
100
AcDbCircle
 10
11.849999997275233
 20
0.0
 30
0.0
 40
0.29
  0
CIRCLE
  5
3AF
100
AcDbEntity
  8
0
  6
CONTINUOUS
 62
               4
100
AcDbCircle
 10
13.150000002724795
 20
0.0
 30
0.0
 40
0.29
  0
CIRCLE
  5
3B0
100
AcDbEntity
  8
0
  6
CONTINUOUS
 62
               4
100
AcDbCircle
 10
11.849999997275233
 20
0.0
 30
0.0
 40
0.5
  0
CIRCLE
  5
3B1
100
AcDbEntity
  8
0
  6
CONTINUOUS
 62
               4
100
AcDbCircle
 10
13.150000002724795
 20
0.0
 30
0.0
 40
0.5
  0
LINE
  5
3B2
100
AcDbEntity
  8
0
  6
CENTER
 62
             200
100
AcDbLine
 10
13.150000002724795
 20
-0.8054622970305871
 30
0.0
 11
13.150000002724795
 21
0.8557856223879981
 31
0.0
  0
LINE
  5
3B3
100
AcDbEntity
  8
0
  6
CENTER
 62
             200
100
AcDbLine
 10
11.849999997275233
 20
-0.8054622970305871
 30
0.0
 11
11.849999997275233
 21
0.8557856223879981
 31
0.0
  0
CIRCLE
  5
3B4
100
AcDbEntity
  8
0
  6
CONTINUOUS
 62
               4
100
AcDbCircle
 10
2.0
 20
0.0
 30
0.0
 40
1.25
  0
CIRCLE
  5
3B5
100
AcDbEntity
  8
0
  6
CONTINUOUS
 62
             200
100
AcDbCircle
 10
2.0
 20
0.0
 30
0.0
 40
1.05
  0
CIRCLE
  5
3B6
100
AcDbEntity
  8
0
  6
CONTINUOUS
 62
               4
100
AcDbCircle
 10
2.0
 20
0.0
 30
0.0
 40
1.3999999999999997
  0
LINE
  5
3B7
100
AcDbEntity
  8
0
  6
CONTINUOUS
 62
               4
100
AcDbLine
 10
0.0
 20
-1.5
 30
0.0
 11
11.030306154330106
 21
-1.5
 31
0.0
  0
LINE
  5
3B8
100
AcDbEntity
  8
0
  6
CONTINUOUS
 62
               4
100
AcDbLine
 10
0.0
 20
-2.0499999999999972
 30
0.0
 11
15.0
 21
-2.0499999999999972
 31
0.0
  0
LINE
  5
3B9
100
AcDbEntity
  8
0
  6
CONTINUOUS
 62
               4
100
AcDbLine
 10
0.0
 20
2.0499999999999972
 30
0.0
 11
15.0
 21
2.0499999999999972
 31
0.0
  0
LINE
  5
3BA
100
AcDbEntity
  8
0
  6
CONTINUOUS
 62
               4
100
AcDbLine
 10
8.0
 20
-0.7000000000000028
 30
0.0
 11
9.6000000000000227
 21
-0.7000000000000028
 31
0.0
  0
LINE
  5
3BB
100
AcDbEntity
  8
0
  6
CONTINUOUS
 62
               4
100
AcDbLine
 10
8.0
 20
0.9000000000000057
 30
0.0
 11
9.6000000000000227
 21
0.9000000000000057
 31
0.0
  0
LINE
  5
3BC
100
AcDbEntity
  8
0
  6
CONTINUOUS
 62
               4
100
AcDbLine
 10
9.6000000000000227
 20
-0.7000000068119476
 30
0.0
 11
9.6000000000000227
 21
0.9000000000000057
 31
0.0
  0
LINE
  5
3BD
100
AcDbEntity
  8
0
  6
CONTINUOUS
 62
               4
100
AcDbLine
 10
8.0
 20
-0.7000000068119476
 30
0.0
 11
8.0
 21
0.9000000000000057
 31
0.0
  0
LINE
  5
3BE
100
AcDbEntity
  8
0
  6
CONTINUOUS
 62
               4
100
AcDbLine
 10
10.400000000000006
 20
-1.5028571503502945
 30
0.0
 11
10.400000000000006
 21
1.500000006811959
 31
0.0
  0
LINE
  5
3BF
100
AcDbEntity
  8
0
  6
CONTINUOUS
 62
               4
100
AcDbLine
 10
3.9000000000000057
 20
-1.5028571503502945
 30
0.0
 11
3.9000000000000057
 21
1.500000006811959
 31
0.0
  0
LINE
  5
3C0
100
AcDbEntity
  8
0
  6
CONTINUOUS
 62
               4
100
AcDbLine
 10
1.3085714285714403
 20
-1.068571428571417
 30
0.0
 11
3.0519930369714814
 21
0.6748501798286242
 31
0.0
  0
LINE
  5
3C1
100
AcDbEntity
  8
0
  6
CONTINUOUS
 62
               4
100
AcDbLine
 10
0.9571428571428555
 20
-0.7142857142857082
 30
0.0
 11
2.6885714285714357
 21
1.019999999999996
 31
0.0
  0
LINE
  5
3C2
100
AcDbEntity
  8
0
  6
CENTER
 62
             200
100
AcDbLine
 10
2.0
 20
2.8342857142857127
 30
0.0
 11
2.0
 21
-3.3514132448520257
 31
0.0
  0
LINE
  5
3C3
100
AcDbEntity
  8
0
  6
CONTINUOUS
 62
               4
100
AcDbLine
 10
15.0
 20
2.0499999999999972
 30
0.0
 11
15.0
 21
-2.0499999999999972
 31
0.0
  0
LINE
  5
3C4
100
AcDbEntity
  8
0
  6
CONTINUOUS
 62
               4
100
AcDbLine
 10
0.0
 20
2.0499999999999972
 30
0.0
 11
0.0
 21
-2.0499999999999972
 31
0.0
  0
LINE
  5
3C5
100
AcDbEntity
  8
0
  6
CONTINUOUS
 62
               4
100
AcDbLine
 10
0.0
 20
1.5
 30
0.0
 11
11.030306154330106
 21
1.5
 31
0.0
  0
LINE
  5
3C6
100
AcDbEntity
  8
0
  6
CENTER
 62
             200
100
AcDbLine
 10
-1.3247205773654969
 20
0.0
 30
0.0
 11
16.237619114850219
 21
0.0
 31
0.0
  0
ARC
  5
3C7
100
AcDbEntity
  8
0
  6
CONTINUOUS
 62
               4
100
AcDbCircle
 10
12.5
 20
0.0
 30
0.0
 40
2.1000000000000001
100
AcDbArc
 50
102.70634183842952
 51
257.65306763258718
  0
ARC
  5
3C8
100
AcDbEntity
  8
0
  6
CONTINUOUS
 62
               4
100
AcDbCircle
 10
12.5
 20
0.0
 30
0.0
 40
2.1000000000000001
100
AcDbArc
 50
282.34693236741282
 51
77.293658161570491
  0
LINE
  5
3C9
100
AcDbEntity
  8
0
  6
CENTER
 62
             200
100
AcDbLine
 10
12.5
 20
-2.442956204414358
 30
0.0
 11
12.5
 21
2.4456261784689701
 31
0.0
  0
CIRCLE
  5
3CA
100
AcDbEntity
  8
0
  6
CONTINUOUS
 62
               4
100
AcDbCircle
 10
12.5
 20
0.0
 30
0.0
 40
1.3
  0
ENDBLK
  5
3CB
100
AcDbEntity
  8
0
100
AcDbBlockEnd
  0
BLOCK
  5
3CC
100
AcDbEntity
  8
0
100
AcDbBlockBegin
  2
MGAL6-L-18
 70
               0
 10
0.0
 20
0.0
 30
0.0
  3
MGAL6-L-18
  1

  0
LINE
  5
3CD
100
AcDbEntity
  8
0
  6
CONTINUOUS
 62
               7
100
AcDbLine
 10
-8.2500000051903726
 20
6.4330127264257655
 30
0.0
 11
-8.249999994467089
 21
5.5669872600069326
 31
0.0
  0
LINE
  5
3CE
100
AcDbEntity
  8
0
  6
CONTINUOUS
 62
               7
100
AcDbLine
 10
-7.4999999813485374
 20
6.8660254205461868
 30
0.0
 11
-8.2500000302297849
 21
6.4330126780500834
 31
0.0
  0
LINE
  5
3CF
100
AcDbEntity
  8
0
  6
CONTINUOUS
 62
               7
100
AcDbLine
 10
-6.7499999761581648
 20
6.4330126941204071
 30
0.0
 11
-7.5000000357628096
 21
6.8660254180431366
 31
0.0
  0
LINE
  5
3D0
100
AcDbEntity
  8
0
  6
CONTINUOUS
 62
               7
100
AcDbLine
 10
-6.7499999948096274
 20
5.5669872735742061
 30
0.0
 11
-6.7500000055330247
 21
6.433012739993039
 31
0.0
  0
CIRCLE
  5
3D1
100
AcDbEntity
  8
0
  6
CONTINUOUS
 62
               7
100
AcDbCircle
 10
-7.5
 20
5.9999999999999858
 30
0.0
 40
1.5
  0
LINE
  5
3D2
100
AcDbEntity
  8
0
  6
CONTINUOUS
 62
               2
100
AcDbLine
 10
-9.75
 20
5.9999999999999858
 30
0.0
 11
-5.25
 21
5.9999999999999858
 31
0.0
  0
LINE
  5
3D3
100
AcDbEntity
  8
0
  6
CONTINUOUS
 62
               2
100
AcDbLine
 10
-7.5
 20
8.2499999999999858
 30
0.0
 11
-7.5
 21
3.7499999999999858
 31
0.0
  0
LINE
  5
3D4
100
AcDbEntity
  8
0
  6
CONTINUOUS
 62
               7
100
AcDbLine
 10
-8.2500000238419489
 20
5.5669873058795645
 30
0.0
 11
-7.4999999642373041
 21
5.133974581956835
 31
0.0
  0
LINE
  5
3D5
100
AcDbEntity
  8
0
  6
CONTINUOUS
 62
               7
100
AcDbLine
 10
-7.5000000186514626
 20
5.1339745794537848
 30
0.0
 11
-6.7499999697702151
 21
5.5669873219498882
 31
0.0
  0
CIRCLE
  5
3D6
100
AcDbEntity
  8
0
  6
CONTINUOUS
 62
               2
100
AcDbCircle
 10
-7.5
 20
5.9999999999999858
 30
0.0
 40
1.25
  0
LINE
  5
3D7
100
AcDbEntity
  8
0
  6
CONTINUOUS
 62
               7
100
AcDbLine
 10
3.0
 20
0.0
 30
0.0
 11
3.0
 21
8.3000000000000043
 31
0.0
  0
LINE
  5
3D8
100
AcDbEntity
  8
0
  6
CONTINUOUS
 62
               7
100
AcDbLine
 10
2.2000000000000455
 20
8.3000000000000043
 30
0.0
 11
2.2000000000000455
 21
11.000000007980816
 31
0.0
  0
LINE
  5
3D9
100
AcDbEntity
  8
0
  6
CONTINUOUS
 62
               7
100
AcDbLine
 10
1.0
 20
11.000000007980816
 30
0.0
 11
2.2000000000000455
 21
11.000000007980816
 31
0.0
  0
LINE
  5
3DA
100
AcDbEntity
  8
0
  6
CONTINUOUS
 62
               7
100
AcDbLine
 10
-3.5
 20
5.0
 30
0.0
 11
-3.5
 21
8.3000000000000043
 31
0.0
  0
LINE
  5
3DB
100
AcDbEntity
  8
0
  6
CONTINUOUS
 62
               7
100
AcDbLine
 10
-3.4999999786160743
 20
5.0
 30
0.0
 11
3.0
 21
5.0
 31
0.0
  0
LINE
  5
3DC
100
AcDbEntity
  8
0
  6
CONTINUOUS
 62
               2
100
AcDbLine
 10
0.0
 20
-1.2000000000000028
 30
0.0
 11
0.0
 21
6.2000000000000028
 31
0.0
  0
LINE
  5
3DD
100
AcDbEntity
  8
0
  6
CONTINUOUS
 62
               7
100
AcDbLine
 10
-10.0
 20
0.0
 30
0.0
 11
3.0
 21
0.0
 31
0.0
  0
LINE
  5
3DE
100
AcDbEntity
  8
0
  6
CONTINUOUS
 62
               7
100
AcDbLine
 10
-6.6000000000000227
 20
9.0
 30
0.0
 11
-6.6000000000000227
 21
8.3000000000000043
 31
0.0
  0
LINE
  5
3DF
100
AcDbEntity
  8
0
  6
CONTINUOUS
 62
               7
100
AcDbLine
 10
-10.0
 20
8.3000000000000043
 30
0.0
 11
3.0
 21
8.3000000000000043
 31
0.0
  0
LINE
  5
3E0
100
AcDbEntity
  8
0
  6
CONTINUOUS
 62
               7
100
AcDbLine
 10
-10.0
 20
8.3000000000000043
 30
0.0
 11
-10.0
 21
0.0
 31
0.0
  0
LINE
  5
3E1
100
AcDbEntity
  8
0
  6
CONTINUOUS
 62
               7
100
AcDbLine
 10
-10.5
 20
29.0
 30
0.0
 11
0.2000000000000455
 21
29.0
 31
0.0
  0
LINE
  5
3E2
100
AcDbEntity
  8
0
  6
CONTINUOUS
 62
               7
100
AcDbLine
 10
0.2000000000000455
 20
28.5
 30
0.0
 11
1.0
 21
28.5
 31
0.0
  0
LINE
  5
3E3
100
AcDbEntity
  8
0
  6
CONTINUOUS
 62
               7
100
AcDbLine
 10
-10.5
 20
9.0
 30
0.0
 11
0.2000000000000455
 21
9.0
 31
0.0
  0
LINE
  5
3E4
100
AcDbEntity
  8
0
  6
CONTINUOUS
 62
               7
100
AcDbLine
 10
0.2000000000000455
 20
9.5
 30
0.0
 11
1.0
 21
9.5
 31
0.0
  0
LINE
  5
3E5
100
AcDbEntity
  8
0
  6
CONTINUOUS
 62
               7
100
AcDbLine
 10
-11.0
 20
9.4999999999999858
 30
0.0
 11
-11.0
 21
28.5
 31
0.0
  0
LINE
  5
3E6
100
AcDbEntity
  8
0
  6
CONTINUOUS
 62
               2
100
AcDbLine
 10
2.1694637487714772
 20
19.0
 30
0.0
 11
-12.080676139835305
 21
19.0
 31
0.0
  0
LINE
  5
3E7
100
AcDbEntity
  8
0
  6
CONTINUOUS
 62
               7
100
AcDbLine
 10
1.0
 20
28.499999992019184
 30
0.0
 11
1.0
 21
21.700000000000017
 31
0.0
  0
LINE
  5
3E8
100
AcDbEntity
  8
0
  6
CONTINUOUS
 62
               7
100
AcDbLine
 10
0.2000000000000455
 20
9.0
 30
0.0
 11
0.2000000000000455
 21
16.5
 31
0.0
  0
CIRCLE
  5
3E9
100
AcDbEntity
  8
0
  6
CONTINUOUS
 62
               7
100
AcDbCircle
 10
-8.9000000000000909
 20
12.5
 30
0.0
 40
1.6000000000000174
  0
CIRCLE
  5
3EA
100
AcDbEntity
  8
0
  6
CONTINUOUS
 62
               7
100
AcDbCircle
 10
-8.9000000000000909
 20
12.5
 30
0.0
 40
1.9000000000000148
  0
LINE
  5
3EB
100
AcDbEntity
  8
0
  6
CONTINUOUS
 62
               7
100
AcDbLine
 10
-9.3330128635930123
 20
13.250000006632405
 30
0.0
 11
-8.4669872641336497
 21
13.249999987923545
 31
0.0
  0
LINE
  5
3EC
100
AcDbEntity
  8
0
  6
CONTINUOUS
 62
               7
100
AcDbLine
 10
-8.4669871364069422
 20
11.749999993367595
 30
0.0
 11
-9.3330127358664186
 21
11.750000012076455
 31
0.0
  0
LINE
  5
3ED
100
AcDbEntity
  8
0
  6
CONTINUOUS
 62
               7
100
AcDbLine
 10
-9.3330126267856031
 20
11.749999856646781
 30
0.0
 11
-9.7660254103129773
 21
12.500000035460715
 31
0.0
  0
LINE
  5
3EE
100
AcDbEntity
  8
0
  6
CONTINUOUS
 62
               7
100
AcDbLine
 10
-8.0339745096213164
 20
12.500000136720814
 30
0.0
 11
-8.4669873255534185
 21
11.74999997661574
 31
0.0
  0
LINE
  5
3EF
100
AcDbEntity
  8
0
  6
CONTINUOUS
 62
               7
100
AcDbLine
 10
-8.4669873732143515
 20
13.250000143353219
 30
0.0
 11
-8.0339745896869772
 21
12.499999964539285
 31
0.0
  0
LINE
  5
3F0
100
AcDbEntity
  8
0
  6
CONTINUOUS
 62
               7
100
AcDbLine
 10
-9.7660254903787518
 20
12.499999863279186
 30
0.0
 11
-9.3330126744466497
 21
13.25000002338426
 31
0.0
  0
LINE
  5
3F1
100
AcDbEntity
  8
0
  6
CONTINUOUS
 62
               2
100
AcDbLine
 10
-5.8500000000000227
 20
12.5
 30
0.0
 11
-11.950000000000045
 21
12.5
 31
0.0
  0
LINE
  5
3F2
100
AcDbEntity
  8
0
  6
CONTINUOUS
 62
               2
100
AcDbLine
 10
-8.9000000000000909
 20
9.4500000000000028
 30
0.0
 11
-8.9000000000000909
 21
15.549999999999997
 31
0.0
  0
CIRCLE
  5
3F3
100
AcDbEntity
  8
0
  6
CONTINUOUS
 62
               7
100
AcDbCircle
 10
-8.9000000000000909
 20
25.5
 30
0.0
 40
1.6000000000000174
  0
CIRCLE
  5
3F4
100
AcDbEntity
  8
0
  6
CONTINUOUS
 62
               7
100
AcDbCircle
 10
-8.9000000000000909
 20
25.5
 30
0.0
 40
1.9000000000000148
  0
LINE
  5
3F5
100
AcDbEntity
  8
0
  6
CONTINUOUS
 62
               7
100
AcDbLine
 10
-9.3330128635930123
 20
26.250000006632405
 30
0.0
 11
-8.4669872641336497
 21
26.249999987923545
 31
0.0
  0
LINE
  5
3F6
100
AcDbEntity
  8
0
  6
CONTINUOUS
 62
               7
100
AcDbLine
 10
-8.4669871364069422
 20
24.749999993367609
 30
0.0
 11
-9.3330127358664186
 21
24.750000012076455
 31
0.0
  0
LINE
  5
3F7
100
AcDbEntity
  8
0
  6
CONTINUOUS
 62
               7
100
AcDbLine
 10
-9.3330126267856031
 20
24.749999856646781
 30
0.0
 11
-9.7660254103129773
 21
25.500000035460715
 31
0.0
  0
LINE
  5
3F8
100
AcDbEntity
  8
0
  6
CONTINUOUS
 62
               7
100
AcDbLine
 10
-8.0339745096213164
 20
25.500000136720828
 30
0.0
 11
-8.4669873255534185
 21
24.74999997661574
 31
0.0
  0
LINE
  5
3F9
100
AcDbEntity
  8
0
  6
CONTINUOUS
 62
               7
100
AcDbLine
 10
-8.4669873732143515
 20
26.250000143353219
 30
0.0
 11
-8.0339745896869772
 21
25.499999964539285
 31
0.0
  0
LINE
  5
3FA
100
AcDbEntity
  8
0
  6
CONTINUOUS
 62
               7
100
AcDbLine
 10
-9.7660254903787518
 20
25.499999863279172
 30
0.0
 11
-9.3330126744466497
 21
26.25000002338426
 31
0.0
  0
LINE
  5
3FB
100
AcDbEntity
  8
0
  6
CONTINUOUS
 62
               2
100
AcDbLine
 10
-5.8500000000000227
 20
25.5
 30
0.0
 11
-11.950000000000045
 21
25.5
 31
0.0
  0
LINE
  5
3FC
100
AcDbEntity
  8
0
  6
CONTINUOUS
 62
               2
100
AcDbLine
 10
-8.9000000000000909
 20
22.450000000000003
 30
0.0
 11
-8.9000000000000909
 21
28.549999999999997
 31
0.0
  0
LINE
  5
3FD
100
AcDbEntity
  8
0
  6
CONTINUOUS
 62
               7
100
AcDbLine
 10
-10.799999999999955
 20
9.5
 30
0.0
 11
-10.799999999999955
 21
28.500000000000014
 31
0.0
  0
CIRCLE
  5
3FE
100
AcDbEntity
  8
0
  6
CONTINUOUS
 62
               7
100
AcDbCircle
 10
-3.5
 20
19.0
 30
0.0
 40
1.5
  0
CIRCLE
  5
3FF
100
AcDbEntity
  8
0
  6
CONTINUOUS
 62
               2
100
AcDbCircle
 10
-3.5
 20
19.0
 30
0.0
 40
1.2
  0
LINE
  5
400
100
AcDbEntity
  8
0
  6
CONTINUOUS
 62
               2
100
AcDbLine
 10
-3.5
 20
14.0
 30
0.0
 11
-3.5
 21
24.0
 31
0.0
  0
CIRCLE
  5
401
100
AcDbEntity
  8
0
  6
CONTINUOUS
 62
               7
100
AcDbCircle
 10
-3.5
 20
21.5
 30
0.0
 40
0.5
  0
LINE
  5
402
100
AcDbEntity
  8
0
  6
CONTINUOUS
 62
               2
100
AcDbLine
 10
-2.5
 20
21.5
 30
0.0
 11
-4.5
 21
21.5
 31
0.0
  0
CIRCLE
  5
403
100
AcDbEntity
  8
0
  6
CONTINUOUS
 62
               7
100
AcDbCircle
 10
-4.0
 20
26.0
 30
0.0
 40
1.25
  0
LINE
  5
404
100
AcDbEntity
  8
0
  6
CONTINUOUS
 62
               2
100
AcDbLine
 10
-1.5
 20
26.0
 30
0.0
 11
-6.5
 21
26.0
 31
0.0
  0
CIRCLE
  5
405
100
AcDbEntity
  8
0
  6
CONTINUOUS
 62
               2
100
AcDbCircle
 10
-4.0
 20
26.0
 30
0.0
 40
1.5
  0
LINE
  5
406
100
AcDbEntity
  8
0
  6
CONTINUOUS
 62
               2
100
AcDbLine
 10
-4.0
 20
28.5
 30
0.0
 11
-4.0
 21
23.5
 31
0.0
  0
CIRCLE
  5
407
100
AcDbEntity
  8
0
  6
CONTINUOUS
 62
               7
100
AcDbCircle
 10
-4.0
 20
12.0
 30
0.0
 40
1.25
  0
LINE
  5
408
100
AcDbEntity
  8
0
  6
CONTINUOUS
 62
               2
100
AcDbLine
 10
-1.5
 20
12.0
 30
0.0
 11
-6.5
 21
12.0
 31
0.0
  0
CIRCLE
  5
409
100
AcDbEntity
  8
0
  6
CONTINUOUS
 62
               2
100
AcDbCircle
 10
-4.0
 20
12.0
 30
0.0
 40
1.5
  0
LINE
  5
40A
100
AcDbEntity
  8
0
  6
CONTINUOUS
 62
               2
100
AcDbLine
 10
-4.0
 20
14.5
 30
0.0
 11
-4.0
 21
9.5
 31
0.0
  0
LINE
  5
40B
100
AcDbEntity
  8
0
  6
CONTINUOUS
 62
               7
100
AcDbLine
 10
-10.299999999999955
 20
29.0
 30
0.0
 11
-10.799999999999955
 21
28.500000000000014
 31
0.0
  0
LINE
  5
40C
100
AcDbEntity
  8
0
  6
CONTINUOUS
 62
               7
100
AcDbLine
 10
-11.0
 20
28.5
 30
0.0
 11
-10.5
 21
29.0
 31
0.0
  0
LINE
  5
40D
100
AcDbEntity
  8
0
  6
CONTINUOUS
 62
               7
100
AcDbLine
 10
-10.799999999999955
 20
9.5
 30
0.0
 11
-10.300000000000068
 21
9.0
 31
0.0
  0
LINE
  5
40E
100
AcDbEntity
  8
0
  6
CONTINUOUS
 62
               7
100
AcDbLine
 10
-10.5
 20
9.0
 30
0.0
 11
-11.0
 21
9.4999999999999858
 31
0.0
  0
ARC
  5
40F
100
AcDbEntity
  8
0
  6
CONTINUOUS
 62
               7
100
AcDbCircle
 10
-8.9000000000000909
 20
25.5
 30
0.0
 40
2.1000000000000001
100
AcDbArc
 50
270.0
 51
90.0
  0
LINE
  5
410
100
AcDbEntity
  8
0
  6
CONTINUOUS
 62
               7
100
AcDbLine
 10
-8.9000000000000909
 20
27.599999999999994
 30
0.0
 11
-10.799999999999955
 21
27.599999999999994
 31
0.0
  0
LINE
  5
411
100
AcDbEntity
  8
0
  6
CONTINUOUS
 62
               7
100
AcDbLine
 10
-8.9000000000000909
 20
23.400000000000006
 30
0.0
 11
-10.799999999999955
 21
23.400000000000006
 31
0.0
  0
LINE
  5
412
100
AcDbEntity
  8
0
  6
CONTINUOUS
 62
               7
100
AcDbLine
 10
-8.9000000000000909
 20
10.400000000000006
 30
0.0
 11
-10.799999999999955
 21
10.400000000000006
 31
0.0
  0
ARC
  5
413
100
AcDbEntity
  8
0
  6
CONTINUOUS
 62
               7
100
AcDbCircle
 10
-8.9000000000000909
 20
12.5
 30
0.0
 40
2.1000000000000001
100
AcDbArc
 50
270.0
 51
90.0
  0
LINE
  5
414
100
AcDbEntity
  8
0
  6
CONTINUOUS
 62
               7
100
AcDbLine
 10
-8.9000000000000909
 20
14.599999999999994
 30
0.0
 11
-10.799999999999955
 21
14.599999999999994
 31
0.0
  0
LINE
  5
415
100
AcDbEntity
  8
0
  6
CONTINUOUS
 62
               7
100
AcDbLine
 10
-0.7723636606028776
 20
21.5
 30
0.0
 11
0.2000000000000455
 21
21.5
 31
0.0
  0
LINE
  5
416
100
AcDbEntity
  8
0
  6
CONTINUOUS
 62
               7
100
AcDbLine
 10
-0.7723636606028776
 20
16.5
 30
0.0
 11
0.2000000000000455
 21
16.5
 31
0.0
  0
LINE
  5
417
100
AcDbEntity
  8
0
  6
CONTINUOUS
 62
               7
100
AcDbLine
 10
0.2000000000000455
 20
21.5
 30
0.0
 11
0.2000000000000455
 21
29.0
 31
0.0
  0
CIRCLE
  5
418
100
AcDbEntity
  8
0
  6
CONTINUOUS
 62
               7
100
AcDbCircle
 10
-3.5
 20
19.0
 30
0.0
 40
3.7000000000000002
  0
ARC
  5
419
100
AcDbEntity
  8
0
  6
CONTINUOUS
 62
               7
100
AcDbCircle
 10
-3.5
 20
19.0
 30
0.0
 40
4.0
100
AcDbArc
 50
90.0
 51
270.0
  0
LINE
  5
41A
100
AcDbEntity
  8
0
  6
CONTINUOUS
 62
               7
100
AcDbLine
 10
-3.5
 20
23.0
 30
0.0
 11
0.2000000000000455
 21
23.0
 31
0.0
  0
LINE
  5
41B
100
AcDbEntity
  8
0
  6
CONTINUOUS
 62
               7
100
AcDbLine
 10
-3.5
 20
15.0
 30
0.0
 11
0.2000000000000455
 21
15.0
 31
0.0
  0
CIRCLE
  5
41C
100
AcDbEntity
  8
0
  6
CONTINUOUS
 62
               7
100
AcDbCircle
 10
-3.5
 20
16.5
 30
0.0
 40
0.5
  0
LINE
  5
41D
100
AcDbEntity
  8
0
  6
CONTINUOUS
 62
               2
100
AcDbLine
 10
-2.5
 20
16.5
 30
0.0
 11
-4.5
 21
16.5
 31
0.0
  0
LINE
  5
41E
100
AcDbEntity
  8
0
  6
CONTINUOUS
 62
               7
100
AcDbLine
 10
1.0
 20
16.299999999999983
 30
0.0
 11
1.0
 21
9.5
 31
0.0
  0
LINE
  5
41F
100
AcDbEntity
  8
0
  6
CONTINUOUS
 62
               7
100
AcDbLine
 10
0.7000000000000455
 20
21.400000000000006
 30
0.0
 11
1.0
 21
21.700000000000017
 31
0.0
  0
LINE
  5
420
100
AcDbEntity
  8
0
  6
CONTINUOUS
 62
               7
100
AcDbLine
 10
0.7000000000000455
 20
16.599999999999994
 30
0.0
 11
1.0
 21
16.299999999999983
 31
0.0
  0
LINE
  5
421
100
AcDbEntity
  8
0
  6
CONTINUOUS
 62
               7
100
AcDbLine
 10
0.7000000000000455
 20
21.400000000000006
 30
0.0
 11
0.7000000000000455
 21
16.599999999999994
 31
0.0
  0
ENDBLK
  5
422
100
AcDbEntity
  8
0
100
AcDbBlockEnd
  0
BLOCK
  5
423
100
AcDbEntity
  8
0
100
AcDbBlockBegin
  2
MGAL6-L-19
 70
               0
 10
0.0
 20
0.0
 30
0.0
  3
MGAL6-L-19
  1

  0
LINE
  5
424
100
AcDbEntity
  8
0
  6
PHANTOM
 62
               3
100
AcDbLine
 10
29.880458026250835
 20
-5.4394982442637172
 30
0.0
 11
29.880458026250835
 21
-26.766260758074168
 31
0.0
  0
LINE
  5
425
100
AcDbEntity
  8
0
  6
PHANTOM
 62
               3
100
AcDbLine
 10
26.880458026250835
 20
18.906265012325122
 30
0.0
 11
26.880458026250835
 21
-5.4394982442637172
 31
0.0
  0
LINE
  5
426
100
AcDbEntity
  8
0
  6
CONTINUOUS
 62
               7
100
AcDbLine
 10
3.5000000025372628
 20
-8.0
 30
0.0
 11
3.5
 21
3.0
 31
0.0
  0
LINE
  5
427
100
AcDbEntity
  8
0
  6
CONTINUOUS
 62
               7
100
AcDbLine
 10
31.249999994809627
 20
-3.0669872735742274
 30
0.0
 11
31.250000005533025
 21
-3.9330127399930461
 31
0.0
  0
LINE
  5
428
100
AcDbEntity
  8
0
  6
CONTINUOUS
 62
               7
100
AcDbLine
 10
32.000000018651463
 20
-2.6339745794537919
 30
0.0
 11
31.249999969770215
 21
-3.0669873219499095
 31
0.0
  0
LINE
  5
429
100
AcDbEntity
  8
0
  6
CONTINUOUS
 62
               7
100
AcDbLine
 10
32.750000023841835
 20
-3.0669873058795645
 30
0.0
 11
31.99999996423719
 21
-2.633974581956835
 31
0.0
  0
LINE
  5
42A
100
AcDbEntity
  8
0
  6
CONTINUOUS
 62
               7
100
AcDbLine
 10
32.750000005190373
 20
-3.9330127264257726
 30
0.0
 11
32.749999994466975
 21
-3.0669872600069539
 31
0.0
  0
CIRCLE
  5
42B
100
AcDbEntity
  8
0
  6
CONTINUOUS
 62
               7
100
AcDbCircle
 10
32.0
 20
-3.5
 30
0.0
 40
1.5
  0
LINE
  5
42C
100
AcDbEntity
  8
0
  6
CONTINUOUS
 62
               2
100
AcDbLine
 10
29.75
 20
-3.5
 30
0.0
 11
34.25
 21
-3.5
 31
0.0
  0
LINE
  5
42D
100
AcDbEntity
  8
0
  6
CONTINUOUS
 62
               2
100
AcDbLine
 10
32.0
 20
-1.25
 30
0.0
 11
32.0
 21
-5.75
 31
0.0
  0
LINE
  5
42E
100
AcDbEntity
  8
0
  6
CONTINUOUS
 62
               7
100
AcDbLine
 10
31.249999976158165
 20
-3.9330126941204355
 30
0.0
 11
32.00000003576281
 21
-4.3660254180431508
 31
0.0
  0
LINE
  5
42F
100
AcDbEntity
  8
0
  6
CONTINUOUS
 62
               7
100
AcDbLine
 10
31.999999981348537
 20
-4.3660254205462081
 30
0.0
 11
32.750000030229785
 21
-3.9330126780500905
 31
0.0
  0
CIRCLE
  5
430
100
AcDbEntity
  8
0
  6
CONTINUOUS
 62
               2
100
AcDbCircle
 10
32.0
 20
-3.5
 30
0.0
 40
1.25
  0
LINE
  5
431
100
AcDbEntity
  8
0
  6
CONTINUOUS
 62
               7
100
AcDbLine
 10
15.249999994809627
 20
-3.0669872735742274
 30
0.0
 11
15.250000005533025
 21
-3.9330127399930461
 31
0.0
  0
LINE
  5
432
100
AcDbEntity
  8
0
  6
CONTINUOUS
 62
               7
100
AcDbLine
 10
16.000000018651576
 20
-2.6339745794537919
 30
0.0
 11
15.249999969770215
 21
-3.0669873219499095
 31
0.0
  0
LINE
  5
433
100
AcDbEntity
  8
0
  6
CONTINUOUS
 62
               7
100
AcDbLine
 10
16.750000023841835
 20
-3.0669873058795645
 30
0.0
 11
15.99999996423719
 21
-2.633974581956835
 31
0.0
  0
LINE
  5
434
100
AcDbEntity
  8
0
  6
CONTINUOUS
 62
               7
100
AcDbLine
 10
16.750000005190373
 20
-3.9330127264257726
 30
0.0
 11
16.749999994467089
 21
-3.0669872600069539
 31
0.0
  0
CIRCLE
  5
435
100
AcDbEntity
  8
0
  6
CONTINUOUS
 62
               7
100
AcDbCircle
 10
16.0
 20
-3.5
 30
0.0
 40
1.5
  0
LINE
  5
436
100
AcDbEntity
  8
0
  6
CONTINUOUS
 62
               2
100
AcDbLine
 10
13.75
 20
-3.5
 30
0.0
 11
18.25
 21
-3.5
 31
0.0
  0
LINE
  5
437
100
AcDbEntity
  8
0
  6
CONTINUOUS
 62
               2
100
AcDbLine
 10
16.0
 20
-1.25
 30
0.0
 11
16.0
 21
-5.75
 31
0.0
  0
LINE
  5
438
100
AcDbEntity
  8
0
  6
CONTINUOUS
 62
               7
100
AcDbLine
 10
15.249999976158165
 20
-3.9330126941204355
 30
0.0
 11
16.00000003576281
 21
-4.3660254180431508
 31
0.0
  0
LINE
  5
439
100
AcDbEntity
  8
0
  6
CONTINUOUS
 62
               7
100
AcDbLine
 10
15.999999981348537
 20
-4.3660254205462081
 30
0.0
 11
16.750000030229785
 21
-3.9330126780500905
 31
0.0
  0
CIRCLE
  5
43A
100
AcDbEntity
  8
0
  6
CONTINUOUS
 62
               2
100
AcDbCircle
 10
16.0
 20
-3.5
 30
0.0
 40
1.25
  0
LINE
  5
43B
100
AcDbEntity
  8
0
  6
CONTINUOUS
 62
               7
100
AcDbLine
 10
7.9999999858414981
 20
-8.0
 30
0.0
 11
3.4999999858414981
 21
-8.0
 31
0.0
  0
LINE
  5
43C
100
AcDbEntity
  8
0
  6
CONTINUOUS
 62
               7
100
AcDbLine
 10
8.9999999858414981
 20
0.8000000000000114
 30
0.0
 11
3.4999999858414981
 21
0.8000000000000114
 31
0.0
  0
ARC
  5
43D
100
AcDbEntity
  8
0
  6
CONTINUOUS
 62
               7
100
AcDbCircle
 10
48.0
 20
0.0
 30
0.0
 40
1.7
100
AcDbArc
 50
6.7563270305879719
 51
173.24367296941207
  0
ARC
  5
43E
100
AcDbEntity
  8
0
  6
DASHED
 62
               2
100
AcDbCircle
 10
48.0
 20
0.0
 30
0.0
 40
1.7
100
AcDbArc
 50
173.24367296941205
 51
6.7563270305879213
  0
CIRCLE
  5
43F
100
AcDbEntity
  8
0
  6
CONTINUOUS
 62
               7
100
AcDbCircle
 10
0.0
 20
0.0
 30
0.0
 40
1.7
  0
LINE
  5
440
100
AcDbEntity
  8
0
  6
CONTINUOUS
 62
               2
100
AcDbLine
 10
48.0
 20
2.7000000000000171
 30
0.0
 11
48.0
 21
-2.7000000000000171
 31
0.0
  0
LINE
  5
441
100
AcDbEntity
  8
0
  6
CONTINUOUS
 62
               2
100
AcDbLine
 10
50.699999999999932
 20
0.0
 30
0.0
 11
45.300000000000068
 21
0.0
 31
0.0
  0
LINE
  5
442
100
AcDbEntity
  8
0
  6
CONTINUOUS
 62
               2
100
AcDbLine
 10
0.0
 20
2.7000000000000171
 30
0.0
 11
0.0
 21
-2.7000000000000171
 31
0.0
  0
LINE
  5
443
100
AcDbEntity
  8
0
  6
CONTINUOUS
 62
               2
100
AcDbLine
 10
-2.6999999999999886
 20
0.0
 30
0.0
 11
2.7000000000000455
 21
0.0
 31
0.0
  0
LINE
  5
444
100
AcDbEntity
  8
0
  6
CONTINUOUS
 62
               7
100
AcDbLine
 10
43.0
 20
2.2000000000000171
 30
0.0
 11
5.0
 21
2.2000000000000171
 31
0.0
  0
LINE
  5
445
100
AcDbEntity
  8
0
  6
CONTINUOUS
 62
               7
100
AcDbLine
 10
0.0
 20
-3.5
 30
0.0
 11
-3.0
 21
-3.5
 31
0.0
  0
ARC
  5
446
100
AcDbEntity
  8
0
  6
CONTINUOUS
 62
               7
100
AcDbCircle
 10
0.0
 20
0.0
 30
0.0
 40
3.5
100
AcDbArc
 50
270.0
 51
0.0
  0
LINE
  5
447
100
AcDbEntity
  8
0
  6
CONTINUOUS
 62
               7
100
AcDbLine
 10
5.0
 20
2.2000000000000171
 30
0.0
 11
5.0
 21
0.8000000000000114
 31
0.0
  0
LINE
  5
448
100
AcDbEntity
  8
0
  6
CONTINUOUS
 62
               7
100
AcDbLine
 10
-3.0
 20
3.0
 30
0.0
 11
-3.0
 21
-10.0
 31
0.0
  0
LINE
  5
449
100
AcDbEntity
  8
0
  6
CONTINUOUS
 62
               7
100
AcDbLine
 10
44.5
 20
0.0
 30
0.0
 11
44.5
 21
3.0
 31
0.0
  0
ARC
  5
44A
100
AcDbEntity
  8
0
  6
CONTINUOUS
 62
               7
100
AcDbCircle
 10
48.0
 20
0.0
 30
0.0
 40
3.5
100
AcDbArc
 50
180.0
 51
214.84990457904655
  0
LINE
  5
44B
100
AcDbEntity
  8
0
  6
CONTINUOUS
 62
               7
100
AcDbLine
 10
51.0
 20
3.0
 30
0.0
 11
51.0
 21
0.2000000000000171
 31
0.0
  0
LINE
  5
44C
100
AcDbEntity
  8
0
  6
CONTINUOUS
 62
               7
100
AcDbLine
 10
43.0
 20
2.2000000000000171
 30
0.0
 11
43.0
 21
1.0
 31
0.0
  0
LINE
  5
44D
100
AcDbEntity
  8
0
  6
CONTINUOUS
 62
               7
100
AcDbLine
 10
8.5
 20
-10.0
 30
0.0
 11
-3.0
 21
-10.0
 31
0.0
  0
LINE
  5
44E
100
AcDbEntity
  8
0
  6
CONTINUOUS
 62
               7
100
AcDbLine
 10
51.0
 20
3.0
 30
0.0
 11
-3.0
 21
3.0
 31
0.0
  0
LINE
  5
44F
100
AcDbEntity
  8
0
  6
CONTINUOUS
 62
               7
100
AcDbLine
 10
8.5
 20
-10.699999999999989
 30
0.0
 11
8.5
 21
-7.1999999999999886
 31
0.0
  0
ARC
  5
450
100
AcDbEntity
  8
0
  6
CONTINUOUS
 62
               7
100
AcDbCircle
 10
8.3000000000000114
 20
-7.7999999999999972
 30
0.0
 40
0.3
100
AcDbArc
 50
90.0
 51
180.0
  0
ARC
  5
451
100
AcDbEntity
  8
0
  6
CONTINUOUS
 62
               7
100
AcDbCircle
 10
8.3000000000000114
 20
-9.2000000000000028
 30
0.0
 40
0.3
100
AcDbArc
 50
180.0
 51
270.0
  0
LINE
  5
452
100
AcDbEntity
  8
0
  6
CONTINUOUS
 62
               7
100
AcDbLine
 10
8.5
 20
-7.5
 30
0.0
 11
8.3000000000000114
 21
-7.5
 31
0.0
  0
LINE
  5
453
100
AcDbEntity
  8
0
  6
CONTINUOUS
 62
               7
100
AcDbLine
 10
8.5
 20
-9.5
 30
0.0
 11
8.3000000000000114
 21
-9.5
 31
0.0
  0
LINE
  5
454
100
AcDbEntity
  8
0
  6
CONTINUOUS
 62
               7
100
AcDbLine
 10
8.0
 20
-7.7999999999999972
 30
0.0
 11
8.0
 21
-9.2000000000000028
 31
0.0
  0
LINE
  5
455
100
AcDbEntity
  8
0
  6
CONTINUOUS
 62
               7
100
AcDbLine
 10
8.9999999982455847
 20
-7.1999999999999886
 30
0.0
 11
8.4999999982455847
 21
-7.1999999999999886
 31
0.0
  0
LINE
  5
456
100
AcDbEntity
  8
0
  6
CONTINUOUS
 62
               7
100
AcDbLine
 10
8.9999999982455847
 20
-10.699999999999989
 30
0.0
 11
8.4999999982455847
 21
-10.699999999999989
 31
0.0
  0
LINE
  5
457
100
AcDbEntity
  8
0
  6
CONTINUOUS
 62
               2
100
AcDbLine
 10
9.9720609170535681
 20
-8.5
 30
0.0
 11
7.3585000633178197
 21
-8.5
 31
0.0
  0
LINE
  5
458
100
AcDbEntity
  8
0
  6
CONTINUOUS
 62
               7
100
AcDbLine
 10
44.0
 20
1.0
 30
0.0
 11
5.0
 21
1.0
 31
0.0
  0
LINE
  5
459
100
AcDbEntity
  8
0
  6
CONTINUOUS
 62
               7
100
AcDbLine
 10
48.0
 20
-11.0
 30
0.0
 11
9.0
 21
-11.0
 31
0.0
  0
LINE
  5
45A
100
AcDbEntity
  8
0
  6
CONTINUOUS
 62
               7
100
AcDbLine
 10
9.0
 20
1.0
 30
0.0
 11
9.0
 21
-11.0
 31
0.0
  0
LINE
  5
45B
100
AcDbEntity
  8
0
  6
CONTINUOUS
 62
               7
100
AcDbLine
 10
44.0
 20
1.0
 30
0.0
 11
44.0
 21
-7.0
 31
0.0
  0
LINE
  5
45C
100
AcDbEntity
  8
0
  6
CONTINUOUS
 62
               7
100
AcDbLine
 10
48.000000024143901
 20
-7.0
 30
0.0
 11
9.0
 21
-7.0
 31
0.0
  0
LINE
  5
45D
100
AcDbEntity
  8
0
  6
CONTINUOUS
 62
               7
100
AcDbLine
 10
48.000000024143901
 20
-7.0
 30
0.0
 11
48.000000024143901
 21
-10.99999998630939
 31
0.0
  0
LINE
  5
45E
100
AcDbEntity
  8
0
  6
CONTINUOUS
 62
               7
100
AcDbLine
 10
53.0
 20
-10.799999999999997
 30
0.0
 11
48.0
 21
-10.799999999999997
 31
0.0
  0
LINE
  5
45F
100
AcDbEntity
  8
0
  6
CONTINUOUS
 62
               7
100
AcDbLine
 10
52.999999972652063
 20
0.2000000000000171
 30
0.0
 11
47.5
 21
0.2000000000000171
 31
0.0
  0
LINE
  5
460
100
AcDbEntity
  8
0
  6
CONTINUOUS
 62
               7
100
AcDbLine
 10
47.5
 20
0.2000000000000171
 30
0.0
 11
47.5
 21
-7.0
 31
0.0
  0
LINE
  5
461
100
AcDbEntity
  8
0
  6
CONTINUOUS
 62
               7
100
AcDbLine
 10
53.0
 20
-10.799999999999997
 30
0.0
 11
53.0
 21
0.2000000000000171
 31
0.0
  0
LINE
  5
462
100
AcDbEntity
  8
0
  6
CONTINUOUS
 62
               2
100
AcDbLine
 10
54.455680109368018
 20
-3.5
 30
0.0
 11
43.346044624153819
 21
-3.5
 31
0.0
  0
CIRCLE
  5
463
100
AcDbEntity
  8
0
  6
CONTINUOUS
 62
               7
100
AcDbCircle
 10
12.0
 20
-2.1999999999999886
 30
0.0
 40
0.8
  0
CIRCLE
  5
464
100
AcDbEntity
  8
0
  6
CONTINUOUS
 62
               2
100
AcDbCircle
 10
12.0
 20
-2.1999999999999886
 30
0.0
 40
1.0
  0
LINE
  5
465
100
AcDbEntity
  8
0
  6
CONTINUOUS
 62
               2
100
AcDbLine
 10
14.0
 20
-2.1999999999999886
 30
0.0
 11
10.0
 21
-2.1999999999999886
 31
0.0
  0
LINE
  5
466
100
AcDbEntity
  8
0
  6
CONTINUOUS
 62
               2
100
AcDbLine
 10
12.0
 20
-0.1999999999999886
 30
0.0
 11
12.0
 21
-4.1999999999999886
 31
0.0
  0
CIRCLE
  5
467
100
AcDbEntity
  8
0
  6
CONTINUOUS
 62
               7
100
AcDbCircle
 10
14.0
 20
-8.9000000000000057
 30
0.0
 40
0.8
  0
CIRCLE
  5
468
100
AcDbEntity
  8
0
  6
CONTINUOUS
 62
               2
100
AcDbCircle
 10
14.0
 20
-8.9000000000000057
 30
0.0
 40
1.0
  0
LINE
  5
469
100
AcDbEntity
  8
0
  6
CONTINUOUS
 62
               2
100
AcDbLine
 10
16.0
 20
-8.9000000000000057
 30
0.0
 11
12.0
 21
-8.9000000000000057
 31
0.0
  0
LINE
  5
46A
100
AcDbEntity
  8
0
  6
CONTINUOUS
 62
               2
100
AcDbLine
 10
14.0
 20
-6.9000000000000057
 30
0.0
 11
14.0
 21
-10.900000000000006
 31
0.0
  0
CIRCLE
  5
46B
100
AcDbEntity
  8
0
  6
CONTINUOUS
 62
               7
100
AcDbCircle
 10
28.0
 20
-8.9000000000000057
 30
0.0
 40
0.8
  0
CIRCLE
  5
46C
100
AcDbEntity
  8
0
  6
CONTINUOUS
 62
               2
100
AcDbCircle
 10
28.0
 20
-8.9000000000000057
 30
0.0
 40
1.0
  0
LINE
  5
46D
100
AcDbEntity
  8
0
  6
CONTINUOUS
 62
               2
100
AcDbLine
 10
30.0
 20
-8.9000000000000057
 30
0.0
 11
26.0
 21
-8.9000000000000057
 31
0.0
  0
LINE
  5
46E
100
AcDbEntity
  8
0
  6
CONTINUOUS
 62
               2
100
AcDbLine
 10
28.0
 20
-6.9000000000000057
 30
0.0
 11
28.0
 21
-10.900000000000006
 31
0.0
  0
CIRCLE
  5
46F
100
AcDbEntity
  8
0
  6
CONTINUOUS
 62
               7
100
AcDbCircle
 10
41.0
 20
-2.1999999999999886
 30
0.0
 40
0.8
  0
CIRCLE
  5
470
100
AcDbEntity
  8
0
  6
CONTINUOUS
 62
               2
100
AcDbCircle
 10
41.0
 20
-2.1999999999999886
 30
0.0
 40
1.0
  0
LINE
  5
471
100
AcDbEntity
  8
0
  6
CONTINUOUS
 62
               2
100
AcDbLine
 10
43.0
 20
-2.1999999999999886
 30
0.0
 11
39.0
 21
-2.1999999999999886
 31
0.0
  0
LINE
  5
472
100
AcDbEntity
  8
0
  6
CONTINUOUS
 62
               2
100
AcDbLine
 10
41.0
 20
-0.1999999999999886
 30
0.0
 11
41.0
 21
-4.1999999999999886
 31
0.0
  0
LINE
  5
473
100
AcDbEntity
  8
0
  6
CONTINUOUS
 62
               7
100
AcDbLine
 10
44.000000024143901
 20
-6.5
 30
0.0
 11
3.5000000025372628
 21
-6.5
 31
0.0
  0
LINE
  5
474
100
AcDbEntity
  8
0
  6
CONTINUOUS
 62
               7
100
AcDbLine
 10
34.5
 20
-6.5000000136906095
 30
0.0
 11
34.5
 21
-4.0
 31
0.0
  0
LINE
  5
475
100
AcDbEntity
  8
0
  6
CONTINUOUS
 62
               7
100
AcDbLine
 10
39.5
 20
-6.5000000136906095
 30
0.0
 11
39.5
 21
-4.0
 31
0.0
  0
LINE
  5
476
100
AcDbEntity
  8
0
  6
CONTINUOUS
 62
               7
100
AcDbLine
 10
39.5
 20
-4.0
 30
0.0
 11
34.5
 21
-4.0
 31
0.0
  0
LINE
  5
477
100
AcDbEntity
  8
0
  6
CONTINUOUS
 62
               7
100
AcDbLine
 10
18.5
 20
-6.5000000136906095
 30
0.0
 11
18.5
 21
-4.0
 31
0.0
  0
LINE
  5
478
100
AcDbEntity
  8
0
  6
CONTINUOUS
 62
               7
100
AcDbLine
 10
23.5
 20
-6.5000000136906095
 30
0.0
 11
23.5
 21
-4.0
 31
0.0
  0
LINE
  5
479
100
AcDbEntity
  8
0
  6
CONTINUOUS
 62
               7
100
AcDbLine
 10
23.5
 20
-4.0
 30
0.0
 11
18.5
 21
-4.0
 31
0.0
  0
LINE
  5
47A
100
AcDbEntity
  8
0
  6
CONTINUOUS
 62
               7
100
AcDbLine
 10
46.0
 20
0.2000000000000171
 30
0.0
 11
47.5
 21
0.2000000000000171
 31
0.0
  0
LINE
  5
47B
100
AcDbEntity
  8
0
  6
CONTINUOUS
 62
               7
100
AcDbLine
 10
46.0
 20
0.2000000000000171
 30
0.0
 11
46.0
 21
-7.0
 31
0.0
  0
LINE
  5
47C
100
AcDbEntity
  8
0
  6
CONTINUOUS
 62
               7
100
AcDbLine
 10
45.5
 20
-5.0
 30
0.0
 11
44.0
 21
-5.0
 31
0.0
  0
LINE
  5
47D
100
AcDbEntity
  8
0
  6
CONTINUOUS
 62
               7
100
AcDbLine
 10
45.5
 20
-2.0
 30
0.0
 11
44.0
 21
-2.0
 31
0.0
  0
LINE
  5
47E
100
AcDbEntity
  8
0
  6
CONTINUOUS
 62
               7
100
AcDbLine
 10
48.0
 20
-10.5
 30
0.0
 11
9.0
 21
-10.5
 31
0.0
  0
LINE
  5
47F
100
AcDbEntity
  8
0
  6
CONTINUOUS
 62
               7
100
AcDbLine
 10
53.0
 20
-10.299999999999997
 30
0.0
 11
48.0
 21
-10.299999999999997
 31
0.0
  0
LINE
  5
480
100
AcDbEntity
  8
0
  6
CONTINUOUS
 62
               7
100
AcDbLine
 10
47.5
 20
-2.2999999999999829
 30
0.0
 11
46.0
 21
-2.2999999999999829
 31
0.0
  0
LINE
  5
481
100
AcDbEntity
  8
0
  6
CONTINUOUS
 62
               7
100
AcDbLine
 10
47.5
 20
-4.7000000000000028
 30
0.0
 11
46.0
 21
-4.7000000000000028
 31
0.0
  0
LINE
  5
482
100
AcDbEntity
  8
0
  6
CONTINUOUS
 62
               2
100
AcDbLine
 10
46.0
 20
-2.2999999999999829
 30
0.0
 11
47.5
 21
-4.7000000000000028
 31
0.0
  0
LINE
  5
483
100
AcDbEntity
  8
0
  6
CONTINUOUS
 62
               2
100
AcDbLine
 10
47.5
 20
-2.2999999999999829
 30
0.0
 11
46.0
 21
-4.7000000000000028
 31
0.0
  0
LINE
  5
484
100
AcDbEntity
  8
0
  6
CONTINUOUS
 62
               7
100
AcDbLine
 10
45.5
 20
-1.0
 30
0.0
 11
45.5
 21
-6.0
 31
0.0
  0
LINE
  5
485
100
AcDbEntity
  8
0
  6
CONTINUOUS
 62
               7
100
AcDbLine
 10
45.5
 20
-6.0
 30
0.0
 11
46.0
 21
-6.0
 31
0.0
  0
LINE
  5
486
100
AcDbEntity
  8
0
  6
CONTINUOUS
 62
               7
100
AcDbLine
 10
45.5
 20
-1.0
 30
0.0
 11
46.0
 21
-1.0
 31
0.0
  0
LINE
  5
487
100
AcDbEntity
  8
0
  6
PHANTOM
 62
               3
100
AcDbLine
 10
26.880458026250835
 20
-5.4394982442637172
 30
0.0
 11
29.880458026250835
 21
-5.4394982442637172
 31
0.0
  0
ENDBLK
  5
488
100
AcDbEntity
  8
0
100
AcDbBlockEnd
  0
BLOCK
  5
489
100
AcDbEntity
  8
0
100
AcDbBlockBegin
  2
MGAL6-L-20
 70
               0
 10
0.0
 20
0.0
 30
0.0
  3
MGAL6-L-20
  1

  0
LINE
  5
48A
100
AcDbEntity
  8
0
  6
PHANTOM
 62
               3
100
AcDbLine
 10
24.096874223396838
 20
22.591300282355348
 30
0.0
 11
24.096874223396838
 21
-18.477831282738659
 31
0.0
  0
LINE
  5
48B
100
AcDbEntity
  8
0
  6
CONTINUOUS
 62
               2
100
AcDbLine
 10
26.549999999999955
 20
3.5
 30
0.0
 11
37.449999999999932
 21
3.5
 31
0.0
  0
CIRCLE
  5
48C
100
AcDbEntity
  8
0
  6
CONTINUOUS
 62
               7
100
AcDbCircle
 10
32.0
 20
3.5
 30
0.0
 40
2.6000000000000001
  0
LINE
  5
48D
100
AcDbEntity
  8
0
  6
CONTINUOUS
 62
               7
100
AcDbLine
 10
32.000000002881166
 20
4.6547005345366728
 30
0.0
 11
33.000000015353294
 21
4.0773502587827153
 31
0.0
  0
LINE
  5
48E
100
AcDbEntity
  8
0
  6
CONTINUOUS
 62
               7
100
AcDbLine
 10
32.999999998112798
 20
4.0773502647731377
 30
0.0
 11
32.999999998663952
 21
2.922649712310573
 31
0.0
  0
LINE
  5
48F
100
AcDbEntity
  8
0
  6
CONTINUOUS
 62
               7
100
AcDbLine
 10
32.999999995231633
 20
2.9226497302364649
 30
0.0
 11
31.999999983310659
 21
2.3452994535278577
 31
0.0
  0
LINE
  5
490
100
AcDbEntity
  8
0
  6
CONTINUOUS
 62
               7
100
AcDbLine
 10
31.999999997118834
 20
2.3452994654633272
 30
0.0
 11
30.999999984646706
 21
2.9226497412172918
 31
0.0
  0
LINE
  5
491
100
AcDbEntity
  8
0
  6
CONTINUOUS
 62
               7
100
AcDbLine
 10
31.000000001887202
 20
2.9226497352268623
 30
0.0
 11
31.000000001336048
 21
4.077350287689427
 31
0.0
  0
LINE
  5
492
100
AcDbEntity
  8
0
  6
CONTINUOUS
 62
               7
100
AcDbLine
 10
31.000000004768367
 20
4.0773502697635351
 30
0.0
 11
32.000000016689341
 21
4.6547005464721423
 31
0.0
  0
CIRCLE
  5
493
100
AcDbEntity
  8
0
  6
CONTINUOUS
 62
               7
100
AcDbCircle
 10
32.0
 20
3.5
 30
0.0
 40
3.5
  0
LINE
  5
494
100
AcDbEntity
  8
0
  6
CONTINUOUS
 62
               2
100
AcDbLine
 10
32.0
 20
8.9500000000000028
 30
0.0
 11
32.0
 21
-1.9500000000000028
 31
0.0
  0
CIRCLE
  5
495
100
AcDbEntity
  8
0
  6
CONTINUOUS
 62
               7
100
AcDbCircle
 10
32.0
 20
3.5
 30
0.0
 40
4.25
  0
LINE
  5
496
100
AcDbEntity
  8
0
  6
CONTINUOUS
 62
               2
100
AcDbLine
 10
10.550000000000011
 20
3.5
 30
0.0
 11
21.450000000000045
 21
3.5
 31
0.0
  0
CIRCLE
  5
497
100
AcDbEntity
  8
0
  6
CONTINUOUS
 62
               7
100
AcDbCircle
 10
16.0
 20
3.5
 30
0.0
 40
2.6000000000000001
  0
LINE
  5
498
100
AcDbEntity
  8
0
  6
CONTINUOUS
 62
               7
100
AcDbLine
 10
16.000000002881279
 20
4.6547005345366728
 30
0.0
 11
17.000000015353294
 21
4.0773502587827153
 31
0.0
  0
LINE
  5
499
100
AcDbEntity
  8
0
  6
CONTINUOUS
 62
               7
100
AcDbLine
 10
16.999999998112912
 20
4.0773502647731377
 30
0.0
 11
16.999999998664066
 21
2.922649712310573
 31
0.0
  0
LINE
  5
49A
100
AcDbEntity
  8
0
  6
CONTINUOUS
 62
               7
100
AcDbLine
 10
16.999999995231633
 20
2.9226497302364649
 30
0.0
 11
15.999999983310772
 21
2.3452994535278577
 31
0.0
  0
LINE
  5
49B
100
AcDbEntity
  8
0
  6
CONTINUOUS
 62
               7
100
AcDbLine
 10
15.999999997118834
 20
2.3452994654633272
 30
0.0
 11
14.999999984646706
 21
2.9226497412172918
 31
0.0
  0
LINE
  5
49C
100
AcDbEntity
  8
0
  6
CONTINUOUS
 62
               7
100
AcDbLine
 10
15.000000001887202
 20
2.9226497352268623
 30
0.0
 11
15.000000001336048
 21
4.077350287689427
 31
0.0
  0
LINE
  5
49D
100
AcDbEntity
  8
0
  6
CONTINUOUS
 62
               7
100
AcDbLine
 10
15.000000004768367
 20
4.0773502697635351
 30
0.0
 11
16.000000016689341
 21
4.6547005464721423
 31
0.0
  0
CIRCLE
  5
49E
100
AcDbEntity
  8
0
  6
CONTINUOUS
 62
               7
100
AcDbCircle
 10
16.0
 20
3.5
 30
0.0
 40
3.5
  0
LINE
  5
49F
100
AcDbEntity
  8
0
  6
CONTINUOUS
 62
               2
100
AcDbLine
 10
16.0
 20
8.9500000000000028
 30
0.0
 11
16.0
 21
-1.9500000000000028
 31
0.0
  0
CIRCLE
  5
4A0
100
AcDbEntity
  8
0
  6
CONTINUOUS
 62
               7
100
AcDbCircle
 10
16.0
 20
3.5
 30
0.0
 40
4.25
  0
LINE
  5
4A1
100
AcDbEntity
  8
0
  6
CONTINUOUS
 62
               7
100
AcDbLine
 10
51.0
 20
-3.0
 30
0.0
 11
-3.0
 21
-3.0
 31
0.0
  0
LINE
  5
4A2
100
AcDbEntity
  8
0
  6
CONTINUOUS
 62
               7
100
AcDbLine
 10
52.999999972652063
 20
-0.2000000000000028
 30
0.0
 11
51.0
 21
-0.2000000000000028
 31
0.0
  0
CIRCLE
  5
4A3
100
AcDbEntity
  8
0
  6
CONTINUOUS
 62
               7
100
AcDbCircle
 10
48.0
 20
7.0
 30
0.0
 40
1.5
  0
LINE
  5
4A4
100
AcDbEntity
  8
0
  6
CONTINUOUS
 62
               2
100
AcDbLine
 10
48.0
 20
4.5
 30
0.0
 11
48.0
 21
9.5
 31
0.0
  0
LINE
  5
4A5
100
AcDbEntity
  8
0
  6
CONTINUOUS
 62
               2
100
AcDbLine
 10
50.5
 20
7.0
 30
0.0
 11
45.5
 21
7.0
 31
0.0
  0
CIRCLE
  5
4A6
100
AcDbEntity
  8
0
  6
CONTINUOUS
 62
               7
100
AcDbCircle
 10
0.0
 20
7.0
 30
0.0
 40
1.5
  0
LINE
  5
4A7
100
AcDbEntity
  8
0
  6
CONTINUOUS
 62
               2
100
AcDbLine
 10
0.0
 20
4.5
 30
0.0
 11
0.0
 21
9.5
 31
0.0
  0
LINE
  5
4A8
100
AcDbEntity
  8
0
  6
CONTINUOUS
 62
               2
100
AcDbLine
 10
2.5
 20
7.0
 30
0.0
 11
-2.5
 21
7.0
 31
0.0
  0
LINE
  5
4A9
100
AcDbEntity
  8
0
  6
CONTINUOUS
 62
               2
100
AcDbLine
 10
45.300000000000068
 20
0.0
 30
0.0
 11
50.699999999999932
 21
0.0
 31
0.0
  0
LINE
  5
4AA
100
AcDbEntity
  8
0
  6
CONTINUOUS
 62
               7
100
AcDbLine
 10
51.0
 20
10.0
 30
0.0
 11
-3.0
 21
10.0
 31
0.0
  0
LINE
  5
4AB
100
AcDbEntity
  8
0
  6
CONTINUOUS
 62
               2
100
AcDbLine
 10
-2.6999999999999886
 20
0.0
 30
0.0
 11
2.7000000000000455
 21
0.0
 31
0.0
  0
LINE
  5
4AC
100
AcDbEntity
  8
0
  6
CONTINUOUS
 62
               7
100
AcDbLine
 10
8.5
 20
10.699999999999996
 30
0.0
 11
8.5
 21
10.0
 31
0.0
  0
LINE
  5
4AD
100
AcDbEntity
  8
0
  6
CONTINUOUS
 62
               7
100
AcDbLine
 10
8.9999999982455847
 20
10.699999999999996
 30
0.0
 11
8.4999999982455847
 21
10.699999999999996
 31
0.0
  0
LINE
  5
4AE
100
AcDbEntity
  8
0
  6
CONTINUOUS
 62
               7
100
AcDbLine
 10
53.0
 20
10.299999999999997
 30
0.0
 11
48.0
 21
10.299999999999997
 31
0.0
  0
LINE
  5
4AF
100
AcDbEntity
  8
0
  6
CONTINUOUS
 62
               7
100
AcDbLine
 10
48.0
 20
10.5
 30
0.0
 11
9.0
 21
10.5
 31
0.0
  0
LINE
  5
4B0
100
AcDbEntity
  8
0
  6
CONTINUOUS
 62
               7
100
AcDbLine
 10
53.0
 20
10.799999999999997
 30
0.0
 11
48.0
 21
10.799999999999997
 31
0.0
  0
LINE
  5
4B1
100
AcDbEntity
  8
0
  6
CONTINUOUS
 62
               7
100
AcDbLine
 10
48.000000024143901
 20
10.0
 30
0.0
 11
48.000000024143901
 21
10.99999998630939
 31
0.0
  0
LINE
  5
4B2
100
AcDbEntity
  8
0
  6
CONTINUOUS
 62
               7
100
AcDbLine
 10
9.0
 20
10.0
 30
0.0
 11
9.0
 21
11.0
 31
0.0
  0
LINE
  5
4B3
100
AcDbEntity
  8
0
  6
CONTINUOUS
 62
               7
100
AcDbLine
 10
48.0
 20
11.0
 30
0.0
 11
9.0
 21
11.0
 31
0.0
  0
LINE
  5
4B4
100
AcDbEntity
  8
0
  6
CONTINUOUS
 62
               7
100
AcDbLine
 10
53.0
 20
10.799999999999997
 30
0.0
 11
53.0
 21
-0.2000000000000028
 31
0.0
  0
LINE
  5
4B5
100
AcDbEntity
  8
0
  6
CONTINUOUS
 62
               7
100
AcDbLine
 10
-3.0
 20
-3.0
 30
0.0
 11
-3.0
 21
10.0
 31
0.0
  0
LINE
  5
4B6
100
AcDbEntity
  8
0
  6
CONTINUOUS
 62
               2
100
AcDbLine
 10
0.0
 20
-2.7000000000000028
 30
0.0
 11
0.0
 21
2.7000000000000028
 31
0.0
  0
CIRCLE
  5
4B7
100
AcDbEntity
  8
0
  6
CONTINUOUS
 62
               7
100
AcDbCircle
 10
0.0
 20
0.0
 30
0.0
 40
1.7
  0
LINE
  5
4B8
100
AcDbEntity
  8
0
  6
CONTINUOUS
 62
               7
100
AcDbLine
 10
51.0
 20
-3.0
 30
0.0
 11
51.0
 21
10.0
 31
0.0
  0
LINE
  5
4B9
100
AcDbEntity
  8
0
  6
CONTINUOUS
 62
               2
100
AcDbLine
 10
48.0
 20
-2.7000000000000028
 30
0.0
 11
48.0
 21
2.7000000000000028
 31
0.0
  0
CIRCLE
  5
4BA
100
AcDbEntity
  8
0
  6
CONTINUOUS
 62
               7
100
AcDbCircle
 10
48.0
 20
0.0
 30
0.0
 40
1.7
  0
LINE
  5
4BB
100
AcDbEntity
  8
0
  6
PHANTOM
 62
               3
100
AcDbLine
 10
29.880458026250835
 20
22.593408632710108
 30
0.0
 11
24.096874223396838
 21
22.593408632710108
 31
0.0
  0
ENDBLK
  5
4BC
100
AcDbEntity
  8
0
100
AcDbBlockEnd
  0
BLOCK
  5
4BD
100
AcDbEntity
  8
0
100
AcDbBlockBegin
  2
MGAL6-L-21
 70
               0
 10
0.0
 20
0.0
 30
0.0
  3
MGAL6-L-21
  1

  0
LINE
  5
4BE
100
AcDbEntity
  8
0
  6
PHANTOM
 62
               3
100
AcDbLine
 10
24.096874220859519
 20
16.022168717261337
 30
0.0
 11
24.096874220859519
 21
-36.000275776001132
 31
0.0
  0
LINE
  5
4BF
100
AcDbEntity
  8
0
  6
CONTINUOUS
 62
               2
100
AcDbLine
 10
20.999999999999943
 20
-23.5
 30
0.0
 11
20.999999999999943
 21
-28.5
 31
0.0
  0
CIRCLE
  5
4C0
100
AcDbEntity
  8
0
  6
CONTINUOUS
 62
               2
100
AcDbCircle
 10
20.999999999999943
 20
-26.0
 30
0.0
 40
1.5
  0
CIRCLE
  5
4C1
100
AcDbEntity
  8
0
  6
CONTINUOUS
 62
               7
100
AcDbCircle
 10
20.999999999999943
 20
-26.0
 30
0.0
 40
1.25
  0
LINE
  5
4C2
100
AcDbEntity
  8
0
  6
CONTINUOUS
 62
               2
100
AcDbLine
 10
36.999999999999943
 20
-23.5
 30
0.0
 11
36.999999999999943
 21
-28.5
 31
0.0
  0
CIRCLE
  5
4C3
100
AcDbEntity
  8
0
  6
CONTINUOUS
 62
               2
100
AcDbCircle
 10
36.999999999999943
 20
-26.0
 30
0.0
 40
1.5
  0
CIRCLE
  5
4C4
100
AcDbEntity
  8
0
  6
CONTINUOUS
 62
               7
100
AcDbCircle
 10
36.999999999999943
 20
-26.0
 30
0.0
 40
1.25
  0
LINE
  5
4C5
100
AcDbEntity
  8
0
  6
CONTINUOUS
 62
               2
100
AcDbLine
 10
28.999999999999943
 20
-23.5
 30
0.0
 11
28.999999999999943
 21
-28.5
 31
0.0
  0
CIRCLE
  5
4C6
100
AcDbEntity
  8
0
  6
CONTINUOUS
 62
               7
100
AcDbCircle
 10
28.999999999999943
 20
-26.0
 30
0.0
 40
1.5
  0
LINE
  5
4C7
100
AcDbEntity
  8
0
  6
CONTINUOUS
 62
               7
100
AcDbLine
 10
47.499999999999943
 20
-29.0
 30
0.0
 11
47.499999999999943
 21
-9.0
 31
0.0
  0
LINE
  5
4C8
100
AcDbEntity
  8
0
  6
CONTINUOUS
 62
               7
100
AcDbLine
 10
52.999999999999943
 20
-8.9999999863093905
 30
0.0
 11
52.999999999999943
 21
-28.99999998630939
 31
0.0
  0
LINE
  5
4C9
100
AcDbEntity
  8
0
  6
CONTINUOUS
 62
               7
100
AcDbLine
 10
43.999999999999943
 20
-9.5
 30
0.0
 11
43.999999999999943
 21
-28.49999998630939
 31
0.0
  0
LINE
  5
4CA
100
AcDbEntity
  8
0
  6
CONTINUOUS
 62
               7
100
AcDbLine
 10
8.9999999999999432
 20
-11.000000007980816
 30
0.0
 11
8.9999999999999432
 21
-29.0
 31
0.0
  0
LINE
  5
4CB
100
AcDbEntity
  8
0
  6
CONTINUOUS
 62
               7
100
AcDbLine
 10
3.4999999999999432
 20
-28.0
 30
0.0
 11
3.4999999999999432
 21
-10.0
 31
0.0
  0
ARC
  5
4CC
100
AcDbEntity
  8
0
  6
CONTINUOUS
 62
               7
100
AcDbCircle
 10
28.999999999999943
 20
-11.5
 30
0.0
 40
1.5
100
AcDbArc
 50
0.0
 51
19.471220311154021
  0
ARC
  5
4CD
100
AcDbEntity
  8
0
  6
CONTINUOUS
 62
               7
100
AcDbCircle
 10
28.999999999999943
 20
-11.5
 30
0.0
 40
1.5
100
AcDbArc
 50
160.52877968884599
 51
180.0
  0
LINE
  5
4CE
100
AcDbEntity
  8
0
  6
CONTINUOUS
 62
               2
100
AcDbLine
 10
17.699999999999989
 20
-5.9999999999999858
 30
0.0
 11
14.300000000000011
 21
-5.9999999999999858
 31
0.0
  0
CIRCLE
  5
4CF
100
AcDbEntity
  8
0
  6
CONTINUOUS
 62
               7
100
AcDbCircle
 10
16.000000000000057
 20
-5.9999999999999858
 30
0.0
 40
1.1000000000000001
  0
LINE
  5
4D0
100
AcDbEntity
  8
0
  6
CONTINUOUS
 62
               2
100
AcDbLine
 10
16.000000000000057
 20
-4.2999999999999972
 30
0.0
 11
16.000000000000057
 21
-7.7000000000000028
 31
0.0
  0
LINE
  5
4D1
100
AcDbEntity
  8
0
  6
CONTINUOUS
 62
               2
100
AcDbLine
 10
33.699999999999989
 20
-5.9999999999999858
 30
0.0
 11
30.300000000000011
 21
-5.9999999999999858
 31
0.0
  0
CIRCLE
  5
4D2
100
AcDbEntity
  8
0
  6
CONTINUOUS
 62
               7
100
AcDbCircle
 10
31.999999999999943
 20
-5.9999999999999858
 30
0.0
 40
1.1000000000000001
  0
LINE
  5
4D3
100
AcDbEntity
  8
0
  6
CONTINUOUS
 62
               2
100
AcDbLine
 10
31.999999999999943
 20
-4.2999999999999972
 30
0.0
 11
31.999999999999943
 21
-7.7000000000000028
 31
0.0
  0
LINE
  5
4D4
100
AcDbEntity
  8
0
  6
CONTINUOUS
 62
               7
100
AcDbLine
 10
5.0
 20
-10.0
 30
0.0
 11
3.4999999999999432
 21
-10.0
 31
0.0
  0
LINE
  5
4D5
100
AcDbEntity
  8
0
  6
CONTINUOUS
 62
               7
100
AcDbLine
 10
3.5
 20
-8.3000000000000114
 30
0.0
 11
3.5
 21
-5.0
 31
0.0
  0
LINE
  5
4D6
100
AcDbEntity
  8
0
  6
CONTINUOUS
 62
               7
100
AcDbLine
 10
-3.0
 20
-5.0
 30
0.0
 11
3.5
 21
-5.0
 31
0.0
  0
LINE
  5
4D7
100
AcDbEntity
  8
0
  6
CONTINUOUS
 62
               2
100
AcDbLine
 10
0.0
 20
-6.2000000000000028
 30
0.0
 11
0.0
 21
1.2000000000000028
 31
0.0
  0
LINE
  5
4D8
100
AcDbEntity
  8
0
  6
CONTINUOUS
 62
               2
100
AcDbLine
 10
47.999999999999943
 20
-6.2000000000000028
 30
0.0
 11
47.999999999999943
 21
1.2000000000000028
 31
0.0
  0
LINE
  5
4D9
100
AcDbEntity
  8
0
  6
CONTINUOUS
 62
               7
100
AcDbLine
 10
50.999999999999943
 20
-5.0
 30
0.0
 11
44.499999999999943
 21
-5.0
 31
0.0
  0
LINE
  5
4DA
100
AcDbEntity
  8
0
  6
CONTINUOUS
 62
               7
100
AcDbLine
 10
44.499999999999943
 20
-8.3000000000000114
 30
0.0
 11
44.499999999999943
 21
-5.0
 31
0.0
  0
LINE
  5
4DB
100
AcDbEntity
  8
0
  6
CONTINUOUS
 62
               7
100
AcDbLine
 10
42.999999999999943
 20
-11.000000007980816
 30
0.0
 11
42.999999999999943
 21
-8.3000000000000114
 31
0.0
  0
LINE
  5
4DC
100
AcDbEntity
  8
0
  6
CONTINUOUS
 62
               7
100
AcDbLine
 10
5.0
 20
-11.000000007980816
 30
0.0
 11
5.0
 21
-8.3000000000000114
 31
0.0
  0
LINE
  5
4DD
100
AcDbEntity
  8
0
  6
CONTINUOUS
 62
               7
100
AcDbLine
 10
50.999999999999943
 20
-8.3000000000000114
 30
0.0
 11
50.999999999999943
 21
0.0
 31
0.0
  0
LINE
  5
4DE
100
AcDbEntity
  8
0
  6
CONTINUOUS
 62
               7
100
AcDbLine
 10
-3.0
 20
0.0000000136906095
 30
0.0
 11
-3.0
 21
-8.3000000000000114
 31
0.0
  0
LINE
  5
4DF
100
AcDbEntity
  8
0
  6
CONTINUOUS
 62
               7
100
AcDbLine
 10
50.999999999999943
 20
-8.3000000000000114
 30
0.0
 11
-3.0
 21
-8.3000000000000114
 31
0.0
  0
LINE
  5
4E0
100
AcDbEntity
  8
0
  6
CONTINUOUS
 62
               7
100
AcDbLine
 10
42.999999999999943
 20
-11.000000007980816
 30
0.0
 11
5.0
 21
-11.000000007980816
 31
0.0
  0
LINE
  5
4E1
100
AcDbEntity
  8
0
  6
CONTINUOUS
 62
               7
100
AcDbLine
 10
50.999999999999943
 20
0.0
 30
0.0
 11
-3.0
 21
0.0
 31
0.0
  0
LINE
  5
4E2
100
AcDbEntity
  8
0
  6
CONTINUOUS
 62
               7
100
AcDbLine
 10
44.499999999999943
 20
-21.5
 30
0.0
 11
44.699999999999989
 21
-21.5
 31
0.0
  0
ARC
  5
4E3
100
AcDbEntity
  8
0
  6
CONTINUOUS
 62
               7
100
AcDbCircle
 10
44.699999999999989
 20
-21.200000000000003
 30
0.0
 40
0.3
100
AcDbArc
 50
270.0
 51
0.0
  0
LINE
  5
4E4
100
AcDbEntity
  8
0
  6
CONTINUOUS
 62
               7
100
AcDbLine
 10
44.499999999999943
 20
-22.299999999999997
 30
0.0
 11
43.999999999999943
 21
-22.299999999999997
 31
0.0
  0
LINE
  5
4E5
100
AcDbEntity
  8
0
  6
CONTINUOUS
 62
               7
100
AcDbLine
 10
44.999999999999943
 20
-21.200000000000003
 30
0.0
 11
44.999999999999943
 21
-20.5
 31
0.0
  0
LINE
  5
4E6
100
AcDbEntity
  8
0
  6
CONTINUOUS
 62
               7
100
AcDbLine
 10
44.499999999999943
 20
-20.5
 30
0.0
 11
44.499999999999943
 21
-22.299999999999997
 31
0.0
  0
ARC
  5
4E7
100
AcDbEntity
  8
0
  6
CONTINUOUS
 62
               7
100
AcDbCircle
 10
44.699999999999989
 20
-16.799999999999997
 30
0.0
 40
0.3
100
AcDbArc
 50
0.0
 51
90.0
  0
LINE
  5
4E8
100
AcDbEntity
  8
0
  6
CONTINUOUS
 62
               7
100
AcDbLine
 10
44.499999999999943
 20
-16.5
 30
0.0
 11
44.699999999999989
 21
-16.5
 31
0.0
  0
LINE
  5
4E9
100
AcDbEntity
  8
0
  6
CONTINUOUS
 62
               7
100
AcDbLine
 10
44.499999999999943
 20
-15.699999999999989
 30
0.0
 11
43.999999999999943
 21
-15.699999999999989
 31
0.0
  0
LINE
  5
4EA
100
AcDbEntity
  8
0
  6
CONTINUOUS
 62
               7
100
AcDbLine
 10
44.999999999999943
 20
-17.5
 30
0.0
 11
44.999999999999943
 21
-16.799999999999997
 31
0.0
  0
LINE
  5
4EB
100
AcDbEntity
  8
0
  6
CONTINUOUS
 62
               7
100
AcDbLine
 10
44.499999999999943
 20
-15.699999999999989
 30
0.0
 11
44.499999999999943
 21
-17.5
 31
0.0
  0
LINE
  5
4EC
100
AcDbEntity
  8
0
  6
CONTINUOUS
 62
               7
100
AcDbLine
 10
52.999999972652006
 20
-9.0
 30
0.0
 11
42.999999999999943
 21
-9.0
 31
0.0
  0
LINE
  5
4ED
100
AcDbEntity
  8
0
  6
CONTINUOUS
 62
               7
100
AcDbLine
 10
44.000000024143958
 20
-9.5
 30
0.0
 11
42.999999999999943
 21
-9.5
 31
0.0
  0
LINE
  5
4EE
100
AcDbEntity
  8
0
  6
CONTINUOUS
 62
               2
100
AcDbLine
 10
54.988731881786805
 20
-19.0
 30
0.0
 11
1.2940348662665997
 21
-19.0
 31
0.0
  0
LINE
  5
4EF
100
AcDbEntity
  8
0
  6
CONTINUOUS
 62
               7
100
AcDbLine
 10
45.499999999999943
 20
-17.5
 30
0.0
 11
43.999999999999943
 21
-17.5
 31
0.0
  0
LINE
  5
4F0
100
AcDbEntity
  8
0
  6
CONTINUOUS
 62
               7
100
AcDbLine
 10
45.499999999999943
 20
-20.5
 30
0.0
 11
43.999999999999943
 21
-20.5
 31
0.0
  0
LINE
  5
4F1
100
AcDbEntity
  8
0
  6
CONTINUOUS
 62
               7
100
AcDbLine
 10
47.499999999999943
 20
-15.5
 30
0.0
 11
45.999999999999943
 21
-15.5
 31
0.0
  0
LINE
  5
4F2
100
AcDbEntity
  8
0
  6
CONTINUOUS
 62
               7
100
AcDbLine
 10
47.499999999999943
 20
-22.5
 30
0.0
 11
45.999999999999943
 21
-22.5
 31
0.0
  0
LINE
  5
4F3
100
AcDbEntity
  8
0
  6
CONTINUOUS
 62
               2
100
AcDbLine
 10
26.499999999999943
 20
-26.0
 30
0.0
 11
31.499999999999943
 21
-26.0
 31
0.0
  0
LINE
  5
4F4
100
AcDbEntity
  8
0
  6
CONTINUOUS
 62
               2
100
AcDbLine
 10
28.999999999999943
 20
-10.14484254200147
 30
0.0
 11
28.999999999999943
 21
-14.799999998230319
 31
0.0
  0
LINE
  5
4F5
100
AcDbEntity
  8
0
  6
CONTINUOUS
 62
               2
100
AcDbLine
 10
31.300000000000011
 20
-12.0
 30
0.0
 11
26.699999999999989
 21
-12.0
 31
0.0
  0
ARC
  5
4F6
100
AcDbEntity
  8
0
  6
CONTINUOUS
 62
               7
100
AcDbCircle
 10
28.999999999999943
 20
-12.5
 30
0.0
 40
1.5
100
AcDbArc
 50
180.0
 51
0.0
  0
LINE
  5
4F7
100
AcDbEntity
  8
0
  6
CONTINUOUS
 62
               7
100
AcDbLine
 10
27.499999999999943
 20
-12.5
 30
0.0
 11
27.499999999999943
 21
-11.5
 31
0.0
  0
LINE
  5
4F8
100
AcDbEntity
  8
0
  6
CONTINUOUS
 62
               7
100
AcDbLine
 10
30.499999999999943
 20
-12.5
 30
0.0
 11
30.499999999999943
 21
-11.5
 31
0.0
  0
ARC
  5
4F9
100
AcDbEntity
  8
0
  6
CONTINUOUS
 62
               7
100
AcDbCircle
 10
36.999999999999943
 20
-12.0
 30
0.0
 40
1.25
100
AcDbArc
 50
126.86989825553343
 51
53.13010174446655
  0
LINE
  5
4FA
100
AcDbEntity
  8
0
  6
CONTINUOUS
 62
               2
100
AcDbLine
 10
39.499999999999943
 20
-12.0
 30
0.0
 11
34.500000000000057
 21
-12.0
 31
0.0
  0
ARC
  5
4FB
100
AcDbEntity
  8
0
  6
CONTINUOUS
 62
               2
100
AcDbCircle
 10
36.999999999999943
 20
-12.0
 30
0.0
 40
1.5
100
AcDbArc
 50
138.18968551321313
 51
41.810314486786858
  0
LINE
  5
4FC
100
AcDbEntity
  8
0
  6
CONTINUOUS
 62
               2
100
AcDbLine
 10
36.999999999999943
 20
-10.14484254200147
 30
0.0
 11
36.999999999999943
 21
-14.5
 31
0.0
  0
ARC
  5
4FD
100
AcDbEntity
  8
0
  6
CONTINUOUS
 62
               7
100
AcDbCircle
 10
20.999999999999943
 20
-12.0
 30
0.0
 40
1.25
100
AcDbArc
 50
126.86989825553347
 51
53.13010174446655
  0
LINE
  5
4FE
100
AcDbEntity
  8
0
  6
CONTINUOUS
 62
               2
100
AcDbLine
 10
23.499999999999943
 20
-12.0
 30
0.0
 11
18.500000000000057
 21
-12.0
 31
0.0
  0
ARC
  5
4FF
100
AcDbEntity
  8
0
  6
CONTINUOUS
 62
               2
100
AcDbCircle
 10
20.999999999999943
 20
-12.0
 30
0.0
 40
1.5
100
AcDbArc
 50
138.18968551321353
 51
41.810314486786453
  0
LINE
  5
500
100
AcDbEntity
  8
0
  6
CONTINUOUS
 62
               2
100
AcDbLine
 10
20.999999999999943
 20
-10.14484254200147
 30
0.0
 11
20.999999999999943
 21
-14.5
 31
0.0
  0
LINE
  5
501
100
AcDbEntity
  8
0
  6
CONTINUOUS
 62
               2
100
AcDbLine
 10
39.499999999999943
 20
-26.0
 30
0.0
 11
34.500000000000057
 21
-26.0
 31
0.0
  0
LINE
  5
502
100
AcDbEntity
  8
0
  6
CONTINUOUS
 62
               2
100
AcDbLine
 10
23.499999999999943
 20
-26.0
 30
0.0
 11
18.500000000000057
 21
-26.0
 31
0.0
  0
LINE
  5
503
100
AcDbEntity
  8
0
  6
CONTINUOUS
 62
               7
100
AcDbLine
 10
49.999999999999943
 20
-16.5
 30
0.0
 11
47.499999999999943
 21
-16.5
 31
0.0
  0
LINE
  5
504
100
AcDbEntity
  8
0
  6
CONTINUOUS
 62
               7
100
AcDbLine
 10
49.999999999999943
 20
-21.5
 30
0.0
 11
47.499999999999943
 21
-21.5
 31
0.0
  0
LINE
  5
505
100
AcDbEntity
  8
0
  6
CONTINUOUS
 62
               7
100
AcDbLine
 10
52.499999999999943
 20
-22.700000000000003
 30
0.0
 11
49.999999999999943
 21
-22.700000000000003
 31
0.0
  0
LINE
  5
506
100
AcDbEntity
  8
0
  6
CONTINUOUS
 62
               7
100
AcDbLine
 10
52.499999999999943
 20
-15.299999999999997
 30
0.0
 11
49.999999999999943
 21
-15.299999999999997
 31
0.0
  0
LINE
  5
507
100
AcDbEntity
  8
0
  6
CONTINUOUS
 62
               7
100
AcDbLine
 10
52.999999999999943
 20
-15.0
 30
0.0
 11
49.999999999999943
 21
-15.0
 31
0.0
  0
LINE
  5
508
100
AcDbEntity
  8
0
  6
CONTINUOUS
 62
               7
100
AcDbLine
 10
52.999999999999943
 20
-23.0
 30
0.0
 11
49.999999999999943
 21
-23.0
 31
0.0
  0
LINE
  5
509
100
AcDbEntity
  8
0
  6
CONTINUOUS
 62
               7
100
AcDbLine
 10
52.499999999999943
 20
-22.700000000000003
 30
0.0
 11
52.499999999999943
 21
-15.299999999999997
 31
0.0
  0
LINE
  5
50A
100
AcDbEntity
  8
0
  6
CONTINUOUS
 62
               7
100
AcDbLine
 10
49.999999999999943
 20
-23.0
 30
0.0
 11
49.999999999999943
 21
-15.0
 31
0.0
  0
LINE
  5
50B
100
AcDbEntity
  8
0
  6
CONTINUOUS
 62
               7
100
AcDbLine
 10
49.999999999999943
 20
-16.800000000000011
 30
0.0
 11
47.499999999999943
 21
-16.800000000000011
 31
0.0
  0
LINE
  5
50C
100
AcDbEntity
  8
0
  6
CONTINUOUS
 62
               7
100
AcDbLine
 10
49.999999999999943
 20
-21.200000000000003
 30
0.0
 11
47.499999999999943
 21
-21.200000000000003
 31
0.0
  0
LINE
  5
50D
100
AcDbEntity
  8
0
  6
CONTINUOUS
 62
               7
100
AcDbLine
 10
43.999999999999943
 20
-21.700000000000003
 30
0.0
 11
8.9999999999999432
 21
-21.700000000000003
 31
0.0
  0
LINE
  5
50E
100
AcDbEntity
  8
0
  6
CONTINUOUS
 62
               7
100
AcDbLine
 10
43.999999999999943
 20
-21.400000000000006
 30
0.0
 11
8.9999999999999432
 21
-21.400000000000006
 31
0.0
  0
LINE
  5
50F
100
AcDbEntity
  8
0
  6
CONTINUOUS
 62
               7
100
AcDbLine
 10
43.999999999999943
 20
-16.299999999999997
 30
0.0
 11
8.9999999999999432
 21
-16.299999999999997
 31
0.0
  0
LINE
  5
510
100
AcDbEntity
  8
0
  6
CONTINUOUS
 62
               7
100
AcDbLine
 10
43.999999999999943
 20
-16.599999999999994
 30
0.0
 11
8.9999999999999432
 21
-16.599999999999994
 31
0.0
  0
LINE
  5
511
100
AcDbEntity
  8
0
  6
CONTINUOUS
 62
               7
100
AcDbLine
 10
45.499999999999943
 20
-16.5
 30
0.0
 11
45.499999999999943
 21
-21.5
 31
0.0
  0
LINE
  5
512
100
AcDbEntity
  8
0
  6
CONTINUOUS
 62
               7
100
AcDbLine
 10
45.499999999999943
 20
-21.5
 30
0.0
 11
45.999999999999943
 21
-21.5
 31
0.0
  0
LINE
  5
513
100
AcDbEntity
  8
0
  6
CONTINUOUS
 62
               7
100
AcDbLine
 10
45.499999999999943
 20
-16.5
 30
0.0
 11
45.999999999999943
 21
-16.5
 31
0.0
  0
LINE
  5
514
100
AcDbEntity
  8
0
  6
CONTINUOUS
 62
               7
100
AcDbLine
 10
45.999999999999943
 20
-15.5
 30
0.0
 11
45.999999999999943
 21
-22.5
 31
0.0
  0
LINE
  5
515
100
AcDbEntity
  8
0
  6
CONTINUOUS
 62
               7
100
AcDbLine
 10
8.9999999999999432
 20
-28.0
 30
0.0
 11
3.4999999999999432
 21
-28.0
 31
0.0
  0
LINE
  5
516
100
AcDbEntity
  8
0
  6
CONTINUOUS
 62
               7
100
AcDbLine
 10
52.999999972652006
 20
-29.0
 30
0.0
 11
8.9999999999999432
 21
-29.0
 31
0.0
  0
LINE
  5
517
100
AcDbEntity
  8
0
  6
CONTINUOUS
 62
               7
100
AcDbLine
 10
44.000000024143958
 20
-28.5
 30
0.0
 11
8.9999999999999432
 21
-28.5
 31
0.0
  0
ENDBLK
  5
518
100
AcDbEntity
  8
0
100
AcDbBlockEnd
  0
BLOCK
  5
519
100
AcDbEntity
  8
0
100
AcDbBlockBegin
  2
MGAL6-L-22
 70
               0
 10
0.0
 20
0.0
 30
0.0
  3
MGAL6-L-22
  1

  0
LINE
  5
51A
100
AcDbEntity
  8
0
  6
PHANTOM
 62
               3
100
AcDbLine
 10
30.803532023713508
 20
48.82135129229286
 30
0.0
 11
30.803532023713508
 21
-18.326616907153038
 31
0.0
  0
LINE
  5
51B
100
AcDbEntity
  8
0
  6
CONTINUOUS
 62
               7
100
AcDbLine
 10
50.999999999999936
 20
8.3000000000000114
 30
0.0
 11
50.999999999999936
 21
0.0
 31
0.0
  0
LINE
  5
51C
100
AcDbEntity
  8
0
  6
CONTINUOUS
 62
               7
100
AcDbLine
 10
42.999999999999936
 20
9.0
 30
0.0
 11
42.999999999999936
 21
8.3000000000000114
 31
0.0
  0
LINE
  5
51D
100
AcDbEntity
  8
0
  6
CONTINUOUS
 62
               7
100
AcDbLine
 10
-3.0000000000000071
 20
-0.0000000136906095
 30
0.0
 11
-3.0000000000000071
 21
8.3000000000000114
 31
0.0
  0
LINE
  5
51E
100
AcDbEntity
  8
0
  6
CONTINUOUS
 62
               7
100
AcDbLine
 10
4.9999999999999929
 20
10.0
 30
0.0
 11
4.9999999999999929
 21
8.3000000000000114
 31
0.0
  0
LINE
  5
51F
100
AcDbEntity
  8
0
  6
CONTINUOUS
 62
               7
100
AcDbLine
 10
8.4999999999999361
 20
16.400000000000006
 30
0.0
 11
3.4999999999999361
 21
16.400000000000006
 31
0.0
  0
LINE
  5
520
100
AcDbEntity
  8
0
  6
CONTINUOUS
 62
               7
100
AcDbLine
 10
8.9999999999999361
 20
10.0
 30
0.0
 11
3.4999999999999361
 21
10.0
 31
0.0
  0
LINE
  5
521
100
AcDbEntity
  8
0
  6
CONTINUOUS
 62
               7
100
AcDbLine
 10
8.9999999999999361
 20
9.5
 30
0.0
 11
4.9999999999999929
 21
9.5
 31
0.0
  0
LINE
  5
522
100
AcDbEntity
  8
0
  6
CONTINUOUS
 62
               7
100
AcDbLine
 10
50.999999999999936
 20
8.3000000000000114
 30
0.0
 11
-3.0000000000000071
 21
8.3000000000000114
 31
0.0
  0
LINE
  5
523
100
AcDbEntity
  8
0
  6
CONTINUOUS
 62
               7
100
AcDbLine
 10
50.999999999999936
 20
0.0
 30
0.0
 11
-3.0000000000000071
 21
0.0
 31
0.0
  0
LINE
  5
524
100
AcDbEntity
  8
0
  6
CONTINUOUS
 62
               2
100
AcDbLine
 10
55.088778110834021
 20
19.0
 30
0.0
 11
1.5330336488329337
 21
19.0
 31
0.0
  0
LINE
  5
525
100
AcDbEntity
  8
0
  6
CONTINUOUS
 62
               7
100
AcDbLine
 10
8.4999999999999361
 20
21.599999999999994
 30
0.0
 11
3.4999999999999361
 21
21.599999999999994
 31
0.0
  0
LINE
  5
526
100
AcDbEntity
  8
0
  6
CONTINUOUS
 62
               7
100
AcDbLine
 10
3.4999999999999361
 20
28.0
 30
0.0
 11
3.4999999999999361
 21
10.0
 31
0.0
  0
LINE
  5
527
100
AcDbEntity
  8
0
  6
CONTINUOUS
 62
               7
100
AcDbLine
 10
8.9999999999999361
 20
28.0
 30
0.0
 11
3.4999999999999361
 21
28.0
 31
0.0
  0
ARC
  5
528
100
AcDbEntity
  8
0
  6
CONTINUOUS
 62
               7
100
AcDbCircle
 10
8.2999999999999474
 20
14.200000000000003
 30
0.0
 40
0.3
100
AcDbArc
 50
90.0
 51
180.0
  0
ARC
  5
529
100
AcDbEntity
  8
0
  6
CONTINUOUS
 62
               7
100
AcDbCircle
 10
8.2999999999999474
 20
12.799999999999997
 30
0.0
 40
0.3
100
AcDbArc
 50
180.0
 51
270.0
  0
LINE
  5
52A
100
AcDbEntity
  8
0
  6
CONTINUOUS
 62
               7
100
AcDbLine
 10
8.4999999999999361
 20
14.5
 30
0.0
 11
8.2999999999999474
 21
14.5
 31
0.0
  0
LINE
  5
52B
100
AcDbEntity
  8
0
  6
CONTINUOUS
 62
               7
100
AcDbLine
 10
8.4999999999999361
 20
12.5
 30
0.0
 11
8.2999999999999474
 21
12.5
 31
0.0
  0
LINE
  5
52C
100
AcDbEntity
  8
0
  6
CONTINUOUS
 62
               7
100
AcDbLine
 10
7.9999999999999361
 20
14.200000000000003
 30
0.0
 11
7.9999999999999361
 21
12.799999999999997
 31
0.0
  0
LINE
  5
52D
100
AcDbEntity
  8
0
  6
CONTINUOUS
 62
               7
100
AcDbLine
 10
8.9999999999999361
 20
11.699999999999989
 30
0.0
 11
8.4999999999999361
 21
11.699999999999989
 31
0.0
  0
LINE
  5
52E
100
AcDbEntity
  8
0
  6
CONTINUOUS
 62
               2
100
AcDbLine
 10
9.9720609170535042
 20
13.5
 30
0.0
 11
7.3585000633177557
 21
13.5
 31
0.0
  0
LINE
  5
52F
100
AcDbEntity
  8
0
  6
CONTINUOUS
 62
               7
100
AcDbLine
 10
7.9999999999999361
 20
23.799999999999997
 30
0.0
 11
7.9999999999999361
 21
25.200000000000003
 31
0.0
  0
ARC
  5
530
100
AcDbEntity
  8
0
  6
CONTINUOUS
 62
               7
100
AcDbCircle
 10
8.2999999999999474
 20
25.200000000000003
 30
0.0
 40
0.3
100
AcDbArc
 50
90.0
 51
180.0
  0
ARC
  5
531
100
AcDbEntity
  8
0
  6
CONTINUOUS
 62
               7
100
AcDbCircle
 10
8.2999999999999474
 20
23.799999999999997
 30
0.0
 40
0.3
100
AcDbArc
 50
180.0
 51
270.0
  0
LINE
  5
532
100
AcDbEntity
  8
0
  6
CONTINUOUS
 62
               7
100
AcDbLine
 10
8.4999999999999361
 20
23.5
 30
0.0
 11
8.2999999999999474
 21
23.5
 31
0.0
  0
LINE
  5
533
100
AcDbEntity
  8
0
  6
CONTINUOUS
 62
               7
100
AcDbLine
 10
8.4999999999999361
 20
25.5
 30
0.0
 11
8.2999999999999474
 21
25.5
 31
0.0
  0
LINE
  5
534
100
AcDbEntity
  8
0
  6
CONTINUOUS
 62
               7
100
AcDbLine
 10
8.9999999999999361
 20
26.300000000000011
 30
0.0
 11
8.4999999999999361
 21
26.300000000000011
 31
0.0
  0
LINE
  5
535
100
AcDbEntity
  8
0
  6
CONTINUOUS
 62
               7
100
AcDbLine
 10
8.4999999999999361
 20
26.300000000000011
 30
0.0
 11
8.4999999999999361
 21
11.699999999999989
 31
0.0
  0
LINE
  5
536
100
AcDbEntity
  8
0
  6
CONTINUOUS
 62
               2
100
AcDbLine
 10
9.9720609170535042
 20
24.5
 30
0.0
 11
7.3585000633177557
 21
24.5
 31
0.0
  0
LINE
  5
537
100
AcDbEntity
  8
0
  6
CONTINUOUS
 62
               7
100
AcDbLine
 10
52.999999999999936
 20
29.0
 30
0.0
 11
52.999999999999936
 21
9.0
 31
0.0
  0
LINE
  5
538
100
AcDbEntity
  8
0
  6
CONTINUOUS
 62
               4
100
AcDbLine
 10
43.999999999999936
 20
38.500000000000071
 30
0.0
 11
43.999999999999936
 21
29.0
 31
0.0
  0
LINE
  5
539
100
AcDbEntity
  8
0
  6
CONTINUOUS
 62
               4
100
AcDbLine
 10
8.9999999999999361
 20
38.500000000000071
 30
0.0
 11
8.9999999999999361
 21
29.0
 31
0.0
  0
LINE
  5
53A
100
AcDbEntity
  8
0
  6
CONTINUOUS
 62
               4
100
AcDbLine
 10
14.999999999999936
 20
32.50000001369061
 30
0.0
 11
14.999999999999936
 21
31.99999998630939
 31
0.0
  0
LINE
  5
53B
100
AcDbEntity
  8
0
  6
CONTINUOUS
 62
               4
100
AcDbLine
 10
37.999999999999936
 20
32.50000001369061
 30
0.0
 11
37.999999999999936
 21
29.0
 31
0.0
  0
LINE
  5
53C
100
AcDbEntity
  8
0
  6
CONTINUOUS
 62
               4
100
AcDbLine
 10
43.999999999999936
 20
32.5
 30
0.0
 11
8.9999999999999361
 21
32.5
 31
0.0
  0
LINE
  5
53D
100
AcDbEntity
  8
0
  6
CONTINUOUS
 62
               4
100
AcDbLine
 10
43.999999976460167
 20
38.500000000000071
 30
0.0
 11
8.9999999999999361
 21
38.500000000000071
 31
0.0
  0
LINE
  5
53E
100
AcDbEntity
  8
0
  6
CONTINUOUS
 62
               7
100
AcDbLine
 10
47.999999999999936
 20
29.0
 30
0.0
 11
47.999999999999936
 21
9.0
 31
0.0
  0
LINE
  5
53F
100
AcDbEntity
  8
0
  6
CONTINUOUS
 62
               7
100
AcDbLine
 10
8.9999999999999361
 20
29.0
 30
0.0
 11
8.9999999999999361
 21
9.0
 31
0.0
  0
LINE
  5
540
100
AcDbEntity
  8
0
  6
CONTINUOUS
 62
               7
100
AcDbLine
 10
52.999999972651942
 20
29.0
 30
0.0
 11
8.9999999999999361
 21
29.0
 31
0.0
  0
LINE
  5
541
100
AcDbEntity
  8
0
  6
CONTINUOUS
 62
               2
100
AcDbLine
 10
54.046306739465528
 20
25.5
 30
0.0
 11
48.793737824779775
 21
25.5
 31
0.0
  0
LINE
  5
542
100
AcDbEntity
  8
0
  6
CONTINUOUS
 62
               7
100
AcDbLine
 10
52.199999999999925
 20
23.599999999999994
 30
0.0
 11
50.499999999999936
 21
23.599999999999994
 31
0.0
  0
LINE
  5
543
100
AcDbEntity
  8
0
  6
CONTINUOUS
 62
               7
100
AcDbLine
 10
52.199999999999925
 20
27.400000000000006
 30
0.0
 11
50.499999999999936
 21
27.400000000000006
 31
0.0
  0
LINE
  5
544
100
AcDbEntity
  8
0
  6
CONTINUOUS
 62
               7
100
AcDbLine
 10
52.499999999999936
 20
23.900000000000006
 30
0.0
 11
52.199999999999925
 21
23.599999999999994
 31
0.0
  0
LINE
  5
545
100
AcDbEntity
  8
0
  6
CONTINUOUS
 62
               7
100
AcDbLine
 10
52.499999999999936
 20
27.099999999999994
 30
0.0
 11
52.199999999999925
 21
27.400000000000006
 31
0.0
  0
LINE
  5
546
100
AcDbEntity
  8
0
  6
CONTINUOUS
 62
               7
100
AcDbLine
 10
52.499999999999936
 20
27.099999999999994
 30
0.0
 11
52.499999999999936
 21
23.900000000000006
 31
0.0
  0
LINE
  5
547
100
AcDbEntity
  8
0
  6
CONTINUOUS
 62
               7
100
AcDbLine
 10
52.199999999999925
 20
27.400000000000006
 30
0.0
 11
52.199999999999925
 21
23.599999999999994
 31
0.0
  0
LINE
  5
548
100
AcDbEntity
  8
0
  6
CONTINUOUS
 62
               2
100
AcDbLine
 10
35.999999999999936
 20
29.399999999999991
 30
0.0
 11
35.999999999999936
 21
22.599999999999994
 31
0.0
  0
CIRCLE
  5
549
100
AcDbEntity
  8
0
  6
CONTINUOUS
 62
               7
100
AcDbCircle
 10
35.999999999999936
 20
26.0
 30
0.0
 40
2.3999999999999999
  0
LINE
  5
54A
100
AcDbEntity
  8
0
  6
CONTINUOUS
 62
               2
100
AcDbLine
 10
19.999999999999936
 20
29.399999999999991
 30
0.0
 11
19.999999999999936
 21
22.599999999999994
 31
0.0
  0
CIRCLE
  5
54B
100
AcDbEntity
  8
0
  6
CONTINUOUS
 62
               7
100
AcDbCircle
 10
19.999999999999936
 20
26.0
 30
0.0
 40
2.3999999999999999
  0
LINE
  5
54C
100
AcDbEntity
  8
0
  6
CONTINUOUS
 62
               2
100
AcDbLine
 10
40.999999999999936
 20
21.5
 30
0.0
 11
40.999999999999936
 21
16.5
 31
0.0
  0
CIRCLE
  5
54D
100
AcDbEntity
  8
0
  6
CONTINUOUS
 62
               7
100
AcDbCircle
 10
40.999999999999936
 20
19.0
 30
0.0
 40
1.5
  0
LINE
  5
54E
100
AcDbEntity
  8
0
  6
CONTINUOUS
 62
               7
100
AcDbLine
 10
25.499999999999936
 20
20.5
 30
0.0
 11
24.499999999999936
 21
20.5
 31
0.0
  0
LINE
  5
54F
100
AcDbEntity
  8
0
  6
CONTINUOUS
 62
               7
100
AcDbLine
 10
25.499999999999936
 20
17.5
 30
0.0
 11
24.499999999999936
 21
17.5
 31
0.0
  0
ARC
  5
550
100
AcDbEntity
  8
0
  6
CONTINUOUS
 62
               7
100
AcDbCircle
 10
24.499999999999936
 20
19.0
 30
0.0
 40
1.5
100
AcDbArc
 50
90.0
 51
270.0
  0
ARC
  5
551
100
AcDbEntity
  8
0
  6
CONTINUOUS
 62
               7
100
AcDbCircle
 10
25.499999999999936
 20
19.0
 30
0.0
 40
1.5
100
AcDbArc
 50
270.0
 51
90.0
  0
LINE
  5
552
100
AcDbEntity
  8
0
  6
CONTINUOUS
 62
               2
100
AcDbLine
 10
24.999999999999936
 20
21.5
 30
0.0
 11
24.999999999999936
 21
16.5
 31
0.0
  0
CIRCLE
  5
553
100
AcDbEntity
  8
0
  6
CONTINUOUS
 62
               7
100
AcDbCircle
 10
40.999999999999936
 20
26.0
 30
0.0
 40
1.25
  0
CIRCLE
  5
554
100
AcDbEntity
  8
0
  6
CONTINUOUS
 62
               2
100
AcDbCircle
 10
40.999999999999936
 20
26.0
 30
0.0
 40
1.5
  0
LINE
  5
555
100
AcDbEntity
  8
0
  6
CONTINUOUS
 62
               2
100
AcDbLine
 10
40.999999999999936
 20
23.5
 30
0.0
 11
40.999999999999936
 21
28.5
 31
0.0
  0
CIRCLE
  5
556
100
AcDbEntity
  8
0
  6
CONTINUOUS
 62
               7
100
AcDbCircle
 10
24.999999999999936
 20
26.0
 30
0.0
 40
1.25
  0
CIRCLE
  5
557
100
AcDbEntity
  8
0
  6
CONTINUOUS
 62
               2
100
AcDbCircle
 10
24.999999999999936
 20
26.0
 30
0.0
 40
1.5
  0
LINE
  5
558
100
AcDbEntity
  8
0
  6
CONTINUOUS
 62
               2
100
AcDbLine
 10
24.999999999999936
 20
23.5
 30
0.0
 11
24.999999999999936
 21
28.5
 31
0.0
  0
LINE
  5
559
100
AcDbEntity
  8
0
  6
CONTINUOUS
 62
               2
100
AcDbLine
 10
54.046306739465528
 20
12.5
 30
0.0
 11
48.793737824779775
 21
12.5
 31
0.0
  0
LINE
  5
55A
100
AcDbEntity
  8
0
  6
CONTINUOUS
 62
               7
100
AcDbLine
 10
52.199999999999925
 20
10.599999999999994
 30
0.0
 11
52.199999999999925
 21
14.400000000000006
 31
0.0
  0
LINE
  5
55B
100
AcDbEntity
  8
0
  6
CONTINUOUS
 62
               7
100
AcDbLine
 10
52.499999999999936
 20
10.900000000000006
 30
0.0
 11
52.499999999999936
 21
14.099999999999994
 31
0.0
  0
LINE
  5
55C
100
AcDbEntity
  8
0
  6
CONTINUOUS
 62
               7
100
AcDbLine
 10
50.499999999999936
 20
10.400000000000006
 30
0.0
 11
50.499999999999936
 21
14.599999999999994
 31
0.0
  0
LINE
  5
55D
100
AcDbEntity
  8
0
  6
CONTINUOUS
 62
               7
100
AcDbLine
 10
52.499999999999936
 20
10.900000000000006
 30
0.0
 11
52.199999999999925
 21
10.599999999999994
 31
0.0
  0
LINE
  5
55E
100
AcDbEntity
  8
0
  6
CONTINUOUS
 62
               7
100
AcDbLine
 10
52.499999999999936
 20
14.099999999999994
 30
0.0
 11
52.199999999999925
 21
14.400000000000006
 31
0.0
  0
LINE
  5
55F
100
AcDbEntity
  8
0
  6
CONTINUOUS
 62
               7
100
AcDbLine
 10
52.199999999999925
 20
10.599999999999994
 30
0.0
 11
50.499999999999936
 21
10.599999999999994
 31
0.0
  0
LINE
  5
560
100
AcDbEntity
  8
0
  6
CONTINUOUS
 62
               7
100
AcDbLine
 10
52.199999999999925
 20
14.400000000000006
 30
0.0
 11
50.499999999999936
 21
14.400000000000006
 31
0.0
  0
LINE
  5
561
100
AcDbEntity
  8
0
  6
DASHED
 62
               2
100
AcDbLine
 10
43.999999999999936
 20
9.5
 30
0.0
 11
43.999999999999936
 21
28.5
 31
0.0
  0
LINE
  5
562
100
AcDbEntity
  8
0
  6
CONTINUOUS
 62
               2
100
AcDbLine
 10
40.999999999999936
 20
14.5
 30
0.0
 11
40.999999999999936
 21
9.5
 31
0.0
  0
CIRCLE
  5
563
100
AcDbEntity
  8
0
  6
CONTINUOUS
 62
               7
100
AcDbCircle
 10
40.999999999999936
 20
12.0
 30
0.0
 40
1.25
  0
CIRCLE
  5
564
100
AcDbEntity
  8
0
  6
CONTINUOUS
 62
               2
100
AcDbCircle
 10
40.999999999999936
 20
12.0
 30
0.0
 40
1.5
  0
LINE
  5
565
100
AcDbEntity
  8
0
  6
CONTINUOUS
 62
               2
100
AcDbLine
 10
35.999999999999936
 20
8.5999999999999943
 30
0.0
 11
35.999999999999936
 21
15.400000000000006
 31
0.0
  0
CIRCLE
  5
566
100
AcDbEntity
  8
0
  6
CONTINUOUS
 62
               7
100
AcDbCircle
 10
35.999999999999936
 20
12.0
 30
0.0
 40
2.3999999999999999
  0
CIRCLE
  5
567
100
AcDbEntity
  8
0
  6
CONTINUOUS
 62
               7
100
AcDbCircle
 10
19.999999999999936
 20
12.0
 30
0.0
 40
2.3999999999999999
  0
CIRCLE
  5
568
100
AcDbEntity
  8
0
  6
CONTINUOUS
 62
               7
100
AcDbCircle
 10
24.999999999999936
 20
12.0
 30
0.0
 40
1.25
  0
CIRCLE
  5
569
100
AcDbEntity
  8
0
  6
CONTINUOUS
 62
               2
100
AcDbCircle
 10
24.999999999999936
 20
12.0
 30
0.0
 40
1.5
  0
LINE
  5
56A
100
AcDbEntity
  8
0
  6
CONTINUOUS
 62
               2
100
AcDbLine
 10
24.999999999999936
 20
14.5
 30
0.0
 11
24.999999999999936
 21
9.5
 31
0.0
  0
LINE
  5
56B
100
AcDbEntity
  8
0
  6
CONTINUOUS
 62
               2
100
AcDbLine
 10
19.999999999999936
 20
8.5999999999999943
 30
0.0
 11
19.999999999999936
 21
15.400000000000006
 31
0.0
  0
LINE
  5
56C
100
AcDbEntity
  8
0
  6
CONTINUOUS
 62
               7
100
AcDbLine
 10
52.999999972651942
 20
9.0
 30
0.0
 11
8.9999999999999361
 21
9.0
 31
0.0
  0
LINE
  5
56D
100
AcDbEntity
  8
0
  6
CONTINUOUS
 62
               2
100
AcDbLine
 10
27.499999999999936
 20
12.0
 30
0.0
 11
16.599999999999902
 21
12.0
 31
0.0
  0
LINE
  5
56E
100
AcDbEntity
  8
0
  6
CONTINUOUS
 62
               2
100
AcDbLine
 10
43.499999999999936
 20
12.0
 30
0.0
 11
32.599999999999902
 21
12.0
 31
0.0
  0
LINE
  5
56F
100
AcDbEntity
  8
0
  6
CONTINUOUS
 62
               2
100
AcDbLine
 10
27.499999999999936
 20
26.0
 30
0.0
 11
16.599999999999902
 21
26.0
 31
0.0
  0
LINE
  5
570
100
AcDbEntity
  8
0
  6
CONTINUOUS
 62
               2
100
AcDbLine
 10
43.499999999999936
 20
26.0
 30
0.0
 11
32.599999999999902
 21
26.0
 31
0.0
  0
LINE
  5
571
100
AcDbEntity
  8
0
  6
CONTINUOUS
 62
               7
100
AcDbLine
 10
52.999999999999936
 20
10.400000000000006
 30
0.0
 11
50.499999999999936
 21
10.400000000000006
 31
0.0
  0
LINE
  5
572
100
AcDbEntity
  8
0
  6
CONTINUOUS
 62
               7
100
AcDbLine
 10
52.999999999999936
 20
14.599999999999994
 30
0.0
 11
50.499999999999936
 21
14.599999999999994
 31
0.0
  0
LINE
  5
573
100
AcDbEntity
  8
0
  6
CONTINUOUS
 62
               7
100
AcDbLine
 10
52.999999999999936
 20
27.599999999999994
 30
0.0
 11
50.499999999999936
 21
27.599999999999994
 31
0.0
  0
LINE
  5
574
100
AcDbEntity
  8
0
  6
CONTINUOUS
 62
               7
100
AcDbLine
 10
50.499999999999936
 20
27.599999999999994
 30
0.0
 11
50.499999999999936
 21
23.400000000000006
 31
0.0
  0
LINE
  5
575
100
AcDbEntity
  8
0
  6
CONTINUOUS
 62
               7
100
AcDbLine
 10
52.999999999999936
 20
23.400000000000006
 30
0.0
 11
50.499999999999936
 21
23.400000000000006
 31
0.0
  0
LINE
  5
576
100
AcDbEntity
  8
0
  6
CONTINUOUS
 62
               4
100
AcDbLine
 10
29.999999999999936
 20
29.99999998630939
 30
0.0
 11
29.999999999999936
 21
29.0
 31
0.0
  0
LINE
  5
577
100
AcDbEntity
  8
0
  6
CONTINUOUS
 62
             200
100
AcDbLine
 10
27.999999999999936
 20
32.530849309951407
 30
0.0
 11
27.999999999999936
 21
27.865732991136326
 31
0.0
  0
LINE
  5
578
100
AcDbEntity
  8
0
  6
CONTINUOUS
 62
               4
100
AcDbLine
 10
26.099999999999902
 20
31.699999986309393
 30
0.0
 11
29.899999999999913
 21
31.699999986309393
 31
0.0
  0
LINE
  5
579
100
AcDbEntity
  8
0
  6
CONTINUOUS
 62
               4
100
AcDbLine
 10
26.399999999999913
 20
31.99999998630939
 30
0.0
 11
29.599999999999902
 21
31.99999998630939
 31
0.0
  0
LINE
  5
57A
100
AcDbEntity
  8
0
  6
CONTINUOUS
 62
               4
100
AcDbLine
 10
26.399999999999913
 20
31.99999998630939
 30
0.0
 11
26.099999999999902
 21
31.699999986309393
 31
0.0
  0
LINE
  5
57B
100
AcDbEntity
  8
0
  6
CONTINUOUS
 62
               4
100
AcDbLine
 10
29.599999999999902
 20
31.99999998630939
 30
0.0
 11
29.899999999999913
 21
31.699999986309393
 31
0.0
  0
LINE
  5
57C
100
AcDbEntity
  8
0
  6
CONTINUOUS
 62
               4
100
AcDbLine
 10
26.099999999999902
 20
31.699999986309393
 30
0.0
 11
26.099999999999902
 21
29.99999998630939
 31
0.0
  0
LINE
  5
57D
100
AcDbEntity
  8
0
  6
CONTINUOUS
 62
               4
100
AcDbLine
 10
29.899999999999913
 20
31.699999986309393
 30
0.0
 11
29.899999999999913
 21
29.99999998630939
 31
0.0
  0
LINE
  5
57E
100
AcDbEntity
  8
0
  6
CONTINUOUS
 62
             200
100
AcDbLine
 10
13.999999999999936
 20
32.530849309951407
 30
0.0
 11
13.999999999999936
 21
27.865732991136326
 31
0.0
  0
LINE
  5
57F
100
AcDbEntity
  8
0
  6
CONTINUOUS
 62
               4
100
AcDbLine
 10
11.999999999999936
 20
29.99999998630939
 30
0.0
 11
11.999999999999936
 21
29.0
 31
0.0
  0
LINE
  5
580
100
AcDbEntity
  8
0
  6
CONTINUOUS
 62
               4
100
AcDbLine
 10
12.099999999999902
 20
31.699999986309393
 30
0.0
 11
12.099999999999902
 21
29.99999998630939
 31
0.0
  0
LINE
  5
581
100
AcDbEntity
  8
0
  6
CONTINUOUS
 62
               4
100
AcDbLine
 10
12.399999999999913
 20
31.99999998630939
 30
0.0
 11
12.099999999999902
 21
31.699999986309393
 31
0.0
  0
LINE
  5
582
100
AcDbEntity
  8
0
  6
CONTINUOUS
 62
               4
100
AcDbLine
 10
12.099999999999902
 20
31.699999986309393
 30
0.0
 11
15.899999999999913
 21
31.699999986309393
 31
0.0
  0
LINE
  5
583
100
AcDbEntity
  8
0
  6
CONTINUOUS
 62
               4
100
AcDbLine
 10
15.899999999999913
 20
31.699999986309393
 30
0.0
 11
15.899999999999913
 21
29.99999998630939
 31
0.0
  0
LINE
  5
584
100
AcDbEntity
  8
0
  6
CONTINUOUS
 62
               4
100
AcDbLine
 10
12.399999999999913
 20
31.99999998630939
 30
0.0
 11
15.599999999999902
 21
31.99999998630939
 31
0.0
  0
LINE
  5
585
100
AcDbEntity
  8
0
  6
CONTINUOUS
 62
               4
100
AcDbLine
 10
15.599999999999902
 20
31.99999998630939
 30
0.0
 11
15.899999999999913
 21
31.699999986309393
 31
0.0
  0
LINE
  5
586
100
AcDbEntity
  8
0
  6
CONTINUOUS
 62
               4
100
AcDbLine
 10
22.999999999999936
 20
31.699999986309393
 30
0.0
 11
22.999999999999936
 21
29.99999998630939
 31
0.0
  0
LINE
  5
587
100
AcDbEntity
  8
0
  6
CONTINUOUS
 62
               4
100
AcDbLine
 10
18.999999999999936
 20
31.699999986309393
 30
0.0
 11
18.999999999999936
 21
29.99999998630939
 31
0.0
  0
LINE
  5
588
100
AcDbEntity
  8
0
  6
CONTINUOUS
 62
               4
100
AcDbLine
 10
29.999999999999936
 20
29.99999998630939
 30
0.0
 11
11.999999999999936
 21
29.99999998630939
 31
0.0
  0
LINE
  5
589
100
AcDbEntity
  8
0
  6
CONTINUOUS
 62
               4
100
AcDbLine
 10
22.999999999999936
 20
31.699999986309393
 30
0.0
 11
18.999999999999936
 21
31.699999986309393
 31
0.0
  0
LINE
  5
58A
100
AcDbEntity
  8
0
  6
CONTINUOUS
 62
               7
100
AcDbLine
 10
52.999999972651942
 20
9.5
 30
0.0
 11
8.9999999999999361
 21
9.5
 31
0.0
  0
LINE
  5
58B
100
AcDbEntity
  8
0
  6
CONTINUOUS
 62
               7
100
AcDbLine
 10
52.999999972651942
 20
28.5
 30
0.0
 11
8.9999999999999361
 21
28.5
 31
0.0
  0
LINE
  5
58C
100
AcDbEntity
  8
0
  6
CONTINUOUS
 62
               2
100
AcDbLine
 10
0.0
 20
-1.2000000000000028
 30
0.0
 11
0.0
 21
6.2000000000000028
 31
0.0
  0
LINE
  5
58D
100
AcDbEntity
  8
0
  6
CONTINUOUS
 62
               2
100
AcDbLine
 10
47.999999999999936
 20
-1.2000000000000028
 30
0.0
 11
47.999999999999936
 21
6.2000000000000028
 31
0.0
  0
ENDBLK
  5
58E
100
AcDbEntity
  8
0
100
AcDbBlockEnd
  0
BLOCK
  5
58F
100
AcDbEntity
  8
0
100
AcDbBlockBegin
  2
MGAL6-L-23
 70
               0
 10
0.0
 20
0.0
 30
0.0
  3
MGAL6-L-23
  1

  0
LINE
  5
590
100
AcDbEntity
  8
0
  6
CONTINUOUS
 62
             200
100
AcDbLine
 10
8.9000000000000057
 20
32.271853433675375
 30
0.0
 11
8.9000000000000057
 21
28.670483888488633
 31
0.0
  0
LINE
  5
591
100
AcDbEntity
  8
0
  6
CONTINUOUS
 62
               4
100
AcDbLine
 10
7.0999999999999659
 20
29.0
 30
0.0
 11
7.0999999999999659
 21
30.0
 31
0.0
  0
LINE
  5
592
100
AcDbEntity
  8
0
  6
CONTINUOUS
 62
               4
100
AcDbLine
 10
10.699999999999989
 20
30.0
 30
0.0
 11
10.699999999999989
 21
29.0
 31
0.0
  0
LINE
  5
593
100
AcDbEntity
  8
0
  6
CONTINUOUS
 62
               4
100
AcDbLine
 10
-0.9000000000000341
 20
38.500000000000071
 30
0.0
 11
-0.9000000000000341
 21
28.5
 31
0.0
  0
LINE
  5
594
100
AcDbEntity
  8
0
  6
CONTINUOUS
 62
               4
100
AcDbLine
 10
4.8999999999999773
 20
32.5
 30
0.0
 11
4.8999999999999773
 21
28.5
 31
0.0
  0
LINE
  5
595
100
AcDbEntity
  8
0
  6
CONTINUOUS
 62
               4
100
AcDbLine
 10
7.0
 20
31.700000000000003
 30
0.0
 11
4.8999999999999773
 21
31.700000000000003
 31
0.0
  0
LINE
  5
596
100
AcDbEntity
  8
0
  6
CONTINUOUS
 62
               4
100
AcDbLine
 10
8.5
 20
32.5
 30
0.0
 11
4.8999999999999773
 21
32.5
 31
0.0
  0
LINE
  5
597
100
AcDbEntity
  8
0
  6
CONTINUOUS
 62
               4
100
AcDbLine
 10
0.3000000000000114
 20
38.500000000000057
 30
0.0
 11
-0.9000000000000341
 21
38.500000000000071
 31
0.0
  0
LINE
  5
598
100
AcDbEntity
  8
0
  6
CONTINUOUS
 62
               4
100
AcDbLine
 10
0.5999999999999659
 20
38.20000000000006
 30
0.0
 11
0.5999999999999659
 21
38.000000000000057
 31
0.0
  0
LINE
  5
599
100
AcDbEntity
  8
0
  6
CONTINUOUS
 62
               4
100
AcDbLine
 10
3.8000000000000114
 20
38.20000000000006
 30
0.0
 11
3.8000000000000114
 21
38.000000000000057
 31
0.0
  0
LINE
  5
59A
100
AcDbEntity
  8
0
  6
CONTINUOUS
 62
               4
100
AcDbLine
 10
5.5
 20
38.500000000000057
 30
0.0
 11
4.1006993865086088
 21
38.500000000000057
 31
0.0
  0
LINE
  5
59B
100
AcDbEntity
  8
0
  6
CONTINUOUS
 62
               4
100
AcDbLine
 10
4.3000000000000114
 20
37.500000000000057
 30
0.0
 11
4.3000000000000114
 21
35.900000000000063
 31
0.0
  0
LINE
  5
59C
100
AcDbEntity
  8
0
  6
CONTINUOUS
 62
               4
100
AcDbLine
 10
0.0999999999999659
 20
37.500000000000057
 30
0.0
 11
0.0999999999999659
 21
35.900000000000063
 31
0.0
  0
LINE
  5
59D
100
AcDbEntity
  8
0
  6
CONTINUOUS
 62
               4
100
AcDbLine
 10
0.5999999999999659
 20
38.000000000000057
 30
0.0
 11
0.0999999999999659
 21
37.500000000000057
 31
0.0
  0
LINE
  5
59E
100
AcDbEntity
  8
0
  6
CONTINUOUS
 62
               4
100
AcDbLine
 10
4.3000000000000114
 20
37.500000000000057
 30
0.0
 11
3.8000000000000114
 21
38.000000000000057
 31
0.0
  0
ARC
  5
59F
100
AcDbEntity
  8
0
  6
CONTINUOUS
 62
               4
100
AcDbCircle
 10
2.1999999999999886
 20
35.900000000000063
 30
0.0
 40
2.1000000111152071
100
AcDbArc
 50
180.0
 51
0.0
  0
ARC
  5
5A0
100
AcDbEntity
  8
0
  6
CONTINUOUS
 62
               4
100
AcDbCircle
 10
4.1006993865086088
 20
38.199300613491431
 30
0.0
 40
0.3007001998472195
100
AcDbArc
 50
90.133262070800924
 51
179.86673792919814
  0
ARC
  5
5A1
100
AcDbEntity
  8
0
  6
CONTINUOUS
 62
               4
100
AcDbCircle
 10
0.3004760263646062
 20
38.200476026364655
 30
0.0
 40
0.2995243519038812
100
AcDbArc
 50
359.90894124989592
 51
90.091058750103045
  0
LINE
  5
5A2
100
AcDbEntity
  8
0
  6
CONTINUOUS
 62
               4
100
AcDbLine
 10
5.3000000000000114
 20
37.500000000000057
 30
0.0
 11
5.3000000000000114
 21
35.900000000000063
 31
0.0
  0
ARC
  5
5A3
100
AcDbEntity
  8
0
  6
CONTINUOUS
 62
               4
100
AcDbCircle
 10
5.4993006134913571
 20
38.199300613491431
 30
0.0
 40
0.3007001998472195
100
AcDbArc
 50
0.1332620708018593
 51
89.866737929199076
  0
LINE
  5
5A4
100
AcDbEntity
  8
0
  6
CONTINUOUS
 62
               4
100
AcDbLine
 10
5.3000000000000114
 20
37.500000000000057
 30
0.0
 11
5.8000000000000114
 21
38.000000000000057
 31
0.0
  0
LINE
  5
5A5
100
AcDbEntity
  8
0
  6
CONTINUOUS
 62
               4
100
AcDbLine
 10
5.8000000000000114
 20
38.20000000000006
 30
0.0
 11
5.8000000000000114
 21
38.000000000000057
 31
0.0
  0
ARC
  5
5A6
100
AcDbEntity
  8
0
  6
CONTINUOUS
 62
               4
100
AcDbCircle
 10
7.3999999999999773
 20
35.900000000000063
 30
0.0
 40
2.1000000111152071
100
AcDbArc
 50
180.0
 51
0.0
  0
LINE
  5
5A7
100
AcDbEntity
  8
0
  6
CONTINUOUS
 62
               4
100
AcDbLine
 10
9.3000000000000114
 20
38.500000000000057
 30
0.0
 11
10.5
 21
38.500000000000071
 31
0.0
  0
LINE
  5
5A8
100
AcDbEntity
  8
0
  6
CONTINUOUS
 62
               4
100
AcDbLine
 10
9.5
 20
37.500000000000057
 30
0.0
 11
9.5
 21
35.900000000000063
 31
0.0
  0
ARC
  5
5A9
100
AcDbEntity
  8
0
  6
CONTINUOUS
 62
               4
100
AcDbCircle
 10
9.2995239736354165
 20
38.200476026364655
 30
0.0
 40
0.2995243519038812
100
AcDbArc
 50
89.908941249896955
 51
180.09105875010405
  0
LINE
  5
5AA
100
AcDbEntity
  8
0
  6
CONTINUOUS
 62
               4
100
AcDbLine
 10
9.0
 20
38.000000000000057
 30
0.0
 11
9.5
 21
37.500000000000057
 31
0.0
  0
LINE
  5
5AB
100
AcDbEntity
  8
0
  6
CONTINUOUS
 62
               4
100
AcDbLine
 10
9.0
 20
38.20000000000006
 30
0.0
 11
9.0
 21
38.000000000000057
 31
0.0
  0
LINE
  5
5AC
100
AcDbEntity
  8
0
  6
CONTINUOUS
 62
               4
100
AcDbLine
 10
10.5
 20
38.500000000000071
 30
0.0
 11
10.5
 21
34.5
 31
0.0
  0
ARC
  5
5AD
100
AcDbEntity
  8
0
  6
CONTINUOUS
 62
               4
100
AcDbCircle
 10
8.5
 20
34.5
 30
0.0
 40
2.0
100
AcDbArc
 50
270.0
 51
0.0
  0
LINE
  5
5AE
100
AcDbEntity
  8
0
  6
CONTINUOUS
 62
               4
100
AcDbLine
 10
10.800000000000011
 20
30.0
 30
0.0
 11
4.8999999999999773
 21
30.0
 31
0.0
  0
LINE
  5
5AF
100
AcDbEntity
  8
0
  6
CONTINUOUS
 62
               4
100
AcDbLine
 10
10.5
 20
32.0
 30
0.0
 11
7.3000000000000114
 21
32.0
 31
0.0
  0
LINE
  5
5B0
100
AcDbEntity
  8
0
  6
CONTINUOUS
 62
               4
100
AcDbLine
 10
7.0
 20
31.700000000000017
 30
0.0
 11
7.0
 21
30.0
 31
0.0
  0
LINE
  5
5B1
100
AcDbEntity
  8
0
  6
CONTINUOUS
 62
               4
100
AcDbLine
 10
10.800000000000011
 20
31.700000000000017
 30
0.0
 11
10.800000000000011
 21
30.0
 31
0.0
  0
LINE
  5
5B2
100
AcDbEntity
  8
0
  6
CONTINUOUS
 62
               4
100
AcDbLine
 10
7.3000000000000114
 20
32.0
 30
0.0
 11
7.0
 21
31.700000000000017
 31
0.0
  0
LINE
  5
5B3
100
AcDbEntity
  8
0
  6
CONTINUOUS
 62
               4
100
AcDbLine
 10
10.5
 20
32.0
 30
0.0
 11
10.800000000000011
 21
31.700000000000017
 31
0.0
  0
LINE
  5
5B4
100
AcDbEntity
  8
0
  6
CONTINUOUS
 62
               4
100
AcDbLine
 10
10.800000000000011
 20
31.700000000000017
 30
0.0
 11
7.0
 21
31.700000000000017
 31
0.0
  0
LINE
  5
5B5
100
AcDbEntity
  8
0
  6
CONTINUOUS
 62
               7
100
AcDbLine
 10
10.699999999999989
 20
29.0
 30
0.0
 11
4.8999999999999773
 21
29.0
 31
0.0
  0
LINE
  5
5B6
100
AcDbEntity
  8
0
  6
CONTINUOUS
 62
               7
100
AcDbLine
 10
2.5773502141344125
 20
25.50000004945862
 30
0.0
 11
3.1547005325662667
 21
24.499999930249331
 31
0.0
  0
LINE
  5
5B7
100
AcDbEntity
  8
0
  6
CONTINUOUS
 62
               7
100
AcDbLine
 10
3.1547005536840516
 20
24.500000072408554
 30
0.0
 11
2.5773502058772806
 21
23.499999970158882
 31
0.0
  0
LINE
  5
5B8
100
AcDbEntity
  8
0
  6
CONTINUOUS
 62
               7
100
AcDbLine
 10
1.4226497858656444
 20
23.49999995054138
 30
0.0
 11
0.8452994674337901
 21
24.500000069750669
 31
0.0
  0
LINE
  5
5B9
100
AcDbEntity
  8
0
  6
CONTINUOUS
 62
               7
100
AcDbLine
 10
0.8452994463159484
 20
24.499999927591446
 30
0.0
 11
1.4226497941227763
 21
25.500000029841118
 31
0.0
  0
CIRCLE
  5
5BA
100
AcDbEntity
  8
0
  6
CONTINUOUS
 62
               7
100
AcDbCircle
 10
2.0
 20
24.5
 30
0.0
 40
2.5
  0
LINE
  5
5BB
100
AcDbEntity
  8
0
  6
CONTINUOUS
 62
               2
100
AcDbLine
 10
2.0
 20
28.0
 30
0.0
 11
2.0
 21
21.0
 31
0.0
  0
LINE
  5
5BC
100
AcDbEntity
  8
0
  6
CONTINUOUS
 62
               2
100
AcDbLine
 10
5.5
 20
24.5
 30
0.0
 11
-1.5
 21
24.5
 31
0.0
  0
CIRCLE
  5
5BD
100
AcDbEntity
  8
0
  6
CONTINUOUS
 62
               7
100
AcDbCircle
 10
2.0
 20
24.5
 30
0.0
 40
2.25
  0
LINE
  5
5BE
100
AcDbEntity
  8
0
  6
CONTINUOUS
 62
               7
100
AcDbLine
 10
1.4226496604503609
 20
25.499999977050066
 30
0.0
 11
2.5773503266889861
 21
25.499999960090449
 31
0.0
  0
LINE
  5
5BF
100
AcDbEntity
  8
0
  6
CONTINUOUS
 62
               7
100
AcDbLine
 10
2.5773503395496959
 20
23.500000022949934
 30
0.0
 11
1.4226496733110707
 21
23.500000039909551
 31
0.0
  0
CIRCLE
  5
5C0
100
AcDbEntity
  8
0
  6
CONTINUOUS
 62
               7
100
AcDbCircle
 10
2.0
 20
24.5
 30
0.0
 40
1.95
  0
CIRCLE
  5
5C1
100
AcDbEntity
  8
0
  6
CONTINUOUS
 62
               2
100
AcDbCircle
 10
3.5
 20
19.0
 30
0.0
 40
1.5
  0
CIRCLE
  5
5C2
100
AcDbEntity
  8
0
  6
CONTINUOUS
 62
               7
100
AcDbCircle
 10
3.5
 20
19.0
 30
0.0
 40
1.25
  0
CIRCLE
  5
5C3
100
AcDbEntity
  8
0
  6
CONTINUOUS
 62
               7
100
AcDbCircle
 10
2.0
 20
13.5
 30
0.0
 40
2.5
  0
LINE
  5
5C4
100
AcDbEntity
  8
0
  6
CONTINUOUS
 62
               7
100
AcDbLine
 10
-0.7999999999999545
 20
10.0
 30
0.0
 11
6.5
 21
10.0
 31
0.0
  0
LINE
  5
5C5
100
AcDbEntity
  8
0
  6
CONTINUOUS
 62
               7
100
AcDbLine
 10
-0.8000000000000114
 20
28.0
 30
0.0
 11
6.5
 21
28.0
 31
0.0
  0
LINE
  5
5C6
100
AcDbEntity
  8
0
  6
CONTINUOUS
 62
               7
100
AcDbLine
 10
-0.8000000000000114
 20
28.0
 30
0.0
 11
-0.7999999999999545
 21
10.0
 31
0.0
  0
LINE
  5
5C7
100
AcDbEntity
  8
0
  6
CONTINUOUS
 62
               7
100
AcDbLine
 10
6.5
 20
16.400000000000006
 30
0.0
 11
8.0
 21
16.400000000000006
 31
0.0
  0
LINE
  5
5C8
100
AcDbEntity
  8
0
  6
CONTINUOUS
 62
               7
100
AcDbLine
 10
8.0
 20
16.400000000000006
 30
0.0
 11
8.0
 21
21.599999999999994
 31
0.0
  0
LINE
  5
5C9
100
AcDbEntity
  8
0
  6
CONTINUOUS
 62
               7
100
AcDbLine
 10
6.5
 20
21.599999999999994
 30
0.0
 11
8.0
 21
21.599999999999994
 31
0.0
  0
LINE
  5
5CA
100
AcDbEntity
  8
0
  6
CONTINUOUS
 62
               2
100
AcDbLine
 10
2.0
 20
10.0
 30
0.0
 11
2.0
 21
17.0
 31
0.0
  0
LINE
  5
5CB
100
AcDbEntity
  8
0
  6
CONTINUOUS
 62
               2
100
AcDbLine
 10
5.5
 20
13.5
 30
0.0
 11
-1.5
 21
13.5
 31
0.0
  0
CIRCLE
  5
5CC
100
AcDbEntity
  8
0
  6
CONTINUOUS
 62
               7
100
AcDbCircle
 10
2.0
 20
13.5
 30
0.0
 40
2.25
  0
LINE
  5
5CD
100
AcDbEntity
  8
0
  6
CONTINUOUS
 62
               7
100
AcDbLine
 10
2.5773502141344125
 20
12.49999995054138
 30
0.0
 11
3.1547005325662667
 21
13.500000069750669
 31
0.0
  0
LINE
  5
5CE
100
AcDbEntity
  8
0
  6
CONTINUOUS
 62
               7
100
AcDbLine
 10
1.4226496604503609
 20
12.500000022949934
 30
0.0
 11
2.5773503266889861
 21
12.500000039909551
 31
0.0
  0
LINE
  5
5CF
100
AcDbEntity
  8
0
  6
CONTINUOUS
 62
               7
100
AcDbLine
 10
0.8452994463159484
 20
13.500000072408554
 30
0.0
 11
1.4226497941227763
 21
12.499999970158882
 31
0.0
  0
LINE
  5
5D0
100
AcDbEntity
  8
0
  6
CONTINUOUS
 62
               7
100
AcDbLine
 10
1.4226497858656444
 20
14.50000004945862
 30
0.0
 11
0.8452994674337901
 21
13.499999930249331
 31
0.0
  0
LINE
  5
5D1
100
AcDbEntity
  8
0
  6
CONTINUOUS
 62
               7
100
AcDbLine
 10
2.5773503395496959
 20
14.499999977050066
 30
0.0
 11
1.4226496733110707
 21
14.499999960090449
 31
0.0
  0
LINE
  5
5D2
100
AcDbEntity
  8
0
  6
CONTINUOUS
 62
               7
100
AcDbLine
 10
3.1547005536840516
 20
13.499999927591446
 30
0.0
 11
2.5773502058772806
 21
14.500000029841118
 31
0.0
  0
CIRCLE
  5
5D3
100
AcDbEntity
  8
0
  6
CONTINUOUS
 62
               7
100
AcDbCircle
 10
2.0
 20
13.5
 30
0.0
 40
1.95
  0
LINE
  5
5D4
100
AcDbEntity
  8
0
  6
CONTINUOUS
 62
               7
100
AcDbLine
 10
-3.0
 20
0.0
 30
0.0
 11
-3.0
 21
8.3000000000000114
 31
0.0
  0
LINE
  5
5D5
100
AcDbEntity
  8
0
  6
CONTINUOUS
 62
               7
100
AcDbLine
 10
-2.1999999999999886
 20
8.3000000000000114
 30
0.0
 11
-2.1999999999999886
 21
11.000000007980816
 31
0.0
  0
LINE
  5
5D6
100
AcDbEntity
  8
0
  6
CONTINUOUS
 62
               7
100
AcDbLine
 10
-1.0
 20
11.000000007980816
 30
0.0
 11
-2.1999999999999886
 21
11.000000007980816
 31
0.0
  0
LINE
  5
5D7
100
AcDbEntity
  8
0
  6
CONTINUOUS
 62
               2
100
AcDbLine
 10
9.75
 20
5.9999999999999858
 30
0.0
 11
5.25
 21
5.9999999999999858
 31
0.0
  0
LINE
  5
5D8
100
AcDbEntity
  8
0
  6
CONTINUOUS
 62
               7
100
AcDbLine
 10
3.5
 20
5.0
 30
0.0
 11
3.5
 21
8.3000000000000114
 31
0.0
  0
LINE
  5
5D9
100
AcDbEntity
  8
0
  6
CONTINUOUS
 62
               7
100
AcDbLine
 10
3.4999999786160743
 20
5.0
 30
0.0
 11
-3.0
 21
5.0
 31
0.0
  0
LINE
  5
5DA
100
AcDbEntity
  8
0
  6
CONTINUOUS
 62
               2
100
AcDbLine
 10
0.0
 20
-1.2000000000000028
 30
0.0
 11
0.0
 21
6.2000000000000028
 31
0.0
  0
CIRCLE
  5
5DB
100
AcDbEntity
  8
0
  6
CONTINUOUS
 62
               2
100
AcDbCircle
 10
7.5
 20
5.9999999999999858
 30
0.0
 40
1.5
  0
LINE
  5
5DC
100
AcDbEntity
  8
0
  6
CONTINUOUS
 62
               7
100
AcDbLine
 10
10.0
 20
0.0
 30
0.0
 11
-3.0
 21
0.0
 31
0.0
  0
LINE
  5
5DD
100
AcDbEntity
  8
0
  6
CONTINUOUS
 62
               7
100
AcDbLine
 10
6.6000000000000227
 20
9.5
 30
0.0
 11
6.6000000000000227
 21
8.3000000000000114
 31
0.0
  0
LINE
  5
5DE
100
AcDbEntity
  8
0
  6
CONTINUOUS
 62
               7
100
AcDbLine
 10
10.0
 20
8.3000000000000114
 30
0.0
 11
-3.0
 21
8.3000000000000114
 31
0.0
  0
LINE
  5
5DF
100
AcDbEntity
  8
0
  6
CONTINUOUS
 62
               7
100
AcDbLine
 10
10.0
 20
8.3000000000000114
 30
0.0
 11
10.0
 21
0.0
 31
0.0
  0
LINE
  5
5E0
100
AcDbEntity
  8
0
  6
CONTINUOUS
 62
               2
100
AcDbLine
 10
7.5
 20
8.2499999999999858
 30
0.0
 11
7.5
 21
3.7499999999999858
 31
0.0
  0
CIRCLE
  5
5E1
100
AcDbEntity
  8
0
  6
CONTINUOUS
 62
               7
100
AcDbCircle
 10
7.5
 20
5.9999999999999858
 30
0.0
 40
1.25
  0
LINE
  5
5E2
100
AcDbEntity
  8
0
  6
CONTINUOUS
 62
               7
100
AcDbLine
 10
7.1999999999999886
 20
15.599999999999994
 30
0.0
 11
7.0
 21
15.599999999999994
 31
0.0
  0
LINE
  5
5E3
100
AcDbEntity
  8
0
  6
CONTINUOUS
 62
               7
100
AcDbLine
 10
7.1999999999999886
 20
22.400000000000006
 30
0.0
 11
7.0
 21
22.400000000000006
 31
0.0
  0
LINE
  5
5E4
100
AcDbEntity
  8
0
  6
CONTINUOUS
 62
               7
100
AcDbLine
 10
9.1999999999999886
 20
22.099999999999994
 30
0.0
 11
9.1999999999999886
 21
15.900000000000006
 31
0.0
  0
LINE
  5
5E5
100
AcDbEntity
  8
0
  6
CONTINUOUS
 62
               7
100
AcDbLine
 10
7.1999999999999886
 20
26.300000000000011
 30
0.0
 11
10.699999999999989
 21
26.300000000000011
 31
0.0
  0
LINE
  5
5E6
100
AcDbEntity
  8
0
  6
CONTINUOUS
 62
               7
100
AcDbLine
 10
7.1999999999999886
 20
26.300000000000011
 30
0.0
 11
7.1999999999999886
 21
22.099999999999994
 31
0.0
  0
LINE
  5
5E7
100
AcDbEntity
  8
0
  6
CONTINUOUS
 62
               7
100
AcDbLine
 10
7.1999999999999886
 20
22.099999999999994
 30
0.0
 11
9.1999999999999886
 21
22.099999999999994
 31
0.0
  0
LINE
  5
5E8
100
AcDbEntity
  8
0
  6
CONTINUOUS
 62
               7
100
AcDbLine
 10
7.1999999999999886
 20
15.900000000000006
 30
0.0
 11
9.1999999999999886
 21
15.900000000000006
 31
0.0
  0
LINE
  5
5E9
100
AcDbEntity
  8
0
  6
CONTINUOUS
 62
               7
100
AcDbLine
 10
7.1999999999999886
 20
11.699999999999989
 30
0.0
 11
7.1999999999999886
 21
15.900000000000006
 31
0.0
  0
LINE
  5
5EA
100
AcDbEntity
  8
0
  6
CONTINUOUS
 62
               7
100
AcDbLine
 10
7.1999999999999886
 20
11.699999999999989
 30
0.0
 11
10.699999999999989
 21
11.699999999999989
 31
0.0
  0
LINE
  5
5EB
100
AcDbEntity
  8
0
  6
CONTINUOUS
 62
               7
100
AcDbLine
 10
10.699999999999989
 20
11.699999999999989
 30
0.0
 11
10.699999999999989
 21
26.300000000000011
 31
0.0
  0
ARC
  5
5EC
100
AcDbEntity
  8
0
  6
CONTINUOUS
 62
               7
100
AcDbCircle
 10
8.0
 20
22.199999999999989
 30
0.0
 40
0.5
100
AcDbArc
 50
191.53695903281499
 51
348.46304096718507
  0
LINE
  5
5ED
100
AcDbEntity
  8
0
  6
CONTINUOUS
 62
               7
100
AcDbLine
 10
7.5341828670152609
 20
22.0
 30
0.0
 11
6.5
 21
22.0
 31
0.0
  0
LINE
  5
5EE
100
AcDbEntity
  8
0
  6
CONTINUOUS
 62
               7
100
AcDbLine
 10
7.0
 20
29.0
 30
0.0
 11
7.0
 21
22.400000000000006
 31
0.0
  0
LINE
  5
5EF
100
AcDbEntity
  8
0
  6
CONTINUOUS
 62
               7
100
AcDbLine
 10
6.5
 20
28.5
 30
0.0
 11
6.5
 21
21.599999999999994
 31
0.0
  0
LINE
  5
5F0
100
AcDbEntity
  8
0
  6
CONTINUOUS
 62
               7
100
AcDbLine
 10
8.8000000000000114
 20
22.0
 30
0.0
 11
8.465817132984796
 21
22.0
 31
0.0
  0
LINE
  5
5F1
100
AcDbEntity
  8
0
  6
CONTINUOUS
 62
               7
100
AcDbLine
 10
6.5
 20
28.5
 30
0.0
 11
-1.0
 21
28.5
 31
0.0
  0
LINE
  5
5F2
100
AcDbEntity
  8
0
  6
CONTINUOUS
 62
               7
100
AcDbLine
 10
10.500000000000114
 20
9.0
 30
0.0
 11
6.6000000000000227
 21
9.0
 31
0.0
  0
LINE
  5
5F3
100
AcDbEntity
  8
0
  6
CONTINUOUS
 62
               7
100
AcDbLine
 10
6.6000000000000227
 20
9.5
 30
0.0
 11
-1.0
 21
9.5
 31
0.0
  0
LINE
  5
5F4
100
AcDbEntity
  8
0
  6
CONTINUOUS
 62
               7
100
AcDbLine
 10
7.0
 20
9.0
 30
0.0
 11
7.0
 21
15.599999999999994
 31
0.0
  0
LINE
  5
5F5
100
AcDbEntity
  8
0
  6
CONTINUOUS
 62
               7
100
AcDbLine
 10
11.0
 20
9.5
 30
0.0
 11
11.0
 21
28.5
 31
0.0
  0
LINE
  5
5F6
100
AcDbEntity
  8
0
  6
CONTINUOUS
 62
               7
100
AcDbLine
 10
6.5
 20
9.5
 30
0.0
 11
6.5
 21
16.400000000000006
 31
0.0
  0
LINE
  5
5F7
100
AcDbEntity
  8
0
  6
CONTINUOUS
 62
               2
100
AcDbLine
 10
3.5
 20
16.5
 30
0.0
 11
3.5
 21
21.5
 31
0.0
  0
LINE
  5
5F8
100
AcDbEntity
  8
0
  6
CONTINUOUS
 62
               2
100
AcDbLine
 10
-2.169463748771534
 20
19.0
 30
0.0
 11
12.080676139835248
 21
19.0
 31
0.0
  0
LINE
  5
5F9
100
AcDbEntity
  8
0
  6
CONTINUOUS
 62
               7
100
AcDbLine
 10
-1.0
 20
28.499999992019184
 30
0.0
 11
-1.0
 21
21.700000000000017
 31
0.0
  0
LINE
  5
5FA
100
AcDbEntity
  8
0
  6
CONTINUOUS
 62
               7
100
AcDbLine
 10
11.0
 20
28.5
 30
0.0
 11
10.499999999999943
 21
29.0
 31
0.0
  0
LINE
  5
5FB
100
AcDbEntity
  8
0
  6
CONTINUOUS
 62
               7
100
AcDbLine
 10
11.0
 20
9.5
 30
0.0
 11
10.500000000000114
 21
9.0
 31
0.0
  0
LINE
  5
5FC
100
AcDbEntity
  8
0
  6
CONTINUOUS
 62
               7
100
AcDbLine
 10
-1.0
 20
16.299999999999983
 30
0.0
 11
-1.0
 21
9.5
 31
0.0
  0
LINE
  5
5FD
100
AcDbEntity
  8
0
  6
CONTINUOUS
 62
               7
100
AcDbLine
 10
8.8000000000000114
 20
22.0
 30
0.0
 11
8.8000000000000114
 21
16.0
 31
0.0
  0
CIRCLE
  5
5FE
100
AcDbEntity
  8
0
  6
CONTINUOUS
 62
               7
100
AcDbCircle
 10
8.5
 20
24.5
 30
0.0
 40
1.0
  0
LINE
  5
5FF
100
AcDbEntity
  8
0
  6
CONTINUOUS
 62
               7
100
AcDbLine
 10
7.9343145750507347
 20
25.065685424949237
 30
0.0
 11
9.0656854249492653
 21
23.934314575050763
 31
0.0
  0
LINE
  5
600
100
AcDbEntity
  8
0
  6
CONTINUOUS
 62
               7
100
AcDbLine
 10
7.9343145750507347
 20
23.934314575050763
 30
0.0
 11
9.0656854249492653
 21
25.065685424949237
 31
0.0
  0
LINE
  5
601
100
AcDbEntity
  8
0
  6
CONTINUOUS
 62
               7
100
AcDbLine
 10
7.5341828670152609
 20
16.0
 30
0.0
 11
6.5
 21
16.0
 31
0.0
  0
LINE
  5
602
100
AcDbEntity
  8
0
  6
CONTINUOUS
 62
               7
100
AcDbLine
 10
8.8000000000000114
 20
16.0
 30
0.0
 11
8.465817132984796
 21
16.0
 31
0.0
  0
ARC
  5
603
100
AcDbEntity
  8
0
  6
CONTINUOUS
 62
               7
100
AcDbCircle
 10
8.0
 20
15.800000000000011
 30
0.0
 40
0.5
100
AcDbArc
 50
11.536959032814933
 51
168.46304096718507
  0
CIRCLE
  5
604
100
AcDbEntity
  8
0
  6
CONTINUOUS
 62
               7
100
AcDbCircle
 10
8.5
 20
13.5
 30
0.0
 40
1.0
  0
LINE
  5
605
100
AcDbEntity
  8
0
  6
CONTINUOUS
 62
               7
100
AcDbLine
 10
7.9343145750507915
 20
14.065685424949237
 30
0.0
 11
9.0656854249492653
 21
12.934314575050763
 31
0.0
  0
LINE
  5
606
100
AcDbEntity
  8
0
  6
CONTINUOUS
 62
               7
100
AcDbLine
 10
7.9343145750507915
 20
12.934314575050763
 30
0.0
 11
9.0656854249492653
 21
14.065685424949237
 31
0.0
  0
LINE
  5
607
100
AcDbEntity
  8
0
  6
CONTINUOUS
 62
               7
100
AcDbLine
 10
-0.7999999999999545
 20
16.5
 30
0.0
 11
-1.0
 21
16.299999999999983
 31
0.0
  0
LINE
  5
608
100
AcDbEntity
  8
0
  6
CONTINUOUS
 62
               7
100
AcDbLine
 10
-0.8000000000000114
 20
21.500000000000028
 30
0.0
 11
-1.0
 21
21.700000000000017
 31
0.0
  0
LINE
  5
609
100
AcDbEntity
  8
0
  6
CONTINUOUS
 62
             200
100
AcDbLine
 10
2.1999999999999886
 20
39.715992194965345
 30
0.0
 11
2.1999999999999886
 21
32.834934839674844
 31
0.0
  0
LINE
  5
60A
100
AcDbEntity
  8
0
  6
CONTINUOUS
 62
             200
100
AcDbLine
 10
7.3999999999999773
 20
39.715992194965345
 30
0.0
 11
7.3999999999999773
 21
32.834934839674844
 31
0.0
  0
ENDBLK
  5
60B
100
AcDbEntity
  8
0
100
AcDbBlockEnd
  0
BLOCK
  5
60C
100
AcDbEntity
  8
0
100
AcDbBlockBegin
  2
MGAL6-L-24
 70
               0
 10
0.0
 20
0.0
 30
0.0
  3
MGAL6-L-24
  1

  0
LINE
  5
60D
100
AcDbEntity
  8
0
  6
CONTINUOUS
 62
               2
100
AcDbLine
 10
-8.9000000000000341
 20
28.381535663069144
 30
0.0
 11
-8.9000000000000341
 21
22.449999992019187
 31
0.0
  0
LINE
  5
60E
100
AcDbEntity
  8
0
  6
CONTINUOUS
 62
               7
100
AcDbLine
 10
-10.699999999999989
 20
28.999999992019184
 30
0.0
 11
0.1999999999999886
 21
28.999999992019184
 31
0.0
  0
LINE
  5
60F
100
AcDbEntity
  8
0
  6
CONTINUOUS
 62
             200
100
AcDbLine
 10
-8.9000000000000341
 20
32.330849315661197
 30
0.0
 11
-8.9000000000000341
 21
28.381535663069144
 31
0.0
  0
LINE
  5
610
100
AcDbEntity
  8
0
  6
CONTINUOUS
 62
               7
100
AcDbLine
 10
-6.5999999999999659
 20
9.0
 30
0.0
 11
-6.5999999999999659
 21
8.3000000000000114
 31
0.0
  0
LINE
  5
611
100
AcDbEntity
  8
0
  6
CONTINUOUS
 62
               2
100
AcDbLine
 10
0.0
 20
-1.2123012148314416
 30
0.0
 11
0.0
 21
6.0245482007543529
 31
0.0
  0
LINE
  5
612
100
AcDbEntity
  8
0
  6
CONTINUOUS
 62
               7
100
AcDbLine
 10
2.1999999999999886
 20
8.3000000000000114
 30
0.0
 11
2.1999999999999886
 21
11.000000007980816
 31
0.0
  0
LINE
  5
613
100
AcDbEntity
  8
0
  6
CONTINUOUS
 62
               7
100
AcDbLine
 10
-8.2500000051903726
 20
6.4330127264257726
 30
0.0
 11
-8.2499999944670321
 21
5.5669872600069255
 31
0.0
  0
LINE
  5
614
100
AcDbEntity
  8
0
  6
CONTINUOUS
 62
               7
100
AcDbLine
 10
-7.4999999813484806
 20
6.8660254205461797
 30
0.0
 11
-8.2500000302297849
 21
6.4330126780500905
 31
0.0
  0
LINE
  5
615
100
AcDbEntity
  8
0
  6
CONTINUOUS
 62
               7
100
AcDbLine
 10
-6.749999976158108
 20
6.4330126941204071
 30
0.0
 11
-7.5000000357627528
 21
6.8660254180431366
 31
0.0
  0
LINE
  5
616
100
AcDbEntity
  8
0
  6
CONTINUOUS
 62
               7
100
AcDbLine
 10
-6.7499999948096843
 20
5.566987273574199
 30
0.0
 11
-6.7500000055329679
 21
6.4330127399930461
 31
0.0
  0
CIRCLE
  5
617
100
AcDbEntity
  8
0
  6
CONTINUOUS
 62
               7
100
AcDbCircle
 10
-7.5
 20
5.9999999999999858
 30
0.0
 40
1.5
  0
LINE
  5
618
100
AcDbEntity
  8
0
  6
CONTINUOUS
 62
               2
100
AcDbLine
 10
-9.75
 20
5.9999999999999858
 30
0.0
 11
-5.25
 21
5.9999999999999858
 31
0.0
  0
LINE
  5
619
100
AcDbEntity
  8
0
  6
CONTINUOUS
 62
               2
100
AcDbLine
 10
-7.5
 20
8.2499999999999858
 30
0.0
 11
-7.5
 21
3.7499999999999858
 31
0.0
  0
LINE
  5
61A
100
AcDbEntity
  8
0
  6
CONTINUOUS
 62
               7
100
AcDbLine
 10
-8.250000023841892
 20
5.5669873058795645
 30
0.0
 11
-7.4999999642372472
 21
5.133974581956835
 31
0.0
  0
LINE
  5
61B
100
AcDbEntity
  8
0
  6
CONTINUOUS
 62
               7
100
AcDbLine
 10
-7.5000000186515194
 20
5.1339745794537919
 30
0.0
 11
-6.7499999697702151
 21
5.5669873219498811
 31
0.0
  0
CIRCLE
  5
61C
100
AcDbEntity
  8
0
  6
CONTINUOUS
 62
               2
100
AcDbCircle
 10
-7.5
 20
5.9999999999999858
 30
0.0
 40
1.25
  0
LINE
  5
61D
100
AcDbEntity
  8
0
  6
CONTINUOUS
 62
               7
100
AcDbLine
 10
3.0
 20
0.0
 30
0.0
 11
3.0
 21
8.3000000000000114
 31
0.0
  0
LINE
  5
61E
100
AcDbEntity
  8
0
  6
CONTINUOUS
 62
               7
100
AcDbLine
 10
-3.5
 20
5.0
 30
0.0
 11
-3.5
 21
8.3000000000000114
 31
0.0
  0
LINE
  5
61F
100
AcDbEntity
  8
0
  6
CONTINUOUS
 62
               7
100
AcDbLine
 10
-3.4999999786160743
 20
5.0
 30
0.0
 11
3.0
 21
5.0
 31
0.0
  0
LINE
  5
620
100
AcDbEntity
  8
0
  6
CONTINUOUS
 62
               7
100
AcDbLine
 10
-10.0
 20
0.0
 30
0.0
 11
3.0
 21
0.0
 31
0.0
  0
LINE
  5
621
100
AcDbEntity
  8
0
  6
CONTINUOUS
 62
               7
100
AcDbLine
 10
-10.0
 20
8.3000000000000114
 30
0.0
 11
3.0
 21
8.3000000000000114
 31
0.0
  0
LINE
  5
622
100
AcDbEntity
  8
0
  6
CONTINUOUS
 62
               7
100
AcDbLine
 10
-10.0
 20
8.3000000000000114
 30
0.0
 11
-10.0
 21
0.0
 31
0.0
  0
LINE
  5
623
100
AcDbEntity
  8
0
  6
CONTINUOUS
 62
               7
100
AcDbLine
 10
1.0
 20
11.000000007980816
 30
0.0
 11
2.1999999999999886
 21
11.000000007980816
 31
0.0
  0
LINE
  5
624
100
AcDbEntity
  8
0
  6
CONTINUOUS
 62
               4
100
AcDbLine
 10
-10.699999999999989
 20
29.999999992019198
 30
0.0
 11
-10.699999999999989
 21
28.999999992019184
 31
0.0
  0
LINE
  5
625
100
AcDbEntity
  8
0
  6
CONTINUOUS
 62
               4
100
AcDbLine
 10
-10.800000000000011
 20
31.699999992019187
 30
0.0
 11
-7.0
 21
31.699999992019187
 31
0.0
  0
LINE
  5
626
100
AcDbEntity
  8
0
  6
CONTINUOUS
 62
               4
100
AcDbLine
 10
-10.5
 20
31.999999992019184
 30
0.0
 11
-10.800000000000011
 21
31.699999992019187
 31
0.0
  0
LINE
  5
627
100
AcDbEntity
  8
0
  6
CONTINUOUS
 62
               4
100
AcDbLine
 10
-7.3000000000000114
 20
31.999999992019184
 30
0.0
 11
-7.0
 21
31.699999992019187
 31
0.0
  0
LINE
  5
628
100
AcDbEntity
  8
0
  6
CONTINUOUS
 62
               4
100
AcDbLine
 10
-10.800000000000011
 20
31.699999992019187
 30
0.0
 11
-10.800000000000011
 21
29.999999992019198
 31
0.0
  0
LINE
  5
629
100
AcDbEntity
  8
0
  6
CONTINUOUS
 62
               4
100
AcDbLine
 10
-7.0
 20
31.699999992019187
 30
0.0
 11
-7.0
 21
29.999999992019198
 31
0.0
  0
LINE
  5
62A
100
AcDbEntity
  8
0
  6
CONTINUOUS
 62
               4
100
AcDbLine
 10
-10.5
 20
31.999999992019184
 30
0.0
 11
-7.3000000000000114
 21
31.999999992019184
 31
0.0
  0
LINE
  5
62B
100
AcDbEntity
  8
0
  6
CONTINUOUS
 62
               4
100
AcDbLine
 10
-10.800000000000011
 20
29.999999992019198
 30
0.0
 11
-4.8999999999999773
 21
29.999999992019198
 31
0.0
  0
LINE
  5
62C
100
AcDbEntity
  8
0
  6
CONTINUOUS
 62
               7
100
AcDbLine
 10
-10.5
 20
8.999999992019184
 30
0.0
 11
0.1999999999999886
 21
8.999999992019184
 31
0.0
  0
LINE
  5
62D
100
AcDbEntity
  8
0
  6
CONTINUOUS
 62
               7
100
AcDbLine
 10
0.1999999999999886
 20
9.499999992019184
 30
0.0
 11
1.0
 21
9.499999992019184
 31
0.0
  0
LINE
  5
62E
100
AcDbEntity
  8
0
  6
CONTINUOUS
 62
               7
100
AcDbLine
 10
0.1999999999999886
 20
28.499999992019184
 30
0.0
 11
1.0
 21
28.499999992019184
 31
0.0
  0
LINE
  5
62F
100
AcDbEntity
  8
0
  6
CONTINUOUS
 62
               7
100
AcDbLine
 10
-11.0
 20
28.499999992019198
 30
0.0
 11
-11.0
 21
9.499999992019184
 31
0.0
  0
LINE
  5
630
100
AcDbEntity
  8
0
  6
CONTINUOUS
 62
               2
100
AcDbLine
 10
2.169463748771534
 20
18.999999992019184
 30
0.0
 11
-12.080676139835248
 21
18.999999992019184
 31
0.0
  0
LINE
  5
631
100
AcDbEntity
  8
0
  6
CONTINUOUS
 62
               7
100
AcDbLine
 10
1.0
 20
9.5
 30
0.0
 11
1.0
 21
16.299999992019167
 31
0.0
  0
LINE
  5
632
100
AcDbEntity
  8
0
  6
CONTINUOUS
 62
               7
100
AcDbLine
 10
0.1999999999999886
 20
28.999999992019184
 30
0.0
 11
0.1999999999999886
 21
21.499999992019184
 31
0.0
  0
CIRCLE
  5
633
100
AcDbEntity
  8
0
  6
CONTINUOUS
 62
               7
100
AcDbCircle
 10
-8.9000000000000341
 20
25.499999992019184
 30
0.0
 40
1.6000000000000174
  0
CIRCLE
  5
634
100
AcDbEntity
  8
0
  6
CONTINUOUS
 62
               7
100
AcDbCircle
 10
-8.9000000000000341
 20
25.499999992019184
 30
0.0
 40
1.9000000000000148
  0
LINE
  5
635
100
AcDbEntity
  8
0
  6
CONTINUOUS
 62
               7
100
AcDbLine
 10
-9.3330128635930691
 20
24.749999985386779
 30
0.0
 11
-8.4669872641335928
 21
24.750000004095639
 31
0.0
  0
LINE
  5
636
100
AcDbEntity
  8
0
  6
CONTINUOUS
 62
               7
100
AcDbLine
 10
-8.4669871364069422
 20
26.249999998651589
 30
0.0
 11
-9.3330127358663617
 21
26.249999979942729
 31
0.0
  0
LINE
  5
637
100
AcDbEntity
  8
0
  6
CONTINUOUS
 62
               7
100
AcDbLine
 10
-9.3330126267856599
 20
26.250000135372403
 30
0.0
 11
-9.7660254103130342
 21
25.499999956558469
 31
0.0
  0
LINE
  5
638
100
AcDbEntity
  8
0
  6
CONTINUOUS
 62
               7
100
AcDbLine
 10
-8.0339745096213164
 20
25.49999985529837
 30
0.0
 11
-8.4669873255533616
 21
26.250000015403444
 31
0.0
  0
LINE
  5
639
100
AcDbEntity
  8
0
  6
CONTINUOUS
 62
               7
100
AcDbLine
 10
-8.4669873732143515
 20
24.749999848665965
 30
0.0
 11
-8.0339745896869772
 21
25.500000027479899
 31
0.0
  0
LINE
  5
63A
100
AcDbEntity
  8
0
  6
CONTINUOUS
 62
               7
100
AcDbLine
 10
-9.7660254903786949
 20
25.500000128739998
 30
0.0
 11
-9.3330126744465929
 21
24.749999968634924
 31
0.0
  0
LINE
  5
63B
100
AcDbEntity
  8
0
  6
CONTINUOUS
 62
               2
100
AcDbLine
 10
-5.8499999999999659
 20
25.499999992019184
 30
0.0
 11
-11.949999999999989
 21
25.499999992019184
 31
0.0
  0
CIRCLE
  5
63C
100
AcDbEntity
  8
0
  6
CONTINUOUS
 62
               7
100
AcDbCircle
 10
-8.9000000000000341
 20
12.499999992019184
 30
0.0
 40
1.6000000000000174
  0
CIRCLE
  5
63D
100
AcDbEntity
  8
0
  6
CONTINUOUS
 62
               7
100
AcDbCircle
 10
-8.9000000000000341
 20
12.499999992019184
 30
0.0
 40
1.9000000000000148
  0
LINE
  5
63E
100
AcDbEntity
  8
0
  6
CONTINUOUS
 62
               7
100
AcDbLine
 10
-9.3330128635930691
 20
11.749999985386779
 30
0.0
 11
-8.4669872641335928
 21
11.750000004095639
 31
0.0
  0
LINE
  5
63F
100
AcDbEntity
  8
0
  6
CONTINUOUS
 62
               7
100
AcDbLine
 10
-8.4669871364069422
 20
13.249999998651575
 30
0.0
 11
-9.3330127358663617
 21
13.249999979942729
 31
0.0
  0
LINE
  5
640
100
AcDbEntity
  8
0
  6
CONTINUOUS
 62
               7
100
AcDbLine
 10
-9.3330126267856599
 20
13.250000135372403
 30
0.0
 11
-9.7660254103130342
 21
12.499999956558469
 31
0.0
  0
LINE
  5
641
100
AcDbEntity
  8
0
  6
CONTINUOUS
 62
               7
100
AcDbLine
 10
-8.0339745096213164
 20
12.499999855298356
 30
0.0
 11
-8.4669873255533616
 21
13.250000015403444
 31
0.0
  0
LINE
  5
642
100
AcDbEntity
  8
0
  6
CONTINUOUS
 62
               7
100
AcDbLine
 10
-8.4669873732143515
 20
11.749999848665965
 30
0.0
 11
-8.0339745896869772
 21
12.500000027479899
 31
0.0
  0
LINE
  5
643
100
AcDbEntity
  8
0
  6
CONTINUOUS
 62
               7
100
AcDbLine
 10
-9.7660254903786949
 20
12.500000128740012
 30
0.0
 11
-9.3330126744465929
 21
11.749999968634924
 31
0.0
  0
LINE
  5
644
100
AcDbEntity
  8
0
  6
CONTINUOUS
 62
               2
100
AcDbLine
 10
-5.8499999999999659
 20
12.499999992019184
 30
0.0
 11
-11.949999999999989
 21
12.499999992019184
 31
0.0
  0
LINE
  5
645
100
AcDbEntity
  8
0
  6
CONTINUOUS
 62
               2
100
AcDbLine
 10
-8.9000000000000341
 20
15.549999992019181
 30
0.0
 11
-8.9000000000000341
 21
9.4499999920191868
 31
0.0
  0
LINE
  5
646
100
AcDbEntity
  8
0
  6
CONTINUOUS
 62
               7
100
AcDbLine
 10
-10.800000000000011
 20
28.499999992019184
 30
0.0
 11
-10.800000000000011
 21
9.4999999920191698
 31
0.0
  0
CIRCLE
  5
647
100
AcDbEntity
  8
0
  6
CONTINUOUS
 62
               7
100
AcDbCircle
 10
-3.5
 20
18.999999992019184
 30
0.0
 40
1.5
  0
LINE
  5
648
100
AcDbEntity
  8
0
  6
CONTINUOUS
 62
               4
100
AcDbLine
 10
-7.0999999999999659
 20
29.999999992019198
 30
0.0
 11
-7.0999999999999659
 21
28.999999992019184
 31
0.0
  0
CIRCLE
  5
649
100
AcDbEntity
  8
0
  6
CONTINUOUS
 62
               2
100
AcDbCircle
 10
-3.5
 20
18.999999992019184
 30
0.0
 40
1.2
  0
LINE
  5
64A
100
AcDbEntity
  8
0
  6
CONTINUOUS
 62
               2
100
AcDbLine
 10
-3.5
 20
23.999999992019184
 30
0.0
 11
-3.5
 21
13.999999992019184
 31
0.0
  0
CIRCLE
  5
64B
100
AcDbEntity
  8
0
  6
CONTINUOUS
 62
               7
100
AcDbCircle
 10
-3.5
 20
16.499999992019184
 30
0.0
 40
0.5
  0
LINE
  5
64C
100
AcDbEntity
  8
0
  6
CONTINUOUS
 62
               2
100
AcDbLine
 10
-2.5
 20
16.499999992019184
 30
0.0
 11
-4.5
 21
16.499999992019184
 31
0.0
  0
CIRCLE
  5
64D
100
AcDbEntity
  8
0
  6
CONTINUOUS
 62
               7
100
AcDbCircle
 10
-4.0
 20
11.999999992019184
 30
0.0
 40
1.25
  0
LINE
  5
64E
100
AcDbEntity
  8
0
  6
CONTINUOUS
 62
               2
100
AcDbLine
 10
-1.5
 20
11.999999992019184
 30
0.0
 11
-6.4999999999999432
 21
11.999999992019184
 31
0.0
  0
CIRCLE
  5
64F
100
AcDbEntity
  8
0
  6
CONTINUOUS
 62
               2
100
AcDbCircle
 10
-4.0
 20
11.999999992019184
 30
0.0
 40
1.5
  0
LINE
  5
650
100
AcDbEntity
  8
0
  6
CONTINUOUS
 62
               2
100
AcDbLine
 10
-4.0
 20
9.499999992019184
 30
0.0
 11
-4.0
 21
14.499999992019184
 31
0.0
  0
CIRCLE
  5
651
100
AcDbEntity
  8
0
  6
CONTINUOUS
 62
               7
100
AcDbCircle
 10
-4.0
 20
25.999999992019184
 30
0.0
 40
1.25
  0
LINE
  5
652
100
AcDbEntity
  8
0
  6
CONTINUOUS
 62
               2
100
AcDbLine
 10
-1.5
 20
25.999999992019184
 30
0.0
 11
-6.4999999999999432
 21
25.999999992019184
 31
0.0
  0
CIRCLE
  5
653
100
AcDbEntity
  8
0
  6
CONTINUOUS
 62
               2
100
AcDbCircle
 10
-4.0
 20
25.999999992019184
 30
0.0
 40
1.5
  0
LINE
  5
654
100
AcDbEntity
  8
0
  6
CONTINUOUS
 62
               2
100
AcDbLine
 10
-4.0
 20
23.499999992019184
 30
0.0
 11
-4.0
 21
28.499999992019184
 31
0.0
  0
LINE
  5
655
100
AcDbEntity
  8
0
  6
CONTINUOUS
 62
               7
100
AcDbLine
 10
-10.300000000000011
 20
8.999999992019184
 30
0.0
 11
-10.800000000000011
 21
9.4999999920191698
 31
0.0
  0
LINE
  5
656
100
AcDbEntity
  8
0
  6
CONTINUOUS
 62
               7
100
AcDbLine
 10
-11.0
 20
9.499999992019184
 30
0.0
 11
-10.5
 21
8.999999992019184
 31
0.0
  0
LINE
  5
657
100
AcDbEntity
  8
0
  6
CONTINUOUS
 62
               7
100
AcDbLine
 10
-10.800000000000011
 20
28.499999992019184
 30
0.0
 11
-10.300000000000011
 21
28.999999992019184
 31
0.0
  0
LINE
  5
658
100
AcDbEntity
  8
0
  6
CONTINUOUS
 62
               7
100
AcDbLine
 10
-10.5
 20
28.999999992019184
 30
0.0
 11
-11.0
 21
28.499999992019198
 31
0.0
  0
ARC
  5
659
100
AcDbEntity
  8
0
  6
CONTINUOUS
 62
               7
100
AcDbCircle
 10
-8.9000000000000341
 20
12.499999992019184
 30
0.0
 40
2.1000000000000001
100
AcDbArc
 50
270.0
 51
90.0
  0
LINE
  5
65A
100
AcDbEntity
  8
0
  6
CONTINUOUS
 62
               7
100
AcDbLine
 10
-8.9000000000000341
 20
10.39999999201919
 30
0.0
 11
-10.800000000000011
 21
10.39999999201919
 31
0.0
  0
LINE
  5
65B
100
AcDbEntity
  8
0
  6
CONTINUOUS
 62
               7
100
AcDbLine
 10
-8.9000000000000341
 20
14.599999992019178
 30
0.0
 11
-10.800000000000011
 21
14.599999992019178
 31
0.0
  0
LINE
  5
65C
100
AcDbEntity
  8
0
  6
CONTINUOUS
 62
               7
100
AcDbLine
 10
-8.9000000000000341
 20
27.599999992019178
 30
0.0
 11
-10.800000000000011
 21
27.599999992019178
 31
0.0
  0
ARC
  5
65D
100
AcDbEntity
  8
0
  6
CONTINUOUS
 62
               7
100
AcDbCircle
 10
-8.9000000000000341
 20
25.499999992019184
 30
0.0
 40
2.1000000000000001
100
AcDbArc
 50
270.0
 51
90.0
  0
LINE
  5
65E
100
AcDbEntity
  8
0
  6
CONTINUOUS
 62
               7
100
AcDbLine
 10
-8.9000000000000341
 20
23.39999999201919
 30
0.0
 11
-10.800000000000011
 21
23.39999999201919
 31
0.0
  0
LINE
  5
65F
100
AcDbEntity
  8
0
  6
CONTINUOUS
 62
               7
100
AcDbLine
 10
-0.7723636606028208
 20
16.499999992019184
 30
0.0
 11
0.1999999999999886
 21
16.499999992019184
 31
0.0
  0
LINE
  5
660
100
AcDbEntity
  8
0
  6
CONTINUOUS
 62
               7
100
AcDbLine
 10
-0.7723636606028208
 20
21.499999992019184
 30
0.0
 11
0.1999999999999886
 21
21.499999992019184
 31
0.0
  0
LINE
  5
661
100
AcDbEntity
  8
0
  6
CONTINUOUS
 62
               7
100
AcDbLine
 10
0.1999999999999886
 20
16.499999992019184
 30
0.0
 11
0.1999999999999886
 21
8.999999992019184
 31
0.0
  0
CIRCLE
  5
662
100
AcDbEntity
  8
0
  6
CONTINUOUS
 62
               7
100
AcDbCircle
 10
-3.5
 20
18.999999992019184
 30
0.0
 40
3.7000000000000002
  0
ARC
  5
663
100
AcDbEntity
  8
0
  6
CONTINUOUS
 62
               7
100
AcDbCircle
 10
-3.5
 20
18.999999992019184
 30
0.0
 40
4.0
100
AcDbArc
 50
90.0
 51
270.0
  0
LINE
  5
664
100
AcDbEntity
  8
0
  6
CONTINUOUS
 62
               7
100
AcDbLine
 10
-3.5
 20
14.999999992019184
 30
0.0
 11
0.1999999999999886
 21
14.999999992019184
 31
0.0
  0
LINE
  5
665
100
AcDbEntity
  8
0
  6
CONTINUOUS
 62
               7
100
AcDbLine
 10
-3.5
 20
22.999999992019184
 30
0.0
 11
0.1999999999999886
 21
22.999999992019184
 31
0.0
  0
CIRCLE
  5
666
100
AcDbEntity
  8
0
  6
CONTINUOUS
 62
               7
100
AcDbCircle
 10
-3.5
 20
21.499999992019184
 30
0.0
 40
0.5
  0
LINE
  5
667
100
AcDbEntity
  8
0
  6
CONTINUOUS
 62
               2
100
AcDbLine
 10
-2.5
 20
21.499999992019184
 30
0.0
 11
-4.5
 21
21.499999992019184
 31
0.0
  0
LINE
  5
668
100
AcDbEntity
  8
0
  6
CONTINUOUS
 62
               7
100
AcDbLine
 10
1.0
 20
21.699999992019201
 30
0.0
 11
1.0
 21
28.499999992019184
 31
0.0
  0
LINE
  5
669
100
AcDbEntity
  8
0
  6
CONTINUOUS
 62
               7
100
AcDbLine
 10
0.6999999999999886
 20
16.599999992019178
 30
0.0
 11
1.0
 21
16.299999992019167
 31
0.0
  0
LINE
  5
66A
100
AcDbEntity
  8
0
  6
CONTINUOUS
 62
               7
100
AcDbLine
 10
0.6999999999999886
 20
21.39999999201919
 30
0.0
 11
1.0
 21
21.699999992019201
 31
0.0
  0
LINE
  5
66B
100
AcDbEntity
  8
0
  6
CONTINUOUS
 62
               7
100
AcDbLine
 10
0.6999999999999886
 20
16.599999992019178
 30
0.0
 11
0.6999999999999886
 21
21.39999999201919
 31
0.0
  0
LINE
  5
66C
100
AcDbEntity
  8
0
  6
CONTINUOUS
 62
               4
100
AcDbLine
 10
-8.5
 20
32.499999992019184
 30
0.0
 11
-4.8999999999999773
 21
32.499999992019184
 31
0.0
  0
LINE
  5
66D
100
AcDbEntity
  8
0
  6
CONTINUOUS
 62
               4
100
AcDbLine
 10
-0.3000000000000114
 20
38.499999992019241
 30
0.0
 11
0.9000000000000341
 21
38.499999992019255
 31
0.0
  0
LINE
  5
66E
100
AcDbEntity
  8
0
  6
CONTINUOUS
 62
               4
100
AcDbLine
 10
-0.5999999999999659
 20
38.199999992019244
 30
0.0
 11
-0.5999999999999659
 21
37.999999992019241
 31
0.0
  0
LINE
  5
66F
100
AcDbEntity
  8
0
  6
CONTINUOUS
 62
               4
100
AcDbLine
 10
-3.8000000000000114
 20
38.199999992019244
 30
0.0
 11
-3.8000000000000114
 21
37.999999992019241
 31
0.0
  0
LINE
  5
670
100
AcDbEntity
  8
0
  6
CONTINUOUS
 62
               4
100
AcDbLine
 10
-5.5
 20
38.499999992019241
 30
0.0
 11
-4.1006993865086088
 21
38.499999992019241
 31
0.0
  0
LINE
  5
671
100
AcDbEntity
  8
0
  6
CONTINUOUS
 62
               4
100
AcDbLine
 10
-4.3000000000000114
 20
37.499999992019241
 30
0.0
 11
-4.3000000000000114
 21
35.899999992019247
 31
0.0
  0
LINE
  5
672
100
AcDbEntity
  8
0
  6
CONTINUOUS
 62
               4
100
AcDbLine
 10
-0.0999999999999659
 20
37.499999992019241
 30
0.0
 11
-0.0999999999999659
 21
35.899999992019247
 31
0.0
  0
LINE
  5
673
100
AcDbEntity
  8
0
  6
CONTINUOUS
 62
               4
100
AcDbLine
 10
-0.5999999999999659
 20
37.999999992019241
 30
0.0
 11
-0.0999999999999659
 21
37.499999992019241
 31
0.0
  0
LINE
  5
674
100
AcDbEntity
  8
0
  6
CONTINUOUS
 62
               4
100
AcDbLine
 10
-4.3000000000000114
 20
37.499999992019241
 30
0.0
 11
-3.8000000000000114
 21
37.999999992019241
 31
0.0
  0
ARC
  5
675
100
AcDbEntity
  8
0
  6
CONTINUOUS
 62
               4
100
AcDbCircle
 10
-2.1999999999999886
 20
35.899999992019247
 30
0.0
 40
2.1000000111152071
100
AcDbArc
 50
180.00000000000006
 51
0.0000000000000509
  0
ARC
  5
676
100
AcDbEntity
  8
0
  6
CONTINUOUS
 62
               4
100
AcDbCircle
 10
-4.1006993865086088
 20
38.199300605510615
 30
0.0
 40
0.3007001998472195
100
AcDbArc
 50
0.1332620708018593
 51
89.866737929199076
  0
ARC
  5
677
100
AcDbEntity
  8
0
  6
CONTINUOUS
 62
               4
100
AcDbCircle
 10
-0.3004760263646062
 20
38.200476018383839
 30
0.0
 40
0.2995243519038812
100
AcDbArc
 50
89.908941249896955
 51
180.09105875010405
  0
LINE
  5
678
100
AcDbEntity
  8
0
  6
CONTINUOUS
 62
               4
100
AcDbLine
 10
-5.3000000000000114
 20
37.499999992019241
 30
0.0
 11
-5.3000000000000114
 21
35.899999992019247
 31
0.0
  0
ARC
  5
679
100
AcDbEntity
  8
0
  6
CONTINUOUS
 62
               4
100
AcDbCircle
 10
-5.4993006134913571
 20
38.199300605510615
 30
0.0
 40
0.3007001998472195
100
AcDbArc
 50
90.133262070800967
 51
179.86673792919819
  0
LINE
  5
67A
100
AcDbEntity
  8
0
  6
CONTINUOUS
 62
               4
100
AcDbLine
 10
-5.3000000000000114
 20
37.499999992019241
 30
0.0
 11
-5.8000000000000114
 21
37.999999992019241
 31
0.0
  0
LINE
  5
67B
100
AcDbEntity
  8
0
  6
CONTINUOUS
 62
               4
100
AcDbLine
 10
-5.8000000000000114
 20
38.199999992019244
 30
0.0
 11
-5.8000000000000114
 21
37.999999992019241
 31
0.0
  0
ARC
  5
67C
100
AcDbEntity
  8
0
  6
CONTINUOUS
 62
               4
100
AcDbCircle
 10
-7.4000000000000341
 20
35.899999992019247
 30
0.0
 40
2.1000000111152071
100
AcDbArc
 50
180.0
 51
0.0
  0
LINE
  5
67D
100
AcDbEntity
  8
0
  6
CONTINUOUS
 62
               4
100
AcDbLine
 10
-9.3000000000000114
 20
38.499999992019227
 30
0.0
 11
-10.5
 21
38.499999992019255
 31
0.0
  0
LINE
  5
67E
100
AcDbEntity
  8
0
  6
CONTINUOUS
 62
               4
100
AcDbLine
 10
-9.5
 20
37.499999992019227
 30
0.0
 11
-9.5
 21
35.899999992019232
 31
0.0
  0
ARC
  5
67F
100
AcDbEntity
  8
0
  6
CONTINUOUS
 62
               4
100
AcDbCircle
 10
-9.2995239736354165
 20
38.200476018383839
 30
0.0
 40
0.2995243519038812
100
AcDbArc
 50
359.90894124989597
 51
90.091058750103088
  0
LINE
  5
680
100
AcDbEntity
  8
0
  6
CONTINUOUS
 62
               4
100
AcDbLine
 10
-9.0
 20
37.999999992019227
 30
0.0
 11
-9.5
 21
37.499999992019227
 31
0.0
  0
LINE
  5
681
100
AcDbEntity
  8
0
  6
CONTINUOUS
 62
               4
100
AcDbLine
 10
-9.0
 20
38.199999992019244
 30
0.0
 11
-9.0
 21
37.999999992019227
 31
0.0
  0
LINE
  5
682
100
AcDbEntity
  8
0
  6
CONTINUOUS
 62
               4
100
AcDbLine
 10
-10.5
 20
38.499999992019255
 30
0.0
 11
-10.5
 21
34.49999999201917
 31
0.0
  0
ARC
  5
683
100
AcDbEntity
  8
0
  6
CONTINUOUS
 62
               4
100
AcDbCircle
 10
-8.5
 20
34.499999992019184
 30
0.0
 40
2.0
100
AcDbArc
 50
180.00000000000006
 51
270.00000000000006
  0
LINE
  5
684
100
AcDbEntity
  8
0
  6
CONTINUOUS
 62
               4
100
AcDbLine
 10
-4.8999999999999773
 20
32.499999992019184
 30
0.0
 11
-4.8999999999999773
 21
28.999999992019184
 31
0.0
  0
LINE
  5
685
100
AcDbEntity
  8
0
  6
CONTINUOUS
 62
               4
100
AcDbLine
 10
0.9000000000000341
 20
38.499999992019255
 30
0.0
 11
0.9000000000000341
 21
28.499999992019184
 31
0.0
  0
LINE
  5
686
100
AcDbEntity
  8
0
  6
CONTINUOUS
 62
               4
100
AcDbLine
 10
-7.0
 20
31.699999992019187
 30
0.0
 11
-4.8999999999999773
 21
31.699999992019187
 31
0.0
  0
LINE
  5
687
100
AcDbEntity
  8
0
  6
CONTINUOUS
 62
             200
100
AcDbLine
 10
-7.4000000000000341
 20
39.539042606147859
 30
0.0
 11
-7.4000000000000341
 21
33.002612426326891
 31
0.0
  0
LINE
  5
688
100
AcDbEntity
  8
0
  6
CONTINUOUS
 62
             200
100
AcDbLine
 10
-2.1999999999999886
 20
39.539042606147859
 30
0.0
 11
-2.1999999999999886
 21
33.002612426326891
 31
0.0
  0
ENDBLK
  5
689
100
AcDbEntity
  8
0
100
AcDbBlockEnd
  0
ENDSEC
  0
SECTION
  2
ENTITIES
  0
INSERT
  5
68A
100
AcDbEntity
  8
0
  6
ByBlock
100
AcDbBlockReference
  2
MGAL6-L-1
 10
-160.84179483604493
 20
46.674300037588097
 30
0.0
  0
INSERT
  5
68B
100
AcDbEntity
  8
0
  6
ByBlock
100
AcDbBlockReference
  2
MGAL6-L-12
 10
-242.8417948360451
 20
46.674300037588097
 30
0.0
  0
INSERT
  5
68C
100
AcDbEntity
  8
0
  6
ByBlock
100
AcDbBlockReference
  2
MGAL6-L-18
 10
-40.841794814661
 20
46.674300037588097
 30
0.0
  0
INSERT
  5
68D
100
AcDbEntity
  8
0
  6
ByBlock
100
AcDbBlockReference
  2
MGAL6-L-19
 10
-160.84179483604493
 20
123.1743000375881
 30
0.0
  0
INSERT
  5
68E
100
AcDbEntity
  8
0
  6
ByBlock
100
AcDbBlockReference
  2
MGAL6-L-20
 10
-160.84179483858225
 20
7.1743000375880968
 30
0.0
  0
INSERT
  5
68F
100
AcDbEntity
  8
0
  6
ByBlock
100
AcDbBlockReference
  2
MGAL6-L-21
 10
-160.84179483604493
 20
-27.3256999624119
 30
0.0
  0
INSERT
  5
690
100
AcDbEntity
  8
0
  6
ByBlock
100
AcDbBlockReference
  2
MGAL6-L-22
 10
117.78613017311332
 20
49.476512663684645
 30
0.0
  0
INSERT
  5
691
100
AcDbEntity
  8
0
  6
ByBlock
100
AcDbBlockReference
  2
MGAL6-L-23
 10
35.786130149192104
 20
50.056486923922876
 30
0.0
  0
INSERT
  5
692
100
AcDbEntity
  8
0
  6
ByBlock
100
AcDbBlockReference
  2
MGAL6-L-24
 10
240.78613017311352
 20
50.056486923922876
 30
0.0
  0
INSERT
  5
693
100
AcDbEntity
  8
0
  6
ByBlock
100
AcDbBlockReference
  2
MGAL6-L-2
 10
117.78613017311332
 20
126.55648692392288
 30
0.0
  0
INSERT
  5
694
100
AcDbEntity
  8
0
  6
ByBlock
100
AcDbBlockReference
  2
MGAL6-L-3
 10
117.78613017311332
 20
8.5564869239228756
 30
0.0
  0
INSERT
  5
695
100
AcDbEntity
  8
0
  6
ByBlock
100
AcDbBlockReference
  2
MGAL6-L-4
 10
117.78613017565064
 20
-17.363539076077128
 30
0.0
  0
INSERT
  5
696
100
AcDbEntity
  8
0
  6
ByBlock
100
AcDbBlockReference
  2
MGAL6-L-5
 10
-198.65116035823422
 20
-148.65729253142302
 30
0.0
  0
INSERT
  5
697
100
AcDbEntity
  8
0
  6
ByBlock
100
AcDbBlockReference
  2
MGAL6-L-6
 10
-243.19396126155453
 20
-148.65721623747771
 30
0.0
  0
INSERT
  5
698
100
AcDbEntity
  8
0
  6
ByBlock
100
AcDbBlockReference
  2
MGAL6-L-7
 10
-198.65116035823422
 20
-101.05714909880584
 30
0.0
  0
INSERT
  5
699
100
AcDbEntity
  8
0
  6
ByBlock
100
AcDbBlockReference
  2
MGAL6-L-8
 10
-57.840232013507659
 20
-148.6571399435324
 30
0.0
  0
INSERT
  5
69A
100
AcDbEntity
  8
0
  6
ByBlock
100
AcDbBlockReference
  2
MGAL6-L-9
 10
-100.88291084651547
 20
-148.65720097868865
 30
0.0
  0
INSERT
  5
69B
100
AcDbEntity
  8
0
  6
ByBlock
100
AcDbBlockReference
  2
MGAL6-L-10
 10
-57.840232013507659
 20
-101.05713384001677
 30
0.0
  0
INSERT
  5
69C
100
AcDbEntity
  8
0
  6
ByBlock
100
AcDbBlockReference
  2
MGAL6-L-11
 10
82.891219120230332
 20
-148.65714042118594
 30
0.0
  0
INSERT
  5
69D
100
AcDbEntity
  8
0
  6
ByBlock
100
AcDbBlockReference
  2
MGAL6-L-13
 10
35.892674120593654
 20
-148.65718620027792
 30
0.0
  0
INSERT
  5
69E
100
AcDbEntity
  8
0
  6
ByBlock
100
AcDbBlockReference
  2
MGAL6-L-14
 10
82.891227925121029
 20
-101.05713384001677
 30
0.0
  0
INSERT
  5
69F
100
AcDbEntity
  8
0
  6
ByBlock
100
AcDbBlockReference
  2
MGAL6-L-15
 10
226.40017934698244
 20
-148.6571399435324
 30
0.0
  0
INSERT
  5
6A0
100
AcDbEntity
  8
0
  6
ByBlock
100
AcDbBlockReference
  2
MGAL6-L-16
 10
179.39958423437227
 20
-148.6571399435324
 30
0.0
  0
INSERT
  5
6A1
100
AcDbEntity
  8
0
  6
ByBlock
100
AcDbBlockReference
  2
MGAL6-L-17
 10
226.40018815664149
 20
-101.05713384001677
 30
0.0
  0
LINE
  5
6A2
100
AcDbEntity
  8
0
  6
CONTINUOUS
 62
               7
100
AcDbLine
 10
-281.25
 20
-195.0
 30
0.0
 11
282.099853515625
 21
-195.0
 31
0.0
  0
LINE
  5
6A3
100
AcDbEntity
  8
0
  6
CONTINUOUS
 62
               7
100
AcDbLine
 10
-281.25
 20
195.5
 30
0.0
 11
-281.25
 21
-195.0
 31
0.0
  0
LINE
  5
6A4
100
AcDbEntity
  8
0
  6
CONTINUOUS
 62
               7
100
AcDbLine
 10
-281.25
 20
195.5
 30
0.0
 11
282.099853515625
 21
195.5
 31
0.0
  0
LINE
  5
6A5
100
AcDbEntity
  8
0
  6
CONTINUOUS
 62
               7
100
AcDbLine
 10
282.099853515625
 20
195.5
 30
0.0
 11
282.099853515625
 21
-195.0
 31
0.0
  0
LINE
  5
6A6
100
AcDbEntity
  8
0
  6
CONTINUOUS
 62
               7
100
AcDbLine
 10
162.0999755859375
 20
195.5
 30
0.0
 11
162.0999755859375
 21
175.5
 31
0.0
  0
LINE
  5
6A7
100
AcDbEntity
  8
0
  6
CONTINUOUS
 62
               7
100
AcDbLine
 10
162.0999755859375
 20
175.5
 30
0.0
 11
282.099853515625
 21
175.5
 31
0.0
  0
MTEXT
  5
6A8
100
AcDbEntity
  8
0
  6
CONTINUOUS
 62
               7
100
AcDbMText
 10
198.27702406779611
 20
185.5
 30
0.0
 40
6.3000001907348633
 41
0.0
 71
               4
 72
               1
  1
\W1.311;\A1;Ver. 1.0
  0
MTEXT
  5
6A9
100
AcDbEntity
  8
0
  6
CONTINUOUS
 62
               7
100
AcDbMText
 10
170.28099805280428
 20
-185.0
 30
0.0
 40
9.0
 41
0.0
 71
               4
 72
               1
  1
\W1.121;\A1;KOGANEI CORP.
  0
LINE
  5
6AA
100
AcDbEntity
  8
0
  6
CONTINUOUS
 62
               7
100
AcDbLine
 10
162.0999755859375
 20
-175.0
 30
0.0
 11
282.099853515625
 21
-175.0
 31
0.0
  0
LINE
  5
6AB
100
AcDbEntity
  8
0
  6
CONTINUOUS
 62
               7
100
AcDbLine
 10
162.0999755859375
 20
-175.0
 30
0.0
 11
162.0999755859375
 21
-195.0
 31
0.0
  0
LINE
  5
6AC
100
AcDbEntity
  8
0
  6
CONTINUOUS
 62
               7
100
AcDbLine
 10
-161.25
 20
195.5
 30
0.0
 11
-161.25
 21
175.5
 31
0.0
  0
LINE
  5
6AD
100
AcDbEntity
  8
0
  6
CONTINUOUS
 62
               7
100
AcDbLine
 10
-281.25
 20
175.5
 30
0.0
 11
-161.25
 21
175.5
 31
0.0
  0
MTEXT
  5
6AE
100
AcDbEntity
  8
0
  6
CONTINUOUS
 62
               7
100
AcDbMText
 10
-273.5993289470826
 20
185.5
 30
0.0
 40
6.3000001907348633
 41
0.0
 71
               4
 72
               1
  1
\W1.143;\A1;MINI GUIDE SLIDER
  0
MTEXT
  5
6AF
100
AcDbEntity
  8
0
  6
CONTINUOUS
 62
               7
100
AcDbMText
 10
-268.22542382487296
 20
160.5
 30
0.0
 40
6.3000001907348633
 41
0.0
 71
               4
 72
               1
  1
\W1.119;\A1;MODEL:MGAL6*ST(5,10)-L
  0
MTEXT
  5
6B0
100
AcDbEntity
  8
0
  6
CONTINUOUS
 62
               7
100
AcDbMText
 10
13.44347505334289
 20
170.5
 30
0.0
 40
6.3000001907348633
 41
0.0
 71
               4
 72
               1
  1
\W1.113;\A1;MODEL:MGALS6*ST(5,10)-L
  0
LINE
  5
6B1
100
AcDbEntity
  8
0
  6
CONTINUOUS
 62
               7
100
AcDbLine
 10
0.4249267578125
 20
195.5
 30
0.0
 11
0.4249267578125
 21
-77.849999999999966
 31
0.0
  0
LINE
  5
6B2
100
AcDbEntity
  8
0
  6
CONTINUOUS
 62
               7
100
AcDbLine
 10
-281.25
 20
-77.849999999999966
 30
0.0
 11
0.4249267578125
 21
-77.849999999999966
 31
0.0
  0
LINE
  5
6B3
100
AcDbEntity
  8
0
  6
CONTINUOUS
 62
               7
100
AcDbLine
 10
-271.25
 20
-67.849999981957467
 30
0.0
 11
-194.75
 21
-67.849999981957467
 31
0.0
  0
LINE
  5
6B4
100
AcDbEntity
  8
0
  6
CONTINUOUS
 62
               7
100
AcDbLine
 10
-271.25
 20
-59.849999981957467
 30
0.0
 11
-194.75
 21
-59.849999981957467
 31
0.0
  0
LINE
  5
6B5
100
AcDbEntity
  8
0
  6
CONTINUOUS
 62
               7
100
AcDbLine
 10
-271.25
 20
-51.849999981957467
 30
0.0
 11
-194.75
 21
-51.849999981957467
 31
0.0
  0
MTEXT
  5
6B6
100
AcDbEntity
  8
0
  6
CONTINUOUS
 62
               7
100
AcDbMText
 10
-266.0
 20
-55.849999999999966
 30
0.0
 40
4.5
 41
0.0
 71
               4
 72
               1
  1
\A1;STROKE
  0
MTEXT
  5
6B7
100
AcDbEntity
  8
0
  6
CONTINUOUS
 62
               7
100
AcDbMText
 10
-268.25
 20
-63.849999999999966
 30
0.0
 40
4.5
 41
0.0
 71
               4
 72
               1
  1
\A1;STRETCH
  0
LINE
  5
6B8
100
AcDbEntity
  8
0
  6
CONTINUOUS
 62
               7
100
AcDbLine
 10
-271.25
 20
-67.849999999999966
 30
0.0
 11
-271.25
 21
-51.849999999999966
 31
0.0
  0
LINE
  5
6B9
100
AcDbEntity
  8
0
  6
CONTINUOUS
 62
               7
100
AcDbLine
 10
-235.25
 20
-67.849999999999966
 30
0.0
 11
-235.25
 21
-51.849999999999966
 31
0.0
  0
LINE
  5
6BA
100
AcDbEntity
  8
0
  6
CONTINUOUS
 62
               7
100
AcDbLine
 10
-221.75
 20
-67.849999999999966
 30
0.0
 11
-221.75
 21
-51.849999999999966
 31
0.0
  0
LINE
  5
6BB
100
AcDbEntity
  8
0
  6
CONTINUOUS
 62
               7
100
AcDbLine
 10
-208.25
 20
-67.849999981957467
 30
0.0
 11
-208.25
 21
-51.849999981957467
 31
0.0
  0
LINE
  5
6BC
100
AcDbEntity
  8
0
  6
CONTINUOUS
 62
               7
100
AcDbLine
 10
-194.75
 20
-67.849999963914968
 30
0.0
 11
-194.75
 21
-51.849999963914968
 31
0.0
  0
MTEXT
  5
6BD
100
AcDbEntity
  8
0
  6
CONTINUOUS
 62
               7
100
AcDbMText
 10
-259.2011834411183
 20
-47.849999981957467
 30
0.0
 40
4.5
 41
0.0
 71
               4
 72
               1
  1
\W1.065;\A1;STRETCH LIST
  0
MTEXT
  5
6BE
100
AcDbEntity
  8
0
  6
CONTINUOUS
 62
               7
100
AcDbMText
 10
-230.0
 20
-55.849999990978716
 30
0.0
 40
4.5
 41
0.0
 71
               4
 72
               1
  1
\A1;5
  0
MTEXT
  5
6BF
100
AcDbEntity
  8
0
  6
CONTINUOUS
 62
               7
100
AcDbMText
 10
-218.50000003311368
 20
-55.849999990978716
 30
0.0
 40
4.5
 41
0.0
 71
               4
 72
               1
  1
\W1.333;\A1;10
  0
MTEXT
  5
6C0
100
AcDbEntity
  8
0
  6
CONTINUOUS
 62
               7
100
AcDbMText
 10
-205.10000005722048
 20
-55.849999990978716
 30
0.0
 40
4.5
 41
0.0
 71
               4
 72
               1
  1
\W1.200;\A1;15
  0
MTEXT
  5
6C1
100
AcDbEntity
  8
0
  6
CONTINUOUS
 62
               7
100
AcDbMText
 10
-229.84999999284742
 20
-63.849999990978716
 30
0.0
 40
4.5
 41
0.0
 71
               4
 72
               1
  1
\W1.200;\A1;0
  0
MTEXT
  5
6C2
100
AcDbEntity
  8
0
  6
CONTINUOUS
 62
               7
100
AcDbMText
 10
-216.34999999284742
 20
-63.849999990978716
 30
0.0
 40
4.5
 41
0.0
 71
               4
 72
               1
  1
\W1.200;\A1;0
  0
MTEXT
  5
6C3
100
AcDbEntity
  8
0
  6
CONTINUOUS
 62
               7
100
AcDbMText
 10
-203.0
 20
-63.849999990978716
 30
0.0
 40
4.5
 41
0.0
 71
               4
 72
               1
  1
\A1;5
  0
MTEXT
  5
6C4
100
AcDbEntity
  8
0
  6
CONTINUOUS
 62
               3
100
AcDbMText
 10
122.38847888615281
 20
150.4645181476846
 30
0.0
 40
4.5
 41
0.0
 71
               4
 72
               1
  1
\W1.065;\A1;STRETCH LINE
  0
MTEXT
  5
6C5
100
AcDbEntity
  8
0
  6
CONTINUOUS
 62
               7
100
AcDbMText
 10
-262.66666664790228
 20
-92.54306279095502
 30
0.0
 40
4.5
 41
0.0
 71
               1
 72
               1
  1
\W1.111;\A1;ZE102
  0
MTEXT
  5
6C6
100
AcDbEntity
  8
0
  6
CONTINUOUS
 62
               7
100
AcDbMText
 10
-262.60000004434585
 20
-85.600000089406933
 30
0.0
 40
4.5
 41
0.0
 71
               1
 72
               1
  1
\W1.200;\A1;ZE101
  0
MTEXT
  5
6C7
100
AcDbEntity
  8
0
  6
CONTINUOUS
 62
               7
100
AcDbMText
 10
-121.8866745734981
 20
-92.54306279095502
 30
0.0
 40
4.5
 41
0.0
 71
               1
 72
               1
  1
\W1.034;\A1;ZE202
  0
MTEXT
  5
6C8
100
AcDbEntity
  8
0
  6
CONTINUOUS
 62
               7
100
AcDbMText
 10
-121.829203268996
 20
-85.600000089406933
 30
0.0
 40
4.5
 41
0.0
 71
               1
 72
               1
  1
\W1.111;\A1;ZE201
  0
MTEXT
  5
6C9
100
AcDbEntity
  8
0
  6
CONTINUOUS
 62
               7
100
AcDbMText
 10
159.76239013671875
 20
-85.600000089406933
 30
0.0
 40
4.5
 41
0.0
 71
               1
 72
               1
  1
\A1;ZE235
  0
MTEXT
  5
6CA
100
AcDbEntity
  8
0
  6
CONTINUOUS
 62
               7
100
AcDbMText
 10
159.76239013671875
 20
-92.54306279095502
 30
0.0
 40
4.5
 41
0.0
 71
               1
 72
               1
  1
\A1;ZE255
  0
MTEXT
  5
6CB
100
AcDbEntity
  8
0
  6
CONTINUOUS
 62
               7
100
AcDbMText
 10
18.978498183800401
 20
-92.54306279095502
 30
0.0
 40
4.5
 41
0.0
 71
               1
 72
               1
  1
\W1.071;\A1;ZE155
  0
MTEXT
  5
6CC
100
AcDbEntity
  8
0
  6
CONTINUOUS
 62
               7
100
AcDbMText
 10
18.978498183800401
 20
-85.600000089406933
 30
0.0
 40
4.5
 41
0.0
 71
               1
 72
               1
  1
\W1.071;\A1;ZE135
  0
MTEXT
  5
6CD
100
AcDbEntity
  8
0
  6
CONTINUOUS
 62
               3
100
AcDbMText
 10
-159.99445993540789
 20
147.4823326461933
 30
0.0
 40
4.5
 41
0.0
 71
               4
 72
               1
  1
\W1.065;\A1;STRETCH LINE
  0
LINE
  5
6CE
100
AcDbEntity
  8
0
  6
DASHED
 62
               2
100
AcDbLine
 10
0.4249267578125
 20
-77.849999999999966
 30
0.0
 11
282.099853515625
 21
-77.849999999999966
 31
0.0
  0
ENDSEC
  0
SECTION
  2
OBJECTS
  0
DICTIONARY
  5
19
100
AcDbDictionary
  3
ACAD_GROUP
350
1A
  3
ACAD_MLINESTYLE
350
1B
  0
DICTIONARY
  5
1A
102
{ACAD_REACTORS
330
19
102
}
100
AcDbDictionary
  0
DICTIONARY
  5
1B
102
{ACAD_REACTORS
330
19
102
}
100
AcDbDictionary
  3
STANDARD
350
1C
  0
MLINESTYLE
  5
1C
102
{ACAD_REACTORS
330
1B
102
}
100
AcDbMlineStyle
  2
Standard
 70
               0
  3

 62
               0
 51
90.0
 52
90.0
 71
               2
 49
0.5
 62
             256
  6
ByLayer
 49
-0.5
 62
             256
  6
ByLayer
  0
ENDSEC
  0
EOF
