  0
SECTION
  2
HEADER
  9
$ACADVER
  1
AC1012
  9
$DWGCODEPAGE
  3
dos932
  9
$INSBASE
 10
0.0
 20
0.0
 30
0.0
  9
$EXTMIN
 10
-281.25
 20
-195.0
 30
0.0
  9
$EXTMAX
 10
285.5999755859375
 20
195.5
 30
0.0
  9
$LIMMIN
 10
-281.25
 20
-195.0
  9
$LIMMAX
 10
285.5999755859375
 20
195.5
  9
$ORTHOMODE
 70
               0
  9
$REGENMODE
 70
               1
  9
$FILLMODE
 70
               1
  9
$QTEXTMODE
 70
               0
  9
$MIRRTEXT
 70
               1
  9
$DRAGMODE
 70
               2
  9
$LTSCALE
 40
1.0
  9
$OSMODE
 70
               0
  9
$ATTMODE
 70
               1
  9
$TEXTSIZE
 40
3.2000000476837158
  9
$TRACEWID
 40
0.05
  9
$TEXTSTYLE
  7
MX_NOTE_STANDARD
  9
$CLAYER
  8
0
  9
$CELTYPE
  6
CONTINUOUS
  9
$CECOLOR
 62
             256
  9
$CELTSCALE
 40
1.0
  9
$DELOBJ
 70
               1
  9
$DISPSILH
 70
               0
  9
$DIMSCALE
 40
1.0
  9
$DIMASZ
 40
2.5
  9
$DIMEXO
 40
1.5
  9
$DIMDLI
 40
3.75
  9
$DIMRND
 40
0.0
  9
$DIMDLE
 40
0.0
  9
$DIMEXE
 40
1.5
  9
$DIMTP
 40
0.0
  9
$DIMTM
 40
0.0
  9
$DIMTXT
 40
3.2000000476837158
  9
$DIMCEN
 40
2.5
  9
$DIMTSZ
 40
0.0
  9
$DIMTOL
 70
               0
  9
$DIMLIM
 70
               0
  9
$DIMTIH
 70
               0
  9
$DIMTOH
 70
               0
  9
$DIMSE1
 70
               0
  9
$DIMSE2
 70
               0
  9
$DIMTAD
 70
               1
  9
$DIMZIN
 70
               8
  9
$DIMBLK
  1

  9
$DIMASO
 70
               1
  9
$DIMSHO
 70
               1
  9
$DIMPOST
  1

  9
$DIMAPOST
  1

  9
$DIMALT
 70
               0
  9
$DIMALTD
 70
               4
  9
$DIMALTF
 40
0.03937007874016
  9
$DIMLFAC
 40
1.0
  9
$DIMTOFL
 70
               1
  9
$DIMTVP
 40
0.0
  9
$DIMTIX
 70
               0
  9
$DIMSOXD
 70
               0
  9
$DIMSAH
 70
               0
  9
$DIMBLK1
  1

  9
$DIMBLK2
  1

  9
$DIMSTYLE
  2
MXDIMSTYLE
  9
$DIMCLRD
 70
               0
  9
$DIMCLRE
 70
               0
  9
$DIMCLRT
 70
               0
  9
$DIMTFAC
 40
1.0
  9
$DIMGAP
 40
1.0
  9
$DIMJUST
 70
               0
  9
$DIMSD1
 70
               0
  9
$DIMSD2
 70
               0
  9
$DIMTOLJ
 70
               1
  9
$DIMTZIN
 70
               0
  9
$DIMALTZ
 70
               0
  9
$DIMALTTZ
 70
               0
  9
$DIMFIT
 70
               3
  9
$DIMUPT
 70
               1
  9
$DIMUNIT
 70
               2
  9
$DIMDEC
 70
               4
  9
$DIMTDEC
 70
               4
  9
$DIMALTU
 70
               2
  9
$DIMALTTD
 70
               4
  9
$DIMTXSTY
  7
MX_NOTE_STANDARD
  9
$DIMAUNIT
 70
               0
  9
$LUNITS
 70
               2
  9
$LUPREC
 70
               4
  9
$SKETCHINC
 40
0.1
  9
$FILLETRAD
 40
0.0
  9
$AUNITS
 70
               0
  9
$AUPREC
 70
               0
  9
$MENU
  1
acad
  9
$ELEVATION
 40
0.0
  9
$PELEVATION
 40
0.0
  9
$THICKNESS
 40
0.0
  9
$LIMCHECK
 70
               0
  9
$BLIPMODE
 70
               1
  9
$CHAMFERA
 40
0.0
  9
$CHAMFERB
 40
0.0
  9
$CHAMFERC
 40
0.0
  9
$CHAMFERD
 40
0.0
  9
$SKPOLY
 70
               0
  9
$TDCREATE
 40
2453655.719479166
  9
$TDUPDATE
 40
2453655.719479166
  9
$TDINDWG
 40
0.0000000000
  9
$TDUSRTIMER
 40
0.0000000000
  9
$USRTIMER
 70
               1
  9
$ANGBASE
 50
0.0
  9
$ANGDIR
 70
               0
  9
$PDMODE
 70
               0
  9
$PDSIZE
 40
0.0
  9
$PLINEWID
 40
0.0
  9
$COORDS
 70
               1
  9
$SPLFRAME
 70
               0
  9
$SPLINETYPE
 70
               6
  9
$SPLINESEGS
 70
               8
  9
$ATTDIA
 70
               0
  9
$ATTREQ
 70
               1
  9
$HANDLING
 70
               1
  9
$HANDSEED
  5
39E
  9
$SURFTAB1
 70
               6
  9
$SURFTAB2
 70
               6
  9
$SURFTYPE
 70
               6
  9
$SURFU
 70
               6
  9
$SURFV
 70
               6
  9
$UCSNAME
  2

  9
$UCSORG
 10
0.0
 20
0.0
 30
0.0
  9
$UCSXDIR
 10
1.0
 20
0.0
 30
0.0
  9
$UCSYDIR
 10
0.0
 20
1.0
 30
0.0
  9
$PUCSNAME
  2

  9
$PUCSORG
 10
0.0
 20
0.0
 30
0.0
  9
$PUCSXDIR
 10
1.0
 20
0.0
 30
0.0
  9
$PUCSYDIR
 10
0.0
 20
1.0
 30
0.0
  9
$USERI1
 70
               0
  9
$USERI2
 70
               0
  9
$USERI3
 70
               0
  9
$USERI4
 70
               0
  9
$USERI5
 70
               0
  9
$USERR1
 40
0.0
  9
$USERR2
 40
0.0
  9
$USERR3
 40
0.0
  9
$USERR4
 40
0.0
  9
$USERR5
 40
0.0
  9
$WORLDVIEW
 70
               1
  9
$SHADEDGE
 70
               3
  9
$SHADEDIF
 70
              70
  9
$TILEMODE
 70
               1
  9
$MAXACTVP
 70
              16
  9
$PINSBASE
 10
0.0
 20
0.0
 30
0.0
  9
$PLIMCHECK
 70
               0
  9
$PEXTMIN
 10
1.0000000000000000E+20
 20
1.0000000000000000E+20
 30
1.0000000000000000E+20
  9
$PEXTMAX
 10
-1.0000000000000000E+20
 20
-1.0000000000000000E+20
 30
-1.0000000000000000E+20
  9
$PLIMMIN
 10
0.0
 20
0.0
  9
$PLIMMAX
 10
12.0
 20
9.0
  9
$UNITMODE
 70
               0
  9
$VISRETAIN
 70
               0
  9
$PLINEGEN
 70
               1
  9
$PSLTSCALE
 70
               0
  9
$TREEDEPTH
 70
            3020
  9
$PICKSTYLE
 70
               1
  9
$CMLSTYLE
  2
Standard
  9
$CMLJUST
 70
               0
  9
$CMLSCALE
 40
1.0
  9
$SAVEIMAGES
 70
               0
  0
ENDSEC
  0
SECTION
  2
CLASSES
  0
CLASS
  1
LWPOLYLINE
  2
AcDbPolyline
  3
"AutoCAD"
 90
        0
280
               0
281
               1
  0
CLASS
  1
IMAGE
  2
AcDbRasterImage
  3
ISM
 90
      127
280
               0
281
               1
  0
CLASS
  1
OLE2FRAME
  2
AcDbOle2Frame
  3
""
 90
        0
280
               0
281
               1
  0
CLASS
  1
HATCH
  2
AcDbHatch
  3
"ACAD_SEDONA"
 90
        0
280
               0
281
               1
  0
CLASS
  1
DICTIONARYVAR
  2
AcDbDictionaryVar
  3
"AutoCAD"
 90
        0
280
               0
281
               0
  0
CLASS
  1
RASTERVARIABLES
  2
AcDbRasterVariables
  3
ISM
 90
        0
280
               0
281
               0
  0
CLASS
  1
IMAGEDEF
  2
AcDbRasterImageDef
  3
ISM
 90
        0
280
               0
281
               0
  0
CLASS
  1
IMAGEDEF_REACTOR
  2
AcDbRasterImageDefReactor
  3
ISM
 90
        1
280
               0
281
               0
  0
CLASS
  1
IDBUFFER
  2
AcDbIdBuffer
  3
"Acad"
 90
        0
280
               0
281
               0
  0
CLASS
  1
SPATIAL_FILTER
  2
AcDbSpatialFilter
  3
"Acad"
 90
        0
280
               0
281
               0
  0
CLASS
  1
XRECORD
  2
AcDbXrecord
  3
"<Built In>"
 90
        0
280
               0
281
               0
  0
CLASS
  1
SORTENTSTABLE
  2
AcDbSortentsTable
  3
"AutoCAD"
 90
        0
280
               0
281
               0
  0
CLASS
  1
LAYER_INDEX
  2
AcDbLayerIndex
  3
"Acad"
 90
        0
280
               0
281
               0
  0
CLASS
  1
SPATIAL_INDEX
  2
AcDbSpatialIndex
  3
"Acad"
 90
        0
280
               0
281
               0
  0
CLASS
  1
OBJECT_PTR
  2
CAseDLPNTableRecord
  3
"ASE-LPNTableRecord"
 90
        1
280
               0
281
               0
  0
CLASS
  1
LAYOUT
  2
AcDbLayout
  3
"AutoCAD 2000"
 90
        1
280
               0
281
               0
  0
CLASS
  1
PLOTSETTINGS
  2
AcDbPlotSettings
  3
"AutoCAD 2000"
 90
        1
280
               0
281
               0
  0
CLASS
  1
ACDBDICTIONARYWDFLT
  2
AcDbDictionaryWithDefault
  3
"AutoCAD 2000"
 90
        1
280
               0
281
               0
  0
CLASS
  1
ACDBPLACEHOLDER
  2
AcDbPlaceHolder
  3
"AutoCAD 2000"
 90
        1
280
               0
281
               0
  0
ENDSEC
  0
SECTION
  2
TABLES
  0
TABLE
  2
VPORT
  5
7
100
AcDbSymbolTable
 70
               1
  0
VPORT
  5
15
100
AcDbSymbolTableRecord
100
AcDbViewportTableRecord
  2
*ACTIVE
 70
               0
 10
0.0
 20
0.0
 11
1.0
 21
1.0
 12
2.17498779296875
 22
0.25
 13
0.0
 23
0.0
 14
1.0
 24
1.0
 15
0.0
 25
0.0
 16
0.0
 26
0.0
 36
1.0
 17
0.0
 27
0.0
 37
0.0
 40
394.40500000000003
 41
1.7320508075688772
 42
50.0
 43
0.0
 44
0.0
 50
0.0
 51
0.0
 71
               0
 72
             100
 73
               1
 74
               1
 75
               0
 76
               0
 77
               0
 78
               0
  0
ENDTAB
  0
TABLE
  2
LTYPE
  5
4
100
AcDbSymbolTable
 70
               5
  0
LTYPE
  5
11
100
AcDbSymbolTableRecord
100
AcDbLinetypeTableRecord
  2
BYBLOCK
 70
              64
  3

 72
              65
 73
               0
 40
0.0
  0
LTYPE
  5
12
100
AcDbSymbolTableRecord
100
AcDbLinetypeTableRecord
  2
BYLAYER
 70
              64
  3

 72
              65
 73
               0
 40
0.0
  0
LTYPE
  5
13
100
AcDbSymbolTableRecord
100
AcDbLinetypeTableRecord
  2
CONTINUOUS
 70
              64
  3
Solid line
 72
              65
 73
               0
 40
0.0
  0
LTYPE
  5
4A
100
AcDbSymbolTableRecord
100
AcDbLinetypeTableRecord
  2
CENTER
 70
              64
  3
Center ____ _ ____ _ ____ _ ____ _ ____ _ ____
 72
              65
 73
               4
 40
26.0
 49
20.0
 74
               0
 49
-2.0
 74
               0
 49
2.0
 74
               0
 49
-2.0
 74
               0
  0
LTYPE
  5
C9
100
AcDbSymbolTableRecord
100
AcDbLinetypeTableRecord
  2
PHANTOM
 70
              64
  3
Phantom ______  __  __  ______  __  __  ______
 72
              65
 73
               6
 40
30.0
 49
20.0
 74
               0
 49
-2.0
 74
               0
 49
2.0
 74
               0
 49
-2.0
 74
               0
 49
2.0
 74
               0
 49
-2.0
 74
               0
  0
ENDTAB
  0
TABLE
  2
LAYER
  5
2
100
AcDbSymbolTable
 70
               2
  0
LAYER
  5
14
100
AcDbSymbolTableRecord
100
AcDbLayerTableRecord
  2
0
 70
               0
 62
               7
  6
CONTINUOUS
  0
LAYER
  5
1D
100
AcDbSymbolTableRecord
100
AcDbLayerTableRecord
  2
DEFPOINTS
 70
               0
 62
               7
  6
CONTINUOUS
  0
ENDTAB
  0
TABLE
  2
STYLE
  5
3
100
AcDbSymbolTable
 70
               1
  0
STYLE
  5
17
100
AcDbSymbolTableRecord
100
AcDbTextStyleTableRecord
  2
MX_NOTE_STANDARD
 70
               0
 40
0.0
 41
1.0
 50
0.0
 71
               0
 42
3.2000000476837158
  3
txt.shx
  4
extfont.shx
  0
ENDTAB
  0
TABLE
  2
VIEW
  5
5
100
AcDbSymbolTable
 70
               0
  0
ENDTAB
  0
TABLE
  2
UCS
  5
6
100
AcDbSymbolTable
 70
               0
  0
ENDTAB
  0
TABLE
  2
APPID
  5
8
100
AcDbSymbolTable
 70
               1
  0
APPID
  5
16
100
AcDbSymbolTableRecord
100
AcDbRegAppTableRecord
  2
ACAD
 70
               0
  0
ENDTAB
  0
TABLE
  2
DIMSTYLE
  5
9
100
AcDbSymbolTable
 70
               1
  0
DIMSTYLE
105
18
100
AcDbSymbolTableRecord
100
AcDbDimStyleTableRecord
  2
MXDIMSTYLE
 70
               0
  3

  4

  5

  6

  7

 40
1.0
 41
2.5
 42
1.5
 43
3.75
 44
1.5
 45
0.0
 46
0.0
 47
0.0
 48
0.0
 71
               0
 72
               0
 73
               0
 74
               0
 75
               0
 76
               0
 77
               1
 78
               8
140
3.2000000476837158
141
2.5
142
0.0
143
0.03937007874016
144
1.0
145
0.0
146
1.0
147
1.0
170
               0
171
               4
172
               1
173
               0
174
               0
175
               0
176
               0
177
               0
178
               0
270
               2
271
               4
272
               4
273
               2
274
               4
275
               0
280
               0
281
               0
282
               0
283
               1
284
               0
285
               0
286
               0
287
               3
288
               1
340
17
  0
ENDTAB
  0
TABLE
  2
BLOCK_RECORD
  5
1
100
AcDbSymbolTable
 70
               6
  0
BLOCK_RECORD
  5
A
100
AcDbSymbolTableRecord
100
AcDbBlockTableRecord
  2
*MODEL_SPACE
  0
BLOCK_RECORD
  5
B
100
AcDbSymbolTableRecord
100
AcDbBlockTableRecord
  2
*PAPER_SPACE
  0
BLOCK_RECORD
  5
1E
100
AcDbSymbolTableRecord
100
AcDbBlockTableRecord
  2
MGAEG6-1
  0
BLOCK_RECORD
  5
1F
100
AcDbSymbolTableRecord
100
AcDbBlockTableRecord
  2
MGAEG6-2
  0
BLOCK_RECORD
  5
20
100
AcDbSymbolTableRecord
100
AcDbBlockTableRecord
  2
MGAEG6-3
  0
BLOCK_RECORD
  5
21
100
AcDbSymbolTableRecord
100
AcDbBlockTableRecord
  2
MGAEG6-4
  0
BLOCK_RECORD
  5
22
100
AcDbSymbolTableRecord
100
AcDbBlockTableRecord
  2
MGAEG6-5
  0
BLOCK_RECORD
  5
23
100
AcDbSymbolTableRecord
100
AcDbBlockTableRecord
  2
MGAEG6-6
  0
ENDTAB
  0
ENDSEC
  0
SECTION
  2
BLOCKS
  0
BLOCK
  5
D
100
AcDbEntity
  8
0
100
AcDbBlockBegin
  2
*MODEL_SPACE
 70
               0
 10
0.0
 20
0.0
 30
0.0
  3
*MODEL_SPACE
  1

  0
ENDBLK
  5
E
100
AcDbEntity
  8
0
100
AcDbBlockEnd
  0
BLOCK
  5
F
100
AcDbEntity
 67
               1
  8
0
100
AcDbBlockBegin
  2
*PAPER_SPACE
 70
               0
 10
0.0
 20
0.0
 30
0.0
  3
*PAPER_SPACE
  1

  0
ENDBLK
  5
10
100
AcDbEntity
 67
               1
  8
0
100
AcDbBlockEnd
  0
BLOCK
  5
24
100
AcDbEntity
  8
0
100
AcDbBlockBegin
  2
MGAEG6-1
 70
               0
 10
0.0
 20
0.0
 30
0.0
  3
MGAEG6-1
  1

  0
LINE
  5
25
100
AcDbEntity
  8
0
  6
CONTINUOUS
 62
               7
100
AcDbLine
 10
0.0
 20
-4.3999999999999986
 30
0.0
 11
3.2999999999999829
 21
-4.3999999999999986
 31
0.0
  0
LINE
  5
26
100
AcDbEntity
  8
0
  6
CONTINUOUS
 62
               7
100
AcDbLine
 10
3.2999999999999829
 20
-8.6000000000000014
 30
0.0
 11
3.2999999999999829
 21
-4.3999999999999986
 31
0.0
  0
LINE
  5
27
100
AcDbEntity
  8
0
  6
CONTINUOUS
 62
               7
100
AcDbLine
 10
0.0
 20
-8.6000000000000014
 30
0.0
 11
3.2999999999999829
 21
-8.6000000000000014
 31
0.0
  0
LINE
  5
28
100
AcDbEntity
  8
0
  6
CONTINUOUS
 62
               7
100
AcDbLine
 10
1.5999999999999943
 20
-8.3999999999999986
 30
0.0
 11
1.5999999999999943
 21
-4.6000000000000014
 31
0.0
  0
LINE
  5
29
100
AcDbEntity
  8
0
  6
CONTINUOUS
 62
               7
100
AcDbLine
 10
1.2999999999999829
 20
-8.1000000000000014
 30
0.0
 11
1.2999999999999829
 21
-4.8999999999999986
 31
0.0
  0
LINE
  5
2A
100
AcDbEntity
  8
0
  6
CONTINUOUS
 62
               7
100
AcDbLine
 10
1.2999999999999829
 20
-8.1000000000000014
 30
0.0
 11
1.5999999999999943
 21
-8.3999999999999986
 31
0.0
  0
LINE
  5
2B
100
AcDbEntity
  8
0
  6
CONTINUOUS
 62
               7
100
AcDbLine
 10
1.2999999999999829
 20
-4.8999999999999986
 30
0.0
 11
1.5999999999999943
 21
-4.6000000000000014
 31
0.0
  0
LINE
  5
2C
100
AcDbEntity
  8
0
  6
CONTINUOUS
 62
               7
100
AcDbLine
 10
1.5999999999999943
 20
-8.3999999999999986
 30
0.0
 11
3.2999999999999829
 21
-8.3999999999999986
 31
0.0
  0
LINE
  5
2D
100
AcDbEntity
  8
0
  6
CONTINUOUS
 62
               7
100
AcDbLine
 10
1.5999999999999943
 20
-4.6000000000000014
 30
0.0
 11
3.2999999999999829
 21
-4.6000000000000014
 31
0.0
  0
LINE
  5
2E
100
AcDbEntity
  8
0
  6
CONTINUOUS
 62
               7
100
AcDbLine
 10
0.0
 20
4.3999999999999986
 30
0.0
 11
3.2999999999999829
 21
4.3999999999999986
 31
0.0
  0
LINE
  5
2F
100
AcDbEntity
  8
0
  6
CONTINUOUS
 62
               7
100
AcDbLine
 10
0.0
 20
8.5999999999999943
 30
0.0
 11
3.2999999999999829
 21
8.5999999999999943
 31
0.0
  0
LINE
  5
30
100
AcDbEntity
  8
0
  6
CONTINUOUS
 62
               7
100
AcDbLine
 10
1.5999999999999943
 20
4.6000000000000014
 30
0.0
 11
3.2999999999999829
 21
4.6000000000000014
 31
0.0
  0
LINE
  5
31
100
AcDbEntity
  8
0
  6
CONTINUOUS
 62
               7
100
AcDbLine
 10
1.5999999999999943
 20
8.4000000000000057
 30
0.0
 11
3.2999999999999829
 21
8.4000000000000057
 31
0.0
  0
LINE
  5
32
100
AcDbEntity
  8
0
  6
CONTINUOUS
 62
               7
100
AcDbLine
 10
1.2999999999999829
 20
4.8999999999999986
 30
0.0
 11
1.5999999999999943
 21
4.6000000000000014
 31
0.0
  0
LINE
  5
33
100
AcDbEntity
  8
0
  6
CONTINUOUS
 62
               7
100
AcDbLine
 10
1.2999999999999829
 20
8.0999999999999943
 30
0.0
 11
1.5999999999999943
 21
8.4000000000000057
 31
0.0
  0
LINE
  5
34
100
AcDbEntity
  8
0
  6
CONTINUOUS
 62
               7
100
AcDbLine
 10
3.2999999999999829
 20
8.5999999999999943
 30
0.0
 11
3.2999999999999829
 21
4.3999999999999986
 31
0.0
  0
LINE
  5
35
100
AcDbEntity
  8
0
  6
CONTINUOUS
 62
               7
100
AcDbLine
 10
1.2999999999999829
 20
8.0999999999999943
 30
0.0
 11
1.2999999999999829
 21
4.8999999999999986
 31
0.0
  0
LINE
  5
36
100
AcDbEntity
  8
0
  6
CONTINUOUS
 62
               7
100
AcDbLine
 10
1.5999999999999943
 20
8.4000000000000057
 30
0.0
 11
1.5999999999999943
 21
4.6000000000000014
 31
0.0
  0
LINE
  5
37
100
AcDbEntity
  8
0
  6
CONTINUOUS
 62
               7
100
AcDbLine
 10
0.0
 20
-10.0
 30
0.0
 11
0.0
 21
10.0
 31
0.0
  0
LINE
  5
38
100
AcDbEntity
  8
0
  6
CONTINUOUS
 62
               7
100
AcDbLine
 10
28.5
 20
8.8734993995195168
 30
0.0
 11
28.5
 21
7.0
 31
0.0
  0
LINE
  5
39
100
AcDbEntity
  8
0
  6
CONTINUOUS
 62
               7
100
AcDbLine
 10
0.0000000273479657
 20
-10.0
 30
0.0
 11
53.999999999999986
 21
-10.0
 31
0.0
  0
ARC
  5
3A
100
AcDbEntity
  8
0
  6
CONTINUOUS
 62
               7
100
AcDbCircle
 10
41.999999999999986
 20
7.0
 30
0.0
 40
2.5
100
AcDbArc
 50
287.33751801753067
 51
0.0
  0
CIRCLE
  5
3B
100
AcDbEntity
  8
0
  6
CONTINUOUS
 62
               7
100
AcDbCircle
 10
41.999999999999986
 20
7.0
 30
0.0
 40
1.3
  0
LINE
  5
3C
100
AcDbEntity
  8
0
  6
CONTINUOUS
 62
               7
100
AcDbLine
 10
44.499999999999986
 20
7.0
 30
0.0
 11
44.499999999999986
 21
8.8734993995195168
 31
0.0
  0
LINE
  5
3D
100
AcDbEntity
  8
0
  6
CONTINUOUS
 62
               2
100
AcDbLine
 10
41.999999999999986
 20
10.0
 30
0.0
 11
41.999999999999986
 21
3.5999999999999943
 31
0.0
  0
LINE
  5
3E
100
AcDbEntity
  8
0
  6
CONTINUOUS
 62
               2
100
AcDbLine
 10
42.999999999999986
 20
10.0
 30
0.0
 11
42.999999999999986
 21
3.5999999999999943
 31
0.0
  0
CIRCLE
  5
3F
100
AcDbEntity
  8
0
  6
CONTINUOUS
 62
               7
100
AcDbCircle
 10
42.999999999999986
 20
7.0
 30
0.0
 40
2.3999999999999999
  0
LINE
  5
40
100
AcDbEntity
  8
0
  6
CONTINUOUS
 62
               2
100
AcDbLine
 10
35.5
 20
7.0
 30
0.0
 11
46.399999999999991
 21
7.0
 31
0.0
  0
CIRCLE
  5
41
100
AcDbEntity
  8
0
  6
CONTINUOUS
 62
               7
100
AcDbCircle
 10
26.0
 20
-7.0
 30
0.0
 40
1.3
  0
LINE
  5
42
100
AcDbEntity
  8
0
  6
CONTINUOUS
 62
               7
100
AcDbLine
 10
28.5
 20
-7.0
 30
0.0
 11
28.5
 21
-8.8734993995195168
 31
0.0
  0
ARC
  5
43
100
AcDbEntity
  8
0
  6
CONTINUOUS
 62
               7
100
AcDbCircle
 10
26.0
 20
-7.0
 30
0.0
 40
2.5
100
AcDbArc
 50
0.0
 51
72.662481982469401
  0
LINE
  5
44
100
AcDbEntity
  8
0
  6
CONTINUOUS
 62
               2
100
AcDbLine
 10
26.0
 20
-10.0
 30
0.0
 11
26.0
 21
-3.5999999999999943
 31
0.0
  0
CIRCLE
  5
45
100
AcDbEntity
  8
0
  6
CONTINUOUS
 62
               7
100
AcDbCircle
 10
26.0
 20
7.0
 30
0.0
 40
1.3
  0
ARC
  5
46
100
AcDbEntity
  8
0
  6
CONTINUOUS
 62
               7
100
AcDbCircle
 10
26.0
 20
7.0
 30
0.0
 40
2.5
100
AcDbArc
 50
287.33751801753067
 51
0.0
  0
LINE
  5
47
100
AcDbEntity
  8
0
  6
CONTINUOUS
 62
               2
100
AcDbLine
 10
26.0
 20
10.0
 30
0.0
 11
26.0
 21
3.5999999999999943
 31
0.0
  0
LINE
  5
48
100
AcDbEntity
  8
0
  6
CONTINUOUS
 62
               7
100
AcDbLine
 10
0.0000000273479657
 20
-9.5
 30
0.0
 11
53.999999999999986
 21
-9.5
 31
0.0
  0
LINE
  5
49
100
AcDbEntity
  8
0
  6
CONTINUOUS
 62
               7
100
AcDbLine
 10
0.0000000273479657
 20
9.5
 30
0.0
 11
53.999999999999986
 21
9.5
 31
0.0
  0
LINE
  5
4B
100
AcDbEntity
  8
0
  6
CENTER
 62
               2
100
AcDbLine
 10
-3.9999999974627372
 20
0.0
 30
0.0
 11
92.0
 21
0.0
 31
0.0
  0
LINE
  5
4C
100
AcDbEntity
  8
0
  6
CONTINUOUS
 62
               7
100
AcDbLine
 10
15.0
 20
-10.0
 30
0.0
 11
15.0
 21
10.0
 31
0.0
  0
LINE
  5
4D
100
AcDbEntity
  8
0
  6
CONTINUOUS
 62
               7
100
AcDbLine
 10
53.999999999999986
 20
-10.0
 30
0.0
 11
53.999999999999986
 21
-7.5
 31
0.0
  0
LINE
  5
4E
100
AcDbEntity
  8
0
  6
CONTINUOUS
 62
               2
100
AcDbLine
 10
27.0
 20
-10.0
 30
0.0
 11
27.0
 21
-3.5999999999999943
 31
0.0
  0
CIRCLE
  5
4F
100
AcDbEntity
  8
0
  6
CONTINUOUS
 62
               7
100
AcDbCircle
 10
27.0
 20
-7.0
 30
0.0
 40
2.3999999999999999
  0
LINE
  5
50
100
AcDbEntity
  8
0
  6
CONTINUOUS
 62
               2
100
AcDbLine
 10
22.0
 20
-2.5
 30
0.0
 11
22.0
 21
2.5
 31
0.0
  0
CIRCLE
  5
51
100
AcDbEntity
  8
0
  6
CONTINUOUS
 62
               7
100
AcDbCircle
 10
22.0
 20
0.0
 30
0.0
 40
1.5
  0
LINE
  5
52
100
AcDbEntity
  8
0
  6
CONTINUOUS
 62
               7
100
AcDbLine
 10
37.5
 20
-1.5
 30
0.0
 11
38.5
 21
-1.5
 31
0.0
  0
LINE
  5
53
100
AcDbEntity
  8
0
  6
CONTINUOUS
 62
               7
100
AcDbLine
 10
37.5
 20
1.5
 30
0.0
 11
38.5
 21
1.5
 31
0.0
  0
ARC
  5
54
100
AcDbEntity
  8
0
  6
CONTINUOUS
 62
               7
100
AcDbCircle
 10
38.5
 20
0.0
 30
0.0
 40
1.5
100
AcDbArc
 50
270.0
 51
90.0
  0
ARC
  5
55
100
AcDbEntity
  8
0
  6
CONTINUOUS
 62
               7
100
AcDbCircle
 10
37.5
 20
0.0
 30
0.0
 40
1.5
100
AcDbArc
 50
90.0
 51
270.0
  0
LINE
  5
56
100
AcDbEntity
  8
0
  6
CONTINUOUS
 62
               2
100
AcDbLine
 10
38.0
 20
-2.5
 30
0.0
 11
38.0
 21
2.5
 31
0.0
  0
CIRCLE
  5
57
100
AcDbEntity
  8
0
  6
CONTINUOUS
 62
               7
100
AcDbCircle
 10
22.0
 20
-7.0
 30
0.0
 40
1.25
  0
CIRCLE
  5
58
100
AcDbEntity
  8
0
  6
CONTINUOUS
 62
               2
100
AcDbCircle
 10
22.0
 20
-7.0
 30
0.0
 40
1.5
  0
LINE
  5
59
100
AcDbEntity
  8
0
  6
CONTINUOUS
 62
               2
100
AcDbLine
 10
22.0
 20
-4.5
 30
0.0
 11
22.0
 21
-9.5
 31
0.0
  0
LINE
  5
5A
100
AcDbEntity
  8
0
  6
CONTINUOUS
 62
               2
100
AcDbLine
 10
22.0
 20
4.5
 30
0.0
 11
22.0
 21
9.5
 31
0.0
  0
CIRCLE
  5
5B
100
AcDbEntity
  8
0
  6
CONTINUOUS
 62
               7
100
AcDbCircle
 10
22.0
 20
7.0
 30
0.0
 40
1.25
  0
CIRCLE
  5
5C
100
AcDbEntity
  8
0
  6
CONTINUOUS
 62
               2
100
AcDbCircle
 10
22.0
 20
7.0
 30
0.0
 40
1.5
  0
LINE
  5
5D
100
AcDbEntity
  8
0
  6
CONTINUOUS
 62
               2
100
AcDbLine
 10
27.0
 20
10.0
 30
0.0
 11
27.0
 21
3.5999999999999943
 31
0.0
  0
CIRCLE
  5
5E
100
AcDbEntity
  8
0
  6
CONTINUOUS
 62
               7
100
AcDbCircle
 10
27.0
 20
7.0
 30
0.0
 40
2.3999999999999999
  0
CIRCLE
  5
5F
100
AcDbEntity
  8
0
  6
CONTINUOUS
 62
               7
100
AcDbCircle
 10
38.0
 20
7.0
 30
0.0
 40
1.25
  0
CIRCLE
  5
60
100
AcDbEntity
  8
0
  6
CONTINUOUS
 62
               2
100
AcDbCircle
 10
38.0
 20
7.0
 30
0.0
 40
1.5
  0
LINE
  5
61
100
AcDbEntity
  8
0
  6
CONTINUOUS
 62
               2
100
AcDbLine
 10
38.0
 20
4.5
 30
0.0
 11
38.0
 21
9.5
 31
0.0
  0
LINE
  5
62
100
AcDbEntity
  8
0
  6
CONTINUOUS
 62
               7
100
AcDbLine
 10
0.0000000273479657
 20
10.0
 30
0.0
 11
53.999999999999986
 21
10.0
 31
0.0
  0
LINE
  5
63
100
AcDbEntity
  8
0
  6
CONTINUOUS
 62
               2
100
AcDbLine
 10
19.5
 20
7.0
 30
0.0
 11
30.399999999999977
 21
7.0
 31
0.0
  0
LINE
  5
64
100
AcDbEntity
  8
0
  6
CONTINUOUS
 62
               2
100
AcDbLine
 10
19.5
 20
-7.0
 30
0.0
 11
30.399999999999977
 21
-7.0
 31
0.0
  0
LINE
  5
65
100
AcDbEntity
  8
0
  6
CONTINUOUS
 62
               2
100
AcDbLine
 10
41.999999999999986
 20
-10.0
 30
0.0
 11
41.999999999999986
 21
-3.5999999999999943
 31
0.0
  0
LINE
  5
66
100
AcDbEntity
  8
0
  6
CONTINUOUS
 62
               2
100
AcDbLine
 10
42.999999999999986
 20
-10.0
 30
0.0
 11
42.999999999999986
 21
-3.5999999999999943
 31
0.0
  0
CIRCLE
  5
67
100
AcDbEntity
  8
0
  6
CONTINUOUS
 62
               7
100
AcDbCircle
 10
42.999999999999986
 20
-7.0
 30
0.0
 40
2.3999999999999999
  0
LINE
  5
68
100
AcDbEntity
  8
0
  6
CONTINUOUS
 62
               2
100
AcDbLine
 10
38.0
 20
-4.5
 30
0.0
 11
38.0
 21
-9.5
 31
0.0
  0
CIRCLE
  5
69
100
AcDbEntity
  8
0
  6
CONTINUOUS
 62
               2
100
AcDbCircle
 10
38.0
 20
-7.0
 30
0.0
 40
1.5
  0
CIRCLE
  5
6A
100
AcDbEntity
  8
0
  6
CONTINUOUS
 62
               7
100
AcDbCircle
 10
38.0
 20
-7.0
 30
0.0
 40
1.25
  0
LINE
  5
6B
100
AcDbEntity
  8
0
  6
CONTINUOUS
 62
               2
100
AcDbLine
 10
35.5
 20
-7.0
 30
0.0
 11
46.399999999999991
 21
-7.0
 31
0.0
  0
LINE
  5
6C
100
AcDbEntity
  8
0
  6
CONTINUOUS
 62
               7
100
AcDbLine
 10
44.499999999999986
 20
-7.0
 30
0.0
 11
44.499999999999986
 21
-8.8734993995195168
 31
0.0
  0
CIRCLE
  5
6D
100
AcDbEntity
  8
0
  6
CONTINUOUS
 62
               7
100
AcDbCircle
 10
41.999999999999986
 20
-7.0
 30
0.0
 40
1.3
  0
ARC
  5
6E
100
AcDbEntity
  8
0
  6
CONTINUOUS
 62
               7
100
AcDbCircle
 10
41.999999999999986
 20
-7.0
 30
0.0
 40
2.5
100
AcDbArc
 50
0.0
 51
72.662481982469345
  0
LINE
  5
6F
100
AcDbEntity
  8
0
  6
CONTINUOUS
 62
               7
100
AcDbLine
 10
83.035898334623312
 20
0.0
 30
0.0
 11
79.5
 21
0.0
 31
0.0
  0
LINE
  5
70
100
AcDbEntity
  8
0
  6
CONTINUOUS
 62
               7
100
AcDbLine
 10
83.745620126413058
 20
0.0
 30
0.0
 11
85.654379873586919
 21
0.0
 31
0.0
  0
LINE
  5
71
100
AcDbEntity
  8
0
  6
CONTINUOUS
 62
               7
100
AcDbLine
 10
76.0
 20
2.9000000000000341
 30
0.0
 11
76.0
 21
-2.8999999999999773
 31
0.0
  0
LINE
  5
72
100
AcDbEntity
  8
0
  6
CONTINUOUS
 62
               7
100
AcDbLine
 10
79.5
 20
3.0
 30
0.0
 11
79.5
 21
-3.0
 31
0.0
  0
LINE
  5
73
100
AcDbEntity
  8
0
  6
CONTINUOUS
 62
               7
100
AcDbLine
 10
83.5
 20
3.0
 30
0.0
 11
83.5
 21
-3.0
 31
0.0
  0
LINE
  5
74
100
AcDbEntity
  8
0
  6
CONTINUOUS
 62
               7
100
AcDbLine
 10
88.0
 20
1.2000000000000455
 30
0.0
 11
88.0
 21
-1.1999999999999886
 31
0.0
  0
LINE
  5
75
100
AcDbEntity
  8
0
  6
CONTINUOUS
 62
               7
100
AcDbLine
 10
87.699999999999989
 20
1.5
 30
0.0
 11
88.0
 21
1.2000000000000455
 31
0.0
  0
LINE
  5
76
100
AcDbEntity
  8
0
  6
CONTINUOUS
 62
               7
100
AcDbLine
 10
79.5
 20
3.0
 30
0.0
 11
83.5
 21
3.0
 31
0.0
  0
LINE
  5
77
100
AcDbEntity
  8
0
  6
CONTINUOUS
 62
               7
100
AcDbLine
 10
79.5
 20
-3.0
 30
0.0
 11
83.5
 21
-3.0
 31
0.0
  0
LINE
  5
78
100
AcDbEntity
  8
0
  6
CONTINUOUS
 62
               7
100
AcDbLine
 10
87.699999999999989
 20
-1.5
 30
0.0
 11
88.0
 21
-1.1999999999999886
 31
0.0
  0
LINE
  5
79
100
AcDbEntity
  8
0
  6
CONTINUOUS
 62
               7
100
AcDbLine
 10
83.499999994920444
 20
2.7499999267047883
 30
0.0
 11
85.900000005079534
 21
2.7499999267047883
 31
0.0
  0
LINE
  5
7A
100
AcDbEntity
  8
0
  6
CONTINUOUS
 62
               7
100
AcDbLine
 10
83.5
 20
-2.7499999355027285
 30
0.0
 11
85.899999999999977
 21
-2.7499999355027285
 31
0.0
  0
LINE
  5
7B
100
AcDbEntity
  8
0
  6
CONTINUOUS
 62
               7
100
AcDbLine
 10
85.899999999999977
 20
-2.7499999355027285
 30
0.0
 11
85.899999999999977
 21
2.7499999355027853
 31
0.0
  0
LINE
  5
7C
100
AcDbEntity
  8
0
  6
CONTINUOUS
 62
               7
100
AcDbLine
 10
76.0
 20
2.9000000000000341
 30
0.0
 11
79.5
 21
2.9000000000000341
 31
0.0
  0
LINE
  5
7D
100
AcDbEntity
  8
0
  6
CONTINUOUS
 62
               7
100
AcDbLine
 10
76.0
 20
-2.8999999999999773
 30
0.0
 11
79.5
 21
-2.8999999999999773
 31
0.0
  0
LINE
  5
7E
100
AcDbEntity
  8
0
  6
CONTINUOUS
 62
               2
100
AcDbLine
 10
85.899999999999977
 20
1.2294998168945881
 30
0.0
 11
87.970500199327887
 21
1.2294998168945881
 31
0.0
  0
LINE
  5
7F
100
AcDbEntity
  8
0
  6
CONTINUOUS
 62
               2
100
AcDbLine
 10
85.899999999999977
 20
-1.2294998168945312
 30
0.0
 11
87.970500199327887
 21
-1.2294998168945312
 31
0.0
  0
LINE
  5
80
100
AcDbEntity
  8
0
  6
CONTINUOUS
 62
               7
100
AcDbLine
 10
85.899999999999977
 20
1.5
 30
0.0
 11
87.699999999999989
 21
1.5
 31
0.0
  0
LINE
  5
81
100
AcDbEntity
  8
0
  6
CONTINUOUS
 62
               7
100
AcDbLine
 10
85.899999999999977
 20
-1.5
 30
0.0
 11
87.699999999999989
 21
-1.5
 31
0.0
  0
LINE
  5
82
100
AcDbEntity
  8
0
  6
CONTINUOUS
 62
               7
100
AcDbLine
 10
87.699999999999989
 20
1.5
 30
0.0
 11
87.699999999999989
 21
-1.5
 31
0.0
  0
SPLINE
  5
83
100
AcDbEntity
  8
0
  6
CONTINUOUS
 62
               7
100
AcDbSpline
210
0.0
220
0.0
230
1.0
 70
               0
 71
               3
 72
               0
 73
               0
 74
               5
 44
0.000001
 12
0.5262037277974933
 22
0.8503585342971644
 32
0.0
 13
-0.5262037277974935
 23
0.8503585342971642
 33
0.0
 11
83.035898334623312
 21
-3.0
 31
0.0
 11
83.371226910332254
 21
-2.2809008094174223
 31
0.0
 11
83.499999981082709
 21
-1.5
 31
0.0
 11
83.371226910332254
 21
-0.7190991905825779
 31
0.0
 11
83.035898334623312
 21
0.0
 31
0.0
  0
SPLINE
  5
84
100
AcDbEntity
  8
0
  6
CONTINUOUS
 62
               7
100
AcDbSpline
210
0.0
220
0.0
230
1.0
 70
               0
 71
               3
 72
               0
 73
               0
 74
               5
 44
0.000001
 12
0.5262037277974933
 22
-0.8503585342971644
 32
0.0
 13
-0.5262037277974935
 23
-0.8503585342971642
 33
0.0
 11
83.035898334623312
 21
3.0
 31
0.0
 11
83.371226910332254
 21
2.2809008094174223
 31
0.0
 11
83.499999981082709
 21
1.5
 31
0.0
 11
83.371226910332254
 21
0.7190991905825779
 31
0.0
 11
83.035898334623312
 21
0.0
 31
0.0
  0
SPLINE
  5
85
100
AcDbEntity
  8
0
  6
CONTINUOUS
 62
               7
100
AcDbSpline
210
0.0
220
0.0
230
1.0
 70
               0
 71
               3
 72
               0
 73
               0
 74
               5
 44
0.000001
 12
-0.3364389502051061
 22
0.9417052791531362
 32
0.0
 13
0.3364389502051062
 23
0.9417052791531362
 33
0.0
 11
83.745620126413058
 21
0.0
 31
0.0
 11
83.564069267833659
 21
0.676314027514175
 31
0.0
 11
83.499999997460208
 21
1.3749999633524226
 31
0.0
 11
83.564069267833659
 21
2.0736858991906413
 31
0.0
 11
83.745620126413058
 21
2.7499999267047879
 31
0.0
  0
SPLINE
  5
86
100
AcDbEntity
  8
0
  6
CONTINUOUS
 62
               7
100
AcDbSpline
210
0.0
220
0.0
230
1.0
 70
               0
 71
               3
 72
               0
 73
               0
 74
               5
 44
0.000001
 12
-0.3364389461654975
 22
0.9417052805963496
 32
0.0
 13
0.3364389461654974
 23
0.9417052805963496
 33
0.0
 11
83.745620126413058
 21
-2.7499999355027285
 31
0.0
 11
83.564069269645529
 21
-2.0736859055501595
 31
0.0
 11
83.5
 21
-1.3749999677513642
 31
0.0
 11
83.564069269645529
 21
-0.6763140299525692
 31
0.0
 11
83.745620126413058
 21
0.0000000000000004
 31
0.0
  0
SPLINE
  5
87
100
AcDbEntity
  8
0
  6
CONTINUOUS
 62
               7
100
AcDbSpline
210
0.0
220
0.0
230
1.0
 70
               0
 71
               3
 72
               0
 73
               0
 74
               5
 44
0.000001
 12
0.3364389461655017
 22
-0.9417052805963481
 32
0.0
 13
-0.3364389461655019
 23
-0.9417052805963481
 33
0.0
 11
85.654379873586919
 21
0.0
 31
0.0
 11
85.835930730354448
 21
-0.676314029952569
 31
0.0
 11
85.899999999999977
 21
-1.3749999677513642
 31
0.0
 11
85.835930730354448
 21
-2.0736859055501595
 31
0.0
 11
85.654379873586919
 21
-2.7499999355027285
 31
0.0
  0
SPLINE
  5
88
100
AcDbEntity
  8
0
  6
CONTINUOUS
 62
               7
100
AcDbSpline
210
0.0
220
0.0
230
1.0
 70
               0
 71
               3
 72
               0
 73
               0
 74
               5
 44
0.000001
 12
0.336438950205106
 22
-0.9417052791531362
 32
0.0
 13
-0.3364389502051063
 23
-0.9417052791531361
 33
0.0
 11
85.654379873586919
 21
2.7499999267047883
 31
0.0
 11
85.835930732166304
 21
2.0736858991906417
 31
0.0
 11
85.900000002539741
 21
1.3749999633524226
 31
0.0
 11
85.835930732166304
 21
0.6763140275141752
 31
0.0
 11
85.654379873586919
 21
0.0000000000000004
 31
0.0
  0
LINE
  5
89
100
AcDbEntity
  8
0
  6
CONTINUOUS
 62
               7
100
AcDbLine
 10
75.199999999999932
 20
-1.4999999999999432
 30
0.0
 11
76.0
 21
-1.4999999999999432
 31
0.0
  0
LINE
  5
8A
100
AcDbEntity
  8
0
  6
CONTINUOUS
 62
               7
100
AcDbLine
 10
75.199999999999989
 20
1.5000000000000568
 30
0.0
 11
76.0
 21
1.5000000000000568
 31
0.0
  0
LINE
  5
8B
100
AcDbEntity
  8
0
  6
CONTINUOUS
 62
               7
100
AcDbLine
 10
56.0
 20
-4.1999999999999886
 30
0.0
 11
61.0
 21
-4.1999999999999886
 31
0.0
  0
LINE
  5
8C
100
AcDbEntity
  8
0
  6
CONTINUOUS
 62
               7
100
AcDbLine
 10
56.0
 20
4.2000000000000455
 30
0.0
 11
61.0
 21
4.2000000000000455
 31
0.0
  0
LINE
  5
8D
100
AcDbEntity
  8
0
  6
CONTINUOUS
 62
               2
100
AcDbLine
 10
63.399999618530273
 20
-1.2294998168944744
 30
0.0
 11
70.5
 21
-1.2294998168944744
 31
0.0
  0
LINE
  5
8E
100
AcDbEntity
  8
0
  6
CONTINUOUS
 62
               7
100
AcDbLine
 10
63.399999618530273
 20
-1.4999999999999432
 30
0.0
 11
75.199999999999932
 21
-1.4999999999999432
 31
0.0
  0
LINE
  5
8F
100
AcDbEntity
  8
0
  6
CONTINUOUS
 62
               7
100
AcDbLine
 10
63.399999618530273
 20
1.5000000000000568
 30
0.0
 11
75.199999999999989
 21
1.5000000000000568
 31
0.0
  0
LINE
  5
90
100
AcDbEntity
  8
0
  6
CONTINUOUS
 62
               2
100
AcDbLine
 10
63.399999618530273
 20
1.2294998168945881
 30
0.0
 11
70.5
 21
1.2294998168945881
 31
0.0
  0
LINE
  5
91
100
AcDbEntity
  8
0
  6
CONTINUOUS
 62
               7
100
AcDbLine
 10
55.901923788646684
 20
1.5000000000000568
 30
0.0
 11
56.0
 21
1.5000000000000568
 31
0.0
  0
LINE
  5
92
100
AcDbEntity
  8
0
  6
CONTINUOUS
 62
               2
100
AcDbLine
 10
55.763518646097452
 20
1.2294998168945881
 30
0.0
 11
56.0
 21
1.2294998168945881
 31
0.0
  0
LINE
  5
93
100
AcDbEntity
  8
0
  6
CONTINUOUS
 62
               2
100
AcDbLine
 10
55.763518646097424
 20
-1.2294998168944744
 30
0.0
 11
56.0
 21
-1.2294998168944744
 31
0.0
  0
LINE
  5
94
100
AcDbEntity
  8
0
  6
CONTINUOUS
 62
               7
100
AcDbLine
 10
55.901923788646627
 20
-1.4999999999999432
 30
0.0
 11
56.0
 21
-1.4999999999999432
 31
0.0
  0
ARC
  5
95
100
AcDbEntity
  8
0
  6
CONTINUOUS
 62
               7
100
AcDbCircle
 10
58.5
 20
0.0
 30
0.0
 40
3.0
100
AcDbArc
 50
149.99999999999906
 51
209.99999999999906
  0
LINE
  5
96
100
AcDbEntity
  8
0
  6
CONTINUOUS
 62
               7
100
AcDbLine
 10
55.901923788646684
 20
1.5000000000000568
 30
0.0
 11
55.901923788646684
 21
-1.4999999999999432
 31
0.0
  0
ARC
  5
97
100
AcDbEntity
  8
0
  6
CONTINUOUS
 62
               7
100
AcDbCircle
 10
59.42851448059082
 20
1.375
 30
0.0
 40
3.9714851379394531
100
AcDbArc
 50
339.74375396858454
 51
20.256064804031368
  0
ARC
  5
98
100
AcDbEntity
  8
0
  6
CONTINUOUS
 62
               7
100
AcDbCircle
 10
59.42851448059082
 20
-1.375
 30
0.0
 40
3.9714851379394531
100
AcDbArc
 50
339.74380861009791
 51
20.25611944554473
  0
LINE
  5
99
100
AcDbEntity
  8
0
  6
CONTINUOUS
 62
               7
100
AcDbLine
 10
63.399999618530273
 20
2.75
 30
0.0
 11
61.0
 21
2.75
 31
0.0
  0
LINE
  5
9A
100
AcDbEntity
  8
0
  6
CONTINUOUS
 62
               7
100
AcDbLine
 10
63.399999618530273
 20
-2.75
 30
0.0
 11
63.399999618530273
 21
2.75
 31
0.0
  0
LINE
  5
9B
100
AcDbEntity
  8
0
  6
CONTINUOUS
 62
               7
100
AcDbLine
 10
63.154378890991211
 20
0.0
 30
0.0
 11
61.0
 21
0.0
 31
0.0
  0
LINE
  5
9C
100
AcDbEntity
  8
0
  6
CONTINUOUS
 62
               7
100
AcDbLine
 10
63.399999618530273
 20
-2.75
 30
0.0
 11
61.0
 21
-2.75
 31
0.0
  0
LINE
  5
9D
100
AcDbEntity
  8
0
  6
CONTINUOUS
 62
               7
100
AcDbLine
 10
56.0
 20
4.2000000000000455
 30
0.0
 11
56.0
 21
-4.1999999999999886
 31
0.0
  0
LINE
  5
9E
100
AcDbEntity
  8
0
  6
CONTINUOUS
 62
               7
100
AcDbLine
 10
51.0
 20
-7.5
 30
0.0
 11
51.0
 21
7.5
 31
0.0
  0
LINE
  5
9F
100
AcDbEntity
  8
0
  6
CONTINUOUS
 62
               7
100
AcDbLine
 10
51.0
 20
-7.5
 30
0.0
 11
55.5
 21
-7.5
 31
0.0
  0
LINE
  5
A0
100
AcDbEntity
  8
0
  6
CONTINUOUS
 62
               7
100
AcDbLine
 10
51.0
 20
7.5
 30
0.0
 11
55.5
 21
7.5
 31
0.0
  0
LINE
  5
A1
100
AcDbEntity
  8
0
  6
CONTINUOUS
 62
               7
100
AcDbLine
 10
55.5
 20
-2.5999999999999659
 30
0.0
 11
56.0
 21
-2.5999999999999659
 31
0.0
  0
LINE
  5
A2
100
AcDbEntity
  8
0
  6
CONTINUOUS
 62
               7
100
AcDbLine
 10
54.0
 20
-9.0
 30
0.0
 11
61.0
 21
-9.0
 31
0.0
  0
LINE
  5
A3
100
AcDbEntity
  8
0
  6
CONTINUOUS
 62
               7
100
AcDbLine
 10
55.5
 20
2.6000000000000227
 30
0.0
 11
56.0
 21
2.6000000000000227
 31
0.0
  0
LINE
  5
A4
100
AcDbEntity
  8
0
  6
CONTINUOUS
 62
               7
100
AcDbLine
 10
61.0
 20
9.0
 30
0.0
 11
61.0
 21
-9.0
 31
0.0
  0
LINE
  5
A5
100
AcDbEntity
  8
0
  6
CONTINUOUS
 62
               7
100
AcDbLine
 10
54.0
 20
9.0
 30
0.0
 11
61.0
 21
9.0
 31
0.0
  0
LINE
  5
A6
100
AcDbEntity
  8
0
  6
CONTINUOUS
 62
               7
100
AcDbLine
 10
61.899999982139207
 20
-3.25
 30
0.0
 11
61.0
 21
-3.25
 31
0.0
  0
LINE
  5
A7
100
AcDbEntity
  8
0
  6
CONTINUOUS
 62
               7
100
AcDbLine
 10
61.899999982139207
 20
-7.75
 30
0.0
 11
61.0
 21
-7.75
 31
0.0
  0
LINE
  5
A8
100
AcDbEntity
  8
0
  6
CONTINUOUS
 62
               7
100
AcDbLine
 10
62.199999999999989
 20
-7.4500000029695457
 30
0.0
 11
62.199999999999989
 21
-3.5500000268114036
 31
0.0
  0
LINE
  5
A9
100
AcDbEntity
  8
0
  6
CONTINUOUS
 62
               7
100
AcDbLine
 10
61.899999982139207
 20
-3.25
 30
0.0
 11
62.199999999999989
 21
-3.5500000178607252
 31
0.0
  0
LINE
  5
AA
100
AcDbEntity
  8
0
  6
CONTINUOUS
 62
               7
100
AcDbLine
 10
62.199999999999989
 20
-7.4500000029695457
 30
0.0
 11
61.900000002969534
 21
-7.75
 31
0.0
  0
LINE
  5
AB
100
AcDbEntity
  8
0
  6
CONTINUOUS
 62
               7
100
AcDbLine
 10
61.899999982139207
 20
-3.25
 30
0.0
 11
61.899999982139207
 21
-7.75
 31
0.0
  0
LINE
  5
AC
100
AcDbEntity
  8
0
  6
CONTINUOUS
 62
               7
100
AcDbLine
 10
61.899999982139207
 20
3.25
 30
0.0
 11
61.0
 21
3.25
 31
0.0
  0
LINE
  5
AD
100
AcDbEntity
  8
0
  6
CONTINUOUS
 62
               7
100
AcDbLine
 10
61.899999982139207
 20
7.75
 30
0.0
 11
61.0
 21
7.75
 31
0.0
  0
LINE
  5
AE
100
AcDbEntity
  8
0
  6
CONTINUOUS
 62
               7
100
AcDbLine
 10
62.199999999999989
 20
7.4500000029696025
 30
0.0
 11
62.199999999999989
 21
3.5500000268114604
 31
0.0
  0
LINE
  5
AF
100
AcDbEntity
  8
0
  6
CONTINUOUS
 62
               7
100
AcDbLine
 10
61.899999982139207
 20
3.25
 30
0.0
 11
62.199999999999989
 21
3.5500000178608389
 31
0.0
  0
LINE
  5
B0
100
AcDbEntity
  8
0
  6
CONTINUOUS
 62
               7
100
AcDbLine
 10
62.199999999999989
 20
7.4500000029696025
 30
0.0
 11
61.900000002969534
 21
7.75
 31
0.0
  0
LINE
  5
B1
100
AcDbEntity
  8
0
  6
CONTINUOUS
 62
               7
100
AcDbLine
 10
61.899999982139207
 20
3.25
 30
0.0
 11
61.899999982139207
 21
7.75
 31
0.0
  0
ARC
  5
B2
100
AcDbEntity
  8
0
  6
CONTINUOUS
 62
               7
100
AcDbCircle
 10
55.699999999999989
 20
-4.7999999999999545
 30
0.0
 40
0.3
100
AcDbArc
 50
0.0
 51
90.0
  0
ARC
  5
B3
100
AcDbEntity
  8
0
  6
CONTINUOUS
 62
               7
100
AcDbCircle
 10
55.699999999999989
 20
-6.1999999999999886
 30
0.0
 40
0.3
100
AcDbArc
 50
270.0
 51
0.0
  0
LINE
  5
B4
100
AcDbEntity
  8
0
  6
CONTINUOUS
 62
               7
100
AcDbLine
 10
55.5
 20
-4.5
 30
0.0
 11
55.699999999999989
 21
-4.5
 31
0.0
  0
LINE
  5
B5
100
AcDbEntity
  8
0
  6
CONTINUOUS
 62
               7
100
AcDbLine
 10
55.5
 20
-6.5
 30
0.0
 11
55.699999999999989
 21
-6.5
 31
0.0
  0
LINE
  5
B6
100
AcDbEntity
  8
0
  6
CONTINUOUS
 62
               7
100
AcDbLine
 10
56.0
 20
-4.7999999999999545
 30
0.0
 11
56.0
 21
-6.1999999999999886
 31
0.0
  0
LINE
  5
B7
100
AcDbEntity
  8
0
  6
CONTINUOUS
 62
               7
100
AcDbLine
 10
56.0
 20
4.8000000000000114
 30
0.0
 11
56.0
 21
6.2000000000000455
 31
0.0
  0
ARC
  5
B8
100
AcDbEntity
  8
0
  6
CONTINUOUS
 62
               7
100
AcDbCircle
 10
55.699999999999989
 20
6.2000000000000455
 30
0.0
 40
0.3
100
AcDbArc
 50
0.0
 51
90.0
  0
ARC
  5
B9
100
AcDbEntity
  8
0
  6
CONTINUOUS
 62
               7
100
AcDbCircle
 10
55.699999999999989
 20
4.8000000000000114
 30
0.0
 40
0.3
100
AcDbArc
 50
270.0
 51
0.0
  0
LINE
  5
BA
100
AcDbEntity
  8
0
  6
CONTINUOUS
 62
               7
100
AcDbLine
 10
55.5
 20
4.5
 30
0.0
 11
55.699999999999989
 21
4.5
 31
0.0
  0
LINE
  5
BB
100
AcDbEntity
  8
0
  6
CONTINUOUS
 62
               7
100
AcDbLine
 10
55.5
 20
6.5
 30
0.0
 11
55.699999999999989
 21
6.5
 31
0.0
  0
LINE
  5
BC
100
AcDbEntity
  8
0
  6
CONTINUOUS
 62
               7
100
AcDbLine
 10
55.5
 20
7.5
 30
0.0
 11
55.5
 21
-7.5
 31
0.0
  0
LINE
  5
BD
100
AcDbEntity
  8
0
  6
CONTINUOUS
 62
               7
100
AcDbLine
 10
53.999999999999986
 20
7.5
 30
0.0
 11
53.999999999999986
 21
10.0
 31
0.0
  0
LINE
  5
BE
100
AcDbEntity
  8
0
  6
CONTINUOUS
 62
               2
100
AcDbLine
 10
-2.0
 20
7.0
 30
0.0
 11
2.0
 21
7.0
 31
0.0
  0
LINE
  5
BF
100
AcDbEntity
  8
0
  6
CONTINUOUS
 62
               2
100
AcDbLine
 10
-2.0
 20
-7.0
 30
0.0
 11
2.0
 21
-7.0
 31
0.0
  0
LINE
  5
C0
100
AcDbEntity
  8
0
  6
CONTINUOUS
 62
               7
100
AcDbLine
 10
70.199999999999989
 20
1.5000000000000568
 30
0.0
 11
70.199999999999989
 21
-1.4999999999999432
 31
0.0
  0
LINE
  5
C1
100
AcDbEntity
  8
0
  6
CONTINUOUS
 62
               7
100
AcDbLine
 10
70.5
 20
-1.1999999999999318
 30
0.0
 11
70.5
 21
1.1999999999999886
 31
0.0
  0
LINE
  5
C2
100
AcDbEntity
  8
0
  6
CONTINUOUS
 62
               7
100
AcDbLine
 10
70.199999999999989
 20
1.5000000000000568
 30
0.0
 11
70.5
 21
1.1999999999999886
 31
0.0
  0
LINE
  5
C3
100
AcDbEntity
  8
0
  6
CONTINUOUS
 62
               7
100
AcDbLine
 10
70.5
 20
-1.1999999999999318
 30
0.0
 11
70.199999999999932
 21
-1.4999999999999432
 31
0.0
  0
LINE
  5
C4
100
AcDbEntity
  8
0
  6
CONTINUOUS
 62
               2
100
AcDbLine
 10
75.0
 20
1.2294998168945881
 30
0.0
 11
76.0
 21
1.2294998168945881
 31
0.0
  0
LINE
  5
C5
100
AcDbEntity
  8
0
  6
CONTINUOUS
 62
               2
100
AcDbLine
 10
75.0
 20
-1.2294998168944744
 30
0.0
 11
76.0
 21
-1.2294998168944744
 31
0.0
  0
LINE
  5
C6
100
AcDbEntity
  8
0
  6
CONTINUOUS
 62
               2
100
AcDbLine
 10
75.0
 20
-1.2294998168945312
 30
0.0
 11
74.531479939404733
 21
-1.5
 31
0.0
  0
LINE
  5
C7
100
AcDbEntity
  8
0
  6
CONTINUOUS
 62
               2
100
AcDbLine
 10
75.0
 20
1.2294998168945881
 30
0.0
 11
74.531479939404733
 21
1.5
 31
0.0
  0
LINE
  5
C8
100
AcDbEntity
  8
0
  6
CONTINUOUS
 62
               7
100
AcDbLine
 10
75.0
 20
1.5
 30
0.0
 11
75.0
 21
-1.5
 31
0.0
  0
LINE
  5
CA
100
AcDbEntity
  8
0
  6
PHANTOM
 62
               3
100
AcDbLine
 10
31.914710167578935
 20
18.55181098935364
 30
0.0
 11
31.914710167578935
 21
-27.578115581459343
 31
0.0
  0
LINE
  5
CB
100
AcDbEntity
  8
0
  6
PHANTOM
 62
               3
100
AcDbLine
 10
73.207390281894675
 20
18.55181098935364
 30
0.0
 11
73.207390281894675
 21
-27.578115581459343
 31
0.0
  0
ENDBLK
  5
CC
100
AcDbEntity
  8
0
100
AcDbBlockEnd
  0
BLOCK
  5
CD
100
AcDbEntity
  8
0
100
AcDbBlockBegin
  2
MGAEG6-2
 70
               0
 10
0.0
 20
0.0
 30
0.0
  3
MGAEG6-2
  1

  0
CIRCLE
  5
CE
100
AcDbEntity
  8
0
  6
CONTINUOUS
 62
               7
100
AcDbCircle
 10
4.5
 20
0.0
 30
0.0
 40
3.7000000000000002
  0
CIRCLE
  5
CF
100
AcDbEntity
  8
0
  6
CONTINUOUS
 62
               7
100
AcDbCircle
 10
4.5
 20
0.0
 30
0.0
 40
1.2
  0
ARC
  5
D0
100
AcDbEntity
  8
0
  6
CONTINUOUS
 62
               7
100
AcDbCircle
 10
4.5
 20
0.0
 30
0.0
 40
4.2000000000000028
100
AcDbArc
 50
270.0
 51
90.0
  0
LINE
  5
D1
100
AcDbEntity
  8
0
  6
CONTINUOUS
 62
               7
100
AcDbLine
 10
4.5
 20
4.2000000000000455
 30
0.0
 11
0.8000000000000114
 21
4.2000000000000455
 31
0.0
  0
LINE
  5
D2
100
AcDbEntity
  8
0
  6
CONTINUOUS
 62
               7
100
AcDbLine
 10
1.7723636606028208
 20
2.5
 30
0.0
 11
0.8000000000000114
 21
2.5
 31
0.0
  0
LINE
  5
D3
100
AcDbEntity
  8
0
  6
CONTINUOUS
 62
               7
100
AcDbLine
 10
4.5
 20
-4.1999999999999886
 30
0.0
 11
0.8000000000000114
 21
-4.1999999999999886
 31
0.0
  0
LINE
  5
D4
100
AcDbEntity
  8
0
  6
CONTINUOUS
 62
               7
100
AcDbLine
 10
1.7723636606028208
 20
-2.5
 30
0.0
 11
0.8000000000000114
 21
-2.5
 31
0.0
  0
LINE
  5
D5
100
AcDbEntity
  8
0
  6
CONTINUOUS
 62
               7
100
AcDbLine
 10
14.0
 20
-1.6894883227947162
 30
0.0
 11
14.9754265077285
 21
0.0000002349997885
 31
0.0
  0
LINE
  5
D6
100
AcDbEntity
  8
0
  6
CONTINUOUS
 62
               7
100
AcDbLine
 10
14.975425204985171
 20
0.0000001140693939
 30
0.0
 11
14.0
 21
1.6894864154459128
 31
0.0
  0
LINE
  5
D7
100
AcDbEntity
  8
0
  6
CONTINUOUS
 62
               7
100
AcDbLine
 10
12.0
 20
-7.5
 30
0.0
 11
14.0
 21
-7.5
 31
0.0
  0
LINE
  5
D8
100
AcDbEntity
  8
0
  6
CONTINUOUS
 62
               7
100
AcDbLine
 10
12.0
 20
7.5
 30
0.0
 11
14.0
 21
7.5
 31
0.0
  0
LINE
  5
D9
100
AcDbEntity
  8
0
  6
CONTINUOUS
 62
               7
100
AcDbLine
 10
14.0
 20
-7.5
 30
0.0
 11
14.0
 21
7.5
 31
0.0
  0
LINE
  5
DA
100
AcDbEntity
  8
0
  6
CONTINUOUS
 62
               7
100
AcDbLine
 10
11.500000000000014
 20
10.0
 30
0.0
 11
0.8000000000000114
 21
10.0
 31
0.0
  0
LINE
  5
DB
100
AcDbEntity
  8
0
  6
CONTINUOUS
 62
               7
100
AcDbLine
 10
0.8000000000000114
 20
9.5
 30
0.0
 11
0.0
 21
9.5
 31
0.0
  0
LINE
  5
DC
100
AcDbEntity
  8
0
  6
CONTINUOUS
 62
               7
100
AcDbLine
 10
11.5
 20
-10.0
 30
0.0
 11
0.8000000000000114
 21
-10.0
 31
0.0
  0
LINE
  5
DD
100
AcDbEntity
  8
0
  6
CONTINUOUS
 62
               7
100
AcDbLine
 10
0.8000000000000114
 20
-9.5
 30
0.0
 11
0.0
 21
-9.5
 31
0.0
  0
LINE
  5
DE
100
AcDbEntity
  8
0
  6
CONTINUOUS
 62
               7
100
AcDbLine
 10
12.0
 20
-9.5
 30
0.0
 11
12.0
 21
9.5
 31
0.0
  0
LINE
  5
DF
100
AcDbEntity
  8
0
  6
CENTER
 62
               2
100
AcDbLine
 10
-3.7000000000000028
 20
0.0
 30
0.0
 11
15.975425270843118
 21
0.0
 31
0.0
  0
LINE
  5
E0
100
AcDbEntity
  8
0
  6
CONTINUOUS
 62
               7
100
AcDbLine
 10
0.0
 20
9.499999992019184
 30
0.0
 11
0.0
 21
2.7000000000000455
 31
0.0
  0
LINE
  5
E1
100
AcDbEntity
  8
0
  6
CONTINUOUS
 62
               7
100
AcDbLine
 10
0.8000000000000114
 20
-10.0
 30
0.0
 11
0.8000000000000114
 21
-2.5
 31
0.0
  0
CIRCLE
  5
E2
100
AcDbEntity
  8
0
  6
CONTINUOUS
 62
               7
100
AcDbCircle
 10
9.9000000000000057
 20
-6.5
 30
0.0
 40
1.6000000000000174
  0
CIRCLE
  5
E3
100
AcDbEntity
  8
0
  6
CONTINUOUS
 62
               7
100
AcDbCircle
 10
9.9000000000000057
 20
-6.5
 30
0.0
 40
1.9000000000000148
  0
LINE
  5
E4
100
AcDbEntity
  8
0
  6
CONTINUOUS
 62
               7
100
AcDbLine
 10
10.333012863593041
 20
-5.7499999933675667
 30
0.0
 11
9.4669872641336212
 21
-5.7500000120764412
 31
0.0
  0
LINE
  5
E5
100
AcDbEntity
  8
0
  6
CONTINUOUS
 62
               7
100
AcDbLine
 10
9.4669871364069422
 20
-7.2500000066323764
 30
0.0
 11
10.33301273586639
 21
-7.249999987923502
 31
0.0
  0
LINE
  5
E6
100
AcDbEntity
  8
0
  6
CONTINUOUS
 62
               7
100
AcDbLine
 10
10.333012626785631
 20
-7.2500001433531907
 30
0.0
 11
10.766025410313006
 21
-6.4999999645392563
 31
0.0
  0
LINE
  5
E7
100
AcDbEntity
  8
0
  6
CONTINUOUS
 62
               7
100
AcDbLine
 10
9.0339745096213164
 20
-6.4999998632791289
 30
0.0
 11
9.4669873255533616
 21
-7.2500000233842457
 31
0.0
  0
LINE
  5
E8
100
AcDbEntity
  8
0
  6
CONTINUOUS
 62
               7
100
AcDbLine
 10
9.4669873732143515
 20
-5.7499998566467525
 30
0.0
 11
9.0339745896869772
 21
-6.5000000354606868
 31
0.0
  0
LINE
  5
E9
100
AcDbEntity
  8
0
  6
CONTINUOUS
 62
               7
100
AcDbLine
 10
10.766025490378667
 20
-6.5000001367208142
 30
0.0
 11
10.333012674446621
 21
-5.7499999766156975
 31
0.0
  0
CIRCLE
  5
EA
100
AcDbEntity
  8
0
  6
CONTINUOUS
 62
               7
100
AcDbCircle
 10
9.9000000000000057
 20
6.5
 30
0.0
 40
1.6000000000000174
  0
CIRCLE
  5
EB
100
AcDbEntity
  8
0
  6
CONTINUOUS
 62
               7
100
AcDbCircle
 10
9.9000000000000057
 20
6.5
 30
0.0
 40
1.9000000000000148
  0
LINE
  5
EC
100
AcDbEntity
  8
0
  6
CONTINUOUS
 62
               7
100
AcDbLine
 10
10.333012863593041
 20
7.2500000066324333
 30
0.0
 11
9.4669872641336212
 21
7.2499999879235588
 31
0.0
  0
LINE
  5
ED
100
AcDbEntity
  8
0
  6
CONTINUOUS
 62
               7
100
AcDbLine
 10
9.4669871364069422
 20
5.7499999933676236
 30
0.0
 11
10.33301273586639
 21
5.750000012076498
 31
0.0
  0
LINE
  5
EE
100
AcDbEntity
  8
0
  6
CONTINUOUS
 62
               7
100
AcDbLine
 10
10.333012626785631
 20
5.7499998566468093
 30
0.0
 11
10.766025410313006
 21
6.5000000354607437
 31
0.0
  0
LINE
  5
EF
100
AcDbEntity
  8
0
  6
CONTINUOUS
 62
               7
100
AcDbLine
 10
9.0339745096213164
 20
6.5000001367208711
 30
0.0
 11
9.4669873255533616
 21
5.7499999766157543
 31
0.0
  0
LINE
  5
F0
100
AcDbEntity
  8
0
  6
CONTINUOUS
 62
               7
100
AcDbLine
 10
9.4669873732143515
 20
7.2500001433532475
 30
0.0
 11
9.0339745896869772
 21
6.4999999645393132
 31
0.0
  0
LINE
  5
F1
100
AcDbEntity
  8
0
  6
CONTINUOUS
 62
               7
100
AcDbLine
 10
10.766025490378667
 20
6.4999998632791858
 30
0.0
 11
10.333012674446621
 21
7.2500000233843025
 31
0.0
  0
LINE
  5
F2
100
AcDbEntity
  8
0
  6
CONTINUOUS
 62
               7
100
AcDbLine
 10
11.800000000000011
 20
-9.5
 30
0.0
 11
11.800000000000011
 21
9.5000000000000568
 31
0.0
  0
LINE
  5
F3
100
AcDbEntity
  8
0
  6
CENTER
 62
               2
100
AcDbLine
 10
4.5
 20
-5.0
 30
0.0
 11
4.5
 21
5.0
 31
0.0
  0
CIRCLE
  5
F4
100
AcDbEntity
  8
0
  6
CONTINUOUS
 62
               7
100
AcDbCircle
 10
4.5
 20
2.5
 30
0.0
 40
0.5
  0
CIRCLE
  5
F5
100
AcDbEntity
  8
0
  6
CONTINUOUS
 62
               7
100
AcDbCircle
 10
5.0
 20
7.0
 30
0.0
 40
1.25
  0
LINE
  5
F6
100
AcDbEntity
  8
0
  6
CONTINUOUS
 62
               2
100
AcDbLine
 10
2.5
 20
7.0
 30
0.0
 11
7.4999999999999716
 21
7.0
 31
0.0
  0
CIRCLE
  5
F7
100
AcDbEntity
  8
0
  6
CONTINUOUS
 62
               2
100
AcDbCircle
 10
5.0
 20
7.0
 30
0.0
 40
1.5
  0
LINE
  5
F8
100
AcDbEntity
  8
0
  6
CONTINUOUS
 62
               2
100
AcDbLine
 10
5.0
 20
9.5
 30
0.0
 11
5.0
 21
4.5
 31
0.0
  0
CIRCLE
  5
F9
100
AcDbEntity
  8
0
  6
CONTINUOUS
 62
               7
100
AcDbCircle
 10
5.0
 20
-7.0
 30
0.0
 40
1.25
  0
LINE
  5
FA
100
AcDbEntity
  8
0
  6
CONTINUOUS
 62
               2
100
AcDbLine
 10
2.5
 20
-7.0
 30
0.0
 11
7.4999999999999716
 21
-7.0
 31
0.0
  0
CIRCLE
  5
FB
100
AcDbEntity
  8
0
  6
CONTINUOUS
 62
               2
100
AcDbCircle
 10
5.0
 20
-7.0
 30
0.0
 40
1.5
  0
LINE
  5
FC
100
AcDbEntity
  8
0
  6
CONTINUOUS
 62
               2
100
AcDbLine
 10
5.0
 20
-4.5
 30
0.0
 11
5.0
 21
-9.5
 31
0.0
  0
LINE
  5
FD
100
AcDbEntity
  8
0
  6
CONTINUOUS
 62
               7
100
AcDbLine
 10
11.300000000000011
 20
10.0
 30
0.0
 11
11.800000000000011
 21
9.5000000000000568
 31
0.0
  0
LINE
  5
FE
100
AcDbEntity
  8
0
  6
CONTINUOUS
 62
               7
100
AcDbLine
 10
12.0
 20
9.5
 30
0.0
 11
11.500000000000014
 21
10.0
 31
0.0
  0
LINE
  5
FF
100
AcDbEntity
  8
0
  6
CONTINUOUS
 62
               7
100
AcDbLine
 10
11.800000000000011
 20
-9.5
 30
0.0
 11
11.300000000000026
 21
-10.0
 31
0.0
  0
LINE
  5
100
100
AcDbEntity
  8
0
  6
CONTINUOUS
 62
               7
100
AcDbLine
 10
11.5
 20
-10.0
 30
0.0
 11
12.0
 21
-9.5
 31
0.0
  0
ARC
  5
101
100
AcDbEntity
  8
0
  6
CONTINUOUS
 62
               7
100
AcDbCircle
 10
9.9000000000000057
 20
6.5
 30
0.0
 40
2.1000000000000001
100
AcDbArc
 50
90.0
 51
270.0
  0
LINE
  5
102
100
AcDbEntity
  8
0
  6
CONTINUOUS
 62
               7
100
AcDbLine
 10
9.9000000000000057
 20
8.6000000000000227
 30
0.0
 11
11.800000000000011
 21
8.6000000000000227
 31
0.0
  0
LINE
  5
103
100
AcDbEntity
  8
0
  6
CONTINUOUS
 62
               7
100
AcDbLine
 10
9.9000000000000057
 20
4.4000000000000341
 30
0.0
 11
11.800000000000011
 21
4.4000000000000341
 31
0.0
  0
LINE
  5
104
100
AcDbEntity
  8
0
  6
CONTINUOUS
 62
               7
100
AcDbLine
 10
9.9000000000000057
 20
-8.5999999999999659
 30
0.0
 11
11.800000000000011
 21
-8.5999999999999659
 31
0.0
  0
ARC
  5
105
100
AcDbEntity
  8
0
  6
CONTINUOUS
 62
               7
100
AcDbCircle
 10
9.9000000000000057
 20
-6.5
 30
0.0
 40
2.1000000000000001
100
AcDbArc
 50
90.0
 51
270.0
  0
LINE
  5
106
100
AcDbEntity
  8
0
  6
CONTINUOUS
 62
               7
100
AcDbLine
 10
9.9000000000000057
 20
-4.3999999999999773
 30
0.0
 11
11.800000000000011
 21
-4.3999999999999773
 31
0.0
  0
LINE
  5
107
100
AcDbEntity
  8
0
  6
CONTINUOUS
 62
               7
100
AcDbLine
 10
0.8000000000000114
 20
2.5
 30
0.0
 11
0.8000000000000114
 21
10.0
 31
0.0
  0
CIRCLE
  5
108
100
AcDbEntity
  8
0
  6
CONTINUOUS
 62
               7
100
AcDbCircle
 10
4.5
 20
-2.5
 30
0.0
 40
0.5
  0
LINE
  5
109
100
AcDbEntity
  8
0
  6
CONTINUOUS
 62
               2
100
AcDbLine
 10
3.5
 20
-2.5
 30
0.0
 11
5.5
 21
-2.5
 31
0.0
  0
LINE
  5
10A
100
AcDbEntity
  8
0
  6
CONTINUOUS
 62
               7
100
AcDbLine
 10
0.0
 20
-2.6999999999999886
 30
0.0
 11
0.0
 21
-9.5
 31
0.0
  0
LINE
  5
10B
100
AcDbEntity
  8
0
  6
CONTINUOUS
 62
               7
100
AcDbLine
 10
0.2999999999999972
 20
2.4000000000000341
 30
0.0
 11
0.0
 21
2.7000000000000455
 31
0.0
  0
LINE
  5
10C
100
AcDbEntity
  8
0
  6
CONTINUOUS
 62
               7
100
AcDbLine
 10
0.2999999999999972
 20
-2.3999999999999773
 30
0.0
 11
0.0
 21
-2.6999999999999886
 31
0.0
  0
LINE
  5
10D
100
AcDbEntity
  8
0
  6
CONTINUOUS
 62
               7
100
AcDbLine
 10
0.2999999999999972
 20
2.4000000000000341
 30
0.0
 11
0.2999999999999972
 21
-2.3999999999999773
 31
0.0
  0
LINE
  5
10E
100
AcDbEntity
  8
0
  6
CONTINUOUS
 62
               2
100
AcDbLine
 10
-2.0
 20
7.0
 30
0.0
 11
2.0
 21
7.0
 31
0.0
  0
LINE
  5
10F
100
AcDbEntity
  8
0
  6
CONTINUOUS
 62
               2
100
AcDbLine
 10
2.0
 20
-7.0
 30
0.0
 11
-2.0
 21
-7.0
 31
0.0
  0
ENDBLK
  5
110
100
AcDbEntity
  8
0
100
AcDbBlockEnd
  0
BLOCK
  5
111
100
AcDbEntity
  8
0
100
AcDbBlockBegin
  2
MGAEG6-3
 70
               0
 10
0.0
 20
0.0
 30
0.0
  3
MGAEG6-3
  1

  0
LINE
  5
112
100
AcDbEntity
  8
0
  6
CENTER
 62
               2
100
AcDbLine
 10
3.8000000000000114
 20
0.0
 30
0.0
 11
-15.975426372051317
 21
0.0
 31
0.0
  0
CIRCLE
  5
113
100
AcDbEntity
  8
0
  6
CONTINUOUS
 62
               7
100
AcDbCircle
 10
-3.0
 20
5.5
 30
0.0
 40
2.25
  0
LINE
  5
114
100
AcDbEntity
  8
0
  6
CONTINUOUS
 62
               7
100
AcDbLine
 10
-3.577350214134384
 20
4.4999999505413939
 30
0.0
 11
-4.1547005325662383
 21
5.5000000697506835
 31
0.0
  0
LINE
  5
115
100
AcDbEntity
  8
0
  6
CONTINUOUS
 62
               7
100
AcDbLine
 10
-2.4226496604503325
 20
4.5000000229499619
 30
0.0
 11
-3.5773503266889577
 21
4.5000000399095939
 31
0.0
  0
LINE
  5
116
100
AcDbEntity
  8
0
  6
CONTINUOUS
 62
               7
100
AcDbLine
 10
-1.8452994463159484
 20
5.500000072408568
 30
0.0
 11
-2.4226497941227478
 21
4.4999999701589104
 31
0.0
  0
LINE
  5
117
100
AcDbEntity
  8
0
  6
CONTINUOUS
 62
               7
100
AcDbLine
 10
-2.422649785865616
 20
6.5000000494586629
 30
0.0
 11
-1.8452994674337617
 21
5.4999999302493734
 31
0.0
  0
LINE
  5
118
100
AcDbEntity
  8
0
  6
CONTINUOUS
 62
               7
100
AcDbLine
 10
-3.5773503395496675
 20
6.4999999770500949
 30
0.0
 11
-2.4226496733110423
 21
6.499999960090463
 31
0.0
  0
LINE
  5
119
100
AcDbEntity
  8
0
  6
CONTINUOUS
 62
               7
100
AcDbLine
 10
-4.1547005536840516
 20
5.4999999275914888
 30
0.0
 11
-3.5773502058772522
 21
6.5000000298411464
 31
0.0
  0
CIRCLE
  5
11A
100
AcDbEntity
  8
0
  6
CONTINUOUS
 62
               7
100
AcDbCircle
 10
-3.0
 20
5.5
 30
0.0
 40
1.95
  0
CIRCLE
  5
11B
100
AcDbEntity
  8
0
  6
CONTINUOUS
 62
               7
100
AcDbCircle
 10
-3.0
 20
-5.5
 30
0.0
 40
2.25
  0
LINE
  5
11C
100
AcDbEntity
  8
0
  6
CONTINUOUS
 62
               7
100
AcDbLine
 10
-3.577350214134384
 20
-6.5000000494586061
 30
0.0
 11
-4.1547005325662383
 21
-5.4999999302493165
 31
0.0
  0
LINE
  5
11D
100
AcDbEntity
  8
0
  6
CONTINUOUS
 62
               7
100
AcDbLine
 10
-2.4226496604503325
 20
-6.4999999770500381
 30
0.0
 11
-3.5773503266889577
 21
-6.4999999600904061
 31
0.0
  0
LINE
  5
11E
100
AcDbEntity
  8
0
  6
CONTINUOUS
 62
               7
100
AcDbLine
 10
-1.8452994463159484
 20
-5.499999927591432
 30
0.0
 11
-2.4226497941227478
 21
-6.5000000298410896
 31
0.0
  0
LINE
  5
11F
100
AcDbEntity
  8
0
  6
CONTINUOUS
 62
               7
100
AcDbLine
 10
-2.422649785865616
 20
-4.4999999505413371
 30
0.0
 11
-1.8452994674337617
 21
-5.5000000697506266
 31
0.0
  0
LINE
  5
120
100
AcDbEntity
  8
0
  6
CONTINUOUS
 62
               7
100
AcDbLine
 10
-3.5773503395496675
 20
-4.5000000229499051
 30
0.0
 11
-2.4226496733110423
 21
-4.500000039909537
 31
0.0
  0
LINE
  5
121
100
AcDbEntity
  8
0
  6
CONTINUOUS
 62
               7
100
AcDbLine
 10
-4.1547005536840516
 20
-5.5000000724085112
 30
0.0
 11
-3.5773502058772522
 21
-4.4999999701588536
 31
0.0
  0
CIRCLE
  5
122
100
AcDbEntity
  8
0
  6
CONTINUOUS
 62
               7
100
AcDbCircle
 10
-3.0
 20
-5.5
 30
0.0
 40
1.95
  0
LINE
  5
123
100
AcDbEntity
  8
0
  6
CONTINUOUS
 62
               7
100
AcDbLine
 10
-7.5
 20
4.2000000000000455
 30
0.0
 11
-14.0
 21
4.2000000000000455
 31
0.0
  0
LINE
  5
124
100
AcDbEntity
  8
0
  6
CONTINUOUS
 62
               7
100
AcDbLine
 10
-7.5
 20
-4.1999999999999886
 30
0.0
 11
-14.0
 21
-4.1999999999999886
 31
0.0
  0
CIRCLE
  5
125
100
AcDbEntity
  8
0
  6
CONTINUOUS
 62
               7
100
AcDbCircle
 10
-3.0
 20
-5.5
 30
0.0
 40
2.3999999999999999
  0
CIRCLE
  5
126
100
AcDbEntity
  8
0
  6
CONTINUOUS
 62
               7
100
AcDbCircle
 10
-3.0
 20
5.5
 30
0.0
 40
2.3999999999999999
  0
LINE
  5
127
100
AcDbEntity
  8
0
  6
CONTINUOUS
 62
               7
100
AcDbLine
 10
-11.366987298107773
 20
0.7500000000000568
 30
0.0
 11
-10.933974596215535
 21
0.0
 31
0.0
  0
LINE
  5
128
100
AcDbEntity
  8
0
  6
CONTINUOUS
 62
               7
100
AcDbLine
 10
-12.666025403784431
 20
0.0
 30
0.0
 11
-12.233012701892221
 21
-0.7499999999999432
 31
0.0
  0
LINE
  5
129
100
AcDbEntity
  8
0
  6
CONTINUOUS
 62
               7
100
AcDbLine
 10
-10.933974596215535
 20
0.0000000000000568
 30
0.0
 11
-11.366987298107773
 21
-0.75
 31
0.0
  0
LINE
  5
12A
100
AcDbEntity
  8
0
  6
CONTINUOUS
 62
               7
100
AcDbLine
 10
-12.233012701892193
 20
0.75
 30
0.0
 11
-12.666025403784431
 21
0.0
 31
0.0
  0
LINE
  5
12B
100
AcDbEntity
  8
0
  6
CONTINUOUS
 62
               7
100
AcDbLine
 10
-11.366987298107773
 20
0.75
 30
0.0
 11
-12.233012701892193
 21
0.75
 31
0.0
  0
LINE
  5
12C
100
AcDbEntity
  8
0
  6
CONTINUOUS
 62
               7
100
AcDbLine
 10
-11.366987298107773
 20
-0.75
 30
0.0
 11
-12.233012701892221
 21
-0.75
 31
0.0
  0
LINE
  5
12D
100
AcDbEntity
  8
0
  6
CONTINUOUS
 62
               7
100
AcDbLine
 10
-14.0
 20
1.689488322794773
 30
0.0
 11
-14.0
 21
7.5
 31
0.0
  0
CIRCLE
  5
12E
100
AcDbEntity
  8
0
  6
CONTINUOUS
 62
               2
100
AcDbCircle
 10
-11.799999999999983
 20
0.0
 30
0.0
 40
1.2294998168945312
  0
CIRCLE
  5
12F
100
AcDbEntity
  8
0
  6
CONTINUOUS
 62
               7
100
AcDbCircle
 10
-11.799999999999983
 20
0.0
 30
0.0
 40
1.5
  0
CIRCLE
  5
130
100
AcDbEntity
  8
0
  6
CONTINUOUS
 62
               7
100
AcDbCircle
 10
-11.799999999999983
 20
0.0
 30
0.0
 40
2.75
  0
LINE
  5
131
100
AcDbEntity
  8
0
  6
CONTINUOUS
 62
               7
100
AcDbLine
 10
-10.212286544578461
 20
-2.7499999071742423
 30
0.0
 11
-8.6245734922714803
 21
0.0000002349997885
 31
0.0
  0
LINE
  5
132
100
AcDbEntity
  8
0
  6
CONTINUOUS
 62
               7
100
AcDbLine
 10
-14.975426507728486
 20
-0.0000002349997885
 30
0.0
 11
-13.387713932258606
 21
2.7499990812680153
 31
0.0
  0
LINE
  5
133
100
AcDbEntity
  8
0
  6
CONTINUOUS
 62
               7
100
AcDbLine
 10
-8.6245747950148086
 20
0.0000001140693939
 30
0.0
 11
-10.212287370484688
 21
2.7499994303371977
 31
0.0
  0
LINE
  5
134
100
AcDbEntity
  8
0
  6
CONTINUOUS
 62
               7
100
AcDbLine
 10
-13.387713932258606
 20
-2.7499990812680153
 30
0.0
 11
-14.975426030891384
 21
-0.0000005909064384
 31
0.0
  0
LINE
  5
135
100
AcDbEntity
  8
0
  6
CONTINUOUS
 62
               7
100
AcDbLine
 10
-13.387713241577131
 20
2.75
 30
0.0
 11
-10.212286758422835
 21
2.75
 31
0.0
  0
LINE
  5
136
100
AcDbEntity
  8
0
  6
CONTINUOUS
 62
               7
100
AcDbLine
 10
-13.387713241577131
 20
-2.75
 30
0.0
 11
-10.212286758422835
 21
-2.75
 31
0.0
  0
LINE
  5
137
100
AcDbEntity
  8
0
  6
CONTINUOUS
 62
               7
100
AcDbLine
 10
-12.0
 20
7.5
 30
0.0
 11
-12.0
 21
9.5
 31
0.0
  0
LINE
  5
138
100
AcDbEntity
  8
0
  6
CONTINUOUS
 62
               7
100
AcDbLine
 10
-8.1999999999999886
 20
7.5
 30
0.0
 11
-14.0
 21
7.5
 31
0.0
  0
LINE
  5
139
100
AcDbEntity
  8
0
  6
CONTINUOUS
 62
               7
100
AcDbLine
 10
-8.1999999999999886
 20
-7.5
 30
0.0
 11
-14.0
 21
-7.5
 31
0.0
  0
LINE
  5
13A
100
AcDbEntity
  8
0
  6
CONTINUOUS
 62
               7
100
AcDbLine
 10
-14.0
 20
-7.5
 30
0.0
 11
-14.0
 21
-1.6894883227947162
 31
0.0
  0
LINE
  5
13B
100
AcDbEntity
  8
0
  6
CONTINUOUS
 62
               7
100
AcDbLine
 10
-0.1999999999999886
 20
-9.0
 30
0.0
 11
-7.5
 21
-9.0
 31
0.0
  0
LINE
  5
13C
100
AcDbEntity
  8
0
  6
CONTINUOUS
 62
               7
100
AcDbLine
 10
-0.1999999999999886
 20
9.0
 30
0.0
 11
-7.5
 21
9.0
 31
0.0
  0
LINE
  5
13D
100
AcDbEntity
  8
0
  6
CONTINUOUS
 62
               7
100
AcDbLine
 10
-0.1999999999999886
 20
9.0
 30
0.0
 11
-0.1999999999999886
 21
-9.0
 31
0.0
  0
LINE
  5
13E
100
AcDbEntity
  8
0
  6
CENTER
 62
               2
100
AcDbLine
 10
-4.5
 20
-4.2256049280439925
 30
0.0
 11
-4.5
 21
4.2179977347735758
 31
0.0
  0
ARC
  5
13F
100
AcDbEntity
  8
0
  6
CONTINUOUS
 62
               7
100
AcDbCircle
 10
-4.5
 20
0.0
 30
0.0
 40
3.0
100
AcDbArc
 50
6.4435356908987282
 51
53.556464309101131
  0
ARC
  5
140
100
AcDbEntity
  8
0
  6
CONTINUOUS
 62
               7
100
AcDbCircle
 10
-4.5
 20
0.0
 30
0.0
 40
3.0
100
AcDbArc
 50
306.44353569089873
 51
353.5564643091011
  0
ARC
  5
141
100
AcDbEntity
  8
0
  6
CONTINUOUS
 62
               7
100
AcDbCircle
 10
-4.5
 20
0.0
 30
0.0
 40
3.0
100
AcDbArc
 50
246.4435356908987
 51
293.5564643091011
  0
LINE
  5
142
100
AcDbEntity
  8
0
  6
CONTINUOUS
 62
               7
100
AcDbLine
 10
-6.2320508075688679
 20
3.0
 30
0.0
 11
-2.7679491924311321
 21
3.0
 31
0.0
  0
LINE
  5
143
100
AcDbEntity
  8
0
  6
CONTINUOUS
 62
               7
100
AcDbLine
 10
-2.7679491924311321
 20
-3.0
 30
0.0
 11
-6.2320508075688679
 21
-3.0
 31
0.0
  0
ARC
  5
144
100
AcDbEntity
  8
0
  6
CONTINUOUS
 62
               7
100
AcDbCircle
 10
-4.5
 20
0.0
 30
0.0
 40
3.0
100
AcDbArc
 50
66.443535690898813
 51
113.55646430910122
  0
CIRCLE
  5
145
100
AcDbEntity
  8
0
  6
CONTINUOUS
 62
               2
100
AcDbCircle
 10
-4.5
 20
0.0
 30
0.0
 40
1.2294998168945739
  0
CIRCLE
  5
146
100
AcDbEntity
  8
0
  6
CONTINUOUS
 62
               7
100
AcDbCircle
 10
-4.5
 20
0.0
 30
0.0
 40
1.5
  0
LINE
  5
147
100
AcDbEntity
  8
0
  6
CONTINUOUS
 62
               7
100
AcDbLine
 10
-6.0877132402714551
 20
2.75
 30
0.0
 11
-2.9122867597285165
 21
2.75
 31
0.0
  0
LINE
  5
148
100
AcDbEntity
  8
0
  6
CONTINUOUS
 62
               7
100
AcDbLine
 10
-2.9122867597285449
 20
-2.75
 30
0.0
 11
-6.0877132402714835
 21
-2.75
 31
0.0
  0
CIRCLE
  5
149
100
AcDbEntity
  8
0
  6
CONTINUOUS
 62
               7
100
AcDbCircle
 10
-4.5
 20
0.0
 30
0.0
 40
2.75
  0
LINE
  5
14A
100
AcDbEntity
  8
0
  6
CONTINUOUS
 62
               7
100
AcDbLine
 10
-6.0877132402714835
 20
-2.75
 30
0.0
 11
-7.6754264805429386
 21
0.0
 31
0.0
  0
LINE
  5
14B
100
AcDbEntity
  8
0
  6
CONTINUOUS
 62
               7
100
AcDbLine
 10
-1.3245735194570614
 20
0.0
 30
0.0
 11
-2.9122867597285449
 21
-2.75
 31
0.0
  0
LINE
  5
14C
100
AcDbEntity
  8
0
  6
CONTINUOUS
 62
               7
100
AcDbLine
 10
-2.9122867597285165
 20
2.75
 30
0.0
 11
-1.3245735194570614
 21
0.0
 31
0.0
  0
LINE
  5
14D
100
AcDbEntity
  8
0
  6
CONTINUOUS
 62
               7
100
AcDbLine
 10
-7.6754264805429386
 20
0.0
 30
0.0
 11
-6.0877132402714551
 21
2.75
 31
0.0
  0
LINE
  5
14E
100
AcDbEntity
  8
0
  6
CONTINUOUS
 62
               7
100
AcDbLine
 10
-7.9641016151377642
 20
0.0
 30
0.0
 11
-6.2320508075688679
 21
3.0
 31
0.0
  0
LINE
  5
14F
100
AcDbEntity
  8
0
  6
CONTINUOUS
 62
               7
100
AcDbLine
 10
-6.2320508075688963
 20
-3.0
 30
0.0
 11
-7.9641016151377642
 21
0.0
 31
0.0
  0
LINE
  5
150
100
AcDbEntity
  8
0
  6
CONTINUOUS
 62
               7
100
AcDbLine
 10
-1.0358983848622358
 20
0.0
 30
0.0
 11
-2.7679491924311321
 21
-3.0
 31
0.0
  0
LINE
  5
151
100
AcDbEntity
  8
0
  6
CONTINUOUS
 62
               7
100
AcDbLine
 10
-2.7679491924311321
 20
3.0
 30
0.0
 11
-1.0358983848622358
 21
0.0
 31
0.0
  0
ARC
  5
152
100
AcDbEntity
  8
0
  6
CONTINUOUS
 62
               7
100
AcDbCircle
 10
-4.5
 20
0.0
 30
0.0
 40
3.0
100
AcDbArc
 50
126.4435356908988
 51
173.55646430910119
  0
ARC
  5
153
100
AcDbEntity
  8
0
  6
CONTINUOUS
 62
               7
100
AcDbCircle
 10
-4.5
 20
0.0
 30
0.0
 40
3.0
100
AcDbArc
 50
186.44353569089878
 51
233.55646430910116
  0
LINE
  5
154
100
AcDbEntity
  8
0
  6
CONTINUOUS
 62
               7
100
AcDbLine
 10
-0.8000000000000114
 20
9.5
 30
0.0
 11
-0.8000000000000114
 21
10.0
 31
0.0
  0
LINE
  5
155
100
AcDbEntity
  8
0
  6
CONTINUOUS
 62
               7
100
AcDbLine
 10
-0.8000000000000114
 20
-10.0
 30
0.0
 11
-0.8000000000000114
 21
-9.5
 31
0.0
  0
LINE
  5
156
100
AcDbEntity
  8
0
  6
CONTINUOUS
 62
               7
100
AcDbLine
 10
-8.1999999999999886
 20
7.5
 30
0.0
 11
-8.1999999999999886
 21
4.2000000000000455
 31
0.0
  0
LINE
  5
157
100
AcDbEntity
  8
0
  6
CONTINUOUS
 62
               7
100
AcDbLine
 10
-8.1999999999999886
 20
-7.5
 30
0.0
 11
-8.1999999999999886
 21
-4.1999999999999886
 31
0.0
  0
LINE
  5
158
100
AcDbEntity
  8
0
  6
CONTINUOUS
 62
               7
100
AcDbLine
 10
-8.0
 20
10.0
 30
0.0
 11
-8.0
 21
4.2000000000000455
 31
0.0
  0
LINE
  5
159
100
AcDbEntity
  8
0
  6
CONTINUOUS
 62
               7
100
AcDbLine
 10
-7.5
 20
9.5
 30
0.0
 11
-7.5
 21
4.2000000000000455
 31
0.0
  0
LINE
  5
15A
100
AcDbEntity
  8
0
  6
CONTINUOUS
 62
               7
100
AcDbLine
 10
-11.499999999999943
 20
10.0
 30
0.0
 11
-0.8000000000000114
 21
10.0
 31
0.0
  0
LINE
  5
15B
100
AcDbEntity
  8
0
  6
CONTINUOUS
 62
               7
100
AcDbLine
 10
-7.5
 20
9.5
 30
0.0
 11
0.0
 21
9.5
 31
0.0
  0
LINE
  5
15C
100
AcDbEntity
  8
0
  6
CONTINUOUS
 62
               7
100
AcDbLine
 10
-11.500000000000085
 20
-10.0
 30
0.0
 11
-0.8000000000000114
 21
-10.0
 31
0.0
  0
LINE
  5
15D
100
AcDbEntity
  8
0
  6
CONTINUOUS
 62
               7
100
AcDbLine
 10
-7.5
 20
-9.5
 30
0.0
 11
0.0
 21
-9.5
 31
0.0
  0
LINE
  5
15E
100
AcDbEntity
  8
0
  6
CONTINUOUS
 62
               7
100
AcDbLine
 10
-8.0
 20
-10.0
 30
0.0
 11
-8.0
 21
-4.1999999999999886
 31
0.0
  0
LINE
  5
15F
100
AcDbEntity
  8
0
  6
CONTINUOUS
 62
               7
100
AcDbLine
 10
-12.0
 20
-9.5
 30
0.0
 11
-12.0
 21
-7.5
 31
0.0
  0
LINE
  5
160
100
AcDbEntity
  8
0
  6
CONTINUOUS
 62
               7
100
AcDbLine
 10
-7.5
 20
-9.5
 30
0.0
 11
-7.5
 21
-4.1999999999999886
 31
0.0
  0
LINE
  5
161
100
AcDbEntity
  8
0
  6
CONTINUOUS
 62
               7
100
AcDbLine
 10
0.0
 20
9.499999992019184
 30
0.0
 11
0.0
 21
2.7000000000000455
 31
0.0
  0
LINE
  5
162
100
AcDbEntity
  8
0
  6
CONTINUOUS
 62
               7
100
AcDbLine
 10
-12.0
 20
9.5
 30
0.0
 11
-11.499999999999943
 21
10.0
 31
0.0
  0
LINE
  5
163
100
AcDbEntity
  8
0
  6
CONTINUOUS
 62
               7
100
AcDbLine
 10
-12.0
 20
-9.5
 30
0.0
 11
-11.500000000000085
 21
-10.0
 31
0.0
  0
LINE
  5
164
100
AcDbEntity
  8
0
  6
CONTINUOUS
 62
               7
100
AcDbLine
 10
0.0
 20
-2.6999999999999886
 30
0.0
 11
0.0
 21
-9.5
 31
0.0
  0
CIRCLE
  5
165
100
AcDbEntity
  8
0
  6
CONTINUOUS
 62
               7
100
AcDbCircle
 10
-9.5
 20
5.5
 30
0.0
 40
1.0
  0
LINE
  5
166
100
AcDbEntity
  8
0
  6
CONTINUOUS
 62
               7
100
AcDbLine
 10
-8.9343145750507347
 20
6.0656854249492653
 30
0.0
 11
-10.065685424949237
 21
4.9343145750507915
 31
0.0
  0
LINE
  5
167
100
AcDbEntity
  8
0
  6
CONTINUOUS
 62
               7
100
AcDbLine
 10
-8.9343145750507347
 20
4.9343145750507915
 30
0.0
 11
-10.065685424949237
 21
6.0656854249492653
 31
0.0
  0
CIRCLE
  5
168
100
AcDbEntity
  8
0
  6
CONTINUOUS
 62
               7
100
AcDbCircle
 10
-9.5
 20
-5.5
 30
0.0
 40
1.0
  0
LINE
  5
169
100
AcDbEntity
  8
0
  6
CONTINUOUS
 62
               7
100
AcDbLine
 10
-8.9343145750507631
 20
-4.9343145750507347
 30
0.0
 11
-10.065685424949237
 21
-6.0656854249492085
 31
0.0
  0
LINE
  5
16A
100
AcDbEntity
  8
0
  6
CONTINUOUS
 62
               7
100
AcDbLine
 10
-8.9343145750507631
 20
-6.0656854249492085
 30
0.0
 11
-10.065685424949237
 21
-4.9343145750507347
 31
0.0
  0
LINE
  5
16B
100
AcDbEntity
  8
0
  6
CONTINUOUS
 62
               7
100
AcDbLine
 10
-0.2000000000000171
 20
-2.5
 30
0.0
 11
0.0
 21
-2.6999999999999886
 31
0.0
  0
LINE
  5
16C
100
AcDbEntity
  8
0
  6
CONTINUOUS
 62
               7
100
AcDbLine
 10
-0.1999999999999886
 20
2.5000000000000568
 30
0.0
 11
0.0
 21
2.7000000000000455
 31
0.0
  0
LINE
  5
16D
100
AcDbEntity
  8
0
  6
CONTINUOUS
 62
               2
100
AcDbLine
 10
-2.0
 20
7.0
 30
0.0
 11
2.0
 21
7.0
 31
0.0
  0
LINE
  5
16E
100
AcDbEntity
  8
0
  6
CONTINUOUS
 62
               2
100
AcDbLine
 10
2.0
 20
-7.0
 30
0.0
 11
-2.0
 21
-7.0
 31
0.0
  0
ENDBLK
  5
16F
100
AcDbEntity
  8
0
100
AcDbBlockEnd
  0
BLOCK
  5
170
100
AcDbEntity
  8
0
100
AcDbBlockBegin
  2
MGAEG6-4
 70
               0
 10
0.0
 20
0.0
 30
0.0
  3
MGAEG6-4
  1

  0
LINE
  5
171
100
AcDbEntity
  8
0
  6
CONTINUOUS
 62
               2
100
AcDbLine
 10
7.4499684303145557
 20
-4.5
 30
0.0
 11
20.15910319106348
 21
-4.5
 31
0.0
  0
LINE
  5
172
100
AcDbEntity
  8
0
  6
CONTINUOUS
 62
               7
100
AcDbLine
 10
0.0
 20
-11.299999999999997
 30
0.0
 11
15.0
 21
-11.299999999999997
 31
0.0
  0
LINE
  5
173
100
AcDbEntity
  8
0
  6
CONTINUOUS
 62
               7
100
AcDbLine
 10
0.0
 20
-11.799999999999997
 30
0.0
 11
14.999999975856099
 21
-11.799999999999997
 31
0.0
  0
LINE
  5
174
100
AcDbEntity
  8
0
  6
CONTINUOUS
 62
               7
100
AcDbLine
 10
11.300000000000125
 20
-6.5
 30
0.0
 11
15.500000000000114
 21
-6.5
 31
0.0
  0
LINE
  5
175
100
AcDbEntity
  8
0
  6
CONTINUOUS
 62
               7
100
AcDbLine
 10
11.300000000000125
 20
-2.5
 30
0.0
 11
15.500000000000114
 21
-2.5
 31
0.0
  0
LINE
  5
176
100
AcDbEntity
  8
0
  6
PHANTOM
 62
               2
100
AcDbLine
 10
9.9500000000000739
 20
-1.5
 30
0.0
 11
16.650000000000091
 21
-1.5
 31
0.0
  0
LINE
  5
177
100
AcDbEntity
  8
0
  6
PHANTOM
 62
               2
100
AcDbLine
 10
9.9500000000000739
 20
-1.7999999999999972
 30
0.0
 11
16.650000000000091
 21
-1.7999999999999972
 31
0.0
  0
LINE
  5
178
100
AcDbEntity
  8
0
  6
CONTINUOUS
 62
               7
100
AcDbLine
 10
9.0
 20
-7.0
 30
0.0
 11
16.800000000000068
 21
-7.0
 31
0.0
  0
LINE
  5
179
100
AcDbEntity
  8
0
  6
CONTINUOUS
 62
               7
100
AcDbLine
 10
0.0
 20
-0.7999999999999972
 30
0.0
 11
9.8000000000000682
 21
-0.7999999999999972
 31
0.0
  0
LINE
  5
17A
100
AcDbEntity
  8
0
  6
CONTINUOUS
 62
               7
100
AcDbLine
 10
9.0
 20
-7.0
 30
0.0
 11
9.0
 21
-0.7999999999999972
 31
0.0
  0
LINE
  5
17B
100
AcDbEntity
  8
0
  6
CONTINUOUS
 62
               7
100
AcDbLine
 10
0.0
 20
-11.799999999999997
 30
0.0
 11
0.0
 21
-0.7999999999999972
 31
0.0
  0
LINE
  5
17C
100
AcDbEntity
  8
0
  6
CONTINUOUS
 62
               7
100
AcDbLine
 10
11.300000000000125
 20
-7.0
 30
0.0
 11
11.300000000000125
 21
-2.0
 31
0.0
  0
LINE
  5
17D
100
AcDbEntity
  8
0
  6
CONTINUOUS
 62
               7
100
AcDbLine
 10
9.8000000000000682
 20
-0.7999999999999972
 30
0.0
 11
9.8000000000000682
 21
-7.0
 31
0.0
  0
LINE
  5
17E
100
AcDbEntity
  8
0
  6
CONTINUOUS
 62
               7
100
AcDbLine
 10
11.300000000000125
 20
-2.0
 30
0.0
 11
9.8000000000000682
 21
-2.0
 31
0.0
  0
CIRCLE
  5
17F
100
AcDbEntity
  8
0
  6
CONTINUOUS
 62
               7
100
AcDbCircle
 10
9.9500000000000739
 20
-1.6500000000000057
 30
0.0
 40
0.15
  0
LINE
  5
180
100
AcDbEntity
  8
0
  6
CONTINUOUS
 62
               2
100
AcDbLine
 10
17.500000000000057
 20
-3.2000000000000028
 30
0.0
 11
17.846410161513859
 21
-3.0
 31
0.0
  0
LINE
  5
181
100
AcDbEntity
  8
0
  6
CONTINUOUS
 62
               2
100
AcDbLine
 10
17.5
 20
-5.7999999999999972
 30
0.0
 11
17.846410161513802
 21
-6.0
 31
0.0
  0
LINE
  5
182
100
AcDbEntity
  8
0
  6
CONTINUOUS
 62
               2
100
AcDbLine
 10
16.800000000000068
 20
-5.7000000000000028
 30
0.0
 11
17.300000000000068
 21
-3.2999999999999972
 31
0.0
  0
LINE
  5
183
100
AcDbEntity
  8
0
  6
CONTINUOUS
 62
               2
100
AcDbLine
 10
17.300000000000068
 20
-5.7000000000000028
 30
0.0
 11
16.800000000000068
 21
-3.2999999999999972
 31
0.0
  0
LINE
  5
184
100
AcDbEntity
  8
0
  6
CONTINUOUS
 62
               7
100
AcDbLine
 10
16.800000000000068
 20
-3.2999999999999972
 30
0.0
 11
17.300000000000068
 21
-3.2999999999999972
 31
0.0
  0
LINE
  5
185
100
AcDbEntity
  8
0
  6
CONTINUOUS
 62
               7
100
AcDbLine
 10
16.800000000000068
 20
-5.7000000000000028
 30
0.0
 11
17.300000000000068
 21
-5.7000000000000028
 31
0.0
  0
LINE
  5
186
100
AcDbEntity
  8
0
  6
CONTINUOUS
 62
               7
100
AcDbLine
 10
17.300000000000068
 20
-1.2999999999999972
 30
0.0
 11
17.500000000000057
 21
-1.2999999999999972
 31
0.0
  0
LINE
  5
187
100
AcDbEntity
  8
0
  6
CONTINUOUS
 62
               7
100
AcDbLine
 10
17.300000000000068
 20
-7.7000000000000028
 30
0.0
 11
17.500000000000057
 21
-7.7000000000000028
 31
0.0
  0
LINE
  5
188
100
AcDbEntity
  8
0
  6
CONTINUOUS
 62
               7
100
AcDbLine
 10
17.300000000000068
 20
-0.7999999999999972
 30
0.0
 11
17.300000000000068
 21
-8.0
 31
0.0
  0
LINE
  5
189
100
AcDbEntity
  8
0
  6
CONTINUOUS
 62
               7
100
AcDbLine
 10
16.800000000000068
 20
-0.7999999999999972
 30
0.0
 11
17.300000000000068
 21
-0.7999999999999972
 31
0.0
  0
LINE
  5
18A
100
AcDbEntity
  8
0
  6
CONTINUOUS
 62
               7
100
AcDbLine
 10
16.800000000000068
 20
-8.0
 30
0.0
 11
16.800000000000068
 21
-0.7999999999999972
 31
0.0
  0
LINE
  5
18B
100
AcDbEntity
  8
0
  6
CONTINUOUS
 62
               7
100
AcDbLine
 10
15.500000000000114
 20
-7.0
 30
0.0
 11
15.500000000000114
 21
-2.0
 31
0.0
  0
LINE
  5
18C
100
AcDbEntity
  8
0
  6
CONTINUOUS
 62
               7
100
AcDbLine
 10
15.500000000000114
 20
-2.0
 30
0.0
 11
16.800000000000068
 21
-2.0
 31
0.0
  0
LINE
  5
18D
100
AcDbEntity
  8
0
  6
CONTINUOUS
 62
               7
100
AcDbLine
 10
17.500000000000057
 20
-1.2999999999999972
 30
0.0
 11
17.500000000000057
 21
-7.7000000000000028
 31
0.0
  0
CIRCLE
  5
18E
100
AcDbEntity
  8
0
  6
CONTINUOUS
 62
               7
100
AcDbCircle
 10
16.650000000000091
 20
-7.3499999999999943
 30
0.0
 40
0.15
  0
CIRCLE
  5
18F
100
AcDbEntity
  8
0
  6
CONTINUOUS
 62
               7
100
AcDbCircle
 10
16.650000000000091
 20
-1.6500000000000057
 30
0.0
 40
0.15
  0
LINE
  5
190
100
AcDbEntity
  8
0
  6
CONTINUOUS
 62
               7
100
AcDbLine
 10
15.999999975856099
 20
-7.0
 30
0.0
 11
15.999999975856099
 21
-8.0
 31
0.0
  0
LINE
  5
191
100
AcDbEntity
  8
0
  6
PHANTOM
 62
               2
100
AcDbLine
 10
15.999999975856099
 20
-7.2000000000000028
 30
0.0
 11
16.650000000000091
 21
-7.2000000000000028
 31
0.0
  0
LINE
  5
192
100
AcDbEntity
  8
0
  6
PHANTOM
 62
               2
100
AcDbLine
 10
15.999999975856099
 20
-7.5
 30
0.0
 11
16.650000000000091
 21
-7.5
 31
0.0
  0
LINE
  5
193
100
AcDbEntity
  8
0
  6
CONTINUOUS
 62
               7
100
AcDbLine
 10
17.5
 20
-6.0
 30
0.0
 11
19.0
 21
-6.0
 31
0.0
  0
LINE
  5
194
100
AcDbEntity
  8
0
  6
CONTINUOUS
 62
               7
100
AcDbLine
 10
17.5
 20
-3.0
 30
0.0
 11
19.0
 21
-3.0
 31
0.0
  0
LINE
  5
195
100
AcDbEntity
  8
0
  6
CONTINUOUS
 62
               7
100
AcDbLine
 10
19.0
 20
0.0
 30
0.0
 11
54.000000000000014
 21
0.0
 31
0.0
  0
LINE
  5
196
100
AcDbEntity
  8
0
  6
CONTINUOUS
 62
               7
100
AcDbLine
 10
15.0
 20
-12.0
 30
0.0
 11
54.000000000000014
 21
-12.0
 31
0.0
  0
LINE
  5
197
100
AcDbEntity
  8
0
  6
CONTINUOUS
 62
               7
100
AcDbLine
 10
54.000000000000014
 20
0.0
 30
0.0
 11
54.000000000000014
 21
-12.0
 31
0.0
  0
LINE
  5
198
100
AcDbEntity
  8
0
  6
CONTINUOUS
 62
               7
100
AcDbLine
 10
19.0
 20
0.0
 30
0.0
 11
19.0
 21
-8.0
 31
0.0
  0
LINE
  5
199
100
AcDbEntity
  8
0
  6
CONTINUOUS
 62
               7
100
AcDbLine
 10
14.999999975856099
 20
-8.0
 30
0.0
 11
54.000000000000014
 21
-8.0
 31
0.0
  0
LINE
  5
19A
100
AcDbEntity
  8
0
  6
CONTINUOUS
 62
               7
100
AcDbLine
 10
14.999999975856099
 20
-8.0
 30
0.0
 11
14.999999975856099
 21
-11.99999998630939
 31
0.0
  0
CIRCLE
  5
19B
100
AcDbEntity
  8
0
  6
CONTINUOUS
 62
               7
100
AcDbCircle
 10
51.000000000000014
 20
-3.1999999999999886
 30
0.0
 40
0.8
  0
CIRCLE
  5
19C
100
AcDbEntity
  8
0
  6
CONTINUOUS
 62
               2
100
AcDbCircle
 10
51.000000000000014
 20
-3.1999999999999886
 30
0.0
 40
1.0
  0
LINE
  5
19D
100
AcDbEntity
  8
0
  6
CONTINUOUS
 62
               2
100
AcDbLine
 10
49.000000000000014
 20
-3.1999999999999886
 30
0.0
 11
53.000000000000014
 21
-3.1999999999999886
 31
0.0
  0
LINE
  5
19E
100
AcDbEntity
  8
0
  6
CONTINUOUS
 62
               2
100
AcDbLine
 10
51.000000000000014
 20
-1.1999999999999886
 30
0.0
 11
51.000000000000014
 21
-5.1999999999999886
 31
0.0
  0
CIRCLE
  5
19F
100
AcDbEntity
  8
0
  6
CONTINUOUS
 62
               7
100
AcDbCircle
 10
49.000000000000014
 20
-9.9000000000000057
 30
0.0
 40
0.8
  0
CIRCLE
  5
1A0
100
AcDbEntity
  8
0
  6
CONTINUOUS
 62
               2
100
AcDbCircle
 10
49.000000000000014
 20
-9.9000000000000057
 30
0.0
 40
1.0
  0
LINE
  5
1A1
100
AcDbEntity
  8
0
  6
CONTINUOUS
 62
               2
100
AcDbLine
 10
47.000000000000014
 20
-9.9000000000000057
 30
0.0
 11
51.000000000000014
 21
-9.9000000000000057
 31
0.0
  0
LINE
  5
1A2
100
AcDbEntity
  8
0
  6
CONTINUOUS
 62
               2
100
AcDbLine
 10
49.000000000000014
 20
-7.9000000000000057
 30
0.0
 11
49.000000000000014
 21
-11.900000000000006
 31
0.0
  0
CIRCLE
  5
1A3
100
AcDbEntity
  8
0
  6
CONTINUOUS
 62
               7
100
AcDbCircle
 10
35.0
 20
-9.9000000000000057
 30
0.0
 40
0.8
  0
CIRCLE
  5
1A4
100
AcDbEntity
  8
0
  6
CONTINUOUS
 62
               2
100
AcDbCircle
 10
35.0
 20
-9.9000000000000057
 30
0.0
 40
1.0
  0
LINE
  5
1A5
100
AcDbEntity
  8
0
  6
CONTINUOUS
 62
               2
100
AcDbLine
 10
33.0
 20
-9.9000000000000057
 30
0.0
 11
37.0
 21
-9.9000000000000057
 31
0.0
  0
LINE
  5
1A6
100
AcDbEntity
  8
0
  6
CONTINUOUS
 62
               2
100
AcDbLine
 10
35.0
 20
-7.9000000000000057
 30
0.0
 11
35.0
 21
-11.900000000000006
 31
0.0
  0
CIRCLE
  5
1A7
100
AcDbEntity
  8
0
  6
CONTINUOUS
 62
               7
100
AcDbCircle
 10
22.0
 20
-3.1999999999999886
 30
0.0
 40
0.8
  0
CIRCLE
  5
1A8
100
AcDbEntity
  8
0
  6
CONTINUOUS
 62
               2
100
AcDbCircle
 10
22.0
 20
-3.1999999999999886
 30
0.0
 40
1.0
  0
LINE
  5
1A9
100
AcDbEntity
  8
0
  6
CONTINUOUS
 62
               2
100
AcDbLine
 10
20.0
 20
-3.1999999999999886
 30
0.0
 11
24.0
 21
-3.1999999999999886
 31
0.0
  0
LINE
  5
1AA
100
AcDbEntity
  8
0
  6
CONTINUOUS
 62
               2
100
AcDbLine
 10
22.0
 20
-1.1999999999999886
 30
0.0
 11
22.0
 21
-5.1999999999999886
 31
0.0
  0
CIRCLE
  5
1AB
100
AcDbEntity
  8
0
  6
CONTINUOUS
 62
               7
100
AcDbCircle
 10
31.0
 20
-4.5
 30
0.0
 40
1.2
  0
LINE
  5
1AC
100
AcDbEntity
  8
0
  6
CONTINUOUS
 62
               2
100
AcDbLine
 10
28.5
 20
-4.5
 30
0.0
 11
33.5
 21
-4.5
 31
0.0
  0
CIRCLE
  5
1AD
100
AcDbEntity
  8
0
  6
CONTINUOUS
 62
               2
100
AcDbCircle
 10
31.0
 20
-4.5
 30
0.0
 40
1.5
  0
LINE
  5
1AE
100
AcDbEntity
  8
0
  6
CONTINUOUS
 62
               2
100
AcDbLine
 10
31.0
 20
-2.0
 30
0.0
 11
31.0
 21
-7.0
 31
0.0
  0
CIRCLE
  5
1AF
100
AcDbEntity
  8
0
  6
CONTINUOUS
 62
               7
100
AcDbCircle
 10
46.999999999999986
 20
-4.5
 30
0.0
 40
1.2
  0
LINE
  5
1B0
100
AcDbEntity
  8
0
  6
CONTINUOUS
 62
               2
100
AcDbLine
 10
44.499999999999986
 20
-4.5
 30
0.0
 11
49.499999999999957
 21
-4.5
 31
0.0
  0
CIRCLE
  5
1B1
100
AcDbEntity
  8
0
  6
CONTINUOUS
 62
               2
100
AcDbCircle
 10
46.999999999999986
 20
-4.5
 30
0.0
 40
1.5
  0
LINE
  5
1B2
100
AcDbEntity
  8
0
  6
CONTINUOUS
 62
               2
100
AcDbLine
 10
46.999999999999986
 20
-2.0
 30
0.0
 11
46.999999999999986
 21
-7.0
 31
0.0
  0
LINE
  5
1B3
100
AcDbEntity
  8
0
  6
CONTINUOUS
 62
               7
100
AcDbLine
 10
18.999999975856099
 20
-7.5
 30
0.0
 11
54.000000000000014
 21
-7.5
 31
0.0
  0
LINE
  5
1B4
100
AcDbEntity
  8
0
  6
CONTINUOUS
 62
               7
100
AcDbLine
 10
28.5
 20
-7.5000000136906095
 30
0.0
 11
28.5
 21
-5.0
 31
0.0
  0
LINE
  5
1B5
100
AcDbEntity
  8
0
  6
CONTINUOUS
 62
               7
100
AcDbLine
 10
23.5
 20
-7.5000000136906095
 30
0.0
 11
23.5
 21
-5.0
 31
0.0
  0
LINE
  5
1B6
100
AcDbEntity
  8
0
  6
CONTINUOUS
 62
               7
100
AcDbLine
 10
23.5
 20
-5.0
 30
0.0
 11
28.5
 21
-5.0
 31
0.0
  0
LINE
  5
1B7
100
AcDbEntity
  8
0
  6
CONTINUOUS
 62
               7
100
AcDbLine
 10
44.500000000000014
 20
-7.5000000136906095
 30
0.0
 11
44.500000000000014
 21
-5.0
 31
0.0
  0
LINE
  5
1B8
100
AcDbEntity
  8
0
  6
CONTINUOUS
 62
               7
100
AcDbLine
 10
39.500000000000014
 20
-7.5000000136906095
 30
0.0
 11
39.500000000000014
 21
-5.0
 31
0.0
  0
LINE
  5
1B9
100
AcDbEntity
  8
0
  6
CONTINUOUS
 62
               7
100
AcDbLine
 10
39.500000000000014
 20
-5.0
 30
0.0
 11
44.500000000000014
 21
-5.0
 31
0.0
  0
LINE
  5
1BA
100
AcDbEntity
  8
0
  6
CONTINUOUS
 62
               7
100
AcDbLine
 10
15.0
 20
-11.5
 30
0.0
 11
54.000000000000014
 21
-11.5
 31
0.0
  0
LINE
  5
1BB
100
AcDbEntity
  8
0
  6
CONTINUOUS
 62
               7
100
AcDbLine
 10
61.0
 20
-14.975426483154251
 30
0.0
 11
61.0
 21
-0.1999999999999886
 31
0.0
  0
LINE
  5
1BC
100
AcDbEntity
  8
0
  6
CONTINUOUS
 62
               7
100
AcDbLine
 10
83.5
 20
-1.7500000644972147
 30
0.0
 11
83.745620130299358
 21
-1.3245735194570329
 31
0.0
  0
LINE
  5
1BD
100
AcDbEntity
  8
0
  6
CONTINUOUS
 62
               7
100
AcDbLine
 10
83.5
 20
-7.2499999355027285
 30
0.0
 11
83.745620130299358
 21
-7.6754264805429102
 31
0.0
  0
LINE
  5
1BE
100
AcDbEntity
  8
0
  6
CONTINUOUS
 62
               7
100
AcDbLine
 10
85.654379869700648
 20
-2.9122867597285449
 30
0.0
 11
83.745620130299358
 21
-2.9122867597285449
 31
0.0
  0
LINE
  5
1BF
100
AcDbEntity
  8
0
  6
CONTINUOUS
 62
               7
100
AcDbLine
 10
85.900000000000006
 20
-1.7500000644972147
 30
0.0
 11
85.654379869700648
 21
-1.3245735194570329
 31
0.0
  0
LINE
  5
1C0
100
AcDbEntity
  8
0
  6
CONTINUOUS
 62
               7
100
AcDbLine
 10
85.654379869700648
 20
-1.3245735194570329
 30
0.0
 11
83.71616083758957
 21
-1.3245735194570329
 31
0.0
  0
LINE
  5
1C1
100
AcDbEntity
  8
0
  6
CONTINUOUS
 62
               7
100
AcDbLine
 10
85.654379869700648
 20
-6.0877132402714551
 30
0.0
 11
83.745620130299358
 21
-6.0877132402714551
 31
0.0
  0
LINE
  5
1C2
100
AcDbEntity
  8
0
  6
CONTINUOUS
 62
               7
100
AcDbLine
 10
85.900000000000006
 20
-7.2499999355027285
 30
0.0
 11
85.654379869700648
 21
-7.6754264805429102
 31
0.0
  0
LINE
  5
1C3
100
AcDbEntity
  8
0
  6
CONTINUOUS
 62
               7
100
AcDbLine
 10
85.654379869700648
 20
-7.6754264805429102
 30
0.0
 11
83.71616083758957
 21
-7.6754264805429102
 31
0.0
  0
LINE
  5
1C4
100
AcDbEntity
  8
0
  6
CONTINUOUS
 62
               7
100
AcDbLine
 10
79.499999975856099
 20
-2.7679491924311037
 30
0.0
 11
83.035898384862236
 21
-2.7679491924311037
 31
0.0
  0
LINE
  5
1C5
100
AcDbEntity
  8
0
  6
CONTINUOUS
 62
               7
100
AcDbLine
 10
79.499999975856099
 20
-1.0358983848622074
 30
0.0
 11
83.035898384862236
 21
-1.0358983848622074
 31
0.0
  0
LINE
  5
1C6
100
AcDbEntity
  8
0
  6
CONTINUOUS
 62
               7
100
AcDbLine
 10
76.0
 20
-1.5999999999999659
 30
0.0
 11
79.5
 21
-1.5999999999999659
 31
0.0
  0
LINE
  5
1C7
100
AcDbEntity
  8
0
  6
CONTINUOUS
 62
               7
100
AcDbLine
 10
76.0
 20
-7.3999999999999773
 30
0.0
 11
79.5
 21
-7.3999999999999773
 31
0.0
  0
LINE
  5
1C8
100
AcDbEntity
  8
0
  6
CONTINUOUS
 62
               7
100
AcDbLine
 10
85.900000000000006
 20
-1.7500000644972147
 30
0.0
 11
85.900000000000006
 21
-7.2499999355027285
 31
0.0
  0
LINE
  5
1C9
100
AcDbEntity
  8
0
  6
CONTINUOUS
 62
               7
100
AcDbLine
 10
87.699999999999989
 20
-3.0
 30
0.0
 11
88.0
 21
-3.2999999999999545
 31
0.0
  0
LINE
  5
1CA
100
AcDbEntity
  8
0
  6
CONTINUOUS
 62
               7
100
AcDbLine
 10
87.699999999999989
 20
-6.0
 30
0.0
 11
88.0
 21
-5.6999999999999886
 31
0.0
  0
LINE
  5
1CB
100
AcDbEntity
  8
0
  6
CONTINUOUS
 62
               7
100
AcDbLine
 10
88.0
 20
-5.6999999999999886
 30
0.0
 11
88.0
 21
-3.2999999999999545
 31
0.0
  0
LINE
  5
1CC
100
AcDbEntity
  8
0
  6
CONTINUOUS
 62
               7
100
AcDbLine
 10
83.5
 20
-7.5
 30
0.0
 11
83.5
 21
-1.5
 31
0.0
  0
LINE
  5
1CD
100
AcDbEntity
  8
0
  6
CONTINUOUS
 62
               7
100
AcDbLine
 10
79.5
 20
-7.9641016151377357
 30
0.0
 11
79.5
 21
-1.0358983848622074
 31
0.0
  0
LINE
  5
1CE
100
AcDbEntity
  8
0
  6
CONTINUOUS
 62
               7
100
AcDbLine
 10
76.0
 20
-7.3999999999999773
 30
0.0
 11
76.0
 21
-1.5999999999999659
 31
0.0
  0
LINE
  5
1CF
100
AcDbEntity
  8
0
  6
CONTINUOUS
 62
               7
100
AcDbLine
 10
83.5
 20
-1.5
 30
0.0
 11
83.035898384862236
 21
-1.0358983848622074
 31
0.0
  0
LINE
  5
1D0
100
AcDbEntity
  8
0
  6
CONTINUOUS
 62
               7
100
AcDbLine
 10
83.5
 20
-7.5
 30
0.0
 11
83.035898384862236
 21
-7.9641016151377357
 31
0.0
  0
LINE
  5
1D1
100
AcDbEntity
  8
0
  6
CONTINUOUS
 62
               7
100
AcDbLine
 10
79.499999975856099
 20
-6.2320508075688394
 30
0.0
 11
83.035898384862236
 21
-6.2320508075688394
 31
0.0
  0
LINE
  5
1D2
100
AcDbEntity
  8
0
  6
CONTINUOUS
 62
               7
100
AcDbLine
 10
79.499999975856099
 20
-7.9641016151377357
 30
0.0
 11
83.035898384862236
 21
-7.9641016151377357
 31
0.0
  0
LINE
  5
1D3
100
AcDbEntity
  8
0
  6
CONTINUOUS
 62
               7
100
AcDbLine
 10
75.0
 20
-3.0
 30
0.0
 11
75.0
 21
-6.0
 31
0.0
  0
LINE
  5
1D4
100
AcDbEntity
  8
0
  6
CONTINUOUS
 62
               2
100
AcDbLine
 10
75.0
 20
-3.2705001831054119
 30
0.0
 11
76.0
 21
-3.2705001831054119
 31
0.0
  0
LINE
  5
1D5
100
AcDbEntity
  8
0
  6
CONTINUOUS
 62
               2
100
AcDbLine
 10
75.0
 20
-3.2705001831054119
 30
0.0
 11
74.531479939404733
 21
-3.0
 31
0.0
  0
LINE
  5
1D6
100
AcDbEntity
  8
0
  6
CONTINUOUS
 62
               2
100
AcDbLine
 10
75.0
 20
-5.7294998168944744
 30
0.0
 11
76.0
 21
-5.7294998168944744
 31
0.0
  0
LINE
  5
1D7
100
AcDbEntity
  8
0
  6
CONTINUOUS
 62
               2
100
AcDbLine
 10
75.0
 20
-5.7294998168945313
 30
0.0
 11
74.531479939404733
 21
-6.0
 31
0.0
  0
LINE
  5
1D8
100
AcDbEntity
  8
0
  6
CONTINUOUS
 62
               2
100
AcDbLine
 10
85.900000000000006
 20
-3.2705001831054119
 30
0.0
 11
87.970500199327887
 21
-3.2705001831054119
 31
0.0
  0
LINE
  5
1D9
100
AcDbEntity
  8
0
  6
CONTINUOUS
 62
               2
100
AcDbLine
 10
85.900000000000006
 20
-5.7294998168945313
 30
0.0
 11
87.970500199327887
 21
-5.7294998168945313
 31
0.0
  0
LINE
  5
1DA
100
AcDbEntity
  8
0
  6
CONTINUOUS
 62
               7
100
AcDbLine
 10
85.900000000000006
 20
-3.0
 30
0.0
 11
87.699999999999989
 21
-3.0
 31
0.0
  0
LINE
  5
1DB
100
AcDbEntity
  8
0
  6
CONTINUOUS
 62
               7
100
AcDbLine
 10
85.900000000000006
 20
-6.0
 30
0.0
 11
87.699999999999989
 21
-6.0
 31
0.0
  0
LINE
  5
1DC
100
AcDbEntity
  8
0
  6
CONTINUOUS
 62
               7
100
AcDbLine
 10
87.699999999999989
 20
-3.0
 30
0.0
 11
87.699999999999989
 21
-6.0
 31
0.0
  0
LINE
  5
1DD
100
AcDbEntity
  8
0
  6
CONTINUOUS
 62
               7
100
AcDbLine
 10
62.200000000000017
 20
-3.0
 30
0.0
 11
76.0
 21
-3.0
 31
0.0
  0
LINE
  5
1DE
100
AcDbEntity
  8
0
  6
CONTINUOUS
 62
               7
100
AcDbLine
 10
61.0
 20
-6.0
 30
0.0
 11
76.0
 21
-6.0
 31
0.0
  0
SPLINE
  5
1DF
100
AcDbEntity
  8
0
  6
CONTINUOUS
 62
               7
100
AcDbSpline
210
0.0
220
0.0
230
1.0
 70
               0
 71
               3
 72
               0
 73
               0
 74
               5
 44
0.000001
 12
-0.5262037598043649
 22
-0.8503585144912411
 32
0.0
 13
0.5262037598043636
 23
-0.8503585144912418
 33
0.0
 11
83.745620130299358
 21
-1.3245735194570329
 31
0.0
 11
83.568151576411083
 21
-1.7051479526635842
 31
0.0
 11
83.5
 21
-2.1184301395927605
 31
0.0
 11
83.568151576411083
 21
-2.5317123265219652
 31
0.0
 11
83.745620130299358
 21
-2.9122867597285449
 31
0.0
  0
SPLINE
  5
1E0
100
AcDbEntity
  8
0
  6
CONTINUOUS
 62
               7
100
AcDbSpline
210
0.0
220
0.0
230
1.0
 70
               0
 71
               3
 72
               0
 73
               0
 74
               5
 44
0.000001
 12
-0.2955767691118962
 22
0.9553189904745811
 32
0.0
 13
0.2955767691118969
 23
0.9553189904745809
 33
0.0
 11
83.745620130299358
 21
-6.0877132402714551
 31
0.0
 11
83.563450871741324
 21
-5.3037750028273152
 31
0.0
 11
83.5
 21
-4.5
 31
0.0
 11
83.563450871741324
 21
-3.6962249971726848
 31
0.0
 11
83.745620130299358
 21
-2.9122867597285449
 31
0.0
  0
SPLINE
  5
1E1
100
AcDbEntity
  8
0
  6
CONTINUOUS
 62
               7
100
AcDbSpline
210
0.0
220
0.0
230
1.0
 70
               0
 71
               3
 72
               0
 73
               0
 74
               5
 44
0.000001
 12
-0.5262037598043642
 22
0.8503585144912416
 32
0.0
 13
0.5262037598043635
 23
0.8503585144912419
 33
0.0
 11
83.745620130299358
 21
-7.6754264805429102
 31
0.0
 11
83.568151576411083
 21
-7.2948520473363585
 31
0.0
 11
83.5
 21
-6.8815698604071827
 31
0.0
 11
83.568151576411083
 21
-6.4682876734780059
 31
0.0
 11
83.745620130299358
 21
-6.0877132402714551
 31
0.0
  0
SPLINE
  5
1E2
100
AcDbEntity
  8
0
  6
CONTINUOUS
 62
               7
100
AcDbSpline
210
0.0
220
0.0
230
1.0
 70
               0
 71
               3
 72
               0
 73
               0
 74
               5
 44
0.000001
 12
0.2955767691118969
 22
0.9553189904745809
 32
0.0
 13
-0.2955767691118964
 23
0.955318990474581
 33
0.0
 11
85.654379869700648
 21
-6.0877132402714551
 31
0.0
 11
85.836549128258682
 21
-5.3037750028273152
 31
0.0
 11
85.900000000000006
 21
-4.5
 31
0.0
 11
85.836549128258682
 21
-3.6962249971726848
 31
0.0
 11
85.654379869700648
 21
-2.9122867597285449
 31
0.0
  0
SPLINE
  5
1E3
100
AcDbEntity
  8
0
  6
CONTINUOUS
 62
               7
100
AcDbSpline
210
0.0
220
0.0
230
1.0
 70
               0
 71
               3
 72
               0
 73
               0
 74
               5
 44
0.000001
 12
0.5262037598043643
 22
-0.8503585144912415
 32
0.0
 13
-0.5262037598043634
 23
-0.850358514491242
 33
0.0
 11
85.654379869700648
 21
-1.3245735194570329
 31
0.0
 11
85.831848423588923
 21
-1.7051479526635844
 31
0.0
 11
85.900000000000006
 21
-2.1184301395927605
 31
0.0
 11
85.831848423588923
 21
-2.5317123265219652
 31
0.0
 11
85.654379869700648
 21
-2.9122867597285453
 31
0.0
  0
SPLINE
  5
1E4
100
AcDbEntity
  8
0
  6
CONTINUOUS
 62
               7
100
AcDbSpline
210
0.0
220
0.0
230
1.0
 70
               0
 71
               3
 72
               0
 73
               0
 74
               5
 44
0.000001
 12
0.5262037598043649
 22
0.8503585144912411
 32
0.0
 13
-0.5262037598043637
 23
0.8503585144912418
 33
0.0
 11
85.654379869700648
 21
-7.6754264805429102
 31
0.0
 11
85.831848423588923
 21
-7.2948520473363585
 31
0.0
 11
85.900000000000006
 21
-6.8815698604071827
 31
0.0
 11
85.831848423588923
 21
-6.4682876734780068
 31
0.0
 11
85.654379869700648
 21
-6.0877132402714551
 31
0.0
  0
SPLINE
  5
1E5
100
AcDbEntity
  8
0
  6
CONTINUOUS
 62
               7
100
AcDbSpline
210
0.0
220
0.0
230
1.0
 70
               0
 71
               3
 72
               0
 73
               0
 74
               5
 44
0.000001
 12
0.7311721974753298
 22
-0.6821929475149222
 32
0.0
 13
-0.7311721974753295
 23
-0.6821929475149225
 33
0.0
 11
83.035898384862236
 21
-1.0358983848622074
 31
0.0
 11
83.357750187627744
 21
-1.4322095272863831
 31
0.0
 11
83.5
 21
-1.901923788646684
 31
0.0
 11
83.357750187627744
 21
-2.3716380500069563
 31
0.0
 11
83.035898384862236
 21
-2.7679491924311037
 31
0.0
  0
SPLINE
  5
1E6
100
AcDbEntity
  8
0
  6
CONTINUOUS
 62
               7
100
AcDbSpline
210
0.0
220
0.0
230
1.0
 70
               0
 71
               3
 72
               0
 73
               0
 74
               5
 44
0.000001
 12
0.7311721974753298
 22
0.6821929475149222
 32
0.0
 13
-0.7311721974753295
 23
0.6821929475149225
 33
0.0
 11
83.035898384862236
 21
-7.9641016151377357
 31
0.0
 11
83.357750187627744
 21
-7.5677904727135887
 31
0.0
 11
83.5
 21
-7.098076211353316
 31
0.0
 11
83.357750187627744
 21
-6.6283619499930149
 31
0.0
 11
83.035898384862236
 21
-6.2320508075688394
 31
0.0
  0
SPLINE
  5
1E7
100
AcDbEntity
  8
0
  6
CONTINUOUS
 62
               7
100
AcDbSpline
210
0.0
220
0.0
230
1.0
 70
               0
 71
               3
 72
               0
 73
               0
 74
               5
 44
0.000001
 12
0.4723474904831554
 22
-0.8814124166553733
 32
0.0
 13
-0.4723474904831553
 23
-0.8814124166553734
 33
0.0
 11
83.035898384862236
 21
-2.7679491924311037
 31
0.0
 11
83.373822986007951
 21
-3.6055598524104795
 31
0.0
 11
83.5
 21
-4.5
 31
0.0
 11
83.373822986007951
 21
-5.3944401475894921
 31
0.0
 11
83.035898384862236
 21
-6.2320508075688394
 31
0.0
  0
LINE
  5
1E8
100
AcDbEntity
  8
0
  6
CONTINUOUS
 62
               2
100
AcDbLine
 10
63.399999618530273
 20
-13.029499816894486
 30
0.0
 11
70.470500183105457
 21
-13.029499816894486
 31
0.0
  0
LINE
  5
1E9
100
AcDbEntity
  8
0
  6
CONTINUOUS
 62
               7
100
AcDbLine
 10
63.399999618530273
 20
-13.299999999999955
 30
0.0
 11
70.199999999999989
 21
-13.299999999999955
 31
0.0
  0
LINE
  5
1EA
100
AcDbEntity
  8
0
  6
CONTINUOUS
 62
               7
100
AcDbLine
 10
63.399999618530273
 20
-10.299999999999955
 30
0.0
 11
70.199999999999989
 21
-10.299999999999955
 31
0.0
  0
LINE
  5
1EB
100
AcDbEntity
  8
0
  6
CONTINUOUS
 62
               2
100
AcDbLine
 10
63.399999618530273
 20
-10.570500183105423
 30
0.0
 11
70.470500183105401
 21
-10.570500183105423
 31
0.0
  0
LINE
  5
1EC
100
AcDbEntity
  8
0
  6
CONTINUOUS
 62
               7
100
AcDbLine
 10
55.98284271247465
 20
-10.299999999999955
 30
0.0
 11
56.0
 21
-10.299999999999955
 31
0.0
  0
LINE
  5
1ED
100
AcDbEntity
  8
0
  6
CONTINUOUS
 62
               2
100
AcDbLine
 10
55.763518646097481
 20
-10.570500183105423
 30
0.0
 11
56.0
 21
-10.570500183105423
 31
0.0
  0
LINE
  5
1EE
100
AcDbEntity
  8
0
  6
CONTINUOUS
 62
               2
100
AcDbLine
 10
55.763518646097452
 20
-13.029499816894486
 30
0.0
 11
56.0
 21
-13.029499816894486
 31
0.0
  0
LINE
  5
1EF
100
AcDbEntity
  8
0
  6
CONTINUOUS
 62
               7
100
AcDbLine
 10
55.901923788646684
 20
-13.299999999999955
 30
0.0
 11
56.0
 21
-13.299999999999955
 31
0.0
  0
LINE
  5
1F0
100
AcDbEntity
  8
0
  6
CONTINUOUS
 62
               7
100
AcDbLine
 10
70.5
 20
-12.999999999999943
 30
0.0
 11
70.5
 21
-10.600000000000023
 31
0.0
  0
LINE
  5
1F1
100
AcDbEntity
  8
0
  6
CONTINUOUS
 62
               7
100
AcDbLine
 10
70.199999999999989
 20
-10.299999999999955
 30
0.0
 11
70.5
 21
-10.600000000000023
 31
0.0
  0
LINE
  5
1F2
100
AcDbEntity
  8
0
  6
CONTINUOUS
 62
               7
100
AcDbLine
 10
70.5
 20
-12.999999999999943
 30
0.0
 11
70.199999999999989
 21
-13.299999999999955
 31
0.0
  0
LINE
  5
1F3
100
AcDbEntity
  8
0
  6
CONTINUOUS
 62
               7
100
AcDbLine
 10
70.199999999999989
 20
-13.299999981570807
 30
0.0
 11
70.199999999999989
 21
-10.299999981570807
 31
0.0
  0
LINE
  5
1F4
100
AcDbEntity
  8
0
  6
CONTINUOUS
 62
               2
100
AcDbLine
 10
54.500000024960229
 20
-11.799999999999955
 30
0.0
 11
71.500000024960229
 21
-11.799999999999955
 31
0.0
  0
ARC
  5
1F5
100
AcDbEntity
  8
0
  6
CONTINUOUS
 62
               7
100
AcDbCircle
 10
58.5
 20
-11.799999999999955
 30
0.0
 40
3.0
100
AcDbArc
 50
153.91298647209231
 51
209.99999999999906
  0
LINE
  5
1F6
100
AcDbEntity
  8
0
  6
CONTINUOUS
 62
               7
100
AcDbLine
 10
55.901923788646741
 20
-10.421871096762402
 30
0.0
 11
55.901923788646741
 21
-13.299999999999955
 31
0.0
  0
ARC
  5
1F7
100
AcDbEntity
  8
0
  6
CONTINUOUS
 62
               7
100
AcDbCircle
 10
61.994298458099365
 20
-9.4184301376342319
 30
0.0
 40
1.40570068359375
100
AcDbArc
 50
325.61564427419654
 51
25.615686924983695
  0
ARC
  5
1F8
100
AcDbEntity
  8
0
  6
CONTINUOUS
 62
               7
100
AcDbCircle
 10
58.145624160766602
 20
-11.799999999999955
 30
0.0
 40
5.2543754577636719
100
AcDbArc
 50
342.41200834898501
 51
17.587919706657587
  0
ARC
  5
1F9
100
AcDbEntity
  8
0
  6
CONTINUOUS
 62
               7
100
AcDbCircle
 10
61.994298458099365
 20
-14.181569862365677
 30
0.0
 40
1.40570068359375
100
AcDbArc
 50
334.38418648914558
 51
34.384229139932707
  0
LINE
  5
1FA
100
AcDbEntity
  8
0
  6
CONTINUOUS
 62
               7
100
AcDbLine
 10
63.399998511916806
 20
-9.0500012138546708
 30
0.0
 11
63.154378319775333
 21
-8.6245744093463941
 31
0.0
  0
LINE
  5
1FB
100
AcDbEntity
  8
0
  6
CONTINUOUS
 62
               7
100
AcDbLine
 10
63.154378890991211
 20
-8.6245744705199741
 30
0.0
 11
61.0
 21
-8.6245744705199741
 31
0.0
  0
LINE
  5
1FC
100
AcDbEntity
  8
0
  6
CONTINUOUS
 62
               7
100
AcDbLine
 10
63.154379844665527
 20
-10.212286758422806
 30
0.0
 11
61.0
 21
-10.212286758422806
 31
0.0
  0
LINE
  5
1FD
100
AcDbEntity
  8
0
  6
CONTINUOUS
 62
               7
100
AcDbLine
 10
63.154379844665527
 20
-13.387713241577103
 30
0.0
 11
61.0
 21
-13.387713241577103
 31
0.0
  0
LINE
  5
1FE
100
AcDbEntity
  8
0
  6
CONTINUOUS
 62
               7
100
AcDbLine
 10
63.399999618530273
 20
-14.549999999999955
 30
0.0
 11
63.399999618530273
 21
-9.0500009536742709
 31
0.0
  0
LINE
  5
1FF
100
AcDbEntity
  8
0
  6
CONTINUOUS
 62
               7
100
AcDbLine
 10
63.399999394635188
 20
-14.549999867258805
 30
0.0
 11
63.154379026812421
 21
-14.975426554646219
 31
0.0
  0
LINE
  5
200
100
AcDbEntity
  8
0
  6
CONTINUOUS
 62
               7
100
AcDbLine
 10
63.154378890991211
 20
-14.975426483154251
 30
0.0
 11
61.0
 21
-14.975426483154251
 31
0.0
  0
LINE
  5
201
100
AcDbEntity
  8
0
  6
CONTINUOUS
 62
               7
100
AcDbLine
 10
61.0
 20
-14.0
 30
0.0
 11
56.0
 21
-14.0
 31
0.0
  0
LINE
  5
202
100
AcDbEntity
  8
0
  6
CONTINUOUS
 62
               7
100
AcDbLine
 10
56.0
 20
-14.0
 30
0.0
 11
56.0
 21
-7.5
 31
0.0
  0
LINE
  5
203
100
AcDbEntity
  8
0
  6
CONTINUOUS
 62
               7
100
AcDbLine
 10
51.0
 20
-14.0
 30
0.0
 11
55.5
 21
-14.0
 31
0.0
  0
LINE
  5
204
100
AcDbEntity
  8
0
  6
CONTINUOUS
 62
               7
100
AcDbLine
 10
51.0
 20
-12.0
 30
0.0
 11
51.0
 21
-14.0
 31
0.0
  0
LINE
  5
205
100
AcDbEntity
  8
0
  6
CONTINUOUS
 62
               7
100
AcDbLine
 10
53.999999975856099
 20
-0.1999999999999886
 30
0.0
 11
61.0
 21
-0.1999999999999886
 31
0.0
  0
LINE
  5
206
100
AcDbEntity
  8
0
  6
CONTINUOUS
 62
               7
100
AcDbLine
 10
54.0
 20
-7.5
 30
0.0
 11
61.0
 21
-7.5
 31
0.0
  0
LINE
  5
207
100
AcDbEntity
  8
0
  6
CONTINUOUS
 62
               7
100
AcDbLine
 10
61.899999982139263
 20
-5.25
 30
0.0
 11
61.0
 21
-5.25
 31
0.0
  0
LINE
  5
208
100
AcDbEntity
  8
0
  6
CONTINUOUS
 62
               7
100
AcDbLine
 10
61.899999982139263
 20
-0.75
 30
0.0
 11
61.0
 21
-0.75
 31
0.0
  0
LINE
  5
209
100
AcDbEntity
  8
0
  6
CONTINUOUS
 62
               7
100
AcDbLine
 10
62.200000000000017
 20
-1.0499999970303975
 30
0.0
 11
62.200000000000017
 21
-4.9499999731885396
 31
0.0
  0
LINE
  5
20A
100
AcDbEntity
  8
0
  6
CONTINUOUS
 62
               7
100
AcDbLine
 10
61.899999982139263
 20
-5.25
 30
0.0
 11
62.200000000000045
 21
-4.9499999821391611
 31
0.0
  0
LINE
  5
20B
100
AcDbEntity
  8
0
  6
CONTINUOUS
 62
               7
100
AcDbLine
 10
62.200000000000017
 20
-1.0499999970303975
 30
0.0
 11
61.900000002969563
 21
-0.75
 31
0.0
  0
LINE
  5
20C
100
AcDbEntity
  8
0
  6
CONTINUOUS
 62
               7
100
AcDbLine
 10
61.899999982139263
 20
-5.25
 30
0.0
 11
61.899999982139263
 21
-0.75
 31
0.0
  0
LINE
  5
20D
100
AcDbEntity
  8
0
  6
CONTINUOUS
 62
               2
100
AcDbLine
 10
58.117809650459378
 20
-4.5
 30
0.0
 11
91.999999997462737
 21
-4.5
 31
0.0
  0
LINE
  5
20E
100
AcDbEntity
  8
0
  6
CONTINUOUS
 62
               7
100
AcDbLine
 10
55.5
 20
-14.0
 30
0.0
 11
55.5
 21
-8.1999999999999318
 31
0.0
  0
ARC
  5
20F
100
AcDbEntity
  8
0
  6
CONTINUOUS
 62
               7
100
AcDbCircle
 10
55.700000000000017
 20
-8.7999999999999545
 30
0.0
 40
0.3
100
AcDbArc
 50
0.0
 51
90.0
  0
ARC
  5
210
100
AcDbEntity
  8
0
  6
CONTINUOUS
 62
               7
100
AcDbCircle
 10
55.700000000000017
 20
-10.199999999999989
 30
0.0
 40
0.3
100
AcDbArc
 50
270.0
 51
0.0
  0
LINE
  5
211
100
AcDbEntity
  8
0
  6
CONTINUOUS
 62
               7
100
AcDbLine
 10
55.5
 20
-8.5
 30
0.0
 11
55.700000000000017
 21
-8.5
 31
0.0
  0
LINE
  5
212
100
AcDbEntity
  8
0
  6
CONTINUOUS
 62
               7
100
AcDbLine
 10
55.5
 20
-10.5
 30
0.0
 11
55.700000000000017
 21
-10.5
 31
0.0
  0
LINE
  5
213
100
AcDbEntity
  8
0
  6
CONTINUOUS
 62
               7
100
AcDbLine
 10
54.000000001754415
 20
-8.1999999999999318
 30
0.0
 11
55.500000001754415
 21
-8.1999999999999318
 31
0.0
  0
LINE
  5
214
100
AcDbEntity
  8
0
  6
CONTINUOUS
 62
               2
100
AcDbLine
 10
-2.0000000025372628
 20
-5.0
 30
0.0
 11
2.0
 21
-5.0
 31
0.0
  0
LINE
  5
215
100
AcDbEntity
  8
0
  6
CONTINUOUS
 62
               2
100
AcDbLine
 10
25.999999997462737
 20
2.0
 30
0.0
 11
25.999999997462737
 21
-2.0
 31
0.0
  0
LINE
  5
216
100
AcDbEntity
  8
0
  6
CONTINUOUS
 62
               2
100
AcDbLine
 10
41.999999997462723
 20
2.0
 30
0.0
 11
41.999999997462723
 21
-2.0
 31
0.0
  0
LINE
  5
217
100
AcDbEntity
  8
0
  6
PHANTOM
 62
               3
100
AcDbLine
 10
37.726992121856128
 20
36.58935484900276
 30
0.0
 11
37.726992121856128
 21
-28.379744533490182
 31
0.0
  0
LINE
  5
218
100
AcDbEntity
  8
0
  6
PHANTOM
 62
               3
100
AcDbLine
 10
73.207390279357412
 20
27.246063286763814
 30
0.0
 11
73.207390279357412
 21
-28.661623919877087
 31
0.0
  0
ENDBLK
  5
219
100
AcDbEntity
  8
0
100
AcDbBlockEnd
  0
BLOCK
  5
21A
100
AcDbEntity
  8
0
100
AcDbBlockBegin
  2
MGAEG6-5
 70
               0
 10
0.0
 20
0.0
 30
0.0
  3
MGAEG6-5
  1

  0
LINE
  5
21B
100
AcDbEntity
  8
0
  6
CONTINUOUS
 62
               7
100
AcDbLine
 10
19.099999975856065
 20
7.5
 30
0.0
 11
61.000000000000014
 21
7.5
 31
0.0
  0
LINE
  5
21C
100
AcDbEntity
  8
0
  6
CONTINUOUS
 62
               2
100
AcDbLine
 10
7.4499684303145557
 20
4.5
 30
0.0
 11
20.15910319106348
 21
4.5
 31
0.0
  0
LINE
  5
21D
100
AcDbEntity
  8
0
  6
CONTINUOUS
 62
               7
100
AcDbLine
 10
17.5
 20
3.0
 30
0.0
 11
19.0
 21
3.0
 31
0.0
  0
LINE
  5
21E
100
AcDbEntity
  8
0
  6
CONTINUOUS
 62
               7
100
AcDbLine
 10
17.5
 20
6.0
 30
0.0
 11
19.0
 21
6.0
 31
0.0
  0
LINE
  5
21F
100
AcDbEntity
  8
0
  6
PHANTOM
 62
               2
100
AcDbLine
 10
15.999999975856099
 20
7.5
 30
0.0
 11
16.650000000000091
 21
7.5
 31
0.0
  0
LINE
  5
220
100
AcDbEntity
  8
0
  6
PHANTOM
 62
               2
100
AcDbLine
 10
15.999999975856099
 20
7.2000000000000028
 30
0.0
 11
16.650000000000091
 21
7.2000000000000028
 31
0.0
  0
LINE
  5
221
100
AcDbEntity
  8
0
  6
CONTINUOUS
 62
               7
100
AcDbLine
 10
15.999999975856099
 20
7.0
 30
0.0
 11
15.999999975856099
 21
8.0
 31
0.0
  0
CIRCLE
  5
222
100
AcDbEntity
  8
0
  6
CONTINUOUS
 62
               7
100
AcDbCircle
 10
16.650000000000091
 20
1.6499999999999986
 30
0.0
 40
0.15
  0
CIRCLE
  5
223
100
AcDbEntity
  8
0
  6
CONTINUOUS
 62
               7
100
AcDbCircle
 10
16.650000000000091
 20
7.3500000000000014
 30
0.0
 40
0.15
  0
LINE
  5
224
100
AcDbEntity
  8
0
  6
CONTINUOUS
 62
               7
100
AcDbLine
 10
17.500000000000057
 20
1.2999999999999972
 30
0.0
 11
17.500000000000057
 21
7.7000000000000028
 31
0.0
  0
LINE
  5
225
100
AcDbEntity
  8
0
  6
CONTINUOUS
 62
               7
100
AcDbLine
 10
15.500000000000114
 20
2.0
 30
0.0
 11
16.800000000000068
 21
2.0
 31
0.0
  0
LINE
  5
226
100
AcDbEntity
  8
0
  6
CONTINUOUS
 62
               7
100
AcDbLine
 10
15.500000000000114
 20
7.0
 30
0.0
 11
15.500000000000114
 21
2.0
 31
0.0
  0
LINE
  5
227
100
AcDbEntity
  8
0
  6
CONTINUOUS
 62
               7
100
AcDbLine
 10
16.800000000000068
 20
8.0
 30
0.0
 11
16.800000000000068
 21
0.7999999999999972
 31
0.0
  0
LINE
  5
228
100
AcDbEntity
  8
0
  6
CONTINUOUS
 62
               7
100
AcDbLine
 10
16.800000000000068
 20
0.7999999999999972
 30
0.0
 11
17.300000000000068
 21
0.7999999999999972
 31
0.0
  0
LINE
  5
229
100
AcDbEntity
  8
0
  6
CONTINUOUS
 62
               7
100
AcDbLine
 10
17.300000000000068
 20
0.7999999999999972
 30
0.0
 11
17.300000000000068
 21
8.0
 31
0.0
  0
LINE
  5
22A
100
AcDbEntity
  8
0
  6
CONTINUOUS
 62
               7
100
AcDbLine
 10
17.300000000000068
 20
7.7000000000000028
 30
0.0
 11
17.500000000000057
 21
7.7000000000000028
 31
0.0
  0
LINE
  5
22B
100
AcDbEntity
  8
0
  6
CONTINUOUS
 62
               7
100
AcDbLine
 10
17.300000000000068
 20
1.2999999999999972
 30
0.0
 11
17.500000000000057
 21
1.2999999999999972
 31
0.0
  0
LINE
  5
22C
100
AcDbEntity
  8
0
  6
CONTINUOUS
 62
               7
100
AcDbLine
 10
16.800000000000068
 20
5.7000000000000028
 30
0.0
 11
17.300000000000068
 21
5.7000000000000028
 31
0.0
  0
LINE
  5
22D
100
AcDbEntity
  8
0
  6
CONTINUOUS
 62
               7
100
AcDbLine
 10
16.800000000000068
 20
3.2999999999999972
 30
0.0
 11
17.300000000000068
 21
3.2999999999999972
 31
0.0
  0
LINE
  5
22E
100
AcDbEntity
  8
0
  6
CONTINUOUS
 62
               2
100
AcDbLine
 10
17.300000000000068
 20
5.7000000000000028
 30
0.0
 11
16.800000000000068
 21
3.2999999999999972
 31
0.0
  0
LINE
  5
22F
100
AcDbEntity
  8
0
  6
CONTINUOUS
 62
               2
100
AcDbLine
 10
16.800000000000068
 20
5.7000000000000028
 30
0.0
 11
17.300000000000068
 21
3.2999999999999972
 31
0.0
  0
LINE
  5
230
100
AcDbEntity
  8
0
  6
CONTINUOUS
 62
               2
100
AcDbLine
 10
17.5
 20
5.7999999999999972
 30
0.0
 11
17.846410161513802
 21
6.0
 31
0.0
  0
LINE
  5
231
100
AcDbEntity
  8
0
  6
CONTINUOUS
 62
               2
100
AcDbLine
 10
17.500000000000057
 20
3.2000000000000028
 30
0.0
 11
17.846410161513859
 21
3.0
 31
0.0
  0
CIRCLE
  5
232
100
AcDbEntity
  8
0
  6
CONTINUOUS
 62
               7
100
AcDbCircle
 10
9.9500000000000739
 20
1.6499999999999986
 30
0.0
 40
0.15
  0
LINE
  5
233
100
AcDbEntity
  8
0
  6
CONTINUOUS
 62
               7
100
AcDbLine
 10
11.300000000000125
 20
2.0
 30
0.0
 11
9.8000000000000682
 21
2.0
 31
0.0
  0
LINE
  5
234
100
AcDbEntity
  8
0
  6
CONTINUOUS
 62
               7
100
AcDbLine
 10
9.8000000000000682
 20
0.7999999999999972
 30
0.0
 11
9.8000000000000682
 21
7.0
 31
0.0
  0
LINE
  5
235
100
AcDbEntity
  8
0
  6
CONTINUOUS
 62
               7
100
AcDbLine
 10
11.300000000000125
 20
7.0
 30
0.0
 11
11.300000000000125
 21
2.0
 31
0.0
  0
LINE
  5
236
100
AcDbEntity
  8
0
  6
CONTINUOUS
 62
               7
100
AcDbLine
 10
0.0
 20
11.799999999999997
 30
0.0
 11
0.0
 21
0.7999999999999972
 31
0.0
  0
LINE
  5
237
100
AcDbEntity
  8
0
  6
CONTINUOUS
 62
               7
100
AcDbLine
 10
9.0
 20
7.0
 30
0.0
 11
9.0
 21
0.7999999999999972
 31
0.0
  0
LINE
  5
238
100
AcDbEntity
  8
0
  6
CONTINUOUS
 62
               7
100
AcDbLine
 10
0.0
 20
0.7999999999999972
 30
0.0
 11
9.8000000000000682
 21
0.7999999999999972
 31
0.0
  0
LINE
  5
239
100
AcDbEntity
  8
0
  6
CONTINUOUS
 62
               7
100
AcDbLine
 10
9.0
 20
7.0
 30
0.0
 11
16.800000000000068
 21
7.0
 31
0.0
  0
LINE
  5
23A
100
AcDbEntity
  8
0
  6
PHANTOM
 62
               2
100
AcDbLine
 10
9.9500000000000739
 20
1.7999999999999972
 30
0.0
 11
16.650000000000091
 21
1.7999999999999972
 31
0.0
  0
LINE
  5
23B
100
AcDbEntity
  8
0
  6
PHANTOM
 62
               2
100
AcDbLine
 10
9.9500000000000739
 20
1.5
 30
0.0
 11
16.650000000000091
 21
1.5
 31
0.0
  0
LINE
  5
23C
100
AcDbEntity
  8
0
  6
CONTINUOUS
 62
               7
100
AcDbLine
 10
11.300000000000125
 20
2.5
 30
0.0
 11
15.500000000000114
 21
2.5
 31
0.0
  0
LINE
  5
23D
100
AcDbEntity
  8
0
  6
CONTINUOUS
 62
               7
100
AcDbLine
 10
11.300000000000125
 20
6.5
 30
0.0
 11
15.500000000000114
 21
6.5
 31
0.0
  0
LINE
  5
23E
100
AcDbEntity
  8
0
  6
CONTINUOUS
 62
               7
100
AcDbLine
 10
0.0
 20
11.799999999999997
 30
0.0
 11
14.999999975856099
 21
11.799999999999997
 31
0.0
  0
LINE
  5
23F
100
AcDbEntity
  8
0
  6
CONTINUOUS
 62
               7
100
AcDbLine
 10
0.0
 20
11.299999999999997
 30
0.0
 11
15.0
 21
11.299999999999997
 31
0.0
  0
LINE
  5
240
100
AcDbEntity
  8
0
  6
CONTINUOUS
 62
               7
100
AcDbLine
 10
15.0
 20
11.5
 30
0.0
 11
54.000000000000014
 21
11.5
 31
0.0
  0
LINE
  5
241
100
AcDbEntity
  8
0
  6
CONTINUOUS
 62
               7
100
AcDbLine
 10
39.500000000000014
 20
5.0
 30
0.0
 11
44.500000000000014
 21
5.0
 31
0.0
  0
LINE
  5
242
100
AcDbEntity
  8
0
  6
CONTINUOUS
 62
               7
100
AcDbLine
 10
39.500000000000014
 20
7.5000000136906095
 30
0.0
 11
39.500000000000014
 21
5.0
 31
0.0
  0
LINE
  5
243
100
AcDbEntity
  8
0
  6
CONTINUOUS
 62
               7
100
AcDbLine
 10
44.500000000000014
 20
7.5000000136906095
 30
0.0
 11
44.500000000000014
 21
5.0
 31
0.0
  0
LINE
  5
244
100
AcDbEntity
  8
0
  6
CONTINUOUS
 62
               7
100
AcDbLine
 10
23.5
 20
5.0
 30
0.0
 11
28.5
 21
5.0
 31
0.0
  0
LINE
  5
245
100
AcDbEntity
  8
0
  6
CONTINUOUS
 62
               7
100
AcDbLine
 10
23.5
 20
7.5000000136906095
 30
0.0
 11
23.5
 21
5.0
 31
0.0
  0
LINE
  5
246
100
AcDbEntity
  8
0
  6
CONTINUOUS
 62
               7
100
AcDbLine
 10
28.5
 20
7.5000000136906095
 30
0.0
 11
28.5
 21
5.0
 31
0.0
  0
LINE
  5
247
100
AcDbEntity
  8
0
  6
CONTINUOUS
 62
               2
100
AcDbLine
 10
46.999999999999986
 20
2.0
 30
0.0
 11
46.999999999999986
 21
7.0
 31
0.0
  0
CIRCLE
  5
248
100
AcDbEntity
  8
0
  6
CONTINUOUS
 62
               2
100
AcDbCircle
 10
46.999999999999986
 20
4.5
 30
0.0
 40
1.5
  0
LINE
  5
249
100
AcDbEntity
  8
0
  6
CONTINUOUS
 62
               2
100
AcDbLine
 10
44.499999999999986
 20
4.5
 30
0.0
 11
49.499999999999957
 21
4.5
 31
0.0
  0
CIRCLE
  5
24A
100
AcDbEntity
  8
0
  6
CONTINUOUS
 62
               7
100
AcDbCircle
 10
46.999999999999986
 20
4.5
 30
0.0
 40
1.2
  0
LINE
  5
24B
100
AcDbEntity
  8
0
  6
CONTINUOUS
 62
               2
100
AcDbLine
 10
31.0
 20
2.0
 30
0.0
 11
31.0
 21
7.0
 31
0.0
  0
CIRCLE
  5
24C
100
AcDbEntity
  8
0
  6
CONTINUOUS
 62
               2
100
AcDbCircle
 10
31.0
 20
4.5
 30
0.0
 40
1.5
  0
LINE
  5
24D
100
AcDbEntity
  8
0
  6
CONTINUOUS
 62
               2
100
AcDbLine
 10
28.5
 20
4.5
 30
0.0
 11
33.5
 21
4.5
 31
0.0
  0
CIRCLE
  5
24E
100
AcDbEntity
  8
0
  6
CONTINUOUS
 62
               7
100
AcDbCircle
 10
31.0
 20
4.5
 30
0.0
 40
1.2
  0
LINE
  5
24F
100
AcDbEntity
  8
0
  6
CONTINUOUS
 62
               2
100
AcDbLine
 10
22.0
 20
1.1999999999999886
 30
0.0
 11
22.0
 21
5.1999999999999886
 31
0.0
  0
LINE
  5
250
100
AcDbEntity
  8
0
  6
CONTINUOUS
 62
               2
100
AcDbLine
 10
20.0
 20
3.1999999999999886
 30
0.0
 11
24.0
 21
3.1999999999999886
 31
0.0
  0
CIRCLE
  5
251
100
AcDbEntity
  8
0
  6
CONTINUOUS
 62
               2
100
AcDbCircle
 10
22.0
 20
3.1999999999999886
 30
0.0
 40
1.0
  0
CIRCLE
  5
252
100
AcDbEntity
  8
0
  6
CONTINUOUS
 62
               7
100
AcDbCircle
 10
22.0
 20
3.1999999999999886
 30
0.0
 40
0.8
  0
LINE
  5
253
100
AcDbEntity
  8
0
  6
CONTINUOUS
 62
               2
100
AcDbLine
 10
35.0
 20
7.9000000000000057
 30
0.0
 11
35.0
 21
11.900000000000006
 31
0.0
  0
LINE
  5
254
100
AcDbEntity
  8
0
  6
CONTINUOUS
 62
               2
100
AcDbLine
 10
33.0
 20
9.9000000000000057
 30
0.0
 11
37.0
 21
9.9000000000000057
 31
0.0
  0
CIRCLE
  5
255
100
AcDbEntity
  8
0
  6
CONTINUOUS
 62
               2
100
AcDbCircle
 10
35.0
 20
9.9000000000000057
 30
0.0
 40
1.0
  0
CIRCLE
  5
256
100
AcDbEntity
  8
0
  6
CONTINUOUS
 62
               7
100
AcDbCircle
 10
35.0
 20
9.9000000000000057
 30
0.0
 40
0.8
  0
LINE
  5
257
100
AcDbEntity
  8
0
  6
CONTINUOUS
 62
               2
100
AcDbLine
 10
49.000000000000014
 20
7.9000000000000057
 30
0.0
 11
49.000000000000014
 21
11.900000000000006
 31
0.0
  0
LINE
  5
258
100
AcDbEntity
  8
0
  6
CONTINUOUS
 62
               2
100
AcDbLine
 10
47.000000000000014
 20
9.9000000000000057
 30
0.0
 11
51.000000000000014
 21
9.9000000000000057
 31
0.0
  0
CIRCLE
  5
259
100
AcDbEntity
  8
0
  6
CONTINUOUS
 62
               2
100
AcDbCircle
 10
49.000000000000014
 20
9.9000000000000057
 30
0.0
 40
1.0
  0
CIRCLE
  5
25A
100
AcDbEntity
  8
0
  6
CONTINUOUS
 62
               7
100
AcDbCircle
 10
49.000000000000014
 20
9.9000000000000057
 30
0.0
 40
0.8
  0
LINE
  5
25B
100
AcDbEntity
  8
0
  6
CONTINUOUS
 62
               2
100
AcDbLine
 10
51.000000000000014
 20
1.1999999999999886
 30
0.0
 11
51.000000000000014
 21
5.1999999999999886
 31
0.0
  0
LINE
  5
25C
100
AcDbEntity
  8
0
  6
CONTINUOUS
 62
               2
100
AcDbLine
 10
49.000000000000014
 20
3.1999999999999886
 30
0.0
 11
53.000000000000014
 21
3.1999999999999886
 31
0.0
  0
CIRCLE
  5
25D
100
AcDbEntity
  8
0
  6
CONTINUOUS
 62
               2
100
AcDbCircle
 10
51.000000000000014
 20
3.1999999999999886
 30
0.0
 40
1.0
  0
CIRCLE
  5
25E
100
AcDbEntity
  8
0
  6
CONTINUOUS
 62
               7
100
AcDbCircle
 10
51.000000000000014
 20
3.1999999999999886
 30
0.0
 40
0.8
  0
LINE
  5
25F
100
AcDbEntity
  8
0
  6
CONTINUOUS
 62
               7
100
AcDbLine
 10
14.999999975856099
 20
8.0
 30
0.0
 11
14.999999975856099
 21
11.99999998630939
 31
0.0
  0
LINE
  5
260
100
AcDbEntity
  8
0
  6
CONTINUOUS
 62
               7
100
AcDbLine
 10
14.999999975856099
 20
8.0
 30
0.0
 11
54.000000000000014
 21
8.0
 31
0.0
  0
LINE
  5
261
100
AcDbEntity
  8
0
  6
CONTINUOUS
 62
               7
100
AcDbLine
 10
19.0
 20
0.0
 30
0.0
 11
19.0
 21
8.0
 31
0.0
  0
LINE
  5
262
100
AcDbEntity
  8
0
  6
CONTINUOUS
 62
               7
100
AcDbLine
 10
54.000000000000014
 20
0.0
 30
0.0
 11
54.000000000000014
 21
12.0
 31
0.0
  0
LINE
  5
263
100
AcDbEntity
  8
0
  6
CONTINUOUS
 62
               7
100
AcDbLine
 10
15.0
 20
12.0
 30
0.0
 11
54.000000000000014
 21
12.0
 31
0.0
  0
LINE
  5
264
100
AcDbEntity
  8
0
  6
CONTINUOUS
 62
               7
100
AcDbLine
 10
19.0
 20
0.0
 30
0.0
 11
54.000000000000014
 21
0.0
 31
0.0
  0
LINE
  5
265
100
AcDbEntity
  8
0
  6
PHANTOM
 62
               3
100
AcDbLine
 10
31.914710165041672
 20
6.49083181506046
 30
0.0
 11
35.869661474482136
 21
6.49083181506046
 31
0.0
  0
LINE
  5
266
100
AcDbEntity
  8
0
  6
CONTINUOUS
 62
               7
100
AcDbLine
 10
61.0
 20
0.2000000000000455
 30
0.0
 11
61.0
 21
14.975425529479992
 31
0.0
  0
LINE
  5
267
100
AcDbEntity
  8
0
  6
CONTINUOUS
 62
               7
100
AcDbLine
 10
83.5
 20
7.2499999355027853
 30
0.0
 11
83.745620130299358
 21
7.6754264805429671
 31
0.0
  0
LINE
  5
268
100
AcDbEntity
  8
0
  6
CONTINUOUS
 62
               7
100
AcDbLine
 10
83.5
 20
1.7500000644972715
 30
0.0
 11
83.745620130299358
 21
1.3245735194570898
 31
0.0
  0
LINE
  5
269
100
AcDbEntity
  8
0
  6
CONTINUOUS
 62
               7
100
AcDbLine
 10
85.654379869700648
 20
6.0877132402715119
 30
0.0
 11
83.745620130299358
 21
6.0877132402715119
 31
0.0
  0
LINE
  5
26A
100
AcDbEntity
  8
0
  6
CONTINUOUS
 62
               7
100
AcDbLine
 10
85.900000000000006
 20
7.2499999355027853
 30
0.0
 11
85.654379869700648
 21
7.6754264805429671
 31
0.0
  0
LINE
  5
26B
100
AcDbEntity
  8
0
  6
CONTINUOUS
 62
               7
100
AcDbLine
 10
85.654379869700648
 20
7.6754264805429671
 30
0.0
 11
83.71616083758957
 21
7.6754264805429671
 31
0.0
  0
LINE
  5
26C
100
AcDbEntity
  8
0
  6
CONTINUOUS
 62
               7
100
AcDbLine
 10
85.654379869700648
 20
2.9122867597285449
 30
0.0
 11
83.745620130299358
 21
2.9122867597285449
 31
0.0
  0
LINE
  5
26D
100
AcDbEntity
  8
0
  6
CONTINUOUS
 62
               7
100
AcDbLine
 10
85.900000000000006
 20
1.7500000644972715
 30
0.0
 11
85.654379869700648
 21
1.3245735194570898
 31
0.0
  0
LINE
  5
26E
100
AcDbEntity
  8
0
  6
CONTINUOUS
 62
               7
100
AcDbLine
 10
85.654379869700648
 20
1.3245735194570898
 30
0.0
 11
83.71616083758957
 21
1.3245735194570898
 31
0.0
  0
LINE
  5
26F
100
AcDbEntity
  8
0
  6
CONTINUOUS
 62
               7
100
AcDbLine
 10
79.499999975856099
 20
6.2320508075688963
 30
0.0
 11
83.035898384862236
 21
6.2320508075688963
 31
0.0
  0
LINE
  5
270
100
AcDbEntity
  8
0
  6
CONTINUOUS
 62
               7
100
AcDbLine
 10
79.499999975856099
 20
7.9641016151377926
 30
0.0
 11
83.035898384862236
 21
7.9641016151377926
 31
0.0
  0
LINE
  5
271
100
AcDbEntity
  8
0
  6
CONTINUOUS
 62
               7
100
AcDbLine
 10
76.0
 20
7.4000000000000341
 30
0.0
 11
79.5
 21
7.4000000000000341
 31
0.0
  0
LINE
  5
272
100
AcDbEntity
  8
0
  6
CONTINUOUS
 62
               7
100
AcDbLine
 10
76.0
 20
1.6000000000000227
 30
0.0
 11
79.5
 21
1.6000000000000227
 31
0.0
  0
LINE
  5
273
100
AcDbEntity
  8
0
  6
CONTINUOUS
 62
               7
100
AcDbLine
 10
85.900000000000006
 20
7.2499999355027853
 30
0.0
 11
85.900000000000006
 21
1.7500000644972715
 31
0.0
  0
LINE
  5
274
100
AcDbEntity
  8
0
  6
CONTINUOUS
 62
               7
100
AcDbLine
 10
87.699999999999989
 20
6.0000000000000568
 30
0.0
 11
88.0
 21
5.7000000000000455
 31
0.0
  0
LINE
  5
275
100
AcDbEntity
  8
0
  6
CONTINUOUS
 62
               7
100
AcDbLine
 10
87.699999999999989
 20
3.0000000000000568
 30
0.0
 11
88.0
 21
3.3000000000000114
 31
0.0
  0
LINE
  5
276
100
AcDbEntity
  8
0
  6
CONTINUOUS
 62
               7
100
AcDbLine
 10
88.0
 20
3.3000000000000114
 30
0.0
 11
88.0
 21
5.7000000000000455
 31
0.0
  0
LINE
  5
277
100
AcDbEntity
  8
0
  6
CONTINUOUS
 62
               7
100
AcDbLine
 10
83.5
 20
1.5000000000000568
 30
0.0
 11
83.5
 21
7.5000000000000568
 31
0.0
  0
LINE
  5
278
100
AcDbEntity
  8
0
  6
CONTINUOUS
 62
               7
100
AcDbLine
 10
79.5
 20
1.0358983848622643
 30
0.0
 11
79.5
 21
7.9641016151377926
 31
0.0
  0
LINE
  5
279
100
AcDbEntity
  8
0
  6
CONTINUOUS
 62
               7
100
AcDbLine
 10
76.0
 20
1.6000000000000227
 30
0.0
 11
76.0
 21
7.4000000000000341
 31
0.0
  0
LINE
  5
27A
100
AcDbEntity
  8
0
  6
CONTINUOUS
 62
               7
100
AcDbLine
 10
83.5
 20
7.5000000000000568
 30
0.0
 11
83.035898384862236
 21
7.9641016151377926
 31
0.0
  0
LINE
  5
27B
100
AcDbEntity
  8
0
  6
CONTINUOUS
 62
               7
100
AcDbLine
 10
83.5
 20
1.5000000000000568
 30
0.0
 11
83.035898384862236
 21
1.0358983848622643
 31
0.0
  0
LINE
  5
27C
100
AcDbEntity
  8
0
  6
CONTINUOUS
 62
               7
100
AcDbLine
 10
79.499999975856099
 20
2.7679491924311606
 30
0.0
 11
83.035898384862236
 21
2.7679491924311606
 31
0.0
  0
LINE
  5
27D
100
AcDbEntity
  8
0
  6
CONTINUOUS
 62
               7
100
AcDbLine
 10
79.499999975856099
 20
1.0358983848622643
 30
0.0
 11
83.035898384862236
 21
1.0358983848622643
 31
0.0
  0
LINE
  5
27E
100
AcDbEntity
  8
0
  6
CONTINUOUS
 62
               7
100
AcDbLine
 10
75.0
 20
6.0000000000000568
 30
0.0
 11
75.0
 21
3.0000000000000568
 31
0.0
  0
LINE
  5
27F
100
AcDbEntity
  8
0
  6
CONTINUOUS
 62
               2
100
AcDbLine
 10
75.0
 20
5.7294998168945881
 30
0.0
 11
76.0
 21
5.7294998168945881
 31
0.0
  0
LINE
  5
280
100
AcDbEntity
  8
0
  6
CONTINUOUS
 62
               2
100
AcDbLine
 10
75.0
 20
5.7294998168945881
 30
0.0
 11
74.531479939404733
 21
6.0000000000000568
 31
0.0
  0
LINE
  5
281
100
AcDbEntity
  8
0
  6
CONTINUOUS
 62
               2
100
AcDbLine
 10
75.0
 20
3.2705001831055256
 30
0.0
 11
76.0
 21
3.2705001831055256
 31
0.0
  0
LINE
  5
282
100
AcDbEntity
  8
0
  6
CONTINUOUS
 62
               2
100
AcDbLine
 10
75.0
 20
3.2705001831054687
 30
0.0
 11
74.531479939404733
 21
3.0000000000000568
 31
0.0
  0
LINE
  5
283
100
AcDbEntity
  8
0
  6
CONTINUOUS
 62
               2
100
AcDbLine
 10
85.900000000000006
 20
5.7294998168945881
 30
0.0
 11
87.970500199327887
 21
5.7294998168945881
 31
0.0
  0
LINE
  5
284
100
AcDbEntity
  8
0
  6
CONTINUOUS
 62
               2
100
AcDbLine
 10
85.900000000000006
 20
3.2705001831054687
 30
0.0
 11
87.970500199327887
 21
3.2705001831054687
 31
0.0
  0
LINE
  5
285
100
AcDbEntity
  8
0
  6
CONTINUOUS
 62
               7
100
AcDbLine
 10
85.900000000000006
 20
6.0000000000000568
 30
0.0
 11
87.699999999999989
 21
6.0000000000000568
 31
0.0
  0
LINE
  5
286
100
AcDbEntity
  8
0
  6
CONTINUOUS
 62
               7
100
AcDbLine
 10
85.900000000000006
 20
3.0000000000000568
 30
0.0
 11
87.699999999999989
 21
3.0000000000000568
 31
0.0
  0
LINE
  5
287
100
AcDbEntity
  8
0
  6
CONTINUOUS
 62
               7
100
AcDbLine
 10
87.699999999999989
 20
6.0000000000000568
 30
0.0
 11
87.699999999999989
 21
3.0000000000000568
 31
0.0
  0
LINE
  5
288
100
AcDbEntity
  8
0
  6
CONTINUOUS
 62
               7
100
AcDbLine
 10
61.0
 20
6.0000000000000568
 30
0.0
 11
76.0
 21
6.0000000000000568
 31
0.0
  0
LINE
  5
289
100
AcDbEntity
  8
0
  6
CONTINUOUS
 62
               7
100
AcDbLine
 10
62.200000000000017
 20
3.0000000000000568
 30
0.0
 11
76.0
 21
3.0000000000000568
 31
0.0
  0
SPLINE
  5
28A
100
AcDbEntity
  8
0
  6
CONTINUOUS
 62
               7
100
AcDbSpline
210
0.0
220
0.0
230
1.0
 70
               0
 71
               3
 72
               0
 73
               0
 74
               5
 44
0.000001
 12
-0.5262037598043649
 22
-0.8503585144912411
 32
0.0
 13
0.5262037598043636
 23
-0.8503585144912418
 33
0.0
 11
83.745620130299358
 21
7.6754264805429671
 31
0.0
 11
83.568151576411083
 21
7.2948520473364153
 31
0.0
 11
83.5
 21
6.8815698604072395
 31
0.0
 11
83.568151576411083
 21
6.4682876734780637
 31
0.0
 11
83.745620130299358
 21
6.0877132402715119
 31
0.0
  0
SPLINE
  5
28B
100
AcDbEntity
  8
0
  6
CONTINUOUS
 62
               7
100
AcDbSpline
210
0.0
220
0.0
230
1.0
 70
               0
 71
               3
 72
               0
 73
               0
 74
               5
 44
0.000001
 12
-0.2955767691118962
 22
0.9553189904745811
 32
0.0
 13
0.2955767691118969
 23
0.9553189904745809
 33
0.0
 11
83.745620130299358
 21
2.9122867597285449
 31
0.0
 11
83.563450871741324
 21
3.6962249971727132
 31
0.0
 11
83.5
 21
4.5000000000000568
 31
0.0
 11
83.563450871741324
 21
5.303775002827372
 31
0.0
 11
83.745620130299358
 21
6.0877132402715119
 31
0.0
  0
SPLINE
  5
28C
100
AcDbEntity
  8
0
  6
CONTINUOUS
 62
               7
100
AcDbSpline
210
0.0
220
0.0
230
1.0
 70
               0
 71
               3
 72
               0
 73
               0
 74
               5
 44
0.000001
 12
-0.5262037598043642
 22
0.8503585144912416
 32
0.0
 13
0.5262037598043635
 23
0.8503585144912419
 33
0.0
 11
83.745620130299358
 21
1.3245735194570898
 31
0.0
 11
83.568151576411083
 21
1.7051479526636413
 31
0.0
 11
83.5
 21
2.1184301395928173
 31
0.0
 11
83.568151576411083
 21
2.5317123265219936
 31
0.0
 11
83.745620130299358
 21
2.9122867597285453
 31
0.0
  0
SPLINE
  5
28D
100
AcDbEntity
  8
0
  6
CONTINUOUS
 62
               7
100
AcDbSpline
210
0.0
220
0.0
230
1.0
 70
               0
 71
               3
 72
               0
 73
               0
 74
               5
 44
0.000001
 12
0.2955767691118969
 22
0.9553189904745809
 32
0.0
 13
-0.2955767691118964
 23
0.955318990474581
 33
0.0
 11
85.654379869700648
 21
2.9122867597285449
 31
0.0
 11
85.836549128258682
 21
3.6962249971727132
 31
0.0
 11
85.900000000000006
 21
4.5000000000000568
 31
0.0
 11
85.836549128258682
 21
5.303775002827372
 31
0.0
 11
85.654379869700648
 21
6.0877132402715119
 31
0.0
  0
SPLINE
  5
28E
100
AcDbEntity
  8
0
  6
CONTINUOUS
 62
               7
100
AcDbSpline
210
0.0
220
0.0
230
1.0
 70
               0
 71
               3
 72
               0
 73
               0
 74
               5
 44
0.000001
 12
0.5262037598043643
 22
-0.8503585144912415
 32
0.0
 13
-0.5262037598043634
 23
-0.850358514491242
 33
0.0
 11
85.654379869700648
 21
7.6754264805429671
 31
0.0
 11
85.831848423588923
 21
7.2948520473364153
 31
0.0
 11
85.900000000000006
 21
6.8815698604072395
 31
0.0
 11
85.831848423588923
 21
6.4682876734780628
 31
0.0
 11
85.654379869700648
 21
6.0877132402715119
 31
0.0
  0
SPLINE
  5
28F
100
AcDbEntity
  8
0
  6
CONTINUOUS
 62
               7
100
AcDbSpline
210
0.0
220
0.0
230
1.0
 70
               0
 71
               3
 72
               0
 73
               0
 74
               5
 44
0.000001
 12
0.5262037598043649
 22
0.8503585144912411
 32
0.0
 13
-0.5262037598043637
 23
0.8503585144912418
 33
0.0
 11
85.654379869700648
 21
1.3245735194570898
 31
0.0
 11
85.831848423588923
 21
1.7051479526636411
 31
0.0
 11
85.900000000000006
 21
2.1184301395928173
 31
0.0
 11
85.831848423588923
 21
2.5317123265219936
 31
0.0
 11
85.654379869700648
 21
2.9122867597285449
 31
0.0
  0
SPLINE
  5
290
100
AcDbEntity
  8
0
  6
CONTINUOUS
 62
               7
100
AcDbSpline
210
0.0
220
0.0
230
1.0
 70
               0
 71
               3
 72
               0
 73
               0
 74
               5
 44
0.000001
 12
0.7311721974753298
 22
-0.6821929475149222
 32
0.0
 13
-0.7311721974753295
 23
-0.6821929475149225
 33
0.0
 11
83.035898384862236
 21
7.9641016151377926
 31
0.0
 11
83.357750187627744
 21
7.5677904727136456
 31
0.0
 11
83.5
 21
7.0980762113533729
 31
0.0
 11
83.357750187627744
 21
6.6283619499930717
 31
0.0
 11
83.035898384862236
 21
6.2320508075688963
 31
0.0
  0
SPLINE
  5
291
100
AcDbEntity
  8
0
  6
CONTINUOUS
 62
               7
100
AcDbSpline
210
0.0
220
0.0
230
1.0
 70
               0
 71
               3
 72
               0
 73
               0
 74
               5
 44
0.000001
 12
0.7311721974753298
 22
0.6821929475149222
 32
0.0
 13
-0.7311721974753295
 23
0.6821929475149225
 33
0.0
 11
83.035898384862236
 21
1.0358983848622643
 31
0.0
 11
83.357750187627744
 21
1.4322095272864399
 31
0.0
 11
83.5
 21
1.9019237886467408
 31
0.0
 11
83.357750187627744
 21
2.3716380500070131
 31
0.0
 11
83.035898384862236
 21
2.7679491924311606
 31
0.0
  0
SPLINE
  5
292
100
AcDbEntity
  8
0
  6
CONTINUOUS
 62
               7
100
AcDbSpline
210
0.0
220
0.0
230
1.0
 70
               0
 71
               3
 72
               0
 73
               0
 74
               5
 44
0.000001
 12
0.4723474904831554
 22
-0.8814124166553733
 32
0.0
 13
-0.4723474904831553
 23
-0.8814124166553734
 33
0.0
 11
83.035898384862236
 21
6.2320508075688963
 31
0.0
 11
83.373822986007951
 21
5.3944401475895489
 31
0.0
 11
83.5
 21
4.5000000000000568
 31
0.0
 11
83.373822986007951
 21
3.6055598524105363
 31
0.0
 11
83.035898384862236
 21
2.7679491924311606
 31
0.0
  0
LINE
  5
293
100
AcDbEntity
  8
0
  6
CONTINUOUS
 62
               7
100
AcDbLine
 10
58.5
 20
10.933974596215592
 30
0.0
 11
59.25
 21
11.366987298107802
 31
0.0
  0
LINE
  5
294
100
AcDbEntity
  8
0
  6
CONTINUOUS
 62
               7
100
AcDbLine
 10
57.75
 20
12.233012701892221
 30
0.0
 11
58.5
 21
12.666025403784488
 31
0.0
  0
LINE
  5
295
100
AcDbEntity
  8
0
  6
CONTINUOUS
 62
               7
100
AcDbLine
 10
57.75
 20
11.366987298107802
 30
0.0
 11
58.5
 21
10.933974596215592
 31
0.0
  0
LINE
  5
296
100
AcDbEntity
  8
0
  6
CONTINUOUS
 62
               7
100
AcDbLine
 10
58.5
 20
12.666025403784488
 30
0.0
 11
59.25
 21
12.233012701892221
 31
0.0
  0
LINE
  5
297
100
AcDbEntity
  8
0
  6
CONTINUOUS
 62
               7
100
AcDbLine
 10
57.75
 20
12.233012701892221
 30
0.0
 11
57.75
 21
11.366987298107802
 31
0.0
  0
LINE
  5
298
100
AcDbEntity
  8
0
  6
CONTINUOUS
 62
               7
100
AcDbLine
 10
59.25
 20
12.233012701892221
 30
0.0
 11
59.25
 21
11.366987298107802
 31
0.0
  0
CIRCLE
  5
299
100
AcDbEntity
  8
0
  6
CONTINUOUS
 62
               2
100
AcDbCircle
 10
58.5
 20
11.800000000000011
 30
0.0
 40
1.2294998168945739
  0
CIRCLE
  5
29A
100
AcDbEntity
  8
0
  6
CONTINUOUS
 62
               7
100
AcDbCircle
 10
58.5
 20
11.800000000000011
 30
0.0
 40
1.5000000000000426
  0
LINE
  5
29B
100
AcDbEntity
  8
0
  6
CONTINUOUS
 62
               2
100
AcDbLine
 10
58.5
 20
13.850000000000023
 30
0.0
 11
58.5
 21
9.7500000000000568
 31
0.0
  0
LINE
  5
29C
100
AcDbEntity
  8
0
  6
CONTINUOUS
 62
               2
100
AcDbLine
 10
63.399999618530273
 20
10.570500183105537
 30
0.0
 11
70.470500183105457
 21
10.570500183105537
 31
0.0
  0
LINE
  5
29D
100
AcDbEntity
  8
0
  6
CONTINUOUS
 62
               7
100
AcDbLine
 10
63.399999618530273
 20
10.300000000000068
 30
0.0
 11
70.199999999999989
 21
10.300000000000068
 31
0.0
  0
LINE
  5
29E
100
AcDbEntity
  8
0
  6
CONTINUOUS
 62
               7
100
AcDbLine
 10
63.399999618530273
 20
13.300000000000068
 30
0.0
 11
70.199999999999989
 21
13.300000000000068
 31
0.0
  0
LINE
  5
29F
100
AcDbEntity
  8
0
  6
CONTINUOUS
 62
               2
100
AcDbLine
 10
63.399999618530273
 20
13.029499816894599
 30
0.0
 11
70.470500183105401
 21
13.029499816894599
 31
0.0
  0
LINE
  5
2A0
100
AcDbEntity
  8
0
  6
CONTINUOUS
 62
               7
100
AcDbLine
 10
55.901923788646741
 20
13.300000000000068
 30
0.0
 11
56.0
 21
13.300000000000068
 31
0.0
  0
LINE
  5
2A1
100
AcDbEntity
  8
0
  6
CONTINUOUS
 62
               2
100
AcDbLine
 10
55.763518646097481
 20
13.029499816894599
 30
0.0
 11
56.0
 21
13.029499816894599
 31
0.0
  0
LINE
  5
2A2
100
AcDbEntity
  8
0
  6
CONTINUOUS
 62
               2
100
AcDbLine
 10
55.763518646097452
 20
10.570500183105537
 30
0.0
 11
56.0
 21
10.570500183105537
 31
0.0
  0
LINE
  5
2A3
100
AcDbEntity
  8
0
  6
CONTINUOUS
 62
               7
100
AcDbLine
 10
55.901923788646684
 20
10.300000000000068
 30
0.0
 11
56.0
 21
10.300000000000068
 31
0.0
  0
LINE
  5
2A4
100
AcDbEntity
  8
0
  6
CONTINUOUS
 62
               7
100
AcDbLine
 10
70.5
 20
10.60000000000008
 30
0.0
 11
70.5
 21
13.0
 31
0.0
  0
LINE
  5
2A5
100
AcDbEntity
  8
0
  6
CONTINUOUS
 62
               7
100
AcDbLine
 10
70.199999999999989
 20
13.300000000000068
 30
0.0
 11
70.5
 21
13.0
 31
0.0
  0
LINE
  5
2A6
100
AcDbEntity
  8
0
  6
CONTINUOUS
 62
               7
100
AcDbLine
 10
70.5
 20
10.60000000000008
 30
0.0
 11
70.199999999999989
 21
10.300000000000068
 31
0.0
  0
LINE
  5
2A7
100
AcDbEntity
  8
0
  6
CONTINUOUS
 62
               7
100
AcDbLine
 10
70.199999999999989
 20
10.300000018429216
 30
0.0
 11
70.199999999999989
 21
13.300000018429216
 31
0.0
  0
LINE
  5
2A8
100
AcDbEntity
  8
0
  6
CONTINUOUS
 62
               2
100
AcDbLine
 10
54.500000024960229
 20
11.800000000000011
 30
0.0
 11
71.500000024960229
 21
11.800000000000011
 31
0.0
  0
ARC
  5
2A9
100
AcDbEntity
  8
0
  6
CONTINUOUS
 62
               7
100
AcDbCircle
 10
58.5
 20
11.800000000000011
 30
0.0
 40
3.0
100
AcDbArc
 50
149.99999999999906
 51
209.99999999999906
  0
LINE
  5
2AA
100
AcDbEntity
  8
0
  6
CONTINUOUS
 62
               7
100
AcDbLine
 10
55.901923788646741
 20
13.300000000000068
 30
0.0
 11
55.901923788646741
 21
10.300000000000068
 31
0.0
  0
ARC
  5
2AB
100
AcDbEntity
  8
0
  6
CONTINUOUS
 62
               7
100
AcDbCircle
 10
61.994298458099365
 20
14.181569862365734
 30
0.0
 40
1.40570068359375
100
AcDbArc
 50
325.61564427419654
 51
25.615686924983695
  0
ARC
  5
2AC
100
AcDbEntity
  8
0
  6
CONTINUOUS
 62
               7
100
AcDbCircle
 10
58.145624160766602
 20
11.800000000000011
 30
0.0
 40
5.2543754577636719
100
AcDbArc
 50
342.41200834898501
 51
17.587919706657587
  0
ARC
  5
2AD
100
AcDbEntity
  8
0
  6
CONTINUOUS
 62
               7
100
AcDbCircle
 10
61.994298458099365
 20
9.4184301376342887
 30
0.0
 40
1.40570068359375
100
AcDbArc
 50
334.38418648914558
 51
34.384229139932707
  0
LINE
  5
2AE
100
AcDbEntity
  8
0
  6
CONTINUOUS
 62
               7
100
AcDbLine
 10
63.399998511916806
 20
14.549998786145295
 30
0.0
 11
63.154378319775333
 21
14.975425590653572
 31
0.0
  0
LINE
  5
2AF
100
AcDbEntity
  8
0
  6
CONTINUOUS
 62
               7
100
AcDbLine
 10
63.154378890991211
 20
14.975425529479992
 30
0.0
 11
61.0
 21
14.975425529479992
 31
0.0
  0
LINE
  5
2B0
100
AcDbEntity
  8
0
  6
CONTINUOUS
 62
               7
100
AcDbLine
 10
63.154379844665527
 20
13.38771324157716
 30
0.0
 11
61.0
 21
13.38771324157716
 31
0.0
  0
LINE
  5
2B1
100
AcDbEntity
  8
0
  6
CONTINUOUS
 62
               7
100
AcDbLine
 10
63.154379844665527
 20
10.212286758422863
 30
0.0
 11
61.0
 21
10.212286758422863
 31
0.0
  0
LINE
  5
2B2
100
AcDbEntity
  8
0
  6
CONTINUOUS
 62
               7
100
AcDbLine
 10
63.399999618530273
 20
9.0500000000000114
 30
0.0
 11
63.399999618530273
 21
14.549999046325695
 31
0.0
  0
LINE
  5
2B3
100
AcDbEntity
  8
0
  6
CONTINUOUS
 62
               7
100
AcDbLine
 10
63.399999394635188
 20
9.050000132741161
 30
0.0
 11
63.154379026812421
 21
8.6245734453537466
 31
0.0
  0
LINE
  5
2B4
100
AcDbEntity
  8
0
  6
CONTINUOUS
 62
               7
100
AcDbLine
 10
63.154378890991211
 20
8.6245735168457145
 30
0.0
 11
61.0
 21
8.6245735168457145
 31
0.0
  0
LINE
  5
2B5
100
AcDbEntity
  8
0
  6
CONTINUOUS
 62
               7
100
AcDbLine
 10
56.0
 20
14.000000000000057
 30
0.0
 11
61.0
 21
14.000000000000057
 31
0.0
  0
LINE
  5
2B6
100
AcDbEntity
  8
0
  6
CONTINUOUS
 62
               7
100
AcDbLine
 10
56.0
 20
14.000000000000057
 30
0.0
 11
56.0
 21
7.5
 31
0.0
  0
LINE
  5
2B7
100
AcDbEntity
  8
0
  6
CONTINUOUS
 62
               7
100
AcDbLine
 10
51.0
 20
12.0
 30
0.0
 11
51.0
 21
14.0
 31
0.0
  0
LINE
  5
2B8
100
AcDbEntity
  8
0
  6
CONTINUOUS
 62
               7
100
AcDbLine
 10
51.0
 20
14.0
 30
0.0
 11
55.5
 21
14.0
 31
0.0
  0
LINE
  5
2B9
100
AcDbEntity
  8
0
  6
CONTINUOUS
 62
               7
100
AcDbLine
 10
53.999999975856099
 20
0.2000000000000455
 30
0.0
 11
61.0
 21
0.2000000000000455
 31
0.0
  0
LINE
  5
2BA
100
AcDbEntity
  8
0
  6
CONTINUOUS
 62
               7
100
AcDbLine
 10
61.899999982139263
 20
5.25
 30
0.0
 11
61.0
 21
5.25
 31
0.0
  0
LINE
  5
2BB
100
AcDbEntity
  8
0
  6
CONTINUOUS
 62
               7
100
AcDbLine
 10
61.899999982139263
 20
0.75
 30
0.0
 11
61.0
 21
0.75
 31
0.0
  0
LINE
  5
2BC
100
AcDbEntity
  8
0
  6
CONTINUOUS
 62
               7
100
AcDbLine
 10
62.200000000000017
 20
1.0499999970304543
 30
0.0
 11
62.200000000000017
 21
4.9499999731885964
 31
0.0
  0
LINE
  5
2BD
100
AcDbEntity
  8
0
  6
CONTINUOUS
 62
               7
100
AcDbLine
 10
61.899999982139263
 20
5.25
 30
0.0
 11
62.200000000000045
 21
4.9499999821392748
 31
0.0
  0
LINE
  5
2BE
100
AcDbEntity
  8
0
  6
CONTINUOUS
 62
               7
100
AcDbLine
 10
62.200000000000017
 20
1.0499999970304543
 30
0.0
 11
61.900000002969563
 21
0.75
 31
0.0
  0
LINE
  5
2BF
100
AcDbEntity
  8
0
  6
CONTINUOUS
 62
               7
100
AcDbLine
 10
61.899999982139263
 20
5.25
 30
0.0
 11
61.899999982139263
 21
0.75
 31
0.0
  0
LINE
  5
2C0
100
AcDbEntity
  8
0
  6
CONTINUOUS
 62
               2
100
AcDbLine
 10
58.117809650459378
 20
4.5000000000000568
 30
0.0
 11
91.999999997462737
 21
4.5000000000000568
 31
0.0
  0
LINE
  5
2C1
100
AcDbEntity
  8
0
  6
CONTINUOUS
 62
               7
100
AcDbLine
 10
55.5
 20
14.0
 30
0.0
 11
55.5
 21
8.2000000000000455
 31
0.0
  0
ARC
  5
2C2
100
AcDbEntity
  8
0
  6
CONTINUOUS
 62
               7
100
AcDbCircle
 10
55.700000000000017
 20
10.200000000000045
 30
0.0
 40
0.3
100
AcDbArc
 50
0.0
 51
90.0
  0
ARC
  5
2C3
100
AcDbEntity
  8
0
  6
CONTINUOUS
 62
               7
100
AcDbCircle
 10
55.700000000000017
 20
8.8000000000000114
 30
0.0
 40
0.3
100
AcDbArc
 50
270.0
 51
0.0
  0
LINE
  5
2C4
100
AcDbEntity
  8
0
  6
CONTINUOUS
 62
               7
100
AcDbLine
 10
55.5
 20
10.5
 30
0.0
 11
55.700000000000017
 21
10.5
 31
0.0
  0
LINE
  5
2C5
100
AcDbEntity
  8
0
  6
CONTINUOUS
 62
               7
100
AcDbLine
 10
55.5
 20
8.5
 30
0.0
 11
55.700000000000017
 21
8.5
 31
0.0
  0
LINE
  5
2C6
100
AcDbEntity
  8
0
  6
CONTINUOUS
 62
               7
100
AcDbLine
 10
54.000000001754415
 20
8.2000000000000455
 30
0.0
 11
55.500000001754415
 21
8.2000000000000455
 31
0.0
  0
LINE
  5
2C7
100
AcDbEntity
  8
0
  6
CONTINUOUS
 62
               2
100
AcDbLine
 10
-2.0000000025372628
 20
5.0
 30
0.0
 11
2.0
 21
5.0
 31
0.0
  0
LINE
  5
2C8
100
AcDbEntity
  8
0
  6
CONTINUOUS
 62
               2
100
AcDbLine
 10
25.999999997462737
 20
2.0
 30
0.0
 11
25.999999997462737
 21
-2.0
 31
0.0
  0
LINE
  5
2C9
100
AcDbEntity
  8
0
  6
CONTINUOUS
 62
               2
100
AcDbLine
 10
41.999999997462723
 20
2.0
 30
0.0
 11
41.999999997462723
 21
-2.0
 31
0.0
  0
LINE
  5
2CA
100
AcDbEntity
  8
0
  6
PHANTOM
 62
               3
100
AcDbLine
 10
35.869661474482136
 20
6.49083181506046
 30
0.0
 11
35.869661474482136
 21
-16.043159770880237
 31
0.0
  0
LINE
  5
2CB
100
AcDbEntity
  8
0
  6
PHANTOM
 62
               3
100
AcDbLine
 10
31.914710165041672
 20
24.0208862677155
 30
0.0
 11
31.914710165041672
 21
6.49083181506046
 31
0.0
  0
LINE
  5
2CC
100
AcDbEntity
  8
0
  6
PHANTOM
 62
               3
100
AcDbLine
 10
73.207390279357412
 20
28.089705290192356
 30
0.0
 11
73.207390279357412
 21
-16.043159770880237
 31
0.0
  0
ENDBLK
  5
2CD
100
AcDbEntity
  8
0
100
AcDbBlockEnd
  0
BLOCK
  5
2CE
100
AcDbEntity
  8
0
100
AcDbBlockBegin
  2
MGAEG6-6
 70
               0
 10
0.0
 20
0.0
 30
0.0
  3
MGAEG6-6
  1

  0
LINE
  5
2CF
100
AcDbEntity
  8
0
  6
CONTINUOUS
 62
               7
100
AcDbLine
 10
18.5
 20
3.3000000000000114
 30
0.0
 11
18.5
 21
1.5
 31
0.0
  0
LINE
  5
2D0
100
AcDbEntity
  8
0
  6
CONTINUOUS
 62
               7
100
AcDbLine
 10
18.0
 20
1.5
 30
0.0
 11
18.0
 21
2.2000000000000028
 31
0.0
  0
LINE
  5
2D1
100
AcDbEntity
  8
0
  6
CONTINUOUS
 62
               7
100
AcDbLine
 10
18.5
 20
3.3000000000000114
 30
0.0
 11
19.0
 21
3.3000000000000114
 31
0.0
  0
LINE
  5
2D2
100
AcDbEntity
  8
0
  6
CONTINUOUS
 62
               7
100
AcDbLine
 10
18.5
 20
2.5
 30
0.0
 11
18.300000000000011
 21
2.5
 31
0.0
  0
ARC
  5
2D3
100
AcDbEntity
  8
0
  6
CONTINUOUS
 62
               7
100
AcDbCircle
 10
18.300000000000011
 20
2.2000000000000028
 30
0.0
 40
0.3
100
AcDbArc
 50
90.0
 51
180.0
  0
LINE
  5
2D4
100
AcDbEntity
  8
0
  6
CONTINUOUS
 62
               7
100
AcDbLine
 10
18.5
 20
-1.5
 30
0.0
 11
18.5
 21
-3.2999999999999972
 31
0.0
  0
LINE
  5
2D5
100
AcDbEntity
  8
0
  6
CONTINUOUS
 62
               7
100
AcDbLine
 10
18.0
 20
-2.2000000000000028
 30
0.0
 11
18.0
 21
-1.5
 31
0.0
  0
LINE
  5
2D6
100
AcDbEntity
  8
0
  6
CONTINUOUS
 62
               7
100
AcDbLine
 10
18.5
 20
-3.2999999999999972
 30
0.0
 11
19.0
 21
-3.2999999999999972
 31
0.0
  0
ARC
  5
2D7
100
AcDbEntity
  8
0
  6
CONTINUOUS
 62
               7
100
AcDbCircle
 10
18.300000000000011
 20
-2.2000000000000028
 30
0.0
 40
0.3
100
AcDbArc
 50
180.0
 51
270.0
  0
LINE
  5
2D8
100
AcDbEntity
  8
0
  6
CONTINUOUS
 62
               7
100
AcDbLine
 10
18.5
 20
-2.5
 30
0.0
 11
18.300000000000011
 21
-2.5
 31
0.0
  0
LINE
  5
2D9
100
AcDbEntity
  8
0
  6
CONTINUOUS
 62
               7
100
AcDbLine
 10
17.500000000000057
 20
1.5
 30
0.0
 11
19.0
 21
1.5
 31
0.0
  0
LINE
  5
2DA
100
AcDbEntity
  8
0
  6
CONTINUOUS
 62
               7
100
AcDbLine
 10
17.500000000000057
 20
-1.5
 30
0.0
 11
19.0
 21
-1.5
 31
0.0
  0
LINE
  5
2DB
100
AcDbEntity
  8
0
  6
CONTINUOUS
 62
               7
100
AcDbLine
 10
14.999999975856042
 20
2.0
 30
0.0
 11
14.999999975856042
 21
3.0
 31
0.0
  0
LINE
  5
2DC
100
AcDbEntity
  8
0
  6
CONTINUOUS
 62
               7
100
AcDbLine
 10
14.999999975856042
 20
-2.0
 30
0.0
 11
14.999999975856042
 21
-3.0
 31
0.0
  0
LINE
  5
2DD
100
AcDbEntity
  8
0
  6
CONTINUOUS
 62
               7
100
AcDbLine
 10
14.999999975856042
 20
-3.0
 30
0.0
 11
15.999999975856042
 21
-3.0
 31
0.0
  0
LINE
  5
2DE
100
AcDbEntity
  8
0
  6
CONTINUOUS
 62
               7
100
AcDbLine
 10
14.999999975856042
 20
3.0
 30
0.0
 11
15.999999975856042
 21
3.0
 31
0.0
  0
LINE
  5
2DF
100
AcDbEntity
  8
0
  6
CONTINUOUS
 62
               7
100
AcDbLine
 10
8.9999999758560421
 20
-4.0
 30
0.0
 11
15.999999975856042
 21
-4.0
 31
0.0
  0
LINE
  5
2E0
100
AcDbEntity
  8
0
  6
CONTINUOUS
 62
               7
100
AcDbLine
 10
8.9999999758560421
 20
4.0
 30
0.0
 11
15.999999975856042
 21
4.0
 31
0.0
  0
LINE
  5
2E1
100
AcDbEntity
  8
0
  6
CONTINUOUS
 62
               7
100
AcDbLine
 10
11.300000000000068
 20
-2.0
 30
0.0
 11
15.500000000000085
 21
-2.0
 31
0.0
  0
LINE
  5
2E2
100
AcDbEntity
  8
0
  6
CONTINUOUS
 62
               7
100
AcDbLine
 10
11.300000000000068
 20
2.0
 30
0.0
 11
15.500000000000085
 21
2.0
 31
0.0
  0
LINE
  5
2E3
100
AcDbEntity
  8
0
  6
CONTINUOUS
 62
               7
100
AcDbLine
 10
11.300000000000068
 20
-2.5
 30
0.0
 11
9.8000000000000682
 21
-2.5
 31
0.0
  0
LINE
  5
2E4
100
AcDbEntity
  8
0
  6
CONTINUOUS
 62
               7
100
AcDbLine
 10
15.500000000000085
 20
-2.5
 30
0.0
 11
16.800000000000068
 21
-2.5
 31
0.0
  0
LINE
  5
2E5
100
AcDbEntity
  8
0
  6
PHANTOM
 62
               2
100
AcDbLine
 10
9.9500000000000455
 20
-3.0
 30
0.0
 11
16.650000000000034
 21
-3.0
 31
0.0
  0
CIRCLE
  5
2E6
100
AcDbEntity
  8
0
  6
CONTINUOUS
 62
               7
100
AcDbCircle
 10
16.650000000000063
 20
-2.8500000000000085
 30
0.0
 40
0.15
  0
LINE
  5
2E7
100
AcDbEntity
  8
0
  6
PHANTOM
 62
               2
100
AcDbLine
 10
9.9500000000000455
 20
-2.7000000000000028
 30
0.0
 11
16.650000000000034
 21
-2.7000000000000028
 31
0.0
  0
CIRCLE
  5
2E8
100
AcDbEntity
  8
0
  6
CONTINUOUS
 62
               7
100
AcDbCircle
 10
9.9500000000000455
 20
-2.8500000000000085
 30
0.0
 40
0.15
  0
LINE
  5
2E9
100
AcDbEntity
  8
0
  6
CONTINUOUS
 62
               7
100
AcDbLine
 10
6.7999999999999829
 20
-2.0
 30
0.0
 11
9.0
 21
-2.0
 31
0.0
  0
LINE
  5
2EA
100
AcDbEntity
  8
0
  6
CONTINUOUS
 62
               7
100
AcDbLine
 10
9.0
 20
-3.7000000000000028
 30
0.0
 11
9.8000000000000682
 21
-3.7000000000000028
 31
0.0
  0
LINE
  5
2EB
100
AcDbEntity
  8
0
  6
CONTINUOUS
 62
               7
100
AcDbLine
 10
9.0
 20
3.7000000000000028
 30
0.0
 11
9.8000000000000682
 21
3.7000000000000028
 31
0.0
  0
LINE
  5
2EC
100
AcDbEntity
  8
0
  6
PHANTOM
 62
               2
100
AcDbLine
 10
9.9500000000000455
 20
3.0
 30
0.0
 11
16.650000000000034
 21
3.0
 31
0.0
  0
LINE
  5
2ED
100
AcDbEntity
  8
0
  6
CONTINUOUS
 62
               7
100
AcDbLine
 10
15.500000000000085
 20
2.5
 30
0.0
 11
16.800000000000068
 21
2.5
 31
0.0
  0
LINE
  5
2EE
100
AcDbEntity
  8
0
  6
CONTINUOUS
 62
               7
100
AcDbLine
 10
16.800000000000068
 20
3.5
 30
0.0
 11
16.800000000000068
 21
-3.5
 31
0.0
  0
LINE
  5
2EF
100
AcDbEntity
  8
0
  6
CONTINUOUS
 62
               7
100
AcDbLine
 10
11.300000000000068
 20
2.5
 30
0.0
 11
11.300000000000068
 21
-2.5
 31
0.0
  0
LINE
  5
2F0
100
AcDbEntity
  8
0
  6
CONTINUOUS
 62
               7
100
AcDbLine
 10
11.300000000000068
 20
2.5
 30
0.0
 11
9.8000000000000682
 21
2.5
 31
0.0
  0
CIRCLE
  5
2F1
100
AcDbEntity
  8
0
  6
CONTINUOUS
 62
               7
100
AcDbCircle
 10
16.650000000000063
 20
2.8500000000000085
 30
0.0
 40
0.15
  0
CIRCLE
  5
2F2
100
AcDbEntity
  8
0
  6
CONTINUOUS
 62
               7
100
AcDbCircle
 10
9.9500000000000455
 20
2.8500000000000085
 30
0.0
 40
0.15
  0
LINE
  5
2F3
100
AcDbEntity
  8
0
  6
PHANTOM
 62
               2
100
AcDbLine
 10
9.9500000000000455
 20
2.7000000000000028
 30
0.0
 11
16.650000000000034
 21
2.7000000000000028
 31
0.0
  0
LINE
  5
2F4
100
AcDbEntity
  8
0
  6
CONTINUOUS
 62
               7
100
AcDbLine
 10
9.8000000000000682
 20
3.7000000000000028
 30
0.0
 11
9.8000000000000682
 21
-3.7000000000000028
 31
0.0
  0
LINE
  5
2F5
100
AcDbEntity
  8
0
  6
CONTINUOUS
 62
               7
100
AcDbLine
 10
15.500000000000085
 20
2.5
 30
0.0
 11
15.500000000000085
 21
-2.5
 31
0.0
  0
LINE
  5
2F6
100
AcDbEntity
  8
0
  6
CONTINUOUS
 62
               7
100
AcDbLine
 10
6.7999999999999829
 20
2.0
 30
0.0
 11
9.0
 21
2.0
 31
0.0
  0
LINE
  5
2F7
100
AcDbEntity
  8
0
  6
CONTINUOUS
 62
               7
100
AcDbLine
 10
17.500000000000057
 20
3.2000000000000028
 30
0.0
 11
17.500000000000057
 21
-3.2000000000000028
 31
0.0
  0
LINE
  5
2F8
100
AcDbEntity
  8
0
  6
CONTINUOUS
 62
               7
100
AcDbLine
 10
6.7999999999999829
 20
2.4999999999999858
 30
0.0
 11
9.0
 21
2.4999999999999858
 31
0.0
  0
LINE
  5
2F9
100
AcDbEntity
  8
0
  6
CONTINUOUS
 62
               7
100
AcDbLine
 10
6.7999999999999829
 20
-2.5
 30
0.0
 11
9.0
 21
-2.5
 31
0.0
  0
LINE
  5
2FA
100
AcDbEntity
  8
0
  6
CONTINUOUS
 62
               7
100
AcDbLine
 10
4.2999999999999829
 20
-3.7000000000000028
 30
0.0
 11
6.7999999999999829
 21
-3.7000000000000028
 31
0.0
  0
LINE
  5
2FB
100
AcDbEntity
  8
0
  6
CONTINUOUS
 62
               7
100
AcDbLine
 10
4.2999999999999829
 20
3.7000000000000028
 30
0.0
 11
6.7999999999999829
 21
3.7000000000000028
 31
0.0
  0
LINE
  5
2FC
100
AcDbEntity
  8
0
  6
CONTINUOUS
 62
               7
100
AcDbLine
 10
4.2999999999999829
 20
-3.7000000000000028
 30
0.0
 11
4.2999999999999829
 21
3.7000000000000028
 31
0.0
  0
LINE
  5
2FD
100
AcDbEntity
  8
0
  6
CONTINUOUS
 62
               7
100
AcDbLine
 10
6.7999999999999829
 20
-4.2000000000000028
 30
0.0
 11
6.7999999999999829
 21
4.2000000000000028
 31
0.0
  0
LINE
  5
2FE
100
AcDbEntity
  8
0
  6
CONTINUOUS
 62
               7
100
AcDbLine
 10
0.0
 20
-4.2000000000000028
 30
0.0
 11
6.7999999999999829
 21
-4.2000000000000028
 31
0.0
  0
LINE
  5
2FF
100
AcDbEntity
  8
0
  6
CONTINUOUS
 62
               7
100
AcDbLine
 10
0.0
 20
4.2000000000000028
 30
0.0
 11
6.7999999999999829
 21
4.2000000000000028
 31
0.0
  0
LINE
  5
300
100
AcDbEntity
  8
0
  6
CONTINUOUS
 62
               7
100
AcDbLine
 10
15.999999975856042
 20
3.4000000000000057
 30
0.0
 11
16.800000000000068
 21
3.4000000000000057
 31
0.0
  0
LINE
  5
301
100
AcDbEntity
  8
0
  6
CONTINUOUS
 62
               7
100
AcDbLine
 10
15.999999975856042
 20
-3.4000000000000057
 30
0.0
 11
16.800000000000068
 21
-3.4000000000000057
 31
0.0
  0
LINE
  5
302
100
AcDbEntity
  8
0
  6
CONTINUOUS
 62
               7
100
AcDbLine
 10
16.800000000000068
 20
3.5
 30
0.0
 11
17.30000000000004
 21
3.5
 31
0.0
  0
LINE
  5
303
100
AcDbEntity
  8
0
  6
CONTINUOUS
 62
               7
100
AcDbLine
 10
16.800000000000068
 20
-3.5
 30
0.0
 11
17.30000000000004
 21
-3.5
 31
0.0
  0
LINE
  5
304
100
AcDbEntity
  8
0
  6
CONTINUOUS
 62
               7
100
AcDbLine
 10
17.30000000000004
 20
3.2000000000000028
 30
0.0
 11
17.500000000000057
 21
3.2000000000000028
 31
0.0
  0
LINE
  5
305
100
AcDbEntity
  8
0
  6
CONTINUOUS
 62
               7
100
AcDbLine
 10
17.30000000000004
 20
-3.2000000000000028
 30
0.0
 11
17.500000000000057
 21
-3.2000000000000028
 31
0.0
  0
LINE
  5
306
100
AcDbEntity
  8
0
  6
CONTINUOUS
 62
               7
100
AcDbLine
 10
17.30000000000004
 20
3.5
 30
0.0
 11
17.30000000000004
 21
-3.5
 31
0.0
  0
LINE
  5
307
100
AcDbEntity
  8
0
  6
CONTINUOUS
 62
               7
100
AcDbLine
 10
17.30000000000004
 20
3.4000000000000057
 30
0.0
 11
19.0
 21
3.4000000000000057
 31
0.0
  0
LINE
  5
308
100
AcDbEntity
  8
0
  6
CONTINUOUS
 62
               7
100
AcDbLine
 10
17.30000000000004
 20
-3.4000000000000057
 30
0.0
 11
19.0
 21
-3.4000000000000057
 31
0.0
  0
LINE
  5
309
100
AcDbEntity
  8
0
  6
CONTINUOUS
 62
               2
100
AcDbLine
 10
17.500000000000057
 20
-1.2999999999999972
 30
0.0
 11
17.846410161513802
 21
-1.5
 31
0.0
  0
LINE
  5
30A
100
AcDbEntity
  8
0
  6
CONTINUOUS
 62
               2
100
AcDbLine
 10
17.500000000000057
 20
1.2999999999999972
 30
0.0
 11
17.846410161513802
 21
1.5
 31
0.0
  0
LINE
  5
30B
100
AcDbEntity
  8
0
  6
CONTINUOUS
 62
               7
100
AcDbLine
 10
15.999999975856042
 20
-3.0
 30
0.0
 11
15.999999975856042
 21
-10.0
 31
0.0
  0
LINE
  5
30C
100
AcDbEntity
  8
0
  6
CONTINUOUS
 62
               7
100
AcDbLine
 10
9.0
 20
-10.0
 30
0.0
 11
9.0
 21
10.0
 31
0.0
  0
LINE
  5
30D
100
AcDbEntity
  8
0
  6
CONTINUOUS
 62
               7
100
AcDbLine
 10
15.999999975856042
 20
3.0
 30
0.0
 11
15.999999975856042
 21
10.0
 31
0.0
  0
LINE
  5
30E
100
AcDbEntity
  8
0
  6
CONTINUOUS
 62
               7
100
AcDbLine
 10
0.0
 20
10.00000001369061
 30
0.0
 11
0.0
 21
-9.9999999863093905
 31
0.0
  0
LINE
  5
30F
100
AcDbEntity
  8
0
  6
CONTINUOUS
 62
               7
100
AcDbLine
 10
0.0000000273479657
 20
10.0
 30
0.0
 11
53.999999999999986
 21
10.0
 31
0.0
  0
LINE
  5
310
100
AcDbEntity
  8
0
  6
CONTINUOUS
 62
               7
100
AcDbLine
 10
0.0000000273479657
 20
-10.0
 30
0.0
 11
53.999999999999986
 21
-10.0
 31
0.0
  0
LINE
  5
311
100
AcDbEntity
  8
0
  6
CONTINUOUS
 62
               7
100
AcDbLine
 10
53.999999999999986
 20
10.0
 30
0.0
 11
53.999999999999986
 21
-10.0
 31
0.0
  0
LINE
  5
312
100
AcDbEntity
  8
0
  6
CONTINUOUS
 62
               7
100
AcDbLine
 10
18.999999975856042
 20
-9.5
 30
0.0
 11
53.999999999999986
 21
-9.5
 31
0.0
  0
LINE
  5
313
100
AcDbEntity
  8
0
  6
CONTINUOUS
 62
               7
100
AcDbLine
 10
18.999999975856042
 20
9.5
 30
0.0
 11
53.999999999999986
 21
9.5
 31
0.0
  0
LINE
  5
314
100
AcDbEntity
  8
0
  6
CONTINUOUS
 62
               7
100
AcDbLine
 10
19.0
 20
9.5
 30
0.0
 11
19.0
 21
-9.4999999863093905
 31
0.0
  0
LINE
  5
315
100
AcDbEntity
  8
0
  6
CENTER
 62
               2
100
AcDbLine
 10
-4.0
 20
0.0
 30
0.0
 11
92.0
 21
0.0
 31
0.0
  0
LINE
  5
316
100
AcDbEntity
  8
0
  6
CONTINUOUS
 62
               2
100
AcDbLine
 10
36.5
 20
-7.0
 30
0.0
 11
31.5
 21
-7.0
 31
0.0
  0
CIRCLE
  5
317
100
AcDbEntity
  8
0
  6
CONTINUOUS
 62
               7
100
AcDbCircle
 10
34.0
 20
-7.0
 30
0.0
 40
1.5
  0
LINE
  5
318
100
AcDbEntity
  8
0
  6
CONTINUOUS
 62
               2
100
AcDbLine
 10
34.0
 20
-4.5
 30
0.0
 11
34.0
 21
-9.5
 31
0.0
  0
LINE
  5
319
100
AcDbEntity
  8
0
  6
CONTINUOUS
 62
               2
100
AcDbLine
 10
34.0
 20
9.8000000256115385
 30
0.0
 11
34.0
 21
4.2000000017696806
 31
0.0
  0
ARC
  5
31A
100
AcDbEntity
  8
0
  6
CONTINUOUS
 62
               7
100
AcDbCircle
 10
34.0
 20
7.5
 30
0.0
 40
1.5
100
AcDbArc
 50
0.0
 51
180.0
  0
LINE
  5
31B
100
AcDbEntity
  8
0
  6
CONTINUOUS
 62
               2
100
AcDbLine
 10
31.699999999999989
 20
7.0
 30
0.0
 11
36.299999999999983
 21
7.0
 31
0.0
  0
ARC
  5
31C
100
AcDbEntity
  8
0
  6
CONTINUOUS
 62
               7
100
AcDbCircle
 10
34.0
 20
6.5
 30
0.0
 40
1.5
100
AcDbArc
 50
180.0
 51
0.0
  0
LINE
  5
31D
100
AcDbEntity
  8
0
  6
CONTINUOUS
 62
               7
100
AcDbLine
 10
32.5
 20
6.5
 30
0.0
 11
32.5
 21
7.5
 31
0.0
  0
CIRCLE
  5
31E
100
AcDbEntity
  8
0
  6
CONTINUOUS
 62
               7
100
AcDbCircle
 10
26.0
 20
7.0
 30
0.0
 40
1.25
  0
LINE
  5
31F
100
AcDbEntity
  8
0
  6
CONTINUOUS
 62
               2
100
AcDbLine
 10
23.5
 20
7.0
 30
0.0
 11
28.499999999999943
 21
7.0
 31
0.0
  0
CIRCLE
  5
320
100
AcDbEntity
  8
0
  6
CONTINUOUS
 62
               2
100
AcDbCircle
 10
26.0
 20
7.0
 30
0.0
 40
1.5
  0
LINE
  5
321
100
AcDbEntity
  8
0
  6
CONTINUOUS
 62
               2
100
AcDbLine
 10
26.0
 20
9.5
 30
0.0
 11
26.0
 21
4.5
 31
0.0
  0
CIRCLE
  5
322
100
AcDbEntity
  8
0
  6
CONTINUOUS
 62
               7
100
AcDbCircle
 10
41.999999999999986
 20
7.0
 30
0.0
 40
1.25
  0
LINE
  5
323
100
AcDbEntity
  8
0
  6
CONTINUOUS
 62
               2
100
AcDbLine
 10
39.499999999999986
 20
7.0
 30
0.0
 11
44.499999999999957
 21
7.0
 31
0.0
  0
CIRCLE
  5
324
100
AcDbEntity
  8
0
  6
CONTINUOUS
 62
               2
100
AcDbCircle
 10
41.999999999999986
 20
7.0
 30
0.0
 40
1.5
  0
LINE
  5
325
100
AcDbEntity
  8
0
  6
CONTINUOUS
 62
               2
100
AcDbLine
 10
41.999999999999986
 20
9.5
 30
0.0
 11
41.999999999999986
 21
4.5
 31
0.0
  0
CIRCLE
  5
326
100
AcDbEntity
  8
0
  6
CONTINUOUS
 62
               7
100
AcDbCircle
 10
26.0
 20
-7.0
 30
0.0
 40
1.25
  0
LINE
  5
327
100
AcDbEntity
  8
0
  6
CONTINUOUS
 62
               2
100
AcDbLine
 10
23.5
 20
-7.0
 30
0.0
 11
28.499999999999943
 21
-7.0
 31
0.0
  0
CIRCLE
  5
328
100
AcDbEntity
  8
0
  6
CONTINUOUS
 62
               2
100
AcDbCircle
 10
26.0
 20
-7.0
 30
0.0
 40
1.5
  0
LINE
  5
329
100
AcDbEntity
  8
0
  6
CONTINUOUS
 62
               2
100
AcDbLine
 10
26.0
 20
-4.5
 30
0.0
 11
26.0
 21
-9.5
 31
0.0
  0
CIRCLE
  5
32A
100
AcDbEntity
  8
0
  6
CONTINUOUS
 62
               7
100
AcDbCircle
 10
41.999999999999986
 20
-7.0
 30
0.0
 40
1.25
  0
LINE
  5
32B
100
AcDbEntity
  8
0
  6
CONTINUOUS
 62
               2
100
AcDbLine
 10
39.499999999999986
 20
-7.0
 30
0.0
 11
44.499999999999957
 21
-7.0
 31
0.0
  0
CIRCLE
  5
32C
100
AcDbEntity
  8
0
  6
CONTINUOUS
 62
               2
100
AcDbCircle
 10
41.999999999999986
 20
-7.0
 30
0.0
 40
1.5
  0
LINE
  5
32D
100
AcDbEntity
  8
0
  6
CONTINUOUS
 62
               2
100
AcDbLine
 10
41.999999999999986
 20
-4.5
 30
0.0
 11
41.999999999999986
 21
-9.5
 31
0.0
  0
LINE
  5
32E
100
AcDbEntity
  8
0
  6
CONTINUOUS
 62
               7
100
AcDbLine
 10
19.0
 20
-2.7000000000000028
 30
0.0
 11
53.999999999999986
 21
-2.7000000000000028
 31
0.0
  0
LINE
  5
32F
100
AcDbEntity
  8
0
  6
CONTINUOUS
 62
               7
100
AcDbLine
 10
19.0
 20
-2.4000000000000057
 30
0.0
 11
53.999999999999986
 21
-2.4000000000000057
 31
0.0
  0
LINE
  5
330
100
AcDbEntity
  8
0
  6
CONTINUOUS
 62
               7
100
AcDbLine
 10
19.0
 20
2.7000000000000028
 30
0.0
 11
53.999999999999986
 21
2.7000000000000028
 31
0.0
  0
LINE
  5
331
100
AcDbEntity
  8
0
  6
CONTINUOUS
 62
               7
100
AcDbLine
 10
19.0
 20
2.4000000000000057
 30
0.0
 11
53.999999999999986
 21
2.4000000000000057
 31
0.0
  0
LINE
  5
332
100
AcDbEntity
  8
0
  6
CONTINUOUS
 62
               7
100
AcDbLine
 10
35.5
 20
6.5
 30
0.0
 11
35.5
 21
7.5
 31
0.0
  0
LINE
  5
333
100
AcDbEntity
  8
0
  6
CONTINUOUS
 62
               7
100
AcDbLine
 10
83.035898334623312
 20
0.0
 30
0.0
 11
79.5
 21
0.0
 31
0.0
  0
LINE
  5
334
100
AcDbEntity
  8
0
  6
CONTINUOUS
 62
               7
100
AcDbLine
 10
83.745620126413058
 20
0.0
 30
0.0
 11
85.654379873586919
 21
0.0
 31
0.0
  0
LINE
  5
335
100
AcDbEntity
  8
0
  6
CONTINUOUS
 62
               7
100
AcDbLine
 10
76.0
 20
2.9000000000000341
 30
0.0
 11
76.0
 21
-2.8999999999999773
 31
0.0
  0
LINE
  5
336
100
AcDbEntity
  8
0
  6
CONTINUOUS
 62
               7
100
AcDbLine
 10
79.5
 20
3.0
 30
0.0
 11
79.5
 21
-3.0
 31
0.0
  0
LINE
  5
337
100
AcDbEntity
  8
0
  6
CONTINUOUS
 62
               7
100
AcDbLine
 10
83.5
 20
3.0
 30
0.0
 11
83.5
 21
-3.0
 31
0.0
  0
LINE
  5
338
100
AcDbEntity
  8
0
  6
CONTINUOUS
 62
               7
100
AcDbLine
 10
88.0
 20
1.2000000000000455
 30
0.0
 11
88.0
 21
-1.1999999999999886
 31
0.0
  0
LINE
  5
339
100
AcDbEntity
  8
0
  6
CONTINUOUS
 62
               7
100
AcDbLine
 10
87.699999999999989
 20
1.5
 30
0.0
 11
88.0
 21
1.2000000000000455
 31
0.0
  0
LINE
  5
33A
100
AcDbEntity
  8
0
  6
CONTINUOUS
 62
               7
100
AcDbLine
 10
79.5
 20
3.0
 30
0.0
 11
83.5
 21
3.0
 31
0.0
  0
LINE
  5
33B
100
AcDbEntity
  8
0
  6
CONTINUOUS
 62
               7
100
AcDbLine
 10
79.5
 20
-3.0
 30
0.0
 11
83.5
 21
-3.0
 31
0.0
  0
LINE
  5
33C
100
AcDbEntity
  8
0
  6
CONTINUOUS
 62
               7
100
AcDbLine
 10
87.699999999999989
 20
-1.5
 30
0.0
 11
88.0
 21
-1.1999999999999886
 31
0.0
  0
LINE
  5
33D
100
AcDbEntity
  8
0
  6
CONTINUOUS
 62
               7
100
AcDbLine
 10
83.499999994920444
 20
2.7499999267047883
 30
0.0
 11
85.900000005079534
 21
2.7499999267047883
 31
0.0
  0
LINE
  5
33E
100
AcDbEntity
  8
0
  6
CONTINUOUS
 62
               7
100
AcDbLine
 10
83.5
 20
-2.7499999355027285
 30
0.0
 11
85.899999999999977
 21
-2.7499999355027285
 31
0.0
  0
LINE
  5
33F
100
AcDbEntity
  8
0
  6
CONTINUOUS
 62
               7
100
AcDbLine
 10
85.899999999999977
 20
-2.7499999355027285
 30
0.0
 11
85.899999999999977
 21
2.7499999355027853
 31
0.0
  0
LINE
  5
340
100
AcDbEntity
  8
0
  6
CONTINUOUS
 62
               7
100
AcDbLine
 10
76.0
 20
2.9000000000000341
 30
0.0
 11
79.5
 21
2.9000000000000341
 31
0.0
  0
LINE
  5
341
100
AcDbEntity
  8
0
  6
CONTINUOUS
 62
               7
100
AcDbLine
 10
76.0
 20
-2.8999999999999773
 30
0.0
 11
79.5
 21
-2.8999999999999773
 31
0.0
  0
LINE
  5
342
100
AcDbEntity
  8
0
  6
CONTINUOUS
 62
               7
100
AcDbLine
 10
75.0
 20
1.5
 30
0.0
 11
75.0
 21
-1.5
 31
0.0
  0
LINE
  5
343
100
AcDbEntity
  8
0
  6
CONTINUOUS
 62
               2
100
AcDbLine
 10
75.0
 20
1.2294998168945881
 30
0.0
 11
76.0
 21
1.2294998168945881
 31
0.0
  0
LINE
  5
344
100
AcDbEntity
  8
0
  6
CONTINUOUS
 62
               2
100
AcDbLine
 10
75.0
 20
1.2294998168945881
 30
0.0
 11
74.531479939404704
 21
1.5
 31
0.0
  0
LINE
  5
345
100
AcDbEntity
  8
0
  6
CONTINUOUS
 62
               2
100
AcDbLine
 10
75.0
 20
-1.2294998168944744
 30
0.0
 11
76.0
 21
-1.2294998168944744
 31
0.0
  0
LINE
  5
346
100
AcDbEntity
  8
0
  6
CONTINUOUS
 62
               2
100
AcDbLine
 10
75.0
 20
-1.2294998168945312
 30
0.0
 11
74.531479939404704
 21
-1.5
 31
0.0
  0
LINE
  5
347
100
AcDbEntity
  8
0
  6
CONTINUOUS
 62
               2
100
AcDbLine
 10
85.899999999999977
 20
1.2294998168945881
 30
0.0
 11
87.970500199327887
 21
1.2294998168945881
 31
0.0
  0
LINE
  5
348
100
AcDbEntity
  8
0
  6
CONTINUOUS
 62
               2
100
AcDbLine
 10
85.899999999999977
 20
-1.2294998168945312
 30
0.0
 11
87.970500199327887
 21
-1.2294998168945312
 31
0.0
  0
LINE
  5
349
100
AcDbEntity
  8
0
  6
CONTINUOUS
 62
               7
100
AcDbLine
 10
85.899999999999977
 20
1.5
 30
0.0
 11
87.699999999999989
 21
1.5
 31
0.0
  0
LINE
  5
34A
100
AcDbEntity
  8
0
  6
CONTINUOUS
 62
               7
100
AcDbLine
 10
85.899999999999977
 20
-1.5
 30
0.0
 11
87.699999999999989
 21
-1.5
 31
0.0
  0
LINE
  5
34B
100
AcDbEntity
  8
0
  6
CONTINUOUS
 62
               7
100
AcDbLine
 10
87.699999999999989
 20
1.5
 30
0.0
 11
87.699999999999989
 21
-1.5
 31
0.0
  0
LINE
  5
34C
100
AcDbEntity
  8
0
  6
CONTINUOUS
 62
               7
100
AcDbLine
 10
61.0
 20
1.5
 30
0.0
 11
76.0
 21
1.5
 31
0.0
  0
LINE
  5
34D
100
AcDbEntity
  8
0
  6
CONTINUOUS
 62
               7
100
AcDbLine
 10
61.0
 20
-1.5
 30
0.0
 11
76.0
 21
-1.5
 31
0.0
  0
SPLINE
  5
34E
100
AcDbEntity
  8
0
  6
CONTINUOUS
 62
               7
100
AcDbSpline
210
0.0
220
0.0
230
1.0
 70
               0
 71
               3
 72
               0
 73
               0
 74
               5
 44
0.000001
 12
0.5262037277974933
 22
0.8503585342971644
 32
0.0
 13
-0.5262037277974935
 23
0.8503585342971642
 33
0.0
 11
83.035898334623312
 21
-3.0
 31
0.0
 11
83.371226910332254
 21
-2.2809008094174223
 31
0.0
 11
83.499999981082709
 21
-1.5
 31
0.0
 11
83.371226910332254
 21
-0.7190991905825779
 31
0.0
 11
83.035898334623312
 21
0.0
 31
0.0
  0
SPLINE
  5
34F
100
AcDbEntity
  8
0
  6
CONTINUOUS
 62
               7
100
AcDbSpline
210
0.0
220
0.0
230
1.0
 70
               0
 71
               3
 72
               0
 73
               0
 74
               5
 44
0.000001
 12
0.5262037277974933
 22
-0.8503585342971644
 32
0.0
 13
-0.5262037277974935
 23
-0.8503585342971642
 33
0.0
 11
83.035898334623312
 21
3.0
 31
0.0
 11
83.371226910332254
 21
2.2809008094174223
 31
0.0
 11
83.499999981082709
 21
1.5
 31
0.0
 11
83.371226910332254
 21
0.7190991905825779
 31
0.0
 11
83.035898334623312
 21
0.0
 31
0.0
  0
SPLINE
  5
350
100
AcDbEntity
  8
0
  6
CONTINUOUS
 62
               7
100
AcDbSpline
210
0.0
220
0.0
230
1.0
 70
               0
 71
               3
 72
               0
 73
               0
 74
               5
 44
0.000001
 12
-0.3364389502051061
 22
0.9417052791531362
 32
0.0
 13
0.3364389502051062
 23
0.9417052791531362
 33
0.0
 11
83.745620126413058
 21
0.0
 31
0.0
 11
83.564069267833659
 21
0.676314027514175
 31
0.0
 11
83.499999997460208
 21
1.3749999633524226
 31
0.0
 11
83.564069267833659
 21
2.0736858991906413
 31
0.0
 11
83.745620126413058
 21
2.7499999267047879
 31
0.0
  0
SPLINE
  5
351
100
AcDbEntity
  8
0
  6
CONTINUOUS
 62
               7
100
AcDbSpline
210
0.0
220
0.0
230
1.0
 70
               0
 71
               3
 72
               0
 73
               0
 74
               5
 44
0.000001
 12
-0.3364389461654975
 22
0.9417052805963496
 32
0.0
 13
0.3364389461654974
 23
0.9417052805963496
 33
0.0
 11
83.745620126413058
 21
-2.7499999355027285
 31
0.0
 11
83.564069269645529
 21
-2.0736859055501595
 31
0.0
 11
83.5
 21
-1.3749999677513642
 31
0.0
 11
83.564069269645529
 21
-0.6763140299525692
 31
0.0
 11
83.745620126413058
 21
0.0000000000000004
 31
0.0
  0
SPLINE
  5
352
100
AcDbEntity
  8
0
  6
CONTINUOUS
 62
               7
100
AcDbSpline
210
0.0
220
0.0
230
1.0
 70
               0
 71
               3
 72
               0
 73
               0
 74
               5
 44
0.000001
 12
0.3364389461655017
 22
-0.9417052805963481
 32
0.0
 13
-0.3364389461655019
 23
-0.9417052805963481
 33
0.0
 11
85.654379873586919
 21
0.0
 31
0.0
 11
85.835930730354448
 21
-0.676314029952569
 31
0.0
 11
85.899999999999977
 21
-1.3749999677513642
 31
0.0
 11
85.835930730354448
 21
-2.0736859055501595
 31
0.0
 11
85.654379873586919
 21
-2.7499999355027285
 31
0.0
  0
SPLINE
  5
353
100
AcDbEntity
  8
0
  6
CONTINUOUS
 62
               7
100
AcDbSpline
210
0.0
220
0.0
230
1.0
 70
               0
 71
               3
 72
               0
 73
               0
 74
               5
 44
0.000001
 12
0.336438950205106
 22
-0.9417052791531362
 32
0.0
 13
-0.3364389502051063
 23
-0.9417052791531361
 33
0.0
 11
85.654379873586919
 21
2.7499999267047883
 31
0.0
 11
85.835930732166304
 21
2.0736858991906417
 31
0.0
 11
85.900000002539741
 21
1.3749999633524226
 31
0.0
 11
85.835930732166304
 21
0.6763140275141752
 31
0.0
 11
85.654379873586919
 21
0.0000000000000004
 31
0.0
  0
LINE
  5
354
100
AcDbEntity
  8
0
  6
CONTINUOUS
 62
               7
100
AcDbLine
 10
63.399999618530273
 20
1.5
 30
0.0
 11
63.399999618530273
 21
2.75
 31
0.0
  0
ARC
  5
355
100
AcDbEntity
  8
0
  6
CONTINUOUS
 62
               7
100
AcDbCircle
 10
59.42851448059082
 20
1.375
 30
0.0
 40
3.9714851379394531
100
AcDbArc
 50
1.8036465459414524
 51
20.256064804031368
  0
ARC
  5
356
100
AcDbEntity
  8
0
  6
CONTINUOUS
 62
               7
100
AcDbCircle
 10
59.42851448059082
 20
-1.375
 30
0.0
 40
3.9714851379394531
100
AcDbArc
 50
339.74380861009791
 51
358.19635345405857
  0
LINE
  5
357
100
AcDbEntity
  8
0
  6
CONTINUOUS
 62
               7
100
AcDbLine
 10
63.399999618530273
 20
2.75
 30
0.0
 11
61.0
 21
2.75
 31
0.0
  0
LINE
  5
358
100
AcDbEntity
  8
0
  6
CONTINUOUS
 62
               7
100
AcDbLine
 10
63.399999618530273
 20
-2.75
 30
0.0
 11
63.399999618530273
 21
-1.5
 31
0.0
  0
LINE
  5
359
100
AcDbEntity
  8
0
  6
CONTINUOUS
 62
               7
100
AcDbLine
 10
63.399999618530273
 20
-2.75
 30
0.0
 11
61.0
 21
-2.75
 31
0.0
  0
LINE
  5
35A
100
AcDbEntity
  8
0
  6
CONTINUOUS
 62
               7
100
AcDbLine
 10
61.0
 20
9.0
 30
0.0
 11
61.0
 21
-9.0
 31
0.0
  0
LINE
  5
35B
100
AcDbEntity
  8
0
  6
CONTINUOUS
 62
               7
100
AcDbLine
 10
61.899999982139207
 20
-3.25
 30
0.0
 11
61.0
 21
-3.25
 31
0.0
  0
LINE
  5
35C
100
AcDbEntity
  8
0
  6
CONTINUOUS
 62
               7
100
AcDbLine
 10
61.899999982139207
 20
-7.75
 30
0.0
 11
61.0
 21
-7.75
 31
0.0
  0
LINE
  5
35D
100
AcDbEntity
  8
0
  6
CONTINUOUS
 62
               7
100
AcDbLine
 10
62.199999999999989
 20
-7.4500000029695457
 30
0.0
 11
62.199999999999989
 21
-3.5500000268114036
 31
0.0
  0
LINE
  5
35E
100
AcDbEntity
  8
0
  6
CONTINUOUS
 62
               7
100
AcDbLine
 10
61.899999982139207
 20
-3.25
 30
0.0
 11
62.199999999999989
 21
-3.5500000178607252
 31
0.0
  0
LINE
  5
35F
100
AcDbEntity
  8
0
  6
CONTINUOUS
 62
               7
100
AcDbLine
 10
62.199999999999989
 20
-7.4500000029695457
 30
0.0
 11
61.900000002969534
 21
-7.75
 31
0.0
  0
LINE
  5
360
100
AcDbEntity
  8
0
  6
CONTINUOUS
 62
               7
100
AcDbLine
 10
61.899999982139207
 20
-3.25
 30
0.0
 11
61.899999982139207
 21
-7.75
 31
0.0
  0
LINE
  5
361
100
AcDbEntity
  8
0
  6
CONTINUOUS
 62
               7
100
AcDbLine
 10
61.899999982139207
 20
3.25
 30
0.0
 11
61.0
 21
3.25
 31
0.0
  0
LINE
  5
362
100
AcDbEntity
  8
0
  6
CONTINUOUS
 62
               7
100
AcDbLine
 10
61.899999982139207
 20
7.75
 30
0.0
 11
61.0
 21
7.75
 31
0.0
  0
LINE
  5
363
100
AcDbEntity
  8
0
  6
CONTINUOUS
 62
               7
100
AcDbLine
 10
62.199999999999989
 20
7.4500000029696025
 30
0.0
 11
62.199999999999989
 21
3.5500000268114604
 31
0.0
  0
LINE
  5
364
100
AcDbEntity
  8
0
  6
CONTINUOUS
 62
               7
100
AcDbLine
 10
61.899999982139207
 20
3.25
 30
0.0
 11
62.199999999999989
 21
3.5500000178608389
 31
0.0
  0
LINE
  5
365
100
AcDbEntity
  8
0
  6
CONTINUOUS
 62
               7
100
AcDbLine
 10
62.199999999999989
 20
7.4500000029696025
 30
0.0
 11
61.900000002969534
 21
7.75
 31
0.0
  0
LINE
  5
366
100
AcDbEntity
  8
0
  6
CONTINUOUS
 62
               7
100
AcDbLine
 10
61.899999982139207
 20
3.25
 30
0.0
 11
61.899999982139207
 21
7.75
 31
0.0
  0
LINE
  5
367
100
AcDbEntity
  8
0
  6
CONTINUOUS
 62
               7
100
AcDbLine
 10
54.0
 20
-9.0
 30
0.0
 11
61.0
 21
-9.0
 31
0.0
  0
LINE
  5
368
100
AcDbEntity
  8
0
  6
CONTINUOUS
 62
               7
100
AcDbLine
 10
54.0
 20
9.0
 30
0.0
 11
61.0
 21
9.0
 31
0.0
  0
LINE
  5
369
100
AcDbEntity
  8
0
  6
CONTINUOUS
 62
               2
100
AcDbLine
 10
-2.0000000025372628
 20
7.0
 30
0.0
 11
2.0
 21
7.0
 31
0.0
  0
LINE
  5
36A
100
AcDbEntity
  8
0
  6
CONTINUOUS
 62
               2
100
AcDbLine
 10
-2.0000000025372628
 20
-7.0
 30
0.0
 11
2.0
 21
-7.0
 31
0.0
  0
LINE
  5
36B
100
AcDbEntity
  8
0
  6
PHANTOM
 62
               3
100
AcDbLine
 10
38.328144723428338
 20
20.805321080370675
 30
0.0
 11
38.328144723428338
 21
-22.20515550050871
 31
0.0
  0
LINE
  5
36C
100
AcDbEntity
  8
0
  6
PHANTOM
 62
               3
100
AcDbLine
 10
73.207390281894675
 20
20.805321080370675
 30
0.0
 11
73.207390281894675
 21
-20.827539803110042
 31
0.0
  0
ENDBLK
  5
36D
100
AcDbEntity
  8
0
100
AcDbBlockEnd
  0
ENDSEC
  0
SECTION
  2
ENTITIES
  0
INSERT
  5
36E
100
AcDbEntity
  8
0
  6
ByBlock
100
AcDbBlockReference
  2
MGAEG6-5
 10
-30.0
 20
-30.0
 30
0.0
  0
INSERT
  5
36F
100
AcDbEntity
  8
0
  6
ByBlock
100
AcDbBlockReference
  2
MGAEG6-4
 10
-30.0
 20
90.0
 30
0.0
  0
INSERT
  5
370
100
AcDbEntity
  8
0
  6
ByBlock
100
AcDbBlockReference
  2
MGAEG6-6
 10
-30.0
 20
-70.0
 30
0.0
  0
INSERT
  5
371
100
AcDbEntity
  8
0
  6
ByBlock
100
AcDbBlockReference
  2
MGAEG6-3
 10
110.0
 20
30.0
 30
0.0
  0
INSERT
  5
372
100
AcDbEntity
  8
0
  6
ByBlock
100
AcDbBlockReference
  2
MGAEG6-2
 10
-90.0
 20
30.0
 30
0.0
 50
359.999999100894
  0
INSERT
  5
373
100
AcDbEntity
  8
0
  6
ByBlock
100
AcDbBlockReference
  2
MGAEG6-1
 10
-30.0
 20
30.0
 30
0.0
  0
LINE
  5
374
100
AcDbEntity
  8
0
  6
CONTINUOUS
 62
               7
100
AcDbLine
 10
-196.25
 20
-185.0
 30
0.0
 11
-196.25
 21
-161.0
 31
0.0
  0
MTEXT
  5
375
100
AcDbEntity
  8
0
  6
CONTINUOUS
 62
               7
100
AcDbMText
 10
-192.35000001072885
 20
-165.0
 30
0.0
 40
4.5
 41
0.0
 71
               4
 72
               1
  1
\W1.200;\A1;15
  0
MTEXT
  5
376
100
AcDbEntity
  8
0
  6
CONTINUOUS
 62
               7
100
AcDbMText
 10
-190.09999997854231
 20
-181.0
 30
0.0
 40
4.5
 41
0.0
 71
               4
 72
               1
  1
\W1.200;\A1;0
  0
MTEXT
  5
377
100
AcDbEntity
  8
0
  6
CONTINUOUS
 62
               7
100
AcDbMText
 10
-190.09999997854231
 20
-173.0
 30
0.0
 40
4.5
 41
0.0
 71
               4
 72
               1
  1
\W1.200;\A1;0
  0
LINE
  5
378
100
AcDbEntity
  8
0
  6
CONTINUOUS
 62
               7
100
AcDbLine
 10
-271.25
 20
-169.0
 30
0.0
 11
-181.25
 21
-169.0
 31
0.0
  0
LINE
  5
379
100
AcDbEntity
  8
0
  6
CONTINUOUS
 62
               7
100
AcDbLine
 10
-271.25
 20
-185.0
 30
0.0
 11
-181.25
 21
-185.0
 31
0.0
  0
LINE
  5
37A
100
AcDbEntity
  8
0
  6
CONTINUOUS
 62
               7
100
AcDbLine
 10
-226.25
 20
-185.0
 30
0.0
 11
-226.25
 21
-161.0
 31
0.0
  0
LINE
  5
37B
100
AcDbEntity
  8
0
  6
CONTINUOUS
 62
               7
100
AcDbLine
 10
-211.25
 20
-185.0
 30
0.0
 11
-211.25
 21
-161.0
 31
0.0
  0
LINE
  5
37C
100
AcDbEntity
  8
0
  6
CONTINUOUS
 62
               7
100
AcDbLine
 10
-181.25
 20
-185.0
 30
0.0
 11
-181.25
 21
-161.0
 31
0.0
  0
MTEXT
  5
37D
100
AcDbEntity
  8
0
  6
CONTINUOUS
 62
               7
100
AcDbMText
 10
-207.5
 20
-173.0
 30
0.0
 40
4.5
 41
0.0
 71
               4
 72
               1
  1
\A1;-5
  0
MTEXT
  5
37E
100
AcDbEntity
  8
0
  6
CONTINUOUS
 62
               7
100
AcDbMText
 10
-222.5
 20
-173.0
 30
0.0
 40
4.5
 41
0.0
 71
               4
 72
               1
  1
\A1;-5
  0
MTEXT
  5
37F
100
AcDbEntity
  8
0
  6
CONTINUOUS
 62
               7
100
AcDbMText
 10
-207.25
 20
-165.0
 30
0.0
 40
4.5
 41
0.0
 71
               4
 72
               1
  1
\W1.333;\A1;10
  0
MTEXT
  5
380
100
AcDbEntity
  8
0
  6
CONTINUOUS
 62
               7
100
AcDbMText
 10
-220.25
 20
-165.0
 30
0.0
 40
4.5
 41
0.0
 71
               4
 72
               1
  1
\A1;5
  0
LINE
  5
381
100
AcDbEntity
  8
0
  6
CONTINUOUS
 62
               7
100
AcDbLine
 10
-271.25
 20
-185.0
 30
0.0
 11
-271.25
 21
-161.0
 31
0.0
  0
LINE
  5
382
100
AcDbEntity
  8
0
  6
CONTINUOUS
 62
               7
100
AcDbLine
 10
-271.25
 20
-161.0
 30
0.0
 11
-181.25
 21
-161.0
 31
0.0
  0
LINE
  5
383
100
AcDbEntity
  8
0
  6
CONTINUOUS
 62
               7
100
AcDbLine
 10
-271.25
 20
-177.0
 30
0.0
 11
-181.25
 21
-177.0
 31
0.0
  0
MTEXT
  5
384
100
AcDbEntity
  8
0
  6
CONTINUOUS
 62
               7
100
AcDbMText
 10
-224.59999999999999
 20
-181.0
 30
0.0
 40
4.5
 41
0.0
 71
               4
 72
               1
  1
\W1.200;\A1;-10
  0
MTEXT
  5
385
100
AcDbEntity
  8
0
  6
CONTINUOUS
 62
               7
100
AcDbMText
 10
-207.5
 20
-181.0
 30
0.0
 40
4.5
 41
0.0
 71
               4
 72
               1
  1
\A1;-5
  0
MTEXT
  5
386
100
AcDbEntity
  8
0
  6
CONTINUOUS
 62
               7
100
AcDbMText
 10
-261.5
 20
-165.0
 30
0.0
 40
4.5
 41
0.0
 71
               4
 72
               1
  1
\A1;STROKE
  0
MTEXT
  5
387
100
AcDbEntity
  8
0
  6
CONTINUOUS
 62
               7
100
AcDbMText
 10
-268.21511627906978
 20
-173.0
 30
0.0
 40
4.5
 41
0.0
 71
               4
 72
               1
  1
\W1.047;\A1;STRETCH A
  0
MTEXT
  5
388
100
AcDbEntity
  8
0
  6
CONTINUOUS
 62
               7
100
AcDbMText
 10
-268.21511627906978
 20
-181.0
 30
0.0
 40
4.5
 41
0.0
 71
               4
 72
               1
  1
\W1.047;\A1;STRETCH B
  0
MTEXT
  5
389
100
AcDbEntity
  8
0
  6
CONTINUOUS
 62
               7
100
AcDbMText
 10
-252.45118340936108
 20
-155.44223545487409
 30
0.0
 40
4.5
 41
0.0
 71
               4
 72
               1
  1
\W1.065;\A1;STRETCH LINE
  0
MTEXT
  5
38A
100
AcDbEntity
  8
0
  6
CONTINUOUS
 62
               3
100
AcDbMText
 10
-44.712115089737345
 20
134.0285136232271
 30
0.0
 40
4.5
 41
0.0
 71
               4
 72
               1
  1
\W1.088;\A1;STRETCH LINE A
  0
MTEXT
  5
38B
100
AcDbEntity
  8
0
  6
CONTINUOUS
 62
               7
100
AcDbMText
 10
-230.4749990660973
 20
150.5
 30
0.0
 40
6.3000001907348633
 41
0.0
 71
               4
 72
               1
  1
\W1.071;\A1;MGAEG6*st(15)-L
  0
MTEXT
  5
38C
100
AcDbEntity
  8
0
  6
CONTINUOUS
 62
               7
100
AcDbMText
 10
-273.59932894557409
 20
189.625
 30
0.0
 40
6.3000001907348633
 41
0.0
 71
               4
 72
               1
  1
\W1.143;\A1;MINI GUIDE SLIDER
  0
MTEXT
  5
38D
100
AcDbEntity
  8
0
  6
CONTINUOUS
 62
               7
100
AcDbMText
 10
-239.10000054041544
 20
182.125
 30
0.0
 40
6.3000001907348633
 41
0.0
 71
               4
 72
               1
  1
\A1;MGAEG6
  0
MTEXT
  5
38E
100
AcDbEntity
  8
0
  6
CONTINUOUS
 62
               3
100
AcDbMText
 10
19.369086882429091
 20
121.4481643011981
 30
0.0
 40
4.5
 41
0.0
 71
               4
 72
               1
  1
\W1.088;\A1;STRETCH LINE B
  0
LINE
  5
38F
100
AcDbEntity
  8
0
  6
CONTINUOUS
 62
               7
100
AcDbLine
 10
-281.25
 20
175.5
 30
0.0
 11
-161.25
 21
175.5
 31
0.0
  0
LINE
  5
390
100
AcDbEntity
  8
0
  6
CONTINUOUS
 62
               7
100
AcDbLine
 10
-161.25
 20
195.5
 30
0.0
 11
-161.25
 21
175.5
 31
0.0
  0
LINE
  5
391
100
AcDbEntity
  8
0
  6
CONTINUOUS
 62
               7
100
AcDbLine
 10
162.0999755859375
 20
-175.0
 30
0.0
 11
162.0999755859375
 21
-195.0
 31
0.0
  0
LINE
  5
392
100
AcDbEntity
  8
0
  6
CONTINUOUS
 62
               7
100
AcDbLine
 10
162.0999755859375
 20
-175.0
 30
0.0
 11
282.099853515625
 21
-175.0
 31
0.0
  0
MTEXT
  5
393
100
AcDbEntity
  8
0
  6
CONTINUOUS
 62
               7
100
AcDbMText
 10
170.28101006437726
 20
-185.0
 30
0.0
 40
9.0
 41
0.0
 71
               4
 72
               1
  1
\W1.121;\A1;KOGANEI CORP.
  0
MTEXT
  5
394
100
AcDbEntity
  8
0
  6
CONTINUOUS
 62
               7
100
AcDbMText
 10
198.2770240315611
 20
185.5
 30
0.0
 40
6.3000001907348633
 41
0.0
 71
               4
 72
               1
  1
\W1.311;\A1;Ver. 1.0
  0
LINE
  5
395
100
AcDbEntity
  8
0
  6
CONTINUOUS
 62
               7
100
AcDbLine
 10
162.0999755859375
 20
175.5
 30
0.0
 11
282.099853515625
 21
175.5
 31
0.0
  0
LINE
  5
396
100
AcDbEntity
  8
0
  6
CONTINUOUS
 62
               7
100
AcDbLine
 10
162.0999755859375
 20
195.5
 30
0.0
 11
162.0999755859375
 21
175.5
 31
0.0
  0
LINE
  5
397
100
AcDbEntity
  8
0
  6
CONTINUOUS
 62
               7
100
AcDbLine
 10
282.099853515625
 20
195.5
 30
0.0
 11
282.099853515625
 21
-195.0
 31
0.0
  0
LINE
  5
398
100
AcDbEntity
  8
0
  6
CONTINUOUS
 62
               7
100
AcDbLine
 10
-281.25
 20
195.5
 30
0.0
 11
282.099853515625
 21
195.5
 31
0.0
  0
LINE
  5
399
100
AcDbEntity
  8
0
  6
CONTINUOUS
 62
               7
100
AcDbLine
 10
-281.25
 20
195.5
 30
0.0
 11
-281.25
 21
-195.0
 31
0.0
  0
LINE
  5
39A
100
AcDbEntity
  8
0
  6
CONTINUOUS
 62
               7
100
AcDbLine
 10
-281.25
 20
-195.0
 30
0.0
 11
282.099853515625
 21
-195.0
 31
0.0
  0
MTEXT
  5
39B
100
AcDbEntity
  8
0
  6
CONTINUOUS
 62
               7
100
AcDbMText
 10
-268.2594828235608
 20
160.5
 30
0.0
 40
6.3000001907348633
 41
0.0
 71
               4
 72
               1
  1
\W1.086;\A1;MODEL:MGAEG6*st(15)-R
  0
ENDSEC
  0
SECTION
  2
OBJECTS
  0
DICTIONARY
  5
19
100
AcDbDictionary
  3
ACAD_GROUP
350
1A
  3
ACAD_MLINESTYLE
350
1B
  0
DICTIONARY
  5
1A
102
{ACAD_REACTORS
330
19
102
}
100
AcDbDictionary
  0
DICTIONARY
  5
1B
102
{ACAD_REACTORS
330
19
102
}
100
AcDbDictionary
  3
STANDARD
350
1C
  0
MLINESTYLE
  5
1C
102
{ACAD_REACTORS
330
1B
102
}
100
AcDbMlineStyle
  2
Standard
 70
               0
  3

 62
               0
 51
90.0
 52
90.0
 71
               2
 49
0.5
 62
             256
  6
ByLayer
 49
-0.5
 62
             256
  6
ByLayer
  0
ENDSEC
  0
EOF
