  0
SECTION
  2
HEADER
  9
$ACADVER
  1
AC1012
  9
$DWGCODEPAGE
  3
dos932
  9
$INSBASE
 10
0.0
 20
0.0
 30
0.0
  9
$EXTMIN
 10
-281.25
 20
-195.0
 30
0.0
  9
$EXTMAX
 10
285.5999755859375
 20
195.5
 30
0.0
  9
$LIMMIN
 10
-281.25
 20
-195.0
  9
$LIMMAX
 10
285.5999755859375
 20
195.5
  9
$ORTHOMODE
 70
               0
  9
$REGENMODE
 70
               1
  9
$FILLMODE
 70
               1
  9
$QTEXTMODE
 70
               0
  9
$MIRRTEXT
 70
               1
  9
$DRAGMODE
 70
               2
  9
$LTSCALE
 40
1.0
  9
$OSMODE
 70
               0
  9
$ATTMODE
 70
               1
  9
$TEXTSIZE
 40
3.2000000476837158
  9
$TRACEWID
 40
0.05
  9
$TEXTSTYLE
  7
MX_NOTE_STANDARD
  9
$CLAYER
  8
0
  9
$CELTYPE
  6
CONTINUOUS
  9
$CECOLOR
 62
             256
  9
$CELTSCALE
 40
1.0
  9
$DELOBJ
 70
               1
  9
$DISPSILH
 70
               0
  9
$DIMSCALE
 40
1.0
  9
$DIMASZ
 40
2.5
  9
$DIMEXO
 40
1.5
  9
$DIMDLI
 40
3.75
  9
$DIMRND
 40
0.0
  9
$DIMDLE
 40
0.0
  9
$DIMEXE
 40
1.5
  9
$DIMTP
 40
0.0
  9
$DIMTM
 40
0.0
  9
$DIMTXT
 40
3.2000000476837158
  9
$DIMCEN
 40
2.5
  9
$DIMTSZ
 40
0.0
  9
$DIMTOL
 70
               0
  9
$DIMLIM
 70
               0
  9
$DIMTIH
 70
               0
  9
$DIMTOH
 70
               0
  9
$DIMSE1
 70
               0
  9
$DIMSE2
 70
               0
  9
$DIMTAD
 70
               1
  9
$DIMZIN
 70
               8
  9
$DIMBLK
  1

  9
$DIMASO
 70
               1
  9
$DIMSHO
 70
               1
  9
$DIMPOST
  1

  9
$DIMAPOST
  1

  9
$DIMALT
 70
               0
  9
$DIMALTD
 70
               4
  9
$DIMALTF
 40
0.03937007874016
  9
$DIMLFAC
 40
1.0
  9
$DIMTOFL
 70
               1
  9
$DIMTVP
 40
0.0
  9
$DIMTIX
 70
               0
  9
$DIMSOXD
 70
               0
  9
$DIMSAH
 70
               0
  9
$DIMBLK1
  1

  9
$DIMBLK2
  1

  9
$DIMSTYLE
  2
MXDIMSTYLE
  9
$DIMCLRD
 70
               0
  9
$DIMCLRE
 70
               0
  9
$DIMCLRT
 70
               0
  9
$DIMTFAC
 40
1.0
  9
$DIMGAP
 40
1.0
  9
$DIMJUST
 70
               0
  9
$DIMSD1
 70
               0
  9
$DIMSD2
 70
               0
  9
$DIMTOLJ
 70
               1
  9
$DIMTZIN
 70
               0
  9
$DIMALTZ
 70
               0
  9
$DIMALTTZ
 70
               0
  9
$DIMFIT
 70
               3
  9
$DIMUPT
 70
               1
  9
$DIMUNIT
 70
               2
  9
$DIMDEC
 70
               4
  9
$DIMTDEC
 70
               4
  9
$DIMALTU
 70
               2
  9
$DIMALTTD
 70
               4
  9
$DIMTXSTY
  7
MX_NOTE_STANDARD
  9
$DIMAUNIT
 70
               0
  9
$LUNITS
 70
               2
  9
$LUPREC
 70
               4
  9
$SKETCHINC
 40
0.1
  9
$FILLETRAD
 40
0.0
  9
$AUNITS
 70
               0
  9
$AUPREC
 70
               0
  9
$MENU
  1
acad
  9
$ELEVATION
 40
0.0
  9
$PELEVATION
 40
0.0
  9
$THICKNESS
 40
0.0
  9
$LIMCHECK
 70
               0
  9
$BLIPMODE
 70
               1
  9
$CHAMFERA
 40
0.0
  9
$CHAMFERB
 40
0.0
  9
$CHAMFERC
 40
0.0
  9
$CHAMFERD
 40
0.0
  9
$SKPOLY
 70
               0
  9
$TDCREATE
 40
2453655.719479166
  9
$TDUPDATE
 40
2453655.719479166
  9
$TDINDWG
 40
0.0000000000
  9
$TDUSRTIMER
 40
0.0000000000
  9
$USRTIMER
 70
               1
  9
$ANGBASE
 50
0.0
  9
$ANGDIR
 70
               0
  9
$PDMODE
 70
               0
  9
$PDSIZE
 40
0.0
  9
$PLINEWID
 40
0.0
  9
$COORDS
 70
               1
  9
$SPLFRAME
 70
               0
  9
$SPLINETYPE
 70
               6
  9
$SPLINESEGS
 70
               8
  9
$ATTDIA
 70
               0
  9
$ATTREQ
 70
               1
  9
$HANDLING
 70
               1
  9
$HANDSEED
  5
387
  9
$SURFTAB1
 70
               6
  9
$SURFTAB2
 70
               6
  9
$SURFTYPE
 70
               6
  9
$SURFU
 70
               6
  9
$SURFV
 70
               6
  9
$UCSNAME
  2

  9
$UCSORG
 10
0.0
 20
0.0
 30
0.0
  9
$UCSXDIR
 10
1.0
 20
0.0
 30
0.0
  9
$UCSYDIR
 10
0.0
 20
1.0
 30
0.0
  9
$PUCSNAME
  2

  9
$PUCSORG
 10
0.0
 20
0.0
 30
0.0
  9
$PUCSXDIR
 10
1.0
 20
0.0
 30
0.0
  9
$PUCSYDIR
 10
0.0
 20
1.0
 30
0.0
  9
$USERI1
 70
               0
  9
$USERI2
 70
               0
  9
$USERI3
 70
               0
  9
$USERI4
 70
               0
  9
$USERI5
 70
               0
  9
$USERR1
 40
0.0
  9
$USERR2
 40
0.0
  9
$USERR3
 40
0.0
  9
$USERR4
 40
0.0
  9
$USERR5
 40
0.0
  9
$WORLDVIEW
 70
               1
  9
$SHADEDGE
 70
               3
  9
$SHADEDIF
 70
              70
  9
$TILEMODE
 70
               1
  9
$MAXACTVP
 70
              16
  9
$PINSBASE
 10
0.0
 20
0.0
 30
0.0
  9
$PLIMCHECK
 70
               0
  9
$PEXTMIN
 10
1.0000000000000000E+20
 20
1.0000000000000000E+20
 30
1.0000000000000000E+20
  9
$PEXTMAX
 10
-1.0000000000000000E+20
 20
-1.0000000000000000E+20
 30
-1.0000000000000000E+20
  9
$PLIMMIN
 10
0.0
 20
0.0
  9
$PLIMMAX
 10
12.0
 20
9.0
  9
$UNITMODE
 70
               0
  9
$VISRETAIN
 70
               0
  9
$PLINEGEN
 70
               1
  9
$PSLTSCALE
 70
               0
  9
$TREEDEPTH
 70
            3020
  9
$PICKSTYLE
 70
               1
  9
$CMLSTYLE
  2
Standard
  9
$CMLJUST
 70
               0
  9
$CMLSCALE
 40
1.0
  9
$SAVEIMAGES
 70
               0
  0
ENDSEC
  0
SECTION
  2
CLASSES
  0
CLASS
  1
LWPOLYLINE
  2
AcDbPolyline
  3
"AutoCAD"
 90
        0
280
               0
281
               1
  0
CLASS
  1
IMAGE
  2
AcDbRasterImage
  3
ISM
 90
      127
280
               0
281
               1
  0
CLASS
  1
OLE2FRAME
  2
AcDbOle2Frame
  3
""
 90
        0
280
               0
281
               1
  0
CLASS
  1
HATCH
  2
AcDbHatch
  3
"ACAD_SEDONA"
 90
        0
280
               0
281
               1
  0
CLASS
  1
DICTIONARYVAR
  2
AcDbDictionaryVar
  3
"AutoCAD"
 90
        0
280
               0
281
               0
  0
CLASS
  1
RASTERVARIABLES
  2
AcDbRasterVariables
  3
ISM
 90
        0
280
               0
281
               0
  0
CLASS
  1
IMAGEDEF
  2
AcDbRasterImageDef
  3
ISM
 90
        0
280
               0
281
               0
  0
CLASS
  1
IMAGEDEF_REACTOR
  2
AcDbRasterImageDefReactor
  3
ISM
 90
        1
280
               0
281
               0
  0
CLASS
  1
IDBUFFER
  2
AcDbIdBuffer
  3
"Acad"
 90
        0
280
               0
281
               0
  0
CLASS
  1
SPATIAL_FILTER
  2
AcDbSpatialFilter
  3
"Acad"
 90
        0
280
               0
281
               0
  0
CLASS
  1
XRECORD
  2
AcDbXrecord
  3
"<Built In>"
 90
        0
280
               0
281
               0
  0
CLASS
  1
SORTENTSTABLE
  2
AcDbSortentsTable
  3
"AutoCAD"
 90
        0
280
               0
281
               0
  0
CLASS
  1
LAYER_INDEX
  2
AcDbLayerIndex
  3
"Acad"
 90
        0
280
               0
281
               0
  0
CLASS
  1
SPATIAL_INDEX
  2
AcDbSpatialIndex
  3
"Acad"
 90
        0
280
               0
281
               0
  0
CLASS
  1
OBJECT_PTR
  2
CAseDLPNTableRecord
  3
"ASE-LPNTableRecord"
 90
        1
280
               0
281
               0
  0
CLASS
  1
LAYOUT
  2
AcDbLayout
  3
"AutoCAD 2000"
 90
        1
280
               0
281
               0
  0
CLASS
  1
PLOTSETTINGS
  2
AcDbPlotSettings
  3
"AutoCAD 2000"
 90
        1
280
               0
281
               0
  0
CLASS
  1
ACDBDICTIONARYWDFLT
  2
AcDbDictionaryWithDefault
  3
"AutoCAD 2000"
 90
        1
280
               0
281
               0
  0
CLASS
  1
ACDBPLACEHOLDER
  2
AcDbPlaceHolder
  3
"AutoCAD 2000"
 90
        1
280
               0
281
               0
  0
ENDSEC
  0
SECTION
  2
TABLES
  0
TABLE
  2
VPORT
  5
7
100
AcDbSymbolTable
 70
               1
  0
VPORT
  5
15
100
AcDbSymbolTableRecord
100
AcDbViewportTableRecord
  2
*ACTIVE
 70
               0
 10
0.0
 20
0.0
 11
1.0
 21
1.0
 12
2.17498779296875
 22
0.25
 13
0.0
 23
0.0
 14
1.0
 24
1.0
 15
0.0
 25
0.0
 16
0.0
 26
0.0
 36
1.0
 17
0.0
 27
0.0
 37
0.0
 40
394.40500000000003
 41
1.7320508075688772
 42
50.0
 43
0.0
 44
0.0
 50
0.0
 51
0.0
 71
               0
 72
             100
 73
               1
 74
               1
 75
               0
 76
               0
 77
               0
 78
               0
  0
ENDTAB
  0
TABLE
  2
LTYPE
  5
4
100
AcDbSymbolTable
 70
               5
  0
LTYPE
  5
11
100
AcDbSymbolTableRecord
100
AcDbLinetypeTableRecord
  2
BYBLOCK
 70
              64
  3

 72
              65
 73
               0
 40
0.0
  0
LTYPE
  5
12
100
AcDbSymbolTableRecord
100
AcDbLinetypeTableRecord
  2
BYLAYER
 70
              64
  3

 72
              65
 73
               0
 40
0.0
  0
LTYPE
  5
13
100
AcDbSymbolTableRecord
100
AcDbLinetypeTableRecord
  2
CONTINUOUS
 70
              64
  3
Solid line
 72
              65
 73
               0
 40
0.0
  0
LTYPE
  5
A2
100
AcDbSymbolTableRecord
100
AcDbLinetypeTableRecord
  2
CENTER
 70
              64
  3
Center ____ _ ____ _ ____ _ ____ _ ____ _ ____
 72
              65
 73
               4
 40
26.0
 49
20.0
 74
               0
 49
-2.0
 74
               0
 49
2.0
 74
               0
 49
-2.0
 74
               0
  0
LTYPE
  5
C5
100
AcDbSymbolTableRecord
100
AcDbLinetypeTableRecord
  2
PHANTOM
 70
              64
  3
Phantom ______  __  __  ______  __  __  ______
 72
              65
 73
               6
 40
30.0
 49
20.0
 74
               0
 49
-2.0
 74
               0
 49
2.0
 74
               0
 49
-2.0
 74
               0
 49
2.0
 74
               0
 49
-2.0
 74
               0
  0
ENDTAB
  0
TABLE
  2
LAYER
  5
2
100
AcDbSymbolTable
 70
               2
  0
LAYER
  5
14
100
AcDbSymbolTableRecord
100
AcDbLayerTableRecord
  2
0
 70
               0
 62
               7
  6
CONTINUOUS
  0
LAYER
  5
1D
100
AcDbSymbolTableRecord
100
AcDbLayerTableRecord
  2
DEFPOINTS
 70
               0
 62
               7
  6
CONTINUOUS
  0
ENDTAB
  0
TABLE
  2
STYLE
  5
3
100
AcDbSymbolTable
 70
               1
  0
STYLE
  5
17
100
AcDbSymbolTableRecord
100
AcDbTextStyleTableRecord
  2
MX_NOTE_STANDARD
 70
               0
 40
0.0
 41
1.0
 50
0.0
 71
               0
 42
3.2000000476837158
  3
txt.shx
  4
extfont.shx
  0
ENDTAB
  0
TABLE
  2
VIEW
  5
5
100
AcDbSymbolTable
 70
               0
  0
ENDTAB
  0
TABLE
  2
UCS
  5
6
100
AcDbSymbolTable
 70
               0
  0
ENDTAB
  0
TABLE
  2
APPID
  5
8
100
AcDbSymbolTable
 70
               1
  0
APPID
  5
16
100
AcDbSymbolTableRecord
100
AcDbRegAppTableRecord
  2
ACAD
 70
               0
  0
ENDTAB
  0
TABLE
  2
DIMSTYLE
  5
9
100
AcDbSymbolTable
 70
               1
  0
DIMSTYLE
105
18
100
AcDbSymbolTableRecord
100
AcDbDimStyleTableRecord
  2
MXDIMSTYLE
 70
               0
  3

  4

  5

  6

  7

 40
1.0
 41
2.5
 42
1.5
 43
3.75
 44
1.5
 45
0.0
 46
0.0
 47
0.0
 48
0.0
 71
               0
 72
               0
 73
               0
 74
               0
 75
               0
 76
               0
 77
               1
 78
               8
140
3.2000000476837158
141
2.5
142
0.0
143
0.03937007874016
144
1.0
145
0.0
146
1.0
147
1.0
170
               0
171
               4
172
               1
173
               0
174
               0
175
               0
176
               0
177
               0
178
               0
270
               2
271
               4
272
               4
273
               2
274
               4
275
               0
280
               0
281
               0
282
               0
283
               1
284
               0
285
               0
286
               0
287
               3
288
               1
340
17
  0
ENDTAB
  0
TABLE
  2
BLOCK_RECORD
  5
1
100
AcDbSymbolTable
 70
               6
  0
BLOCK_RECORD
  5
A
100
AcDbSymbolTableRecord
100
AcDbBlockTableRecord
  2
*MODEL_SPACE
  0
BLOCK_RECORD
  5
B
100
AcDbSymbolTableRecord
100
AcDbBlockTableRecord
  2
*PAPER_SPACE
  0
BLOCK_RECORD
  5
1E
100
AcDbSymbolTableRecord
100
AcDbBlockTableRecord
  2
MGAEG4_5-1
  0
BLOCK_RECORD
  5
1F
100
AcDbSymbolTableRecord
100
AcDbBlockTableRecord
  2
MGAEG4_5-2
  0
BLOCK_RECORD
  5
20
100
AcDbSymbolTableRecord
100
AcDbBlockTableRecord
  2
MGAEG4_5-3
  0
BLOCK_RECORD
  5
21
100
AcDbSymbolTableRecord
100
AcDbBlockTableRecord
  2
MGAEG4_5-4
  0
BLOCK_RECORD
  5
22
100
AcDbSymbolTableRecord
100
AcDbBlockTableRecord
  2
MGAEG4_5-5
  0
BLOCK_RECORD
  5
23
100
AcDbSymbolTableRecord
100
AcDbBlockTableRecord
  2
MGAEG4_5-6
  0
ENDTAB
  0
ENDSEC
  0
SECTION
  2
BLOCKS
  0
BLOCK
  5
D
100
AcDbEntity
  8
0
100
AcDbBlockBegin
  2
*MODEL_SPACE
 70
               0
 10
0.0
 20
0.0
 30
0.0
  3
*MODEL_SPACE
  1

  0
ENDBLK
  5
E
100
AcDbEntity
  8
0
100
AcDbBlockEnd
  0
BLOCK
  5
F
100
AcDbEntity
 67
               1
  8
0
100
AcDbBlockBegin
  2
*PAPER_SPACE
 70
               0
 10
0.0
 20
0.0
 30
0.0
  3
*PAPER_SPACE
  1

  0
ENDBLK
  5
10
100
AcDbEntity
 67
               1
  8
0
100
AcDbBlockEnd
  0
BLOCK
  5
24
100
AcDbEntity
  8
0
100
AcDbBlockBegin
  2
MGAEG4_5-1
 70
               0
 10
0.0
 20
0.0
 30
0.0
  3
MGAEG4_5-1
  1

  0
LINE
  5
25
100
AcDbEntity
  8
0
  6
CONTINUOUS
 62
               2
100
AcDbLine
 10
68.0
 20
-0.7835000000000036
 30
0.0
 11
68.5
 21
-0.7835000000000036
 31
0.0
  0
LINE
  5
26
100
AcDbEntity
  8
0
  6
CONTINUOUS
 62
               2
100
AcDbLine
 10
68.0
 20
-0.7835000000000036
 30
0.0
 11
67.625011000161336
 21
-1.0
 31
0.0
  0
LINE
  5
27
100
AcDbEntity
  8
0
  6
CONTINUOUS
 62
               2
100
AcDbLine
 10
68.0
 20
0.7835000000000036
 30
0.0
 11
67.625011000161336
 21
1.0
 31
0.0
  0
LINE
  5
28
100
AcDbEntity
  8
0
  6
CONTINUOUS
 62
               2
100
AcDbLine
 10
68.0
 20
0.7835000000000036
 30
0.0
 11
68.5
 21
0.7835000000000036
 31
0.0
  0
LINE
  5
29
100
AcDbEntity
  8
0
  6
CONTINUOUS
 62
               7
100
AcDbLine
 10
68.0
 20
1.0
 30
0.0
 11
68.0
 21
-1.0
 31
0.0
  0
LINE
  5
2A
100
AcDbEntity
  8
0
  6
CONTINUOUS
 62
               7
100
AcDbLine
 10
60.899999618530273
 20
1.0
 30
0.0
 11
68.5
 21
1.0
 31
0.0
  0
LINE
  5
2B
100
AcDbEntity
  8
0
  6
CONTINUOUS
 62
               7
100
AcDbLine
 10
60.899999618530273
 20
-1.0
 30
0.0
 11
68.5
 21
-1.0
 31
0.0
  0
LINE
  5
2C
100
AcDbEntity
  8
0
  6
CONTINUOUS
 62
               7
100
AcDbLine
 10
3.3000000000000114
 20
-8.1000000000000014
 30
0.0
 11
3.3000000000000114
 21
-3.8999999999999986
 31
0.0
  0
LINE
  5
2D
100
AcDbEntity
  8
0
  6
CONTINUOUS
 62
               7
100
AcDbLine
 10
0.0
 20
-8.1000000000000014
 30
0.0
 11
3.3000000000000114
 21
-8.1000000000000014
 31
0.0
  0
LINE
  5
2E
100
AcDbEntity
  8
0
  6
CONTINUOUS
 62
               7
100
AcDbLine
 10
0.0
 20
-3.8999999999999986
 30
0.0
 11
3.3000000000000114
 21
-3.8999999999999986
 31
0.0
  0
LINE
  5
2F
100
AcDbEntity
  8
0
  6
CONTINUOUS
 62
               7
100
AcDbLine
 10
1.5999999999999943
 20
-7.8999999999999986
 30
0.0
 11
1.6000000000000227
 21
-4.1000000000000014
 31
0.0
  0
LINE
  5
30
100
AcDbEntity
  8
0
  6
CONTINUOUS
 62
               7
100
AcDbLine
 10
1.3000000000000114
 20
-7.6000000000000014
 30
0.0
 11
1.3000000000000114
 21
-4.3999999999999986
 31
0.0
  0
LINE
  5
31
100
AcDbEntity
  8
0
  6
CONTINUOUS
 62
               7
100
AcDbLine
 10
1.3000000000000114
 20
-7.6000000000000014
 30
0.0
 11
1.5999999999999943
 21
-7.8999999999999986
 31
0.0
  0
LINE
  5
32
100
AcDbEntity
  8
0
  6
CONTINUOUS
 62
               7
100
AcDbLine
 10
1.3000000000000114
 20
-4.3999999999999986
 30
0.0
 11
1.6000000000000227
 21
-4.1000000000000014
 31
0.0
  0
LINE
  5
33
100
AcDbEntity
  8
0
  6
CONTINUOUS
 62
               7
100
AcDbLine
 10
1.5999999999999943
 20
-7.8999999999999986
 30
0.0
 11
3.3000000000000114
 21
-7.8999999999999986
 31
0.0
  0
LINE
  5
34
100
AcDbEntity
  8
0
  6
CONTINUOUS
 62
               7
100
AcDbLine
 10
1.6000000000000227
 20
-4.1000000000000014
 30
0.0
 11
3.3000000000000114
 21
-4.1000000000000014
 31
0.0
  0
LINE
  5
35
100
AcDbEntity
  8
0
  6
CONTINUOUS
 62
               7
100
AcDbLine
 10
0.0
 20
8.0999999999999943
 30
0.0
 11
3.3000000000000114
 21
8.0999999999999943
 31
0.0
  0
LINE
  5
36
100
AcDbEntity
  8
0
  6
CONTINUOUS
 62
               7
100
AcDbLine
 10
0.0
 20
3.8999999999999986
 30
0.0
 11
3.3000000000000114
 21
3.8999999999999986
 31
0.0
  0
LINE
  5
37
100
AcDbEntity
  8
0
  6
CONTINUOUS
 62
               7
100
AcDbLine
 10
1.6000000000000227
 20
4.1000000000000014
 30
0.0
 11
3.3000000000000114
 21
4.1000000000000014
 31
0.0
  0
LINE
  5
38
100
AcDbEntity
  8
0
  6
CONTINUOUS
 62
               7
100
AcDbLine
 10
1.5999999999999943
 20
7.9000000000000057
 30
0.0
 11
3.3000000000000114
 21
7.9000000000000057
 31
0.0
  0
LINE
  5
39
100
AcDbEntity
  8
0
  6
CONTINUOUS
 62
               7
100
AcDbLine
 10
1.3000000000000114
 20
4.3999999999999986
 30
0.0
 11
1.6000000000000227
 21
4.1000000000000014
 31
0.0
  0
LINE
  5
3A
100
AcDbEntity
  8
0
  6
CONTINUOUS
 62
               7
100
AcDbLine
 10
1.3000000000000114
 20
7.5999999999999943
 30
0.0
 11
1.5999999999999943
 21
7.9000000000000057
 31
0.0
  0
LINE
  5
3B
100
AcDbEntity
  8
0
  6
CONTINUOUS
 62
               7
100
AcDbLine
 10
3.3000000000000114
 20
8.0999999999999943
 30
0.0
 11
3.3000000000000114
 21
3.8999999999999986
 31
0.0
  0
LINE
  5
3C
100
AcDbEntity
  8
0
  6
CONTINUOUS
 62
               7
100
AcDbLine
 10
1.3000000000000114
 20
7.5999999999999943
 30
0.0
 11
1.3000000000000114
 21
4.3999999999999986
 31
0.0
  0
LINE
  5
3D
100
AcDbEntity
  8
0
  6
CONTINUOUS
 62
               7
100
AcDbLine
 10
1.5999999999999943
 20
7.9000000000000057
 30
0.0
 11
1.6000000000000227
 21
4.1000000000000014
 31
0.0
  0
LINE
  5
3E
100
AcDbEntity
  8
0
  6
CONTINUOUS
 62
               7
100
AcDbLine
 10
0.0
 20
-9.0
 30
0.0
 11
0.0
 21
9.0
 31
0.0
  0
LINE
  5
3F
100
AcDbEntity
  8
0
  6
CONTINUOUS
 62
               2
100
AcDbLine
 10
77.599999978395687
 20
-0.7835000000000036
 30
0.0
 11
78.0
 21
-0.7835000000000036
 31
0.0
  0
LINE
  5
40
100
AcDbEntity
  8
0
  6
CONTINUOUS
 62
               2
100
AcDbLine
 10
77.599999978395687
 20
0.7835000000000036
 30
0.0
 11
78.0
 21
0.7835000000000036
 31
0.0
  0
LINE
  5
41
100
AcDbEntity
  8
0
  6
CONTINUOUS
 62
               7
100
AcDbLine
 10
54.0
 20
-4.2000000000000028
 30
0.0
 11
58.5
 21
-4.2000000000000028
 31
0.0
  0
LINE
  5
42
100
AcDbEntity
  8
0
  6
CONTINUOUS
 62
               7
100
AcDbLine
 10
54.0
 20
4.2000000000000028
 30
0.0
 11
58.5
 21
4.2000000000000028
 31
0.0
  0
LINE
  5
43
100
AcDbEntity
  8
0
  6
CONTINUOUS
 62
               7
100
AcDbLine
 10
68.5
 20
-1.1999999999999602
 30
0.0
 11
68.5
 21
1.1999999999999531
 31
0.0
  0
LINE
  5
44
100
AcDbEntity
  8
0
  6
CONTINUOUS
 62
               7
100
AcDbLine
 10
53.901923788646656
 20
-1.4999999999999574
 30
0.0
 11
54.0
 21
-1.4999999999999574
 31
0.0
  0
LINE
  5
45
100
AcDbEntity
  8
0
  6
CONTINUOUS
 62
               2
100
AcDbLine
 10
53.763518646097438
 20
-1.2294998168944886
 30
0.0
 11
54.0
 21
-1.2294998168944886
 31
0.0
  0
LINE
  5
46
100
AcDbEntity
  8
0
  6
CONTINUOUS
 62
               2
100
AcDbLine
 10
53.763518646097467
 20
1.2294998168945739
 30
0.0
 11
54.0
 21
1.2294998168945739
 31
0.0
  0
LINE
  5
47
100
AcDbEntity
  8
0
  6
CONTINUOUS
 62
               7
100
AcDbLine
 10
53.901923788646712
 20
1.5000000000000426
 30
0.0
 11
54.0
 21
1.5000000000000426
 31
0.0
  0
ARC
  5
48
100
AcDbEntity
  8
0
  6
CONTINUOUS
 62
               7
100
AcDbCircle
 10
56.5
 20
0.0
 30
0.0
 40
3.0
100
AcDbArc
 50
149.99999999999906
 51
209.99999999999906
  0
LINE
  5
49
100
AcDbEntity
  8
0
  6
CONTINUOUS
 62
               7
100
AcDbLine
 10
53.901923788646712
 20
1.5000000000000426
 30
0.0
 11
53.901923788646712
 21
-1.4999999999999574
 31
0.0
  0
LINE
  5
4A
100
AcDbEntity
  8
0
  6
CONTINUOUS
 62
               7
100
AcDbLine
 10
68.5
 20
-1.1999999999999602
 30
0.0
 11
68.5
 21
-2.25
 31
0.0
  0
LINE
  5
4B
100
AcDbEntity
  8
0
  6
CONTINUOUS
 62
               7
100
AcDbLine
 10
60.899999618530273
 20
-2.75
 30
0.0
 11
58.5
 21
-2.75
 31
0.0
  0
LINE
  5
4C
100
AcDbEntity
  8
0
  6
CONTINUOUS
 62
               7
100
AcDbLine
 10
60.654378890991211
 20
0.0
 30
0.0
 11
58.5
 21
0.0
 31
0.0
  0
LINE
  5
4D
100
AcDbEntity
  8
0
  6
CONTINUOUS
 62
               7
100
AcDbLine
 10
60.899999618530273
 20
-2.75
 30
0.0
 11
60.899999618530273
 21
2.75
 31
0.0
  0
LINE
  5
4E
100
AcDbEntity
  8
0
  6
CONTINUOUS
 62
               7
100
AcDbLine
 10
60.899999618530273
 20
2.75
 30
0.0
 11
58.5
 21
2.75
 31
0.0
  0
ARC
  5
4F
100
AcDbEntity
  8
0
  6
CONTINUOUS
 62
               7
100
AcDbCircle
 10
56.92851448059082
 20
-1.375
 30
0.0
 40
3.9714851379394531
100
AcDbArc
 50
339.74380861009791
 51
20.25611944554473
  0
ARC
  5
50
100
AcDbEntity
  8
0
  6
CONTINUOUS
 62
               7
100
AcDbCircle
 10
56.92851448059082
 20
1.375
 30
0.0
 40
3.9714851379394531
100
AcDbArc
 50
339.74375396858454
 51
20.256064804031368
  0
LINE
  5
51
100
AcDbEntity
  8
0
  6
CONTINUOUS
 62
               7
100
AcDbLine
 10
54.0
 20
4.2000000000000028
 30
0.0
 11
54.0
 21
-4.2000000000000028
 31
0.0
  0
LINE
  5
52
100
AcDbEntity
  8
0
  6
CONTINUOUS
 62
               7
100
AcDbLine
 10
52.0
 20
7.5000000000000142
 30
0.0
 11
52.0
 21
9.0
 31
0.0
  0
LINE
  5
53
100
AcDbEntity
  8
0
  6
CONTINUOUS
 62
               7
100
AcDbLine
 10
49.0
 20
-7.5000000000000142
 30
0.0
 11
49.0
 21
7.5000000000000142
 31
0.0
  0
LINE
  5
54
100
AcDbEntity
  8
0
  6
CONTINUOUS
 62
               7
100
AcDbLine
 10
58.5
 20
8.0
 30
0.0
 11
58.5
 21
-8.0
 31
0.0
  0
LINE
  5
55
100
AcDbEntity
  8
0
  6
CONTINUOUS
 62
               7
100
AcDbLine
 10
78.0
 20
-0.7999999999999972
 30
0.0
 11
77.800000000000011
 21
-1.0
 31
0.0
  0
LINE
  5
56
100
AcDbEntity
  8
0
  6
CONTINUOUS
 62
               7
100
AcDbLine
 10
77.800000000000011
 20
1.0
 30
0.0
 11
78.0
 21
0.8000000000000114
 31
0.0
  0
LINE
  5
57
100
AcDbEntity
  8
0
  6
CONTINUOUS
 62
               7
100
AcDbLine
 10
78.0
 20
0.8000000000000114
 30
0.0
 11
78.0
 21
-0.7999999999999972
 31
0.0
  0
LINE
  5
58
100
AcDbEntity
  8
0
  6
CONTINUOUS
 62
               7
100
AcDbLine
 10
68.5
 20
-2.25
 30
0.0
 11
71.5
 21
-2.25
 31
0.0
  0
LINE
  5
59
100
AcDbEntity
  8
0
  6
CONTINUOUS
 62
               7
100
AcDbLine
 10
76.0
 20
-2.5
 30
0.0
 11
71.5
 21
-2.5
 31
0.0
  0
LINE
  5
5A
100
AcDbEntity
  8
0
  6
CONTINUOUS
 62
               7
100
AcDbLine
 10
77.599999999999994
 20
-2.0
 30
0.0
 11
76.0
 21
-2.0
 31
0.0
  0
LINE
  5
5B
100
AcDbEntity
  8
0
  6
CONTINUOUS
 62
               7
100
AcDbLine
 10
77.599999999999994
 20
2.0
 30
0.0
 11
76.0
 21
2.0
 31
0.0
  0
LINE
  5
5C
100
AcDbEntity
  8
0
  6
CONTINUOUS
 62
               7
100
AcDbLine
 10
77.599999999999994
 20
2.0
 30
0.0
 11
77.599999999999994
 21
-2.0
 31
0.0
  0
LINE
  5
5D
100
AcDbEntity
  8
0
  6
CONTINUOUS
 62
               7
100
AcDbLine
 10
76.0
 20
2.5
 30
0.0
 11
71.5
 21
2.5
 31
0.0
  0
LINE
  5
5E
100
AcDbEntity
  8
0
  6
CONTINUOUS
 62
               7
100
AcDbLine
 10
71.5
 20
2.5
 30
0.0
 11
71.5
 21
-2.5
 31
0.0
  0
LINE
  5
5F
100
AcDbEntity
  8
0
  6
CONTINUOUS
 62
               7
100
AcDbLine
 10
76.0
 20
2.5
 30
0.0
 11
76.0
 21
-2.5
 31
0.0
  0
LINE
  5
60
100
AcDbEntity
  8
0
  6
CONTINUOUS
 62
               7
100
AcDbLine
 10
68.5
 20
2.25
 30
0.0
 11
71.5
 21
2.25
 31
0.0
  0
LINE
  5
61
100
AcDbEntity
  8
0
  6
CONTINUOUS
 62
               7
100
AcDbLine
 10
68.5
 20
2.25
 30
0.0
 11
68.5
 21
1.1999999999999531
 31
0.0
  0
LINE
  5
62
100
AcDbEntity
  8
0
  6
CONTINUOUS
 62
               7
100
AcDbLine
 10
77.599999999999994
 20
1.0
 30
0.0
 11
77.800000000000011
 21
1.0
 31
0.0
  0
LINE
  5
63
100
AcDbEntity
  8
0
  6
CONTINUOUS
 62
               7
100
AcDbLine
 10
77.599999999999994
 20
-1.0
 30
0.0
 11
77.800000000000011
 21
-1.0
 31
0.0
  0
LINE
  5
64
100
AcDbEntity
  8
0
  6
CONTINUOUS
 62
               7
100
AcDbLine
 10
75.613248654051858
 20
0.0
 30
0.0
 11
71.5
 21
0.0
 31
0.0
  0
LINE
  5
65
100
AcDbEntity
  8
0
  6
CONTINUOUS
 62
               7
100
AcDbLine
 10
76.178632794954098
 20
-0.0000000000000497
 30
0.0
 11
77.421367205045897
 21
-0.0000000000000497
 31
0.0
  0
LINE
  5
66
100
AcDbEntity
  8
0
  6
CONTINUOUS
 62
               7
100
AcDbLine
 10
77.800000000000011
 20
1.0
 30
0.0
 11
77.800000000000011
 21
-1.0
 31
0.0
  0
LINE
  5
67
100
AcDbEntity
  8
0
  6
CONTINUOUS
 62
               7
100
AcDbLine
 10
59.40000000000002
 20
6.4000000000000057
 30
0.0
 11
58.5
 21
6.4000000000000057
 31
0.0
  0
LINE
  5
68
100
AcDbEntity
  8
0
  6
CONTINUOUS
 62
               7
100
AcDbLine
 10
59.700000000000003
 20
2.8999999999999986
 30
0.0
 11
59.549999999999997
 21
2.75
 31
0.0
  0
LINE
  5
69
100
AcDbEntity
  8
0
  6
CONTINUOUS
 62
               7
100
AcDbLine
 10
59.700000000000003
 20
6.0999999999999943
 30
0.0
 11
59.40000000000002
 21
6.4000000000000057
 31
0.0
  0
LINE
  5
6A
100
AcDbEntity
  8
0
  6
CONTINUOUS
 62
               7
100
AcDbLine
 10
59.700000000000003
 20
6.0999999999999943
 30
0.0
 11
59.700000000000003
 21
2.8999999999999986
 31
0.0
  0
LINE
  5
6B
100
AcDbEntity
  8
0
  6
CONTINUOUS
 62
               7
100
AcDbLine
 10
59.40000000000002
 20
6.4000000000000057
 30
0.0
 11
59.399999999999991
 21
2.75
 31
0.0
  0
LINE
  5
6C
100
AcDbEntity
  8
0
  6
CONTINUOUS
 62
               7
100
AcDbLine
 10
59.40000000000002
 20
-6.3999999999999986
 30
0.0
 11
58.5
 21
-6.3999999999999986
 31
0.0
  0
LINE
  5
6D
100
AcDbEntity
  8
0
  6
CONTINUOUS
 62
               7
100
AcDbLine
 10
59.700000000000003
 20
-2.8999999999999986
 30
0.0
 11
59.549999999999997
 21
-2.75
 31
0.0
  0
LINE
  5
6E
100
AcDbEntity
  8
0
  6
CONTINUOUS
 62
               7
100
AcDbLine
 10
59.700000000000003
 20
-6.1000000000000014
 30
0.0
 11
59.40000000000002
 21
-6.3999999999999986
 31
0.0
  0
LINE
  5
6F
100
AcDbEntity
  8
0
  6
CONTINUOUS
 62
               7
100
AcDbLine
 10
59.700000000000003
 20
-6.1000000000000014
 30
0.0
 11
59.700000000000003
 21
-2.8999999999999986
 31
0.0
  0
LINE
  5
70
100
AcDbEntity
  8
0
  6
CONTINUOUS
 62
               7
100
AcDbLine
 10
59.40000000000002
 20
-6.3999999999999986
 30
0.0
 11
59.399999999999991
 21
-2.75
 31
0.0
  0
LINE
  5
71
100
AcDbEntity
  8
0
  6
CONTINUOUS
 62
               7
100
AcDbLine
 10
53.5
 20
-2.6000000000000014
 30
0.0
 11
54.0
 21
-2.6000000000000014
 31
0.0
  0
LINE
  5
72
100
AcDbEntity
  8
0
  6
CONTINUOUS
 62
               7
100
AcDbLine
 10
53.5
 20
2.6000000000000014
 30
0.0
 11
54.0
 21
2.6000000000000014
 31
0.0
  0
LINE
  5
73
100
AcDbEntity
  8
0
  6
CONTINUOUS
 62
               7
100
AcDbLine
 10
52.0
 20
-8.0
 30
0.0
 11
58.5
 21
-8.0
 31
0.0
  0
LINE
  5
74
100
AcDbEntity
  8
0
  6
CONTINUOUS
 62
               7
100
AcDbLine
 10
52.0
 20
8.0
 30
0.0
 11
58.5
 21
8.0
 31
0.0
  0
SPLINE
  5
75
100
AcDbEntity
  8
0
  6
CONTINUOUS
 62
               7
100
AcDbSpline
210
0.0
220
0.0
230
1.0
 70
               0
 71
               3
 72
               0
 73
               0
 74
               5
 44
0.000001
 12
0.5262037021178121
 22
-0.8503585501878069
 32
0.0
 13
-0.5262037021178122
 23
-0.8503585501878068
 33
0.0
 11
75.613248654051858
 21
2.5
 31
0.0
 11
75.892689116051059
 21
1.9007506718460481
 31
0.0
 11
76.0
 21
1.25
 31
0.0
 11
75.892689116051059
 21
0.5992493281539522
 31
0.0
 11
75.613248654051858
 21
0.0000000000000002
 31
0.0
  0
SPLINE
  5
76
100
AcDbEntity
  8
0
  6
CONTINUOUS
 62
               7
100
AcDbSpline
210
0.0
220
0.0
230
1.0
 70
               0
 71
               3
 72
               0
 73
               0
 74
               5
 44
0.000001
 12
0.5262037021178121
 22
-0.8503585501878069
 32
0.0
 13
-0.5262037021178122
 23
-0.8503585501878068
 33
0.0
 11
75.613248654051858
 21
0.0
 31
0.0
 11
75.892689116051059
 21
-0.599249328153952
 31
0.0
 11
76.0
 21
-1.25
 31
0.0
 11
75.892689116051059
 21
-1.9007506718460478
 31
0.0
 11
75.613248654051858
 21
-2.5
 31
0.0
  0
SPLINE
  5
77
100
AcDbEntity
  8
0
  6
CONTINUOUS
 62
               7
100
AcDbSpline
210
0.0
220
0.0
230
1.0
 70
               0
 71
               3
 72
               0
 73
               0
 74
               5
 44
0.000001
 12
0.3364388986559677
 22
-0.9417052975698711
 32
0.0
 13
-0.3364388986559636
 23
-0.9417052975698725
 33
0.0
 11
77.421367205045897
 21
2.0
 31
0.0
 11
77.553404174417111
 21
1.5081352370579029
 31
0.0
 11
77.599999999999994
 21
1.0
 31
0.0
 11
77.553404174417111
 21
0.491864762942072
 31
0.0
 11
77.421367205045897
 21
-0.0000000000000497
 31
0.0
  0
SPLINE
  5
78
100
AcDbEntity
  8
0
  6
CONTINUOUS
 62
               7
100
AcDbSpline
210
0.0
220
0.0
230
1.0
 70
               0
 71
               3
 72
               0
 73
               0
 74
               5
 44
0.000001
 12
0.3364388986559804
 22
-0.9417052975698665
 32
0.0
 13
-0.3364388986559803
 23
-0.9417052975698667
 33
0.0
 11
77.421367205045897
 21
-0.0000000000000497
 31
0.0
 11
77.553404174417111
 21
-0.4918647629421219
 31
0.0
 11
77.599999999999994
 21
-1.0
 31
0.0
 11
77.553404174417111
 21
-1.5081352370579033
 31
0.0
 11
77.421367205045897
 21
-2.0
 31
0.0
  0
SPLINE
  5
79
100
AcDbEntity
  8
0
  6
CONTINUOUS
 62
               7
100
AcDbSpline
210
0.0
220
0.0
230
1.0
 70
               0
 71
               3
 72
               0
 73
               0
 74
               5
 44
0.000001
 12
-0.3364388986559676
 22
-0.9417052975698712
 32
0.0
 13
0.3364388986559635
 23
-0.9417052975698727
 33
0.0
 11
76.178632794954098
 21
2.0
 31
0.0
 11
76.046595825582884
 21
1.5081352370579029
 31
0.0
 11
76.0
 21
1.0
 31
0.0
 11
76.046595825582884
 21
0.491864762942072
 31
0.0
 11
76.178632794954098
 21
-0.0000000000000497
 31
0.0
  0
SPLINE
  5
7A
100
AcDbEntity
  8
0
  6
CONTINUOUS
 62
               7
100
AcDbSpline
210
0.0
220
0.0
230
1.0
 70
               0
 71
               3
 72
               0
 73
               0
 74
               5
 44
0.000001
 12
-0.3364388986559803
 22
-0.9417052975698667
 32
0.0
 13
0.3364388986559804
 23
-0.9417052975698665
 33
0.0
 11
76.178632794954098
 21
-0.0000000000000497
 31
0.0
 11
76.046595825582884
 21
-0.4918647629421219
 31
0.0
 11
76.0
 21
-1.0
 31
0.0
 11
76.046595825582884
 21
-1.5081352370579033
 31
0.0
 11
76.178632794954098
 21
-2.0
 31
0.0
  0
ARC
  5
7B
100
AcDbEntity
  8
0
  6
CONTINUOUS
 62
               7
100
AcDbCircle
 10
53.700000000000003
 20
-4.7999999999999972
 30
0.0
 40
0.3
100
AcDbArc
 50
0.0
 51
90.0
  0
ARC
  5
7C
100
AcDbEntity
  8
0
  6
CONTINUOUS
 62
               7
100
AcDbCircle
 10
53.700000000000003
 20
-6.2000000000000028
 30
0.0
 40
0.3
100
AcDbArc
 50
270.0
 51
0.0
  0
LINE
  5
7D
100
AcDbEntity
  8
0
  6
CONTINUOUS
 62
               7
100
AcDbLine
 10
53.5
 20
-4.5
 30
0.0
 11
53.700000000000003
 21
-4.5
 31
0.0
  0
LINE
  5
7E
100
AcDbEntity
  8
0
  6
CONTINUOUS
 62
               7
100
AcDbLine
 10
53.5
 20
-6.5
 30
0.0
 11
53.700000000000003
 21
-6.5
 31
0.0
  0
LINE
  5
7F
100
AcDbEntity
  8
0
  6
CONTINUOUS
 62
               7
100
AcDbLine
 10
54.0
 20
-4.7999999999999972
 30
0.0
 11
54.0
 21
-6.2000000000000028
 31
0.0
  0
LINE
  5
80
100
AcDbEntity
  8
0
  6
CONTINUOUS
 62
               7
100
AcDbLine
 10
49.0
 20
-7.5000000000000142
 30
0.0
 11
53.5
 21
-7.5000000000000142
 31
0.0
  0
LINE
  5
81
100
AcDbEntity
  8
0
  6
CONTINUOUS
 62
               7
100
AcDbLine
 10
54.0
 20
4.7999999999999972
 30
0.0
 11
54.0
 21
6.2000000000000028
 31
0.0
  0
ARC
  5
82
100
AcDbEntity
  8
0
  6
CONTINUOUS
 62
               7
100
AcDbCircle
 10
53.700000000000003
 20
6.2000000000000028
 30
0.0
 40
0.3
100
AcDbArc
 50
0.0
 51
90.0
  0
ARC
  5
83
100
AcDbEntity
  8
0
  6
CONTINUOUS
 62
               7
100
AcDbCircle
 10
53.700000000000003
 20
4.7999999999999972
 30
0.0
 40
0.3
100
AcDbArc
 50
270.0
 51
0.0
  0
LINE
  5
84
100
AcDbEntity
  8
0
  6
CONTINUOUS
 62
               7
100
AcDbLine
 10
53.5
 20
4.5
 30
0.0
 11
53.700000000000003
 21
4.5
 31
0.0
  0
LINE
  5
85
100
AcDbEntity
  8
0
  6
CONTINUOUS
 62
               7
100
AcDbLine
 10
53.5
 20
6.5
 30
0.0
 11
53.700000000000003
 21
6.5
 31
0.0
  0
LINE
  5
86
100
AcDbEntity
  8
0
  6
CONTINUOUS
 62
               7
100
AcDbLine
 10
49.0
 20
7.5000000000000142
 30
0.0
 11
53.5
 21
7.5000000000000142
 31
0.0
  0
LINE
  5
87
100
AcDbEntity
  8
0
  6
CONTINUOUS
 62
               7
100
AcDbLine
 10
53.5
 20
7.5000000000000142
 30
0.0
 11
53.5
 21
-7.5000000000000142
 31
0.0
  0
ARC
  5
88
100
AcDbEntity
  8
0
  6
CONTINUOUS
 62
               7
100
AcDbCircle
 10
41.0
 20
6.5
 30
0.0
 40
2.0999999999999943
100
AcDbArc
 50
289.61597913540436
 51
0.0
  0
LINE
  5
89
100
AcDbEntity
  8
0
  6
CONTINUOUS
 62
               7
100
AcDbLine
 10
43.099999999999994
 20
6.5
 30
0.0
 11
43.099999999999994
 21
8.1703293088489772
 31
0.0
  0
ARC
  5
8A
100
AcDbEntity
  8
0
  6
CONTINUOUS
 62
               7
100
AcDbCircle
 10
25.0
 20
6.5
 30
0.0
 40
2.0999999999999943
100
AcDbArc
 50
289.61597913540436
 51
0.0
  0
LINE
  5
8B
100
AcDbEntity
  8
0
  6
CONTINUOUS
 62
               7
100
AcDbLine
 10
27.099999999999994
 20
6.5
 30
0.0
 11
27.099999999999994
 21
8.1703293088489772
 31
0.0
  0
ARC
  5
8C
100
AcDbEntity
  8
0
  6
CONTINUOUS
 62
               7
100
AcDbCircle
 10
25.0
 20
-6.5
 30
0.0
 40
2.0999999999999943
100
AcDbArc
 50
0.0
 51
70.384020864595627
  0
LINE
  5
8D
100
AcDbEntity
  8
0
  6
CONTINUOUS
 62
               7
100
AcDbLine
 10
0.0
 20
-9.0
 30
0.0
 11
52.000000000000014
 21
-9.0
 31
0.0
  0
LINE
  5
8E
100
AcDbEntity
  8
0
  6
CONTINUOUS
 62
               2
100
AcDbLine
 10
38.999999999999943
 20
6.5
 30
0.0
 11
44.999999999999943
 21
6.5
 31
0.0
  0
ARC
  5
8F
100
AcDbEntity
  8
0
  6
CONTINUOUS
 62
               7
100
AcDbCircle
 10
41.0
 20
6.5
 30
0.0
 40
1.05
100
AcDbArc
 50
205.3684394417661
 51
154.63156055823393
  0
LINE
  5
90
100
AcDbEntity
  8
0
  6
CONTINUOUS
 62
               2
100
AcDbLine
 10
41.0
 20
3.5
 30
0.0
 11
41.0
 21
9.0
 31
0.0
  0
LINE
  5
91
100
AcDbEntity
  8
0
  6
CONTINUOUS
 62
               2
100
AcDbLine
 10
41.999999999999943
 20
3.5
 30
0.0
 11
41.999999999999943
 21
9.0
 31
0.0
  0
CIRCLE
  5
92
100
AcDbEntity
  8
0
  6
CONTINUOUS
 62
               7
100
AcDbCircle
 10
41.999999999999943
 20
6.5
 30
0.0
 40
2.0
  0
LINE
  5
93
100
AcDbEntity
  8
0
  6
CONTINUOUS
 62
               2
100
AcDbLine
 10
22.999999999999943
 20
-6.5
 30
0.0
 11
28.999999999999943
 21
-6.5
 31
0.0
  0
ARC
  5
94
100
AcDbEntity
  8
0
  6
CONTINUOUS
 62
               7
100
AcDbCircle
 10
25.0
 20
-6.5
 30
0.0
 40
1.05
100
AcDbArc
 50
205.3684394417661
 51
154.6315605582339
  0
LINE
  5
95
100
AcDbEntity
  8
0
  6
CONTINUOUS
 62
               7
100
AcDbLine
 10
27.099999999999994
 20
-6.5
 30
0.0
 11
27.099999999999994
 21
-8.1703293088489701
 31
0.0
  0
LINE
  5
96
100
AcDbEntity
  8
0
  6
CONTINUOUS
 62
               2
100
AcDbLine
 10
25.0
 20
-3.5
 30
0.0
 11
25.0
 21
-9.0
 31
0.0
  0
LINE
  5
97
100
AcDbEntity
  8
0
  6
CONTINUOUS
 62
               2
100
AcDbLine
 10
25.999999999999943
 20
-3.5
 30
0.0
 11
25.999999999999943
 21
-9.0
 31
0.0
  0
CIRCLE
  5
98
100
AcDbEntity
  8
0
  6
CONTINUOUS
 62
               7
100
AcDbCircle
 10
25.999999999999943
 20
-6.5
 30
0.0
 40
2.0
  0
ARC
  5
99
100
AcDbEntity
  8
0
  6
CONTINUOUS
 62
               7
100
AcDbCircle
 10
25.0
 20
6.5
 30
0.0
 40
1.05
100
AcDbArc
 50
205.3684394417661
 51
154.63156055823393
  0
LINE
  5
9A
100
AcDbEntity
  8
0
  6
CONTINUOUS
 62
               2
100
AcDbLine
 10
25.0
 20
3.5
 30
0.0
 11
25.0
 21
9.0
 31
0.0
  0
LINE
  5
9B
100
AcDbEntity
  8
0
  6
CONTINUOUS
 62
               2
100
AcDbLine
 10
18.499999999999943
 20
-6.0
 30
0.0
 11
23.499999999999943
 21
-6.0
 31
0.0
  0
LINE
  5
9C
100
AcDbEntity
  8
0
  6
CONTINUOUS
 62
               7
100
AcDbLine
 10
0.0
 20
-8.5
 30
0.0
 11
52.000000000000014
 21
-8.5
 31
0.0
  0
LINE
  5
9D
100
AcDbEntity
  8
0
  6
CONTINUOUS
 62
               7
100
AcDbLine
 10
0.0
 20
8.5
 30
0.0
 11
52.000000000000014
 21
8.5
 31
0.0
  0
LINE
  5
9E
100
AcDbEntity
  8
0
  6
CONTINUOUS
 62
               2
100
AcDbLine
 10
18.499999999999943
 20
6.0
 30
0.0
 11
23.499999999999943
 21
6.0
 31
0.0
  0
LINE
  5
9F
100
AcDbEntity
  8
0
  6
CONTINUOUS
 62
               2
100
AcDbLine
 10
37.0
 20
-2.5
 30
0.0
 11
37.0
 21
2.5
 31
0.0
  0
ARC
  5
A0
100
AcDbEntity
  8
0
  6
CONTINUOUS
 62
               7
100
AcDbCircle
 10
36.5
 20
0.0
 30
0.0
 40
1.5
100
AcDbArc
 50
90.0
 51
270.0
  0
LINE
  5
A1
100
AcDbEntity
  8
0
  6
CONTINUOUS
 62
               7
100
AcDbLine
 10
14.0
 20
-9.0
 30
0.0
 11
14.0
 21
9.0
 31
0.0
  0
LINE
  5
A3
100
AcDbEntity
  8
0
  6
CENTER
 62
               2
100
AcDbLine
 10
-4.0
 20
0.0
 30
0.0
 11
79.398968991569916
 21
0.0
 31
0.0
  0
LINE
  5
A4
100
AcDbEntity
  8
0
  6
CONTINUOUS
 62
               7
100
AcDbLine
 10
52.0
 20
-9.0
 30
0.0
 11
52.0
 21
-7.5000000000000142
 31
0.0
  0
CIRCLE
  5
A5
100
AcDbEntity
  8
0
  6
CONTINUOUS
 62
               7
100
AcDbCircle
 10
21.0
 20
0.0
 30
0.0
 40
1.5
  0
LINE
  5
A6
100
AcDbEntity
  8
0
  6
CONTINUOUS
 62
               2
100
AcDbLine
 10
21.0
 20
-2.5
 30
0.0
 11
21.0
 21
2.5
 31
0.0
  0
ARC
  5
A7
100
AcDbEntity
  8
0
  6
CONTINUOUS
 62
               7
100
AcDbCircle
 10
37.5
 20
0.0
 30
0.0
 40
1.5
100
AcDbArc
 50
270.0
 51
90.0
  0
LINE
  5
A8
100
AcDbEntity
  8
0
  6
CONTINUOUS
 62
               7
100
AcDbLine
 10
36.5
 20
1.5
 30
0.0
 11
37.5
 21
1.5
 31
0.0
  0
LINE
  5
A9
100
AcDbEntity
  8
0
  6
CONTINUOUS
 62
               7
100
AcDbLine
 10
36.5
 20
-1.5
 30
0.0
 11
37.5
 21
-1.5
 31
0.0
  0
CIRCLE
  5
AA
100
AcDbEntity
  8
0
  6
CONTINUOUS
 62
               2
100
AcDbCircle
 10
20.999999999999943
 20
-6.0
 30
0.0
 40
1.5
  0
LINE
  5
AB
100
AcDbEntity
  8
0
  6
CONTINUOUS
 62
               2
100
AcDbLine
 10
20.999999999999943
 20
-8.5
 30
0.0
 11
20.999999999999943
 21
-3.5
 31
0.0
  0
CIRCLE
  5
AC
100
AcDbEntity
  8
0
  6
CONTINUOUS
 62
               7
100
AcDbCircle
 10
20.999999999999943
 20
-6.0
 30
0.0
 40
1.25
  0
LINE
  5
AD
100
AcDbEntity
  8
0
  6
CONTINUOUS
 62
               2
100
AcDbLine
 10
34.499999999999943
 20
6.0
 30
0.0
 11
39.499999999999943
 21
6.0
 31
0.0
  0
CIRCLE
  5
AE
100
AcDbEntity
  8
0
  6
CONTINUOUS
 62
               2
100
AcDbCircle
 10
36.999999999999943
 20
6.0
 30
0.0
 40
1.5
  0
LINE
  5
AF
100
AcDbEntity
  8
0
  6
CONTINUOUS
 62
               2
100
AcDbLine
 10
36.999999999999943
 20
8.5
 30
0.0
 11
36.999999999999943
 21
3.5
 31
0.0
  0
CIRCLE
  5
B0
100
AcDbEntity
  8
0
  6
CONTINUOUS
 62
               7
100
AcDbCircle
 10
36.999999999999943
 20
6.0
 30
0.0
 40
1.25
  0
LINE
  5
B1
100
AcDbEntity
  8
0
  6
CONTINUOUS
 62
               2
100
AcDbLine
 10
25.999999999999943
 20
3.5
 30
0.0
 11
25.999999999999943
 21
9.0
 31
0.0
  0
LINE
  5
B2
100
AcDbEntity
  8
0
  6
CONTINUOUS
 62
               2
100
AcDbLine
 10
22.999999999999943
 20
6.5
 30
0.0
 11
28.999999999999943
 21
6.5
 31
0.0
  0
CIRCLE
  5
B3
100
AcDbEntity
  8
0
  6
CONTINUOUS
 62
               7
100
AcDbCircle
 10
25.999999999999943
 20
6.5
 30
0.0
 40
2.0
  0
CIRCLE
  5
B4
100
AcDbEntity
  8
0
  6
CONTINUOUS
 62
               2
100
AcDbCircle
 10
20.999999999999943
 20
6.0
 30
0.0
 40
1.5
  0
LINE
  5
B5
100
AcDbEntity
  8
0
  6
CONTINUOUS
 62
               2
100
AcDbLine
 10
20.999999999999943
 20
8.5
 30
0.0
 11
20.999999999999943
 21
3.5
 31
0.0
  0
CIRCLE
  5
B6
100
AcDbEntity
  8
0
  6
CONTINUOUS
 62
               7
100
AcDbCircle
 10
20.999999999999943
 20
6.0
 30
0.0
 40
1.25
  0
LINE
  5
B7
100
AcDbEntity
  8
0
  6
CONTINUOUS
 62
               7
100
AcDbLine
 10
0.0
 20
9.0
 30
0.0
 11
52.000000000000014
 21
9.0
 31
0.0
  0
LINE
  5
B8
100
AcDbEntity
  8
0
  6
CONTINUOUS
 62
               7
100
AcDbLine
 10
43.099999999999994
 20
-6.5
 30
0.0
 11
43.099999999999994
 21
-8.1703293088489772
 31
0.0
  0
ARC
  5
B9
100
AcDbEntity
  8
0
  6
CONTINUOUS
 62
               7
100
AcDbCircle
 10
41.0
 20
-6.5
 30
0.0
 40
1.05
100
AcDbArc
 50
205.3684394417661
 51
154.6315605582339
  0
LINE
  5
BA
100
AcDbEntity
  8
0
  6
CONTINUOUS
 62
               2
100
AcDbLine
 10
41.0
 20
-3.5
 30
0.0
 11
41.0
 21
-9.0
 31
0.0
  0
LINE
  5
BB
100
AcDbEntity
  8
0
  6
CONTINUOUS
 62
               2
100
AcDbLine
 10
41.999999999999943
 20
-3.5
 30
0.0
 11
41.999999999999943
 21
-9.0
 31
0.0
  0
CIRCLE
  5
BC
100
AcDbEntity
  8
0
  6
CONTINUOUS
 62
               7
100
AcDbCircle
 10
41.999999999999943
 20
-6.5
 30
0.0
 40
2.0
  0
CIRCLE
  5
BD
100
AcDbEntity
  8
0
  6
CONTINUOUS
 62
               2
100
AcDbCircle
 10
36.999999999999943
 20
-6.0
 30
0.0
 40
1.5
  0
LINE
  5
BE
100
AcDbEntity
  8
0
  6
CONTINUOUS
 62
               2
100
AcDbLine
 10
36.999999999999943
 20
-8.5
 30
0.0
 11
36.999999999999943
 21
-3.5
 31
0.0
  0
CIRCLE
  5
BF
100
AcDbEntity
  8
0
  6
CONTINUOUS
 62
               7
100
AcDbCircle
 10
36.999999999999943
 20
-6.0
 30
0.0
 40
1.25
  0
LINE
  5
C0
100
AcDbEntity
  8
0
  6
CONTINUOUS
 62
               2
100
AcDbLine
 10
34.499999999999943
 20
-6.0
 30
0.0
 11
39.499999999999943
 21
-6.0
 31
0.0
  0
LINE
  5
C1
100
AcDbEntity
  8
0
  6
CONTINUOUS
 62
               2
100
AcDbLine
 10
38.999999999999943
 20
-6.5
 30
0.0
 11
44.999999999999943
 21
-6.5
 31
0.0
  0
ARC
  5
C2
100
AcDbEntity
  8
0
  6
CONTINUOUS
 62
               7
100
AcDbCircle
 10
41.0
 20
-6.5
 30
0.0
 40
2.0999999999999943
100
AcDbArc
 50
0.0
 51
70.384020864595641
  0
LINE
  5
C3
100
AcDbEntity
  8
0
  6
CONTINUOUS
 62
               2
100
AcDbLine
 10
-2.0
 20
6.0
 30
0.0
 11
2.0
 21
6.0
 31
0.0
  0
LINE
  5
C4
100
AcDbEntity
  8
0
  6
CONTINUOUS
 62
               2
100
AcDbLine
 10
-2.0
 20
-6.0
 30
0.0
 11
2.0
 21
-6.0
 31
0.0
  0
LINE
  5
C6
100
AcDbEntity
  8
0
  6
PHANTOM
 62
               3
100
AcDbLine
 10
65.801160484541583
 20
16.477576433718035
 30
0.0
 11
65.801160484541583
 21
-18.601426406647867
 31
0.0
  0
ENDBLK
  5
C7
100
AcDbEntity
  8
0
100
AcDbBlockEnd
  0
BLOCK
  5
C8
100
AcDbEntity
  8
0
100
AcDbBlockBegin
  2
MGAEG4_5-2
 70
               0
 10
0.0
 20
0.0
 30
0.0
  3
MGAEG4_5-2
  1

  0
LINE
  5
C9
100
AcDbEntity
  8
0
  6
CENTER
 62
               2
100
AcDbLine
 10
-3.6999999999999886
 20
0.0
 30
0.0
 11
16.0
 21
0.0
 31
0.0
  0
CIRCLE
  5
CA
100
AcDbEntity
  8
0
  6
CONTINUOUS
 62
               7
100
AcDbCircle
 10
3.5
 20
0.0
 30
0.0
 40
0.7
  0
LINE
  5
CB
100
AcDbEntity
  8
0
  6
CONTINUOUS
 62
               7
100
AcDbLine
 10
3.5
 20
-3.3000000000000043
 30
0.0
 11
0.5999999999999943
 21
-3.3000000000000043
 31
0.0
  0
LINE
  5
CC
100
AcDbEntity
  8
0
  6
CONTINUOUS
 62
               7
100
AcDbLine
 10
1.4433036198796856
 20
-1.8999999999999986
 30
0.0
 11
0.5999999999999943
 21
-1.8999999999999986
 31
0.0
  0
LINE
  5
CD
100
AcDbEntity
  8
0
  6
CONTINUOUS
 62
               7
100
AcDbLine
 10
3.5
 20
3.3000000000000043
 30
0.0
 11
0.5999999999999943
 21
3.3000000000000043
 31
0.0
  0
LINE
  5
CE
100
AcDbEntity
  8
0
  6
CONTINUOUS
 62
               7
100
AcDbLine
 10
1.4433036198796856
 20
1.8999999999999986
 30
0.0
 11
0.5999999999999943
 21
1.8999999999999986
 31
0.0
  0
ARC
  5
CF
100
AcDbEntity
  8
0
  6
CONTINUOUS
 62
               7
100
AcDbCircle
 10
3.5
 20
0.0
 30
0.0
 40
2.8999999999999999
100
AcDbArc
 50
139.06727542584409
 51
220.93272457415591
  0
ARC
  5
D0
100
AcDbEntity
  8
0
  6
CONTINUOUS
 62
               7
100
AcDbCircle
 10
3.5
 20
0.0
 30
0.0
 40
3.3000000000000043
100
AcDbArc
 50
270.0
 51
90.0
  0
CIRCLE
  5
D1
100
AcDbEntity
  8
0
  6
CONTINUOUS
 62
               7
100
AcDbCircle
 10
3.5
 20
0.0
 30
0.0
 40
2.7999999999999998
  0
LINE
  5
D2
100
AcDbEntity
  8
0
  6
CONTINUOUS
 62
               2
100
AcDbLine
 10
1.0
 20
6.0
 30
0.0
 11
5.8000000000000114
 21
6.0
 31
0.0
  0
LINE
  5
D3
100
AcDbEntity
  8
0
  6
CONTINUOUS
 62
               2
100
AcDbLine
 10
1.0
 20
-6.0
 30
0.0
 11
5.8000000000000114
 21
-6.0
 31
0.0
  0
LINE
  5
D4
100
AcDbEntity
  8
0
  6
CONTINUOUS
 62
               7
100
AcDbLine
 10
12.975425204985157
 20
0.0000001140693371
 30
0.0
 11
12.0
 21
1.6894864154458347
 31
0.0
  0
LINE
  5
D5
100
AcDbEntity
  8
0
  6
CONTINUOUS
 62
               7
100
AcDbLine
 10
12.0
 20
-1.6894883227947304
 30
0.0
 11
12.975426507728486
 21
0.0000002349997885
 31
0.0
  0
LINE
  5
D6
100
AcDbEntity
  8
0
  6
CONTINUOUS
 62
               7
100
AcDbLine
 10
10.0
 20
-7.5
 30
0.0
 11
12.0
 21
-7.5
 31
0.0
  0
LINE
  5
D7
100
AcDbEntity
  8
0
  6
CONTINUOUS
 62
               7
100
AcDbLine
 10
10.0
 20
7.5
 30
0.0
 11
12.0
 21
7.5
 31
0.0
  0
LINE
  5
D8
100
AcDbEntity
  8
0
  6
CONTINUOUS
 62
               7
100
AcDbLine
 10
12.0
 20
-7.5
 30
0.0
 11
12.0
 21
7.5
 31
0.0
  0
LINE
  5
D9
100
AcDbEntity
  8
0
  6
CONTINUOUS
 62
               7
100
AcDbLine
 10
8.7660254903786665
 20
-5.9999998632791787
 30
0.0
 11
8.3330126744466213
 21
-6.7500000233842599
 31
0.0
  0
LINE
  5
DA
100
AcDbEntity
  8
0
  6
CONTINUOUS
 62
               7
100
AcDbLine
 10
7.4669873732143799
 20
-6.7500001433532191
 30
0.0
 11
7.0339745896870056
 21
-5.9999999645392847
 31
0.0
  0
LINE
  5
DB
100
AcDbEntity
  8
0
  6
CONTINUOUS
 62
               7
100
AcDbLine
 10
7.0339745096213164
 20
-6.0000001367208213
 30
0.0
 11
7.4669873255533901
 21
-5.2499999766157401
 31
0.0
  0
LINE
  5
DC
100
AcDbEntity
  8
0
  6
CONTINUOUS
 62
               7
100
AcDbLine
 10
8.3330126267856315
 20
-5.2499998566467809
 30
0.0
 11
8.7660254103130058
 21
-6.0000000354607153
 31
0.0
  0
LINE
  5
DD
100
AcDbEntity
  8
0
  6
CONTINUOUS
 62
               7
100
AcDbLine
 10
7.4669871364069706
 20
-5.2499999933676023
 30
0.0
 11
8.3330127358663901
 21
-5.2500000120764554
 31
0.0
  0
LINE
  5
DE
100
AcDbEntity
  8
0
  6
CONTINUOUS
 62
               7
100
AcDbLine
 10
8.3330128635930407
 20
-6.7500000066324048
 30
0.0
 11
7.4669872641336212
 21
-6.7499999879235446
 31
0.0
  0
CIRCLE
  5
DF
100
AcDbEntity
  8
0
  6
CONTINUOUS
 62
               7
100
AcDbCircle
 10
7.9000000000000057
 20
-6.0
 30
0.0
 40
1.6000000000000174
  0
CIRCLE
  5
E0
100
AcDbEntity
  8
0
  6
CONTINUOUS
 62
               7
100
AcDbCircle
 10
7.9000000000000057
 20
-6.0
 30
0.0
 40
1.9000000000000148
  0
LINE
  5
E1
100
AcDbEntity
  8
0
  6
CONTINUOUS
 62
               7
100
AcDbLine
 10
9.7999999999999829
 20
-8.5
 30
0.0
 11
9.7999999999999829
 21
8.5000000000000284
 31
0.0
  0
CIRCLE
  5
E2
100
AcDbEntity
  8
0
  6
CONTINUOUS
 62
               7
100
AcDbCircle
 10
7.9000000000000057
 20
6.0
 30
0.0
 40
1.6000000000000174
  0
CIRCLE
  5
E3
100
AcDbEntity
  8
0
  6
CONTINUOUS
 62
               7
100
AcDbCircle
 10
7.9000000000000057
 20
6.0
 30
0.0
 40
1.9000000000000148
  0
LINE
  5
E4
100
AcDbEntity
  8
0
  6
CONTINUOUS
 62
               7
100
AcDbLine
 10
8.3330128635930407
 20
6.7500000066324048
 30
0.0
 11
7.4669872641336212
 21
6.7499999879235446
 31
0.0
  0
LINE
  5
E5
100
AcDbEntity
  8
0
  6
CONTINUOUS
 62
               7
100
AcDbLine
 10
7.4669871364069706
 20
5.2499999933676094
 30
0.0
 11
8.3330127358663901
 21
5.2500000120764554
 31
0.0
  0
LINE
  5
E6
100
AcDbEntity
  8
0
  6
CONTINUOUS
 62
               7
100
AcDbLine
 10
8.3330126267856315
 20
5.2499998566467809
 30
0.0
 11
8.7660254103130058
 21
6.0000000354607153
 31
0.0
  0
LINE
  5
E7
100
AcDbEntity
  8
0
  6
CONTINUOUS
 62
               7
100
AcDbLine
 10
7.0339745096213164
 20
6.0000001367208284
 30
0.0
 11
7.4669873255533901
 21
5.2499999766157401
 31
0.0
  0
LINE
  5
E8
100
AcDbEntity
  8
0
  6
CONTINUOUS
 62
               7
100
AcDbLine
 10
7.4669873732143799
 20
6.7500001433532191
 30
0.0
 11
7.0339745896870056
 21
5.9999999645392847
 31
0.0
  0
LINE
  5
E9
100
AcDbEntity
  8
0
  6
CONTINUOUS
 62
               7
100
AcDbLine
 10
8.7660254903786665
 20
5.9999998632791716
 30
0.0
 11
8.3330126744466213
 21
6.7500000233842599
 31
0.0
  0
LINE
  5
EA
100
AcDbEntity
  8
0
  6
CONTINUOUS
 62
               7
100
AcDbLine
 10
0.5999999999999943
 20
9.0
 30
0.0
 11
0.5999999999999943
 21
1.8999999999999986
 31
0.0
  0
LINE
  5
EB
100
AcDbEntity
  8
0
  6
CONTINUOUS
 62
               7
100
AcDbLine
 10
0.5999999999999943
 20
8.5
 30
0.0
 11
0.0
 21
8.5
 31
0.0
  0
LINE
  5
EC
100
AcDbEntity
  8
0
  6
CONTINUOUS
 62
               7
100
AcDbLine
 10
0.0
 20
8.499999992019184
 30
0.0
 11
0.0
 21
2.7000000000000171
 31
0.0
  0
LINE
  5
ED
100
AcDbEntity
  8
0
  6
CONTINUOUS
 62
               7
100
AcDbLine
 10
10.0
 20
-8.5000000000000426
 30
0.0
 11
10.0
 21
8.5000000000000284
 31
0.0
  0
LINE
  5
EE
100
AcDbEntity
  8
0
  6
CONTINUOUS
 62
               7
100
AcDbLine
 10
0.5999999999999943
 20
-8.5
 30
0.0
 11
0.0
 21
-8.5
 31
0.0
  0
LINE
  5
EF
100
AcDbEntity
  8
0
  6
CONTINUOUS
 62
               7
100
AcDbLine
 10
9.5
 20
-9.0
 30
0.0
 11
0.5999999999999943
 21
-9.0
 31
0.0
  0
LINE
  5
F0
100
AcDbEntity
  8
0
  6
CONTINUOUS
 62
               7
100
AcDbLine
 10
9.5
 20
9.0
 30
0.0
 11
0.5999999999999943
 21
9.0
 31
0.0
  0
CIRCLE
  5
F1
100
AcDbEntity
  8
0
  6
CONTINUOUS
 62
               7
100
AcDbCircle
 10
3.5
 20
1.8999999999999986
 30
0.0
 40
0.5
  0
CIRCLE
  5
F2
100
AcDbEntity
  8
0
  6
CONTINUOUS
 62
               7
100
AcDbCircle
 10
3.5
 20
-1.8999999999999986
 30
0.0
 40
0.5
  0
CIRCLE
  5
F3
100
AcDbEntity
  8
0
  6
CONTINUOUS
 62
               7
100
AcDbCircle
 10
3.5
 20
6.0
 30
0.0
 40
1.25
  0
CIRCLE
  5
F4
100
AcDbEntity
  8
0
  6
CONTINUOUS
 62
               2
100
AcDbCircle
 10
3.5
 20
6.0
 30
0.0
 40
1.5
  0
CIRCLE
  5
F5
100
AcDbEntity
  8
0
  6
CONTINUOUS
 62
               7
100
AcDbCircle
 10
3.5
 20
-6.0
 30
0.0
 40
1.25
  0
CIRCLE
  5
F6
100
AcDbEntity
  8
0
  6
CONTINUOUS
 62
               2
100
AcDbCircle
 10
3.5
 20
-6.0
 30
0.0
 40
1.5
  0
LINE
  5
F7
100
AcDbEntity
  8
0
  6
CONTINUOUS
 62
               2
100
AcDbLine
 10
3.5
 20
8.5
 30
0.0
 11
3.5
 21
-8.5
 31
0.0
  0
LINE
  5
F8
100
AcDbEntity
  8
0
  6
CONTINUOUS
 62
               7
100
AcDbLine
 10
9.2999999999999829
 20
9.0
 30
0.0
 11
9.7999999999999829
 21
8.5000000000000284
 31
0.0
  0
LINE
  5
F9
100
AcDbEntity
  8
0
  6
CONTINUOUS
 62
               7
100
AcDbLine
 10
9.5
 20
9.0
 30
0.0
 11
10.0
 21
8.5000000000000284
 31
0.0
  0
LINE
  5
FA
100
AcDbEntity
  8
0
  6
CONTINUOUS
 62
               7
100
AcDbLine
 10
9.7999999999999829
 20
-8.5
 30
0.0
 11
9.3000000000000114
 21
-8.9999999999999858
 31
0.0
  0
LINE
  5
FB
100
AcDbEntity
  8
0
  6
CONTINUOUS
 62
               7
100
AcDbLine
 10
9.5
 20
-9.0
 30
0.0
 11
10.0
 21
-8.5000000000000426
 31
0.0
  0
ARC
  5
FC
100
AcDbEntity
  8
0
  6
CONTINUOUS
 62
               7
100
AcDbCircle
 10
7.9000000000000057
 20
6.0
 30
0.0
 40
2.1000000000000001
100
AcDbArc
 50
90.0
 51
270.0
  0
LINE
  5
FD
100
AcDbEntity
  8
0
  6
CONTINUOUS
 62
               7
100
AcDbLine
 10
7.9000000000000057
 20
8.0999999999999943
 30
0.0
 11
9.7999999999999829
 21
8.0999999999999943
 31
0.0
  0
LINE
  5
FE
100
AcDbEntity
  8
0
  6
CONTINUOUS
 62
               7
100
AcDbLine
 10
7.9000000000000057
 20
3.8999999999999986
 30
0.0
 11
9.7999999999999829
 21
3.8999999999999986
 31
0.0
  0
LINE
  5
FF
100
AcDbEntity
  8
0
  6
CONTINUOUS
 62
               7
100
AcDbLine
 10
7.9000000000000057
 20
-8.1000000000000014
 30
0.0
 11
9.7999999999999829
 21
-8.1000000000000014
 31
0.0
  0
ARC
  5
100
100
AcDbEntity
  8
0
  6
CONTINUOUS
 62
               7
100
AcDbCircle
 10
7.9000000000000057
 20
-6.0
 30
0.0
 40
2.1000000000000001
100
AcDbArc
 50
90.0
 51
270.0
  0
LINE
  5
101
100
AcDbEntity
  8
0
  6
CONTINUOUS
 62
               7
100
AcDbLine
 10
7.9000000000000057
 20
-3.8999999999999986
 30
0.0
 11
9.7999999999999829
 21
-3.8999999999999986
 31
0.0
  0
LINE
  5
102
100
AcDbEntity
  8
0
  6
CONTINUOUS
 62
               7
100
AcDbLine
 10
0.5999999999999943
 20
-1.8999999999999986
 30
0.0
 11
0.5999999999999943
 21
-9.0
 31
0.0
  0
LINE
  5
103
100
AcDbEntity
  8
0
  6
CONTINUOUS
 62
               7
100
AcDbLine
 10
0.0
 20
-2.7000000000000171
 30
0.0
 11
0.0
 21
-8.5
 31
0.0
  0
LINE
  5
104
100
AcDbEntity
  8
0
  6
CONTINUOUS
 62
               7
100
AcDbLine
 10
0.3000000000000114
 20
2.4000000000000057
 30
0.0
 11
0.0
 21
2.7000000000000171
 31
0.0
  0
LINE
  5
105
100
AcDbEntity
  8
0
  6
CONTINUOUS
 62
               7
100
AcDbLine
 10
0.3000000000000114
 20
-2.4000000000000057
 30
0.0
 11
0.0
 21
-2.7000000000000171
 31
0.0
  0
LINE
  5
106
100
AcDbEntity
  8
0
  6
CONTINUOUS
 62
               7
100
AcDbLine
 10
0.3000000000000114
 20
2.4000000000000057
 30
0.0
 11
0.3000000000000114
 21
-2.4000000000000057
 31
0.0
  0
LINE
  5
107
100
AcDbEntity
  8
0
  6
CONTINUOUS
 62
               2
100
AcDbLine
 10
-1.6999999999999886
 20
6.5
 30
0.0
 11
2.0
 21
6.5
 31
0.0
  0
LINE
  5
108
100
AcDbEntity
  8
0
  6
CONTINUOUS
 62
               2
100
AcDbLine
 10
-1.6999999999999886
 20
-6.5
 30
0.0
 11
2.0
 21
-6.5
 31
0.0
  0
ENDBLK
  5
109
100
AcDbEntity
  8
0
100
AcDbBlockEnd
  0
BLOCK
  5
10A
100
AcDbEntity
  8
0
100
AcDbBlockBegin
  2
MGAEG4_5-3
 70
               0
 10
0.0
 20
0.0
 30
0.0
  3
MGAEG4_5-3
  1

  0
CIRCLE
  5
10B
100
AcDbEntity
  8
0
  6
CONTINUOUS
 62
               7
100
AcDbCircle
 10
-3.0
 20
4.5
 30
0.0
 40
1.6000000000000174
  0
CIRCLE
  5
10C
100
AcDbEntity
  8
0
  6
CONTINUOUS
 62
               7
100
AcDbCircle
 10
-3.0
 20
4.5
 30
0.0
 40
1.9000000000000148
  0
LINE
  5
10D
100
AcDbEntity
  8
0
  6
CONTINUOUS
 62
               7
100
AcDbLine
 10
-3.433012863593035
 20
3.7499999933676023
 30
0.0
 11
-2.5669872641336156
 21
3.7500000120764554
 31
0.0
  0
LINE
  5
10E
100
AcDbEntity
  8
0
  6
CONTINUOUS
 62
               7
100
AcDbLine
 10
-2.566987136406965
 20
5.2500000066323977
 30
0.0
 11
-3.4330127358663844
 21
5.2499999879235446
 31
0.0
  0
LINE
  5
10F
100
AcDbEntity
  8
0
  6
CONTINUOUS
 62
               7
100
AcDbLine
 10
-3.4330126267856258
 20
5.2500001433532191
 30
0.0
 11
-3.8660254103130001
 21
4.4999999645392847
 31
0.0
  0
LINE
  5
110
100
AcDbEntity
  8
0
  6
CONTINUOUS
 62
               7
100
AcDbLine
 10
-2.1339745096213107
 20
4.4999998632791787
 30
0.0
 11
-2.5669873255533844
 21
5.2500000233842599
 31
0.0
  0
LINE
  5
111
100
AcDbEntity
  8
0
  6
CONTINUOUS
 62
               7
100
AcDbLine
 10
-2.5669873732143742
 20
3.7499998566467809
 30
0.0
 11
-2.1339745896869999
 21
4.5000000354607153
 31
0.0
  0
LINE
  5
112
100
AcDbEntity
  8
0
  6
CONTINUOUS
 62
               7
100
AcDbLine
 10
-3.8660254903786893
 20
4.5000001367208213
 30
0.0
 11
-3.4330126744466156
 21
3.7499999766157401
 31
0.0
  0
CIRCLE
  5
113
100
AcDbEntity
  8
0
  6
CONTINUOUS
 62
               7
100
AcDbCircle
 10
-3.0
 20
-4.5
 30
0.0
 40
1.6000000000000174
  0
CIRCLE
  5
114
100
AcDbEntity
  8
0
  6
CONTINUOUS
 62
               7
100
AcDbCircle
 10
-3.0
 20
-4.5
 30
0.0
 40
1.9000000000000148
  0
LINE
  5
115
100
AcDbEntity
  8
0
  6
CONTINUOUS
 62
               7
100
AcDbLine
 10
-3.433012863593035
 20
-5.2500000066323977
 30
0.0
 11
-2.5669872641336156
 21
-5.2499999879235446
 31
0.0
  0
LINE
  5
116
100
AcDbEntity
  8
0
  6
CONTINUOUS
 62
               7
100
AcDbLine
 10
-2.566987136406965
 20
-3.7499999933676023
 30
0.0
 11
-3.4330127358663844
 21
-3.7500000120764554
 31
0.0
  0
LINE
  5
117
100
AcDbEntity
  8
0
  6
CONTINUOUS
 62
               7
100
AcDbLine
 10
-3.4330126267856258
 20
-3.7499998566467809
 30
0.0
 11
-3.8660254103130001
 21
-4.5000000354607153
 31
0.0
  0
LINE
  5
118
100
AcDbEntity
  8
0
  6
CONTINUOUS
 62
               7
100
AcDbLine
 10
-2.1339745096213107
 20
-4.5000001367208213
 30
0.0
 11
-2.5669873255533844
 21
-3.7499999766157401
 31
0.0
  0
LINE
  5
119
100
AcDbEntity
  8
0
  6
CONTINUOUS
 62
               7
100
AcDbLine
 10
-2.5669873732143742
 20
-5.2500001433532191
 30
0.0
 11
-2.1339745896869999
 21
-4.4999999645392847
 31
0.0
  0
LINE
  5
11A
100
AcDbEntity
  8
0
  6
CONTINUOUS
 62
               7
100
AcDbLine
 10
-3.8660254903786893
 20
-4.4999998632791787
 30
0.0
 11
-3.4330126744466156
 21
-5.2500000233842599
 31
0.0
  0
LINE
  5
11B
100
AcDbEntity
  8
0
  6
CONTINUOUS
 62
               7
100
AcDbLine
 10
-5.5
 20
4.2000000000000028
 30
0.0
 11
-12.0
 21
4.2000000000000028
 31
0.0
  0
LINE
  5
11C
100
AcDbEntity
  8
0
  6
CONTINUOUS
 62
               7
100
AcDbLine
 10
-5.5
 20
-4.2000000000000028
 30
0.0
 11
-12.0
 21
-4.2000000000000028
 31
0.0
  0
ARC
  5
11D
100
AcDbEntity
  8
0
  6
CONTINUOUS
 62
               7
100
AcDbCircle
 10
-3.0
 20
-4.5
 30
0.0
 40
2.0499999999999998
100
AcDbArc
 50
102.68038349181951
 51
77.319616508180459
  0
ARC
  5
11E
100
AcDbEntity
  8
0
  6
CONTINUOUS
 62
               7
100
AcDbCircle
 10
-3.0
 20
4.5
 30
0.0
 40
2.0499999999999998
100
AcDbArc
 50
282.6803834918195
 51
257.31961650818045
  0
LINE
  5
11F
100
AcDbEntity
  8
0
  6
CONTINUOUS
 62
               7
100
AcDbLine
 10
-10.666025403784431
 20
0.0
 30
0.0
 11
-10.233012701892221
 21
-0.7499999999999929
 31
0.0
  0
LINE
  5
120
100
AcDbEntity
  8
0
  6
CONTINUOUS
 62
               7
100
AcDbLine
 10
-9.3669872981077731
 20
0.75
 30
0.0
 11
-8.9339745962155632
 21
0.0000000000000071
 31
0.0
  0
LINE
  5
121
100
AcDbEntity
  8
0
  6
CONTINUOUS
 62
               7
100
AcDbLine
 10
-10.233012701892193
 20
0.75
 30
0.0
 11
-10.666025403784431
 21
-0.0000000000000213
 31
0.0
  0
LINE
  5
122
100
AcDbEntity
  8
0
  6
CONTINUOUS
 62
               7
100
AcDbLine
 10
-8.9339745962155632
 20
-0.0000000000000142
 30
0.0
 11
-9.3669872981077731
 21
-0.7500000000000071
 31
0.0
  0
LINE
  5
123
100
AcDbEntity
  8
0
  6
CONTINUOUS
 62
               7
100
AcDbLine
 10
-9.3669872981077731
 20
0.75
 30
0.0
 11
-10.233012701892193
 21
0.75
 31
0.0
  0
LINE
  5
124
100
AcDbEntity
  8
0
  6
CONTINUOUS
 62
               7
100
AcDbLine
 10
-9.3669872981077731
 20
-0.75
 30
0.0
 11
-10.233012701892221
 21
-0.75
 31
0.0
  0
LINE
  5
125
100
AcDbEntity
  8
0
  6
CONTINUOUS
 62
               2
100
AcDbLine
 10
-9.7999999999999829
 20
-3.7499999754709563
 30
0.0
 11
-9.7999999999999829
 21
3.7500000245290437
 31
0.0
  0
LINE
  5
126
100
AcDbEntity
  8
0
  6
CONTINUOUS
 62
               7
100
AcDbLine
 10
-12.0
 20
1.6894883227947304
 30
0.0
 11
-12.0
 21
7.5
 31
0.0
  0
LINE
  5
127
100
AcDbEntity
  8
0
  6
CONTINUOUS
 62
               7
100
AcDbLine
 10
-11.387713241577131
 20
-2.75
 30
0.0
 11
-8.2122867584228345
 21
-2.75
 31
0.0
  0
LINE
  5
128
100
AcDbEntity
  8
0
  6
CONTINUOUS
 62
               7
100
AcDbLine
 10
-11.387713241577131
 20
2.75
 30
0.0
 11
-8.2122867584228345
 21
2.75
 31
0.0
  0
LINE
  5
129
100
AcDbEntity
  8
0
  6
CONTINUOUS
 62
               7
100
AcDbLine
 10
-11.387713932258606
 20
-2.7499990812680153
 30
0.0
 11
-12.975426030891384
 21
-0.0000005909064384
 31
0.0
  0
LINE
  5
12A
100
AcDbEntity
  8
0
  6
CONTINUOUS
 62
               7
100
AcDbLine
 10
-6.6245747950148086
 20
0.0000001140693371
 30
0.0
 11
-8.2122873704846882
 21
2.7499994303371409
 31
0.0
  0
LINE
  5
12B
100
AcDbEntity
  8
0
  6
CONTINUOUS
 62
               7
100
AcDbLine
 10
-12.975426507728486
 20
-0.0000002349997885
 30
0.0
 11
-11.387713932258606
 21
2.7499990812680153
 31
0.0
  0
LINE
  5
12C
100
AcDbEntity
  8
0
  6
CONTINUOUS
 62
               7
100
AcDbLine
 10
-8.2122865445784612
 20
-2.7499999071742423
 30
0.0
 11
-6.6245734922714803
 21
0.0000002349997885
 31
0.0
  0
CIRCLE
  5
12D
100
AcDbEntity
  8
0
  6
CONTINUOUS
 62
               7
100
AcDbCircle
 10
-9.7999999999999829
 20
0.0
 30
0.0
 40
2.75
  0
CIRCLE
  5
12E
100
AcDbEntity
  8
0
  6
CONTINUOUS
 62
               7
100
AcDbCircle
 10
-9.7999999999999829
 20
0.0
 30
0.0
 40
1.5
  0
CIRCLE
  5
12F
100
AcDbEntity
  8
0
  6
CONTINUOUS
 62
               2
100
AcDbCircle
 10
-9.7999999999999829
 20
0.0
 30
0.0
 40
1.2294998168945312
  0
LINE
  5
130
100
AcDbEntity
  8
0
  6
CONTINUOUS
 62
               7
100
AcDbLine
 10
-10.0
 20
7.5
 30
0.0
 11
-10.0
 21
8.5
 31
0.0
  0
LINE
  5
131
100
AcDbEntity
  8
0
  6
CONTINUOUS
 62
               7
100
AcDbLine
 10
-6.1999999999999602
 20
7.5
 30
0.0
 11
-12.0
 21
7.5
 31
0.0
  0
LINE
  5
132
100
AcDbEntity
  8
0
  6
CONTINUOUS
 62
               7
100
AcDbLine
 10
-6.1999999999999886
 20
-7.5
 30
0.0
 11
-12.0
 21
-7.5
 31
0.0
  0
LINE
  5
133
100
AcDbEntity
  8
0
  6
CONTINUOUS
 62
               7
100
AcDbLine
 10
-12.0
 20
-7.5
 30
0.0
 11
-12.0
 21
-1.6894883227947304
 31
0.0
  0
LINE
  5
134
100
AcDbEntity
  8
0
  6
CONTINUOUS
 62
               7
100
AcDbLine
 10
-4.9433756729740423
 20
2.5
 30
0.0
 11
-6.3867513459481131
 21
0.0
 31
0.0
  0
LINE
  5
135
100
AcDbEntity
  8
0
  6
CONTINUOUS
 62
               7
100
AcDbLine
 10
-6.3867513459481415
 20
0.0
 30
0.0
 11
-4.9433756729740708
 21
-2.5
 31
0.0
  0
LINE
  5
136
100
AcDbEntity
  8
0
  6
CONTINUOUS
 62
               7
100
AcDbLine
 10
-5.5
 20
-8.0
 30
0.0
 11
-0.0999999999999943
 21
-8.0
 31
0.0
  0
LINE
  5
137
100
AcDbEntity
  8
0
  6
CONTINUOUS
 62
               7
100
AcDbLine
 10
-0.0999999999999943
 20
8.0
 30
0.0
 11
-0.0999999999999943
 21
-8.0
 31
0.0
  0
LINE
  5
138
100
AcDbEntity
  8
0
  6
CONTINUOUS
 62
               7
100
AcDbLine
 10
-5.5
 20
8.0
 30
0.0
 11
-0.0999999999999943
 21
8.0
 31
0.0
  0
LINE
  5
139
100
AcDbEntity
  8
0
  6
CONTINUOUS
 62
               7
100
AcDbLine
 10
-2.3452994616207263
 20
2.0
 30
0.0
 11
-4.6547005383792452
 21
2.0
 31
0.0
  0
LINE
  5
13A
100
AcDbEntity
  8
0
  6
CONTINUOUS
 62
               7
100
AcDbLine
 10
-4.6547005383792452
 20
-2.0
 30
0.0
 11
-2.3452994616207548
 21
-2.0
 31
0.0
  0
CIRCLE
  5
13B
100
AcDbEntity
  8
0
  6
CONTINUOUS
 62
               2
100
AcDbCircle
 10
-3.5
 20
0.0
 30
0.0
 40
0.7835000000000038
  0
CIRCLE
  5
13C
100
AcDbEntity
  8
0
  6
CONTINUOUS
 62
               7
100
AcDbCircle
 10
-3.5
 20
0.0
 30
0.0
 40
1.0
  0
LINE
  5
13D
100
AcDbEntity
  8
0
  6
CONTINUOUS
 62
               2
100
AcDbLine
 10
-3.5
 20
-3.4111517424362319
 30
0.0
 11
-3.5
 21
3.4197847075272421
 31
0.0
  0
CIRCLE
  5
13E
100
AcDbEntity
  8
0
  6
CONTINUOUS
 62
               7
100
AcDbCircle
 10
-3.5
 20
0.0
 30
0.0
 40
2.5
  0
LINE
  5
13F
100
AcDbEntity
  8
0
  6
CONTINUOUS
 62
               7
100
AcDbLine
 10
-4.9433756729740708
 20
-2.5
 30
0.0
 11
-2.0566243270259292
 21
-2.5
 31
0.0
  0
LINE
  5
140
100
AcDbEntity
  8
0
  6
CONTINUOUS
 62
               7
100
AcDbLine
 10
-2.0566243270259577
 20
-2.5
 30
0.0
 11
-0.6132486540518585
 21
0.0
 31
0.0
  0
LINE
  5
141
100
AcDbEntity
  8
0
  6
CONTINUOUS
 62
               7
100
AcDbLine
 10
-0.6132486540518869
 20
0.0
 30
0.0
 11
-2.0566243270259292
 21
2.5
 31
0.0
  0
LINE
  5
142
100
AcDbEntity
  8
0
  6
CONTINUOUS
 62
               7
100
AcDbLine
 10
-2.0566243270259292
 20
2.5
 30
0.0
 11
-4.9433756729740423
 21
2.5
 31
0.0
  0
CIRCLE
  5
143
100
AcDbEntity
  8
0
  6
CONTINUOUS
 62
               7
100
AcDbCircle
 10
-3.5
 20
0.0
 30
0.0
 40
2.0
  0
LINE
  5
144
100
AcDbEntity
  8
0
  6
CONTINUOUS
 62
               7
100
AcDbLine
 10
-4.6547005383792452
 20
2.0
 30
0.0
 11
-5.8094010767584905
 21
0.0
 31
0.0
  0
LINE
  5
145
100
AcDbEntity
  8
0
  6
CONTINUOUS
 62
               7
100
AcDbLine
 10
-5.8094010767584905
 20
0.0
 30
0.0
 11
-4.6547005383792452
 21
-2.0
 31
0.0
  0
LINE
  5
146
100
AcDbEntity
  8
0
  6
CONTINUOUS
 62
               7
100
AcDbLine
 10
-2.3452994616207548
 20
-2.0
 30
0.0
 11
-1.1905989232414811
 21
0.0
 31
0.0
  0
LINE
  5
147
100
AcDbEntity
  8
0
  6
CONTINUOUS
 62
               7
100
AcDbLine
 10
-1.1905989232414811
 20
0.0
 30
0.0
 11
-2.3452994616207263
 21
2.0
 31
0.0
  0
LINE
  5
148
100
AcDbEntity
  8
0
  6
CONTINUOUS
 62
               7
100
AcDbLine
 10
-0.5999999999999943
 20
8.5
 30
0.0
 11
-0.5999999999999943
 21
9.0
 31
0.0
  0
LINE
  5
149
100
AcDbEntity
  8
0
  6
CONTINUOUS
 62
               7
100
AcDbLine
 10
-0.5999999999999943
 20
-9.0
 30
0.0
 11
-0.5999999999999943
 21
-8.5
 31
0.0
  0
LINE
  5
14A
100
AcDbEntity
  8
0
  6
CONTINUOUS
 62
               7
100
AcDbLine
 10
-6.0
 20
4.2000000000000028
 30
0.0
 11
-6.0
 21
9.0
 31
0.0
  0
LINE
  5
14B
100
AcDbEntity
  8
0
  6
CONTINUOUS
 62
               7
100
AcDbLine
 10
-6.0
 20
-4.2000000000000028
 30
0.0
 11
-6.0
 21
-9.0
 31
0.0
  0
LINE
  5
14C
100
AcDbEntity
  8
0
  6
CONTINUOUS
 62
               7
100
AcDbLine
 10
-6.1999999999999602
 20
7.5
 30
0.0
 11
-6.1999999999999602
 21
4.2000000000000028
 31
0.0
  0
LINE
  5
14D
100
AcDbEntity
  8
0
  6
CONTINUOUS
 62
               7
100
AcDbLine
 10
-6.1999999999999886
 20
-7.5
 30
0.0
 11
-6.1999999999999886
 21
-4.2000000000000028
 31
0.0
  0
LINE
  5
14E
100
AcDbEntity
  8
0
  6
CONTINUOUS
 62
               7
100
AcDbLine
 10
-5.5
 20
8.5
 30
0.0
 11
0.0
 21
8.5
 31
0.0
  0
LINE
  5
14F
100
AcDbEntity
  8
0
  6
CONTINUOUS
 62
               7
100
AcDbLine
 10
0.0
 20
8.499999992019184
 30
0.0
 11
0.0
 21
2.5000000000000284
 31
0.0
  0
LINE
  5
150
100
AcDbEntity
  8
0
  6
CENTER
 62
               2
100
AcDbLine
 10
3.9000000000000057
 20
0.0
 30
0.0
 11
-16.0
 21
0.0
 31
0.0
  0
LINE
  5
151
100
AcDbEntity
  8
0
  6
CONTINUOUS
 62
               7
100
AcDbLine
 10
-5.5
 20
-8.5
 30
0.0
 11
-5.5
 21
-4.2000000000000028
 31
0.0
  0
LINE
  5
152
100
AcDbEntity
  8
0
  6
CONTINUOUS
 62
               7
100
AcDbLine
 10
-10.0
 20
-8.5
 30
0.0
 11
-10.0
 21
-7.5
 31
0.0
  0
LINE
  5
153
100
AcDbEntity
  8
0
  6
CONTINUOUS
 62
               7
100
AcDbLine
 10
-5.5
 20
-8.5
 30
0.0
 11
0.0
 21
-8.5
 31
0.0
  0
LINE
  5
154
100
AcDbEntity
  8
0
  6
CONTINUOUS
 62
               7
100
AcDbLine
 10
-0.5999999999999943
 20
-9.0
 30
0.0
 11
-9.4999999999997442
 21
-9.0
 31
0.0
  0
LINE
  5
155
100
AcDbEntity
  8
0
  6
CONTINUOUS
 62
               7
100
AcDbLine
 10
-5.5
 20
4.2000000000000028
 30
0.0
 11
-5.5
 21
8.5
 31
0.0
  0
LINE
  5
156
100
AcDbEntity
  8
0
  6
CONTINUOUS
 62
               7
100
AcDbLine
 10
-9.500000000000199
 20
9.0
 30
0.0
 11
-0.5999999999999943
 21
9.0
 31
0.0
  0
LINE
  5
157
100
AcDbEntity
  8
0
  6
CONTINUOUS
 62
               7
100
AcDbLine
 10
-10.0
 20
-8.5
 30
0.0
 11
-9.4999999999997442
 21
-9.0
 31
0.0
  0
LINE
  5
158
100
AcDbEntity
  8
0
  6
CONTINUOUS
 62
               7
100
AcDbLine
 10
-10.0
 20
8.5
 30
0.0
 11
-9.500000000000199
 21
9.0
 31
0.0
  0
LINE
  5
159
100
AcDbEntity
  8
0
  6
CONTINUOUS
 62
               7
100
AcDbLine
 10
-6.9343145750507631
 20
-6.0656854249492369
 30
0.0
 11
-8.0656854249492369
 21
-4.9343145750507631
 31
0.0
  0
LINE
  5
15A
100
AcDbEntity
  8
0
  6
CONTINUOUS
 62
               7
100
AcDbLine
 10
-6.9343145750507631
 20
-4.9343145750507631
 30
0.0
 11
-8.0656854249492369
 21
-6.0656854249492369
 31
0.0
  0
CIRCLE
  5
15B
100
AcDbEntity
  8
0
  6
CONTINUOUS
 62
               7
100
AcDbCircle
 10
-7.5
 20
-5.5
 30
0.0
 40
1.0
  0
LINE
  5
15C
100
AcDbEntity
  8
0
  6
CONTINUOUS
 62
               7
100
AcDbLine
 10
-6.9343145750507347
 20
4.9343145750507631
 30
0.0
 11
-8.0656854249492369
 21
6.0656854249492369
 31
0.0
  0
LINE
  5
15D
100
AcDbEntity
  8
0
  6
CONTINUOUS
 62
               7
100
AcDbLine
 10
-6.9343145750507347
 20
6.0656854249492369
 30
0.0
 11
-8.0656854249492369
 21
4.9343145750507631
 31
0.0
  0
CIRCLE
  5
15E
100
AcDbEntity
  8
0
  6
CONTINUOUS
 62
               7
100
AcDbCircle
 10
-7.5
 20
5.5
 30
0.0
 40
1.0
  0
LINE
  5
15F
100
AcDbEntity
  8
0
  6
CONTINUOUS
 62
               7
100
AcDbLine
 10
0.0
 20
-2.5000000000000284
 30
0.0
 11
0.0
 21
-8.5
 31
0.0
  0
LINE
  5
160
100
AcDbEntity
  8
0
  6
CONTINUOUS
 62
               7
100
AcDbLine
 10
-0.0999999999999943
 20
-2.4000000000000341
 30
0.0
 11
0.0
 21
-2.5000000000000284
 31
0.0
  0
LINE
  5
161
100
AcDbEntity
  8
0
  6
CONTINUOUS
 62
               7
100
AcDbLine
 10
-0.0999999999999943
 20
2.4000000000000341
 30
0.0
 11
0.0
 21
2.5000000000000284
 31
0.0
  0
LINE
  5
162
100
AcDbEntity
  8
0
  6
CONTINUOUS
 62
               2
100
AcDbLine
 10
-2.0999999999999943
 20
6.5
 30
0.0
 11
1.5999999999999943
 21
6.5
 31
0.0
  0
LINE
  5
163
100
AcDbEntity
  8
0
  6
CONTINUOUS
 62
               2
100
AcDbLine
 10
-2.0999999999999943
 20
-6.5
 30
0.0
 11
1.5999999999999943
 21
-6.5
 31
0.0
  0
ENDBLK
  5
164
100
AcDbEntity
  8
0
100
AcDbBlockEnd
  0
BLOCK
  5
165
100
AcDbEntity
  8
0
100
AcDbBlockBegin
  2
MGAEG4_5-4
 70
               0
 10
0.0
 20
0.0
 30
0.0
  3
MGAEG4_5-4
  1

  0
LINE
  5
166
100
AcDbEntity
  8
0
  6
CONTINUOUS
 62
               2
100
AcDbLine
 10
8.5443198906319822
 20
-3.5
 30
0.0
 11
18.653955375846124
 21
-3.5
 31
0.0
  0
LINE
  5
167
100
AcDbEntity
  8
0
  6
CONTINUOUS
 62
               7
100
AcDbLine
 10
0.0
 20
-9.2999999999999972
 30
0.0
 11
13.999999999999943
 21
-9.2999999999999972
 31
0.0
  0
LINE
  5
168
100
AcDbEntity
  8
0
  6
CONTINUOUS
 62
               7
100
AcDbLine
 10
14.999999975856099
 20
-5.0
 30
0.0
 11
14.999999975856099
 21
-6.0
 31
0.0
  0
LINE
  5
169
100
AcDbEntity
  8
0
  6
CONTINUOUS
 62
               7
100
AcDbLine
 10
8.0
 20
-5.0
 30
0.0
 11
14.999999975856099
 21
-5.0
 31
0.0
  0
LINE
  5
16A
100
AcDbEntity
  8
0
  6
CONTINUOUS
 62
               7
100
AcDbLine
 10
10.300000000000026
 20
-2.0
 30
0.0
 11
14.500000000000028
 21
-2.0
 31
0.0
  0
LINE
  5
16B
100
AcDbEntity
  8
0
  6
CONTINUOUS
 62
               7
100
AcDbLine
 10
0.0
 20
-0.6000000000000085
 30
0.0
 11
8.0
 21
-0.6000000000000085
 31
0.0
  0
LINE
  5
16C
100
AcDbEntity
  8
0
  6
CONTINUOUS
 62
               7
100
AcDbLine
 10
15.800000000000011
 20
-0.5999999999999943
 30
0.0
 11
15.800000000000011
 21
-6.0
 31
0.0
  0
LINE
  5
16D
100
AcDbEntity
  8
0
  6
CONTINUOUS
 62
               7
100
AcDbLine
 10
8.0
 20
-0.5999999999999943
 30
0.0
 11
8.0
 21
-5.0
 31
0.0
  0
LINE
  5
16E
100
AcDbEntity
  8
0
  6
CONTINUOUS
 62
               7
100
AcDbLine
 10
0.0
 20
-9.7999999999999972
 30
0.0
 11
13.999999975856099
 21
-9.7999999999999972
 31
0.0
  0
LINE
  5
16F
100
AcDbEntity
  8
0
  6
CONTINUOUS
 62
               7
100
AcDbLine
 10
0.0
 20
-0.6000000000000085
 30
0.0
 11
0.0
 21
-9.7999999982303194
 31
0.0
  0
LINE
  5
170
100
AcDbEntity
  8
0
  6
CONTINUOUS
 62
               7
100
AcDbLine
 10
8.8000000000000114
 20
-0.5999999999999943
 30
0.0
 11
8.8000000000000114
 21
-5.0
 31
0.0
  0
LINE
  5
171
100
AcDbEntity
  8
0
  6
CONTINUOUS
 62
               7
100
AcDbLine
 10
14.500000000000028
 20
-1.5
 30
0.0
 11
15.800000000000011
 21
-1.5
 31
0.0
  0
LINE
  5
172
100
AcDbEntity
  8
0
  6
CONTINUOUS
 62
               7
100
AcDbLine
 10
10.300000000000026
 20
-1.5
 30
0.0
 11
8.8000000000000114
 21
-1.5
 31
0.0
  0
LINE
  5
173
100
AcDbEntity
  8
0
  6
CONTINUOUS
 62
               7
100
AcDbLine
 10
8.8000000000000114
 20
-0.5999999999999943
 30
0.0
 11
8.0
 21
-0.5999999999999943
 31
0.0
  0
LINE
  5
174
100
AcDbEntity
  8
0
  6
CONTINUOUS
 62
               2
100
AcDbLine
 10
16.5
 20
-4.3499999999999943
 30
0.0
 11
16.759807621135337
 21
-4.5
 31
0.0
  0
LINE
  5
175
100
AcDbEntity
  8
0
  6
CONTINUOUS
 62
               2
100
AcDbLine
 10
16.5
 20
-2.6500000000000057
 30
0.0
 11
16.759807621135337
 21
-2.5
 31
0.0
  0
LINE
  5
176
100
AcDbEntity
  8
0
  6
CONTINUOUS
 62
               7
100
AcDbLine
 10
10.300000000000026
 20
-1.5
 30
0.0
 11
10.300000000000026
 21
-5.0
 31
0.0
  0
LINE
  5
177
100
AcDbEntity
  8
0
  6
CONTINUOUS
 62
               7
100
AcDbLine
 10
14.500000000000028
 20
-1.5
 30
0.0
 11
14.500000000000028
 21
-5.0
 31
0.0
  0
LINE
  5
178
100
AcDbEntity
  8
0
  6
CONTINUOUS
 62
               7
100
AcDbLine
 10
14.999999975856099
 20
-5.5
 30
0.0
 11
15.800000000000011
 21
-5.5
 31
0.0
  0
LINE
  5
179
100
AcDbEntity
  8
0
  6
PHANTOM
 62
               2
100
AcDbLine
 10
8.9300000000000068
 20
-1.0
 30
0.0
 11
15.650000000000006
 21
-1.0
 31
0.0
  0
LINE
  5
17A
100
AcDbEntity
  8
0
  6
PHANTOM
 62
               2
100
AcDbLine
 10
8.9300000000000068
 20
-1.2599999999999909
 30
0.0
 11
15.670000000000016
 21
-1.2599999999999909
 31
0.0
  0
CIRCLE
  5
17B
100
AcDbEntity
  8
0
  6
CONTINUOUS
 62
               7
100
AcDbCircle
 10
15.670000000000016
 20
-1.1299999999999955
 30
0.0
 40
0.129999999999999
  0
CIRCLE
  5
17C
100
AcDbEntity
  8
0
  6
CONTINUOUS
 62
               7
100
AcDbCircle
 10
8.9300000000000068
 20
-1.1299999999999955
 30
0.0
 40
0.129999999999999
  0
LINE
  5
17D
100
AcDbEntity
  8
0
  6
CONTINUOUS
 62
               7
100
AcDbLine
 10
16.5
 20
-4.5
 30
0.0
 11
17.999999999999943
 21
-4.5
 31
0.0
  0
LINE
  5
17E
100
AcDbEntity
  8
0
  6
CONTINUOUS
 62
               7
100
AcDbLine
 10
16.5
 20
-2.5
 30
0.0
 11
17.999999999999943
 21
-2.5
 31
0.0
  0
LINE
  5
17F
100
AcDbEntity
  8
0
  6
PHANTOM
 62
               2
100
AcDbLine
 10
14.999999975856099
 20
-5.7400000000000091
 30
0.0
 11
15.670000000000016
 21
-5.7400000000000091
 31
0.0
  0
CIRCLE
  5
180
100
AcDbEntity
  8
0
  6
CONTINUOUS
 62
               7
100
AcDbCircle
 10
15.670000000000016
 20
-5.8700000000000045
 30
0.0
 40
0.129999999999999
  0
LINE
  5
181
100
AcDbEntity
  8
0
  6
CONTINUOUS
 62
               7
100
AcDbLine
 10
16.5
 20
-5.9000000000000057
 30
0.0
 11
16.5
 21
-1.0999999999999943
 31
0.0
  0
LINE
  5
182
100
AcDbEntity
  8
0
  6
CONTINUOUS
 62
               7
100
AcDbLine
 10
15.800000000000011
 20
-0.5999999999999943
 30
0.0
 11
16.299999999999997
 21
-0.5999999999999943
 31
0.0
  0
LINE
  5
183
100
AcDbEntity
  8
0
  6
CONTINUOUS
 62
               7
100
AcDbLine
 10
16.299999999999997
 20
-5.9000000000000057
 30
0.0
 11
16.5
 21
-5.9000000000000057
 31
0.0
  0
LINE
  5
184
100
AcDbEntity
  8
0
  6
CONTINUOUS
 62
               7
100
AcDbLine
 10
16.299999999999997
 20
-1.0999999999999943
 30
0.0
 11
16.5
 21
-1.0999999999999943
 31
0.0
  0
LINE
  5
185
100
AcDbEntity
  8
0
  6
CONTINUOUS
 62
               7
100
AcDbLine
 10
16.299999999999997
 20
-6.0
 30
0.0
 11
16.299999999999997
 21
-0.5999999999999943
 31
0.0
  0
LINE
  5
186
100
AcDbEntity
  8
0
  6
CONTINUOUS
 62
               7
100
AcDbLine
 10
15.800000000000011
 20
-4.4205976319761078
 30
0.0
 11
16.299999999999997
 21
-4.4205976319761078
 31
0.0
  0
LINE
  5
187
100
AcDbEntity
  8
0
  6
CONTINUOUS
 62
               7
100
AcDbLine
 10
15.800000000000011
 20
-2.5794023680239064
 30
0.0
 11
16.299999999999997
 21
-2.5794023680239064
 31
0.0
  0
LINE
  5
188
100
AcDbEntity
  8
0
  6
CONTINUOUS
 62
               2
100
AcDbLine
 10
16.299999999999997
 20
-4.4205976319761078
 30
0.0
 11
15.800000000000011
 21
-2.5794023680239064
 31
0.0
  0
LINE
  5
189
100
AcDbEntity
  8
0
  6
CONTINUOUS
 62
               2
100
AcDbLine
 10
16.299999999999997
 20
-2.5794023680239064
 30
0.0
 11
15.800000000000011
 21
-4.4205976319761078
 31
0.0
  0
LINE
  5
18A
100
AcDbEntity
  8
0
  6
CONTINUOUS
 62
               7
100
AcDbLine
 10
58.499999999999943
 20
-12.975426483154294
 30
0.0
 11
58.499999999999943
 21
-0.0999999999999943
 31
0.0
  0
LINE
  5
18B
100
AcDbEntity
  8
0
  6
CONTINUOUS
 62
               2
100
AcDbLine
 10
77.59999997839563
 20
-4.2835000000000036
 30
0.0
 11
77.999999999999943
 21
-4.2835000000000036
 31
0.0
  0
LINE
  5
18C
100
AcDbEntity
  8
0
  6
CONTINUOUS
 62
               2
100
AcDbLine
 10
77.59999997839563
 20
-2.7164999999999964
 30
0.0
 11
77.999999999999943
 21
-2.7164999999999964
 31
0.0
  0
LINE
  5
18D
100
AcDbEntity
  8
0
  6
CONTINUOUS
 62
               2
100
AcDbLine
 10
67.999999999999943
 20
-4.2835000000000036
 30
0.0
 11
68.499999999999943
 21
-4.2835000000000036
 31
0.0
  0
LINE
  5
18E
100
AcDbEntity
  8
0
  6
CONTINUOUS
 62
               2
100
AcDbLine
 10
67.999999999999943
 20
-4.2835000000000036
 30
0.0
 11
67.62501100016128
 21
-4.5
 31
0.0
  0
LINE
  5
18F
100
AcDbEntity
  8
0
  6
CONTINUOUS
 62
               2
100
AcDbLine
 10
67.999999999999943
 20
-2.7164999999999964
 30
0.0
 11
67.62501100016128
 21
-2.5
 31
0.0
  0
LINE
  5
190
100
AcDbEntity
  8
0
  6
CONTINUOUS
 62
               2
100
AcDbLine
 10
67.999999999999943
 20
-2.7164999999999964
 30
0.0
 11
68.499999999999943
 21
-2.7164999999999964
 31
0.0
  0
LINE
  5
191
100
AcDbEntity
  8
0
  6
CONTINUOUS
 62
               7
100
AcDbLine
 10
67.999999999999943
 20
-2.5
 30
0.0
 11
67.999999999999943
 21
-4.5
 31
0.0
  0
LINE
  5
192
100
AcDbEntity
  8
0
  6
CONTINUOUS
 62
               7
100
AcDbLine
 10
60.899999618530217
 20
-11.299999999999955
 30
0.0
 11
68.199999999999903
 21
-11.299999999999955
 31
0.0
  0
LINE
  5
193
100
AcDbEntity
  8
0
  6
CONTINUOUS
 62
               2
100
AcDbLine
 10
60.899999618530217
 20
-11.029499816894486
 30
0.0
 11
68.470500183105401
 21
-11.029499816894486
 31
0.0
  0
LINE
  5
194
100
AcDbEntity
  8
0
  6
CONTINUOUS
 62
               2
100
AcDbLine
 10
60.899999618530217
 20
-8.5705001831054233
 30
0.0
 11
68.470500183105315
 21
-8.5705001831054233
 31
0.0
  0
LINE
  5
195
100
AcDbEntity
  8
0
  6
CONTINUOUS
 62
               7
100
AcDbLine
 10
60.899999618530217
 20
-8.2999999999999545
 30
0.0
 11
68.199999999999932
 21
-8.2999999999999545
 31
0.0
  0
LINE
  5
196
100
AcDbEntity
  8
0
  6
CONTINUOUS
 62
               2
100
AcDbLine
 10
52.500000024960144
 20
-9.7999999999999972
 30
0.0
 11
69.500000024960144
 21
-9.7999999999999972
 31
0.0
  0
LINE
  5
197
100
AcDbEntity
  8
0
  6
CONTINUOUS
 62
               7
100
AcDbLine
 10
68.199999999999932
 20
-11.299999981570821
 30
0.0
 11
68.199999999999932
 21
-8.2999999815708208
 31
0.0
  0
LINE
  5
198
100
AcDbEntity
  8
0
  6
CONTINUOUS
 62
               7
100
AcDbLine
 10
68.499999999999943
 20
-10.999999999999957
 30
0.0
 11
68.199999999999903
 21
-11.299999999999969
 31
0.0
  0
LINE
  5
199
100
AcDbEntity
  8
0
  6
CONTINUOUS
 62
               7
100
AcDbLine
 10
68.199999999999932
 20
-8.2999999999999545
 30
0.0
 11
68.499999999999943
 21
-8.6000000000000512
 31
0.0
  0
LINE
  5
19A
100
AcDbEntity
  8
0
  6
CONTINUOUS
 62
               7
100
AcDbLine
 10
68.499999999999943
 20
-10.999999999999957
 30
0.0
 11
68.499999999999943
 21
-8.6000000000000512
 31
0.0
  0
LINE
  5
19B
100
AcDbEntity
  8
0
  6
CONTINUOUS
 62
               7
100
AcDbLine
 10
53.901923788646599
 20
-11.299999999999955
 30
0.0
 11
53.999999999999943
 21
-11.299999999999955
 31
0.0
  0
LINE
  5
19C
100
AcDbEntity
  8
0
  6
CONTINUOUS
 62
               2
100
AcDbLine
 10
53.763518646097381
 20
-11.029499816894486
 30
0.0
 11
53.999999999999943
 21
-11.029499816894486
 31
0.0
  0
LINE
  5
19D
100
AcDbEntity
  8
0
  6
CONTINUOUS
 62
               2
100
AcDbLine
 10
53.76351864609741
 20
-8.5705001831054233
 30
0.0
 11
53.999999999999943
 21
-8.5705001831054233
 31
0.0
  0
LINE
  5
19E
100
AcDbEntity
  8
0
  6
CONTINUOUS
 62
               7
100
AcDbLine
 10
53.982842712474579
 20
-8.2999999999999545
 30
0.0
 11
53.999999999999943
 21
-8.2999999999999545
 31
0.0
  0
ARC
  5
19F
100
AcDbEntity
  8
0
  6
CONTINUOUS
 62
               7
100
AcDbCircle
 10
56.499999999999943
 20
-9.7999999999999972
 30
0.0
 40
3.0
100
AcDbArc
 50
153.91298647209231
 51
209.99999999999906
  0
LINE
  5
1A0
100
AcDbEntity
  8
0
  6
CONTINUOUS
 62
               7
100
AcDbLine
 10
53.901923788646656
 20
-8.4218710967624162
 30
0.0
 11
53.901923788646656
 21
-11.299999999999955
 31
0.0
  0
LINE
  5
1A1
100
AcDbEntity
  8
0
  6
CONTINUOUS
 62
               7
100
AcDbLine
 10
60.654378890991154
 20
-12.975426483154294
 30
0.0
 11
58.499999999999943
 21
-12.975426483154294
 31
0.0
  0
LINE
  5
1A2
100
AcDbEntity
  8
0
  6
CONTINUOUS
 62
               7
100
AcDbLine
 10
60.899999394635131
 20
-12.549999867258848
 30
0.0
 11
60.654379026812364
 21
-12.975426554646262
 31
0.0
  0
LINE
  5
1A3
100
AcDbEntity
  8
0
  6
CONTINUOUS
 62
               7
100
AcDbLine
 10
60.899999618530217
 20
-12.549999999999997
 30
0.0
 11
60.899999618530217
 21
-7.0500009536743136
 31
0.0
  0
LINE
  5
1A4
100
AcDbEntity
  8
0
  6
CONTINUOUS
 62
               7
100
AcDbLine
 10
60.654379844665471
 20
-11.387713241577146
 30
0.0
 11
58.499999999999943
 21
-11.387713241577146
 31
0.0
  0
LINE
  5
1A5
100
AcDbEntity
  8
0
  6
CONTINUOUS
 62
               7
100
AcDbLine
 10
60.654379844665471
 20
-8.2122867584228487
 30
0.0
 11
58.499999999999943
 21
-8.2122867584228487
 31
0.0
  0
LINE
  5
1A6
100
AcDbEntity
  8
0
  6
CONTINUOUS
 62
               7
100
AcDbLine
 10
60.654378890991154
 20
-6.6245744705200167
 30
0.0
 11
58.499999999999943
 21
-6.6245744705200167
 31
0.0
  0
LINE
  5
1A7
100
AcDbEntity
  8
0
  6
CONTINUOUS
 62
               7
100
AcDbLine
 10
60.899998511916749
 20
-7.0500012138547135
 30
0.0
 11
60.654378319775276
 21
-6.6245744093464367
 31
0.0
  0
ARC
  5
1A8
100
AcDbEntity
  8
0
  6
CONTINUOUS
 62
               7
100
AcDbCircle
 10
59.494298458099308
 20
-12.18156986236572
 30
0.0
 40
1.40570068359375
100
AcDbArc
 50
334.38418648914558
 51
34.384229139932707
  0
ARC
  5
1A9
100
AcDbEntity
  8
0
  6
CONTINUOUS
 62
               7
100
AcDbCircle
 10
55.645624160766545
 20
-9.7999999999999972
 30
0.0
 40
5.2543754577636719
100
AcDbArc
 50
342.41200834898501
 51
17.587919706657587
  0
ARC
  5
1AA
100
AcDbEntity
  8
0
  6
CONTINUOUS
 62
               7
100
AcDbCircle
 10
59.494298458099308
 20
-7.4184301376342745
 30
0.0
 40
1.40570068359375
100
AcDbArc
 50
325.61564427419654
 51
25.615686924983695
  0
LINE
  5
1AB
100
AcDbEntity
  8
0
  6
CONTINUOUS
 62
               7
100
AcDbLine
 10
53.999999999999943
 20
-12.0
 30
0.0
 11
58.499999999999943
 21
-12.0
 31
0.0
  0
LINE
  5
1AC
100
AcDbEntity
  8
0
  6
CONTINUOUS
 62
               7
100
AcDbLine
 10
53.999999999999943
 20
-12.0
 30
0.0
 11
53.999999999999943
 21
-5.5
 31
0.0
  0
LINE
  5
1AD
100
AcDbEntity
  8
0
  6
CONTINUOUS
 62
               7
100
AcDbLine
 10
48.999999999999943
 20
-10.0
 30
0.0
 11
48.999999999999943
 21
-12.0
 31
0.0
  0
LINE
  5
1AE
100
AcDbEntity
  8
0
  6
CONTINUOUS
 62
               7
100
AcDbLine
 10
48.999999999999943
 20
-12.0
 30
0.0
 11
53.499999999999943
 21
-12.0
 31
0.0
  0
LINE
  5
1AF
100
AcDbEntity
  8
0
  6
CONTINUOUS
 62
               2
100
AcDbLine
 10
79.398968989032568
 20
-3.5
 30
0.0
 11
56.028164021903279
 21
-3.5
 31
0.0
  0
LINE
  5
1B0
100
AcDbEntity
  8
0
  6
CONTINUOUS
 62
               7
100
AcDbLine
 10
51.999999999999943
 20
-0.0999999999999943
 30
0.0
 11
58.499999999999943
 21
-0.0999999999999943
 31
0.0
  0
LINE
  5
1B1
100
AcDbEntity
  8
0
  6
CONTINUOUS
 62
               7
100
AcDbLine
 10
51.999999999999943
 20
-5.5
 30
0.0
 11
58.499999999999943
 21
-5.5
 31
0.0
  0
LINE
  5
1B2
100
AcDbEntity
  8
0
  6
CONTINUOUS
 62
               7
100
AcDbLine
 10
59.399999999999963
 20
-1.1000000000000085
 30
0.0
 11
59.399999999999935
 21
-4.8999999999999915
 31
0.0
  0
LINE
  5
1B3
100
AcDbEntity
  8
0
  6
CONTINUOUS
 62
               7
100
AcDbLine
 10
59.699999999999946
 20
-1.4000000000000057
 30
0.0
 11
59.699999999999946
 21
-4.5999999999999943
 31
0.0
  0
LINE
  5
1B4
100
AcDbEntity
  8
0
  6
CONTINUOUS
 62
               7
100
AcDbLine
 10
59.699999999999946
 20
-1.4000000000000057
 30
0.0
 11
59.399999999999963
 21
-1.1000000000000085
 31
0.0
  0
LINE
  5
1B5
100
AcDbEntity
  8
0
  6
CONTINUOUS
 62
               7
100
AcDbLine
 10
59.699999999999946
 20
-4.5999999999999943
 30
0.0
 11
59.399999999999935
 21
-4.8999999999999915
 31
0.0
  0
LINE
  5
1B6
100
AcDbEntity
  8
0
  6
CONTINUOUS
 62
               7
100
AcDbLine
 10
59.399999999999963
 20
-1.1000000000000085
 30
0.0
 11
58.499999999999943
 21
-1.1000000000000085
 31
0.0
  0
LINE
  5
1B7
100
AcDbEntity
  8
0
  6
CONTINUOUS
 62
               7
100
AcDbLine
 10
59.399999999999935
 20
-4.8999999999999915
 30
0.0
 11
58.499999999999943
 21
-4.8999999999999915
 31
0.0
  0
LINE
  5
1B8
100
AcDbEntity
  8
0
  6
CONTINUOUS
 62
               7
100
AcDbLine
 10
75.999999999999943
 20
-1.5
 30
0.0
 11
76.178632794954041
 21
-1.1905989232414811
 31
0.0
  0
LINE
  5
1B9
100
AcDbEntity
  8
0
  6
CONTINUOUS
 62
               7
100
AcDbLine
 10
75.999999999999943
 20
-5.5
 30
0.0
 11
76.178632794954041
 21
-5.8094010767585189
 31
0.0
  0
LINE
  5
1BA
100
AcDbEntity
  8
0
  6
CONTINUOUS
 62
               7
100
AcDbLine
 10
77.42136720504584
 20
-1.1905989232414811
 30
0.0
 11
76.178632794954041
 21
-1.1905989232414811
 31
0.0
  0
LINE
  5
1BB
100
AcDbEntity
  8
0
  6
CONTINUOUS
 62
               7
100
AcDbLine
 10
77.599999999999937
 20
-1.5
 30
0.0
 11
77.42136720504584
 21
-1.1905989232414811
 31
0.0
  0
LINE
  5
1BC
100
AcDbEntity
  8
0
  6
CONTINUOUS
 62
               7
100
AcDbLine
 10
77.42136720504584
 20
-2.3452994616207263
 30
0.0
 11
76.171075907346051
 21
-2.3452994616207263
 31
0.0
  0
LINE
  5
1BD
100
AcDbEntity
  8
0
  6
CONTINUOUS
 62
               7
100
AcDbLine
 10
77.599999999999937
 20
-5.5
 30
0.0
 11
77.42136720504584
 21
-5.8094010767585189
 31
0.0
  0
LINE
  5
1BE
100
AcDbEntity
  8
0
  6
CONTINUOUS
 62
               7
100
AcDbLine
 10
77.42136720504584
 20
-4.6547005383792737
 30
0.0
 11
76.171075907346051
 21
-4.6547005383792737
 31
0.0
  0
LINE
  5
1BF
100
AcDbEntity
  8
0
  6
CONTINUOUS
 62
               7
100
AcDbLine
 10
77.42136720504584
 20
-5.8094010767585189
 30
0.0
 11
76.178632794954041
 21
-5.8094010767585189
 31
0.0
  0
LINE
  5
1C0
100
AcDbEntity
  8
0
  6
CONTINUOUS
 62
               7
100
AcDbLine
 10
75.61324865405183
 20
-2.0566243270259577
 30
0.0
 11
71.499999999999943
 21
-2.0566243270259577
 31
0.0
  0
LINE
  5
1C1
100
AcDbEntity
  8
0
  6
CONTINUOUS
 62
               7
100
AcDbLine
 10
75.61324865405183
 20
-4.9433756729740708
 30
0.0
 11
71.499999999999943
 21
-4.9433756729740708
 31
0.0
  0
LINE
  5
1C2
100
AcDbEntity
  8
0
  6
CONTINUOUS
 62
               7
100
AcDbLine
 10
75.999999999999943
 20
-1.0
 30
0.0
 11
75.61324865405183
 21
-0.6132486540518869
 31
0.0
  0
LINE
  5
1C3
100
AcDbEntity
  8
0
  6
CONTINUOUS
 62
               7
100
AcDbLine
 10
75.999999999999943
 20
-6.0
 30
0.0
 11
75.61324865405183
 21
-6.3867513459481273
 31
0.0
  0
LINE
  5
1C4
100
AcDbEntity
  8
0
  6
CONTINUOUS
 62
               7
100
AcDbLine
 10
75.61324865405183
 20
-0.6132486540518869
 30
0.0
 11
71.499999999999943
 21
-0.6132486540518869
 31
0.0
  0
LINE
  5
1C5
100
AcDbEntity
  8
0
  6
CONTINUOUS
 62
               7
100
AcDbLine
 10
75.61324865405183
 20
-6.3867513459481273
 30
0.0
 11
71.499999999999943
 21
-6.3867513459481273
 31
0.0
  0
LINE
  5
1C6
100
AcDbEntity
  8
0
  6
CONTINUOUS
 62
               7
100
AcDbLine
 10
77.999999999999943
 20
-2.7000000000000028
 30
0.0
 11
77.799999999999955
 21
-2.5
 31
0.0
  0
LINE
  5
1C7
100
AcDbEntity
  8
0
  6
CONTINUOUS
 62
               7
100
AcDbLine
 10
77.799999999999926
 20
-4.5
 30
0.0
 11
77.999999999999943
 21
-4.3000000000000114
 31
0.0
  0
LINE
  5
1C8
100
AcDbEntity
  8
0
  6
CONTINUOUS
 62
               7
100
AcDbLine
 10
77.999999999999943
 20
-4.3000000000000114
 30
0.0
 11
77.999999999999943
 21
-2.7000000000000028
 31
0.0
  0
LINE
  5
1C9
100
AcDbEntity
  8
0
  6
CONTINUOUS
 62
               7
100
AcDbLine
 10
68.499999999999943
 20
-1.25
 30
0.0
 11
71.499999999999943
 21
-1.25
 31
0.0
  0
LINE
  5
1CA
100
AcDbEntity
  8
0
  6
CONTINUOUS
 62
               7
100
AcDbLine
 10
77.599999999999937
 20
-5.5
 30
0.0
 11
77.599999999999937
 21
-1.5
 31
0.0
  0
LINE
  5
1CB
100
AcDbEntity
  8
0
  6
CONTINUOUS
 62
               7
100
AcDbLine
 10
71.499999999999943
 20
-6.3867513459481273
 30
0.0
 11
71.499999999999943
 21
-0.6132486540518869
 31
0.0
  0
LINE
  5
1CC
100
AcDbEntity
  8
0
  6
CONTINUOUS
 62
               7
100
AcDbLine
 10
75.999999999999943
 20
-6.0
 30
0.0
 11
75.999999999999943
 21
-1.0
 31
0.0
  0
LINE
  5
1CD
100
AcDbEntity
  8
0
  6
CONTINUOUS
 62
               7
100
AcDbLine
 10
68.499999999999943
 20
-5.75
 30
0.0
 11
71.499999999999943
 21
-5.75
 31
0.0
  0
LINE
  5
1CE
100
AcDbEntity
  8
0
  6
CONTINUOUS
 62
               7
100
AcDbLine
 10
68.499999999999943
 20
-5.75
 30
0.0
 11
68.499999999999943
 21
-1.25
 31
0.0
  0
LINE
  5
1CF
100
AcDbEntity
  8
0
  6
CONTINUOUS
 62
               7
100
AcDbLine
 10
77.599999999999937
 20
-4.5
 30
0.0
 11
77.799999999999926
 21
-4.5
 31
0.0
  0
LINE
  5
1D0
100
AcDbEntity
  8
0
  6
CONTINUOUS
 62
               7
100
AcDbLine
 10
77.599999999999937
 20
-2.5
 30
0.0
 11
77.799999999999955
 21
-2.5
 31
0.0
  0
LINE
  5
1D1
100
AcDbEntity
  8
0
  6
CONTINUOUS
 62
               7
100
AcDbLine
 10
77.799999999999926
 20
-4.5
 30
0.0
 11
77.799999999999926
 21
-2.5
 31
0.0
  0
LINE
  5
1D2
100
AcDbEntity
  8
0
  6
CONTINUOUS
 62
               7
100
AcDbLine
 10
59.699999999999946
 20
-2.5
 30
0.0
 11
68.499999999999943
 21
-2.5
 31
0.0
  0
LINE
  5
1D3
100
AcDbEntity
  8
0
  6
CONTINUOUS
 62
               7
100
AcDbLine
 10
59.699999999999946
 20
-4.5
 30
0.0
 11
68.499999999999943
 21
-4.5
 31
0.0
  0
SPLINE
  5
1D4
100
AcDbEntity
  8
0
  6
CONTINUOUS
 62
               7
100
AcDbSpline
210
0.0
220
0.0
230
1.0
 70
               0
 71
               3
 72
               0
 73
               0
 74
               5
 44
0.000001
 12
-0.5262037021178492
 22
-0.850358550187784
 32
0.0
 13
0.5262037021178496
 23
-0.8503585501877836
 33
0.0
 11
76.178632794954041
 21
-1.1905989232414811
 31
0.0
 11
76.049564774187857
 21
-1.467380331978587
 31
0.0
 11
75.999999999999943
 21
-1.7679491924311037
 31
0.0
 11
76.049564774187857
 21
-2.0685180528836202
 31
0.0
 11
76.178632794954041
 21
-2.3452994616207263
 31
0.0
  0
SPLINE
  5
1D5
100
AcDbEntity
  8
0
  6
CONTINUOUS
 62
               7
100
AcDbSpline
210
0.0
220
0.0
230
1.0
 70
               0
 71
               3
 72
               0
 73
               0
 74
               5
 44
0.000001
 12
-0.2955767282156591
 22
0.9553190031279218
 32
0.0
 13
0.2955767282156592
 23
0.9553190031279218
 33
0.0
 11
76.178632794954041
 21
-4.6547005383792737
 31
0.0
 11
76.046146081124235
 21
-4.0845636363893894
 31
0.0
 11
75.999999999999943
 21
-3.5
 31
0.0
 11
76.046146081124235
 21
-2.9154363636106106
 31
0.0
 11
76.178632794954041
 21
-2.3452994616207263
 31
0.0
  0
SPLINE
  5
1D6
100
AcDbEntity
  8
0
  6
CONTINUOUS
 62
               7
100
AcDbSpline
210
0.0
220
0.0
230
1.0
 70
               0
 71
               3
 72
               0
 73
               0
 74
               5
 44
0.000001
 12
-0.5262037021178492
 22
0.850358550187784
 32
0.0
 13
0.5262037021178496
 23
0.8503585501877836
 33
0.0
 11
76.178632794954041
 21
-5.8094010767585189
 31
0.0
 11
76.049564774187857
 21
-5.5326196680214128
 31
0.0
 11
75.999999999999943
 21
-5.2320508075688963
 31
0.0
 11
76.049564774187857
 21
-4.9314819471163798
 31
0.0
 11
76.178632794954041
 21
-4.6547005383792737
 31
0.0
  0
SPLINE
  5
1D7
100
AcDbEntity
  8
0
  6
CONTINUOUS
 62
               7
100
AcDbSpline
210
0.0
220
0.0
230
1.0
 70
               0
 71
               3
 72
               0
 73
               0
 74
               5
 44
0.000001
 12
0.2955767282156592
 22
0.9553190031279218
 32
0.0
 13
-0.2955767282156593
 23
0.9553190031279218
 33
0.0
 11
77.42136720504584
 21
-4.6547005383792737
 31
0.0
 11
77.553853918875646
 21
-4.0845636363893894
 31
0.0
 11
77.599999999999937
 21
-3.5
 31
0.0
 11
77.553853918875646
 21
-2.9154363636106106
 31
0.0
 11
77.42136720504584
 21
-2.3452994616207263
 31
0.0
  0
SPLINE
  5
1D8
100
AcDbEntity
  8
0
  6
CONTINUOUS
 62
               7
100
AcDbSpline
210
0.0
220
0.0
230
1.0
 70
               0
 71
               3
 72
               0
 73
               0
 74
               5
 44
0.000001
 12
0.5262037021178491
 22
-0.850358550187784
 32
0.0
 13
-0.5262037021178496
 23
-0.8503585501877837
 33
0.0
 11
77.42136720504584
 21
-1.1905989232414811
 31
0.0
 11
77.550435225812024
 21
-1.467380331978587
 31
0.0
 11
77.599999999999937
 21
-1.7679491924311037
 31
0.0
 11
77.550435225812024
 21
-2.0685180528836202
 31
0.0
 11
77.42136720504584
 21
-2.3452994616207263
 31
0.0
  0
SPLINE
  5
1D9
100
AcDbEntity
  8
0
  6
CONTINUOUS
 62
               7
100
AcDbSpline
210
0.0
220
0.0
230
1.0
 70
               0
 71
               3
 72
               0
 73
               0
 74
               5
 44
0.000001
 12
0.5262037021178491
 22
0.850358550187784
 32
0.0
 13
-0.5262037021178496
 23
0.8503585501877837
 33
0.0
 11
77.42136720504584
 21
-5.8094010767585189
 31
0.0
 11
77.550435225812024
 21
-5.5326196680214128
 31
0.0
 11
77.599999999999937
 21
-5.2320508075688963
 31
0.0
 11
77.550435225812024
 21
-4.9314819471163798
 31
0.0
 11
77.42136720504584
 21
-4.6547005383792737
 31
0.0
  0
SPLINE
  5
1DA
100
AcDbEntity
  8
0
  6
CONTINUOUS
 62
               7
100
AcDbSpline
210
0.0
220
0.0
230
1.0
 70
               0
 71
               3
 72
               0
 73
               0
 74
               5
 44
0.000001
 12
0.7311721974753224
 22
0.6821929475149301
 32
0.0
 13
-0.7311721974753213
 23
0.6821929475149313
 33
0.0
 11
75.61324865405183
 21
-2.0566243270259577
 31
0.0
 11
75.881458489689734
 21
-1.7263650416724912
 31
0.0
 11
75.999999999999943
 21
-1.3349364905389223
 31
0.0
 11
75.881458489689734
 21
-0.9435079394053532
 31
0.0
 11
75.61324865405183
 21
-0.6132486540518866
 31
0.0
  0
SPLINE
  5
1DB
100
AcDbEntity
  8
0
  6
CONTINUOUS
 62
               7
100
AcDbSpline
210
0.0
220
0.0
230
1.0
 70
               0
 71
               3
 72
               0
 73
               0
 74
               5
 44
0.000001
 12
0.4723474904831461
 22
0.8814124166553784
 32
0.0
 13
-0.4723474904831467
 23
0.881412416655378
 33
0.0
 11
75.61324865405183
 21
-4.9433756729740708
 31
0.0
 11
75.894852488339907
 21
-4.2453667896579281
 31
0.0
 11
75.999999999999943
 21
-3.5
 31
0.0
 11
75.894852488339907
 21
-2.7546332103420861
 31
0.0
 11
75.61324865405183
 21
-2.0566243270259577
 31
0.0
  0
SPLINE
  5
1DC
100
AcDbEntity
  8
0
  6
CONTINUOUS
 62
               7
100
AcDbSpline
210
0.0
220
0.0
230
1.0
 70
               0
 71
               3
 72
               0
 73
               0
 74
               5
 44
0.000001
 12
0.7311721974753245
 22
0.6821929475149278
 32
0.0
 13
-0.7311721974753291
 23
0.6821929475149229
 33
0.0
 11
75.61324865405183
 21
-6.3867513459481273
 31
0.0
 11
75.881458489689749
 21
-6.0564920605946613
 31
0.0
 11
75.999999999999943
 21
-5.6650635094610919
 31
0.0
 11
75.881458489689734
 21
-5.2736349583275297
 31
0.0
 11
75.61324865405183
 21
-4.9433756729740708
 31
0.0
  0
LINE
  5
1DD
100
AcDbEntity
  8
0
  6
CONTINUOUS
 62
               7
100
AcDbLine
 10
53.499999999999943
 20
-12.0
 30
0.0
 11
53.499999999999943
 21
-6.1999999999999886
 31
0.0
  0
ARC
  5
1DE
100
AcDbEntity
  8
0
  6
CONTINUOUS
 62
               7
100
AcDbCircle
 10
53.699999999999946
 20
-8.2000000000000028
 30
0.0
 40
0.3
100
AcDbArc
 50
270.0
 51
0.0
  0
ARC
  5
1DF
100
AcDbEntity
  8
0
  6
CONTINUOUS
 62
               7
100
AcDbCircle
 10
53.699999999999946
 20
-6.7999999999999972
 30
0.0
 40
0.3
100
AcDbArc
 50
0.0
 51
90.0
  0
LINE
  5
1E0
100
AcDbEntity
  8
0
  6
CONTINUOUS
 62
               7
100
AcDbLine
 10
53.499999999999943
 20
-8.5
 30
0.0
 11
53.699999999999946
 21
-8.5
 31
0.0
  0
LINE
  5
1E1
100
AcDbEntity
  8
0
  6
CONTINUOUS
 62
               7
100
AcDbLine
 10
53.499999999999943
 20
-6.5
 30
0.0
 11
53.699999999999946
 21
-6.5
 31
0.0
  0
LINE
  5
1E2
100
AcDbEntity
  8
0
  6
CONTINUOUS
 62
               7
100
AcDbLine
 10
52.000000001754358
 20
-6.1999999999999886
 30
0.0
 11
53.500000001754358
 21
-6.1999999999999886
 31
0.0
  0
LINE
  5
1E3
100
AcDbEntity
  8
0
  6
CONTINUOUS
 62
               7
100
AcDbLine
 10
13.999999975856042
 20
-6.0
 30
0.0
 11
13.999999975856042
 21
-9.9999999863093905
 31
0.0
  0
LINE
  5
1E4
100
AcDbEntity
  8
0
  6
CONTINUOUS
 62
               7
100
AcDbLine
 10
13.999999975856042
 20
-6.0
 30
0.0
 11
51.999999999999943
 21
-6.0
 31
0.0
  0
LINE
  5
1E5
100
AcDbEntity
  8
0
  6
CONTINUOUS
 62
               7
100
AcDbLine
 10
17.999999999999943
 20
0.0
 30
0.0
 11
17.999999999999943
 21
-6.0
 31
0.0
  0
LINE
  5
1E6
100
AcDbEntity
  8
0
  6
CONTINUOUS
 62
               2
100
AcDbLine
 10
20.999999999999943
 20
-1.1999999999999886
 30
0.0
 11
20.999999999999943
 21
-5.1999999999999886
 31
0.0
  0
LINE
  5
1E7
100
AcDbEntity
  8
0
  6
CONTINUOUS
 62
               2
100
AcDbLine
 10
18.999999999999943
 20
-3.1999999999999886
 30
0.0
 11
22.999999999999943
 21
-3.1999999999999886
 31
0.0
  0
LINE
  5
1E8
100
AcDbEntity
  8
0
  6
CONTINUOUS
 62
               7
100
AcDbLine
 10
51.999999999999943
 20
0.0
 30
0.0
 11
51.999999999999943
 21
-10.0
 31
0.0
  0
LINE
  5
1E9
100
AcDbEntity
  8
0
  6
CONTINUOUS
 62
               7
100
AcDbLine
 10
13.999999999999943
 20
-10.0
 30
0.0
 11
51.999999999999943
 21
-10.0
 31
0.0
  0
LINE
  5
1EA
100
AcDbEntity
  8
0
  6
CONTINUOUS
 62
               7
100
AcDbLine
 10
17.999999999999943
 20
0.0
 30
0.0
 11
51.999999999999943
 21
0.0
 31
0.0
  0
CIRCLE
  5
1EB
100
AcDbEntity
  8
0
  6
CONTINUOUS
 62
               2
100
AcDbCircle
 10
20.999999999999943
 20
-3.1999999999999886
 30
0.0
 40
1.0
  0
CIRCLE
  5
1EC
100
AcDbEntity
  8
0
  6
CONTINUOUS
 62
               7
100
AcDbCircle
 10
20.999999999999943
 20
-3.1999999999999886
 30
0.0
 40
0.8
  0
CIRCLE
  5
1ED
100
AcDbEntity
  8
0
  6
CONTINUOUS
 62
               7
100
AcDbCircle
 10
48.999999999999943
 20
-3.1999999999999886
 30
0.0
 40
0.8
  0
CIRCLE
  5
1EE
100
AcDbEntity
  8
0
  6
CONTINUOUS
 62
               2
100
AcDbCircle
 10
48.999999999999943
 20
-3.1999999999999886
 30
0.0
 40
1.0
  0
LINE
  5
1EF
100
AcDbEntity
  8
0
  6
CONTINUOUS
 62
               2
100
AcDbLine
 10
46.999999999999943
 20
-3.1999999999999886
 30
0.0
 11
50.999999999999943
 21
-3.1999999999999886
 31
0.0
  0
LINE
  5
1F0
100
AcDbEntity
  8
0
  6
CONTINUOUS
 62
               2
100
AcDbLine
 10
48.999999999999943
 20
-1.1999999999999886
 30
0.0
 11
48.999999999999943
 21
-5.1999999999999886
 31
0.0
  0
CIRCLE
  5
1F1
100
AcDbEntity
  8
0
  6
CONTINUOUS
 62
               7
100
AcDbCircle
 10
46.499999999999943
 20
-7.9000000000000057
 30
0.0
 40
0.8
  0
CIRCLE
  5
1F2
100
AcDbEntity
  8
0
  6
CONTINUOUS
 62
               2
100
AcDbCircle
 10
46.499999999999943
 20
-7.9000000000000057
 30
0.0
 40
1.0
  0
LINE
  5
1F3
100
AcDbEntity
  8
0
  6
CONTINUOUS
 62
               2
100
AcDbLine
 10
44.499999999999943
 20
-7.9000000000000057
 30
0.0
 11
48.499999999999943
 21
-7.9000000000000057
 31
0.0
  0
LINE
  5
1F4
100
AcDbEntity
  8
0
  6
CONTINUOUS
 62
               2
100
AcDbLine
 10
46.499999999999943
 20
-5.9000000000000057
 30
0.0
 11
46.499999999999943
 21
-9.9000000000000057
 31
0.0
  0
CIRCLE
  5
1F5
100
AcDbEntity
  8
0
  6
CONTINUOUS
 62
               7
100
AcDbCircle
 10
33.499999999999943
 20
-7.9000000000000057
 30
0.0
 40
0.8
  0
CIRCLE
  5
1F6
100
AcDbEntity
  8
0
  6
CONTINUOUS
 62
               2
100
AcDbCircle
 10
33.499999999999943
 20
-7.9000000000000057
 30
0.0
 40
1.0
  0
LINE
  5
1F7
100
AcDbEntity
  8
0
  6
CONTINUOUS
 62
               2
100
AcDbLine
 10
31.499999999999943
 20
-7.9000000000000057
 30
0.0
 11
35.499999999999943
 21
-7.9000000000000057
 31
0.0
  0
LINE
  5
1F8
100
AcDbEntity
  8
0
  6
CONTINUOUS
 62
               2
100
AcDbLine
 10
33.499999999999943
 20
-5.9000000000000057
 30
0.0
 11
33.499999999999943
 21
-9.9000000000000057
 31
0.0
  0
CIRCLE
  5
1F9
100
AcDbEntity
  8
0
  6
CONTINUOUS
 62
               7
100
AcDbCircle
 10
29.499999999999886
 20
-3.0
 30
0.0
 40
1.2
  0
LINE
  5
1FA
100
AcDbEntity
  8
0
  6
CONTINUOUS
 62
               2
100
AcDbLine
 10
26.999999999999886
 20
-3.0
 30
0.0
 11
31.999999999999858
 21
-3.0
 31
0.0
  0
CIRCLE
  5
1FB
100
AcDbEntity
  8
0
  6
CONTINUOUS
 62
               2
100
AcDbCircle
 10
29.499999999999886
 20
-3.0
 30
0.0
 40
1.5
  0
LINE
  5
1FC
100
AcDbEntity
  8
0
  6
CONTINUOUS
 62
               2
100
AcDbLine
 10
29.499999999999886
 20
-0.5
 30
0.0
 11
29.499999999999886
 21
-5.5
 31
0.0
  0
CIRCLE
  5
1FD
100
AcDbEntity
  8
0
  6
CONTINUOUS
 62
               7
100
AcDbCircle
 10
45.499999999999886
 20
-3.0
 30
0.0
 40
1.2
  0
LINE
  5
1FE
100
AcDbEntity
  8
0
  6
CONTINUOUS
 62
               2
100
AcDbLine
 10
42.999999999999886
 20
-3.0
 30
0.0
 11
47.999999999999858
 21
-3.0
 31
0.0
  0
CIRCLE
  5
1FF
100
AcDbEntity
  8
0
  6
CONTINUOUS
 62
               2
100
AcDbCircle
 10
45.499999999999886
 20
-3.0
 30
0.0
 40
1.5
  0
LINE
  5
200
100
AcDbEntity
  8
0
  6
CONTINUOUS
 62
               2
100
AcDbLine
 10
45.499999999999886
 20
-0.5
 30
0.0
 11
45.499999999999886
 21
-5.5
 31
0.0
  0
LINE
  5
201
100
AcDbEntity
  8
0
  6
CONTINUOUS
 62
               7
100
AcDbLine
 10
18.000000001754358
 20
-5.5
 30
0.0
 11
51.999999999999943
 21
-5.5
 31
0.0
  0
LINE
  5
202
100
AcDbEntity
  8
0
  6
CONTINUOUS
 62
               7
100
AcDbLine
 10
22.899999999999892
 20
-3.5
 30
0.0
 11
27.099999999999881
 21
-3.5
 31
0.0
  0
LINE
  5
203
100
AcDbEntity
  8
0
  6
CONTINUOUS
 62
               7
100
AcDbLine
 10
13.999999999999943
 20
-9.5
 30
0.0
 11
51.999999999999943
 21
-9.5
 31
0.0
  0
LINE
  5
204
100
AcDbEntity
  8
0
  6
CONTINUOUS
 62
               7
100
AcDbLine
 10
22.899999999999892
 20
-5.5
 30
0.0
 11
22.899999999999892
 21
-3.5
 31
0.0
  0
LINE
  5
205
100
AcDbEntity
  8
0
  6
CONTINUOUS
 62
               7
100
AcDbLine
 10
27.099999999999881
 20
-5.5
 30
0.0
 11
27.099999999999881
 21
-3.5
 31
0.0
  0
LINE
  5
206
100
AcDbEntity
  8
0
  6
CONTINUOUS
 62
               7
100
AcDbLine
 10
38.899999999999892
 20
-3.5
 30
0.0
 11
43.099999999999881
 21
-3.5
 31
0.0
  0
LINE
  5
207
100
AcDbEntity
  8
0
  6
CONTINUOUS
 62
               7
100
AcDbLine
 10
43.099999999999881
 20
-5.5
 30
0.0
 11
43.099999999999881
 21
-3.5
 31
0.0
  0
LINE
  5
208
100
AcDbEntity
  8
0
  6
CONTINUOUS
 62
               7
100
AcDbLine
 10
38.899999999999892
 20
-5.5
 30
0.0
 11
38.899999999999892
 21
-3.5
 31
0.0
  0
LINE
  5
209
100
AcDbEntity
  8
0
  6
CONTINUOUS
 62
               2
100
AcDbLine
 10
-2.0
 20
-3.5
 30
0.0
 11
2.0
 21
-3.5
 31
0.0
  0
LINE
  5
20A
100
AcDbEntity
  8
0
  6
CONTINUOUS
 62
               2
100
AcDbLine
 10
25.0
 20
2.0
 30
0.0
 11
25.0
 21
-2.0
 31
0.0
  0
LINE
  5
20B
100
AcDbEntity
  8
0
  6
CONTINUOUS
 62
               2
100
AcDbLine
 10
41.0
 20
2.0
 30
0.0
 11
41.0
 21
-2.0
 31
0.0
  0
LINE
  5
20C
100
AcDbEntity
  8
0
  6
PHANTOM
 62
               3
100
AcDbLine
 10
64.873590695359951
 20
-7.4201953697761098
 30
0.0
 11
72.676221431021588
 21
-7.4201953697761098
 31
0.0
  0
LINE
  5
20D
100
AcDbEntity
  8
0
  6
PHANTOM
 62
               3
100
AcDbLine
 10
72.676221431021588
 20
-7.4201953697761098
 30
0.0
 11
72.676221431021588
 21
-22.851583638494759
 31
0.0
  0
LINE
  5
20E
100
AcDbEntity
  8
0
  6
PHANTOM
 62
               3
100
AcDbLine
 10
64.885032707792632
 20
32.944096003152197
 30
0.0
 11
64.885032707792632
 21
-7.4201953697761098
 31
0.0
  0
ENDBLK
  5
20F
100
AcDbEntity
  8
0
100
AcDbBlockEnd
  0
BLOCK
  5
210
100
AcDbEntity
  8
0
100
AcDbBlockBegin
  2
MGAEG4_5-5
 70
               0
 10
0.0
 20
0.0
 30
0.0
  3
MGAEG4_5-5
  1

  0
LINE
  5
211
100
AcDbEntity
  8
0
  6
PHANTOM
 62
               3
100
AcDbLine
 10
64.137131306369568
 20
7.007511006056987
 30
0.0
 11
64.137131306369568
 21
-17.385253463255822
 31
0.0
  0
LINE
  5
212
100
AcDbEntity
  8
0
  6
CONTINUOUS
 62
               2
100
AcDbLine
 10
16.299999999999997
 20
2.5794023680239029
 30
0.0
 11
15.800000000000011
 21
4.4205976319761007
 31
0.0
  0
LINE
  5
213
100
AcDbEntity
  8
0
  6
CONTINUOUS
 62
               2
100
AcDbLine
 10
16.299999999999997
 20
4.4205976319761007
 30
0.0
 11
15.800000000000011
 21
2.5794023680239029
 31
0.0
  0
LINE
  5
214
100
AcDbEntity
  8
0
  6
CONTINUOUS
 62
               7
100
AcDbLine
 10
15.800000000000011
 20
2.5794023680239029
 30
0.0
 11
16.299999999999997
 21
2.5794023680239029
 31
0.0
  0
LINE
  5
215
100
AcDbEntity
  8
0
  6
CONTINUOUS
 62
               7
100
AcDbLine
 10
15.800000000000011
 20
4.4205976319761007
 30
0.0
 11
16.299999999999997
 21
4.4205976319761007
 31
0.0
  0
LINE
  5
216
100
AcDbEntity
  8
0
  6
CONTINUOUS
 62
               7
100
AcDbLine
 10
16.299999999999997
 20
6.0
 30
0.0
 11
16.299999999999997
 21
0.6000000000000014
 31
0.0
  0
LINE
  5
217
100
AcDbEntity
  8
0
  6
CONTINUOUS
 62
               7
100
AcDbLine
 10
16.299999999999997
 20
1.1000000000000014
 30
0.0
 11
16.5
 21
1.1000000000000014
 31
0.0
  0
LINE
  5
218
100
AcDbEntity
  8
0
  6
CONTINUOUS
 62
               7
100
AcDbLine
 10
16.299999999999997
 20
5.8999999999999986
 30
0.0
 11
16.5
 21
5.8999999999999986
 31
0.0
  0
LINE
  5
219
100
AcDbEntity
  8
0
  6
CONTINUOUS
 62
               7
100
AcDbLine
 10
15.800000000000011
 20
0.6000000000000014
 30
0.0
 11
16.299999999999997
 21
0.6000000000000014
 31
0.0
  0
LINE
  5
21A
100
AcDbEntity
  8
0
  6
CONTINUOUS
 62
               7
100
AcDbLine
 10
16.5
 20
5.8999999999999986
 30
0.0
 11
16.5
 21
1.1000000000000014
 31
0.0
  0
CIRCLE
  5
21B
100
AcDbEntity
  8
0
  6
CONTINUOUS
 62
               7
100
AcDbCircle
 10
15.670000000000016
 20
5.8700000000000045
 30
0.0
 40
0.129999999999999
  0
LINE
  5
21C
100
AcDbEntity
  8
0
  6
PHANTOM
 62
               2
100
AcDbLine
 10
14.999999975856099
 20
5.740000000000002
 30
0.0
 11
15.670000000000016
 21
5.740000000000002
 31
0.0
  0
LINE
  5
21D
100
AcDbEntity
  8
0
  6
CONTINUOUS
 62
               7
100
AcDbLine
 10
16.5
 20
2.5
 30
0.0
 11
17.999999999999943
 21
2.5
 31
0.0
  0
LINE
  5
21E
100
AcDbEntity
  8
0
  6
CONTINUOUS
 62
               7
100
AcDbLine
 10
16.5
 20
4.5
 30
0.0
 11
17.999999999999943
 21
4.5
 31
0.0
  0
CIRCLE
  5
21F
100
AcDbEntity
  8
0
  6
CONTINUOUS
 62
               7
100
AcDbCircle
 10
8.9300000000000068
 20
1.1299999999999955
 30
0.0
 40
0.129999999999999
  0
CIRCLE
  5
220
100
AcDbEntity
  8
0
  6
CONTINUOUS
 62
               7
100
AcDbCircle
 10
15.670000000000016
 20
1.1299999999999955
 30
0.0
 40
0.129999999999999
  0
LINE
  5
221
100
AcDbEntity
  8
0
  6
PHANTOM
 62
               2
100
AcDbLine
 10
8.9300000000000068
 20
1.259999999999998
 30
0.0
 11
15.670000000000016
 21
1.259999999999998
 31
0.0
  0
LINE
  5
222
100
AcDbEntity
  8
0
  6
PHANTOM
 62
               2
100
AcDbLine
 10
8.9300000000000068
 20
1.0
 30
0.0
 11
15.650000000000006
 21
1.0
 31
0.0
  0
LINE
  5
223
100
AcDbEntity
  8
0
  6
CONTINUOUS
 62
               7
100
AcDbLine
 10
14.999999975856099
 20
5.5
 30
0.0
 11
15.800000000000011
 21
5.5
 31
0.0
  0
LINE
  5
224
100
AcDbEntity
  8
0
  6
CONTINUOUS
 62
               7
100
AcDbLine
 10
14.500000000000028
 20
1.5
 30
0.0
 11
14.500000000000028
 21
5.0
 31
0.0
  0
LINE
  5
225
100
AcDbEntity
  8
0
  6
CONTINUOUS
 62
               7
100
AcDbLine
 10
10.300000000000026
 20
1.5
 30
0.0
 11
10.300000000000026
 21
5.0
 31
0.0
  0
LINE
  5
226
100
AcDbEntity
  8
0
  6
CONTINUOUS
 62
               2
100
AcDbLine
 10
16.5
 20
2.6499999999999986
 30
0.0
 11
16.759807621135337
 21
2.5
 31
0.0
  0
LINE
  5
227
100
AcDbEntity
  8
0
  6
CONTINUOUS
 62
               2
100
AcDbLine
 10
16.5
 20
4.3500000000000014
 30
0.0
 11
16.759807621135337
 21
4.5
 31
0.0
  0
LINE
  5
228
100
AcDbEntity
  8
0
  6
CONTINUOUS
 62
               7
100
AcDbLine
 10
8.8000000000000114
 20
0.6000000000000014
 30
0.0
 11
8.0
 21
0.6000000000000014
 31
0.0
  0
LINE
  5
229
100
AcDbEntity
  8
0
  6
CONTINUOUS
 62
               7
100
AcDbLine
 10
10.300000000000026
 20
1.5
 30
0.0
 11
8.8000000000000114
 21
1.5
 31
0.0
  0
LINE
  5
22A
100
AcDbEntity
  8
0
  6
CONTINUOUS
 62
               7
100
AcDbLine
 10
14.500000000000028
 20
1.5
 30
0.0
 11
15.800000000000011
 21
1.5
 31
0.0
  0
LINE
  5
22B
100
AcDbEntity
  8
0
  6
CONTINUOUS
 62
               7
100
AcDbLine
 10
8.8000000000000114
 20
0.6000000000000014
 30
0.0
 11
8.8000000000000114
 21
5.0
 31
0.0
  0
LINE
  5
22C
100
AcDbEntity
  8
0
  6
CONTINUOUS
 62
               7
100
AcDbLine
 10
0.0
 20
0.6000000000000085
 30
0.0
 11
0.0
 21
9.7999999982303194
 31
0.0
  0
LINE
  5
22D
100
AcDbEntity
  8
0
  6
CONTINUOUS
 62
               7
100
AcDbLine
 10
0.0
 20
9.7999999999999972
 30
0.0
 11
13.999999975856099
 21
9.7999999999999972
 31
0.0
  0
LINE
  5
22E
100
AcDbEntity
  8
0
  6
CONTINUOUS
 62
               7
100
AcDbLine
 10
8.0
 20
0.6000000000000014
 30
0.0
 11
8.0
 21
5.0
 31
0.0
  0
LINE
  5
22F
100
AcDbEntity
  8
0
  6
CONTINUOUS
 62
               7
100
AcDbLine
 10
15.800000000000011
 20
0.6000000000000014
 30
0.0
 11
15.800000000000011
 21
6.0
 31
0.0
  0
LINE
  5
230
100
AcDbEntity
  8
0
  6
CONTINUOUS
 62
               7
100
AcDbLine
 10
0.0
 20
0.6000000000000085
 30
0.0
 11
8.0
 21
0.6000000000000085
 31
0.0
  0
LINE
  5
231
100
AcDbEntity
  8
0
  6
CONTINUOUS
 62
               7
100
AcDbLine
 10
10.300000000000026
 20
2.0
 30
0.0
 11
14.500000000000028
 21
2.0
 31
0.0
  0
LINE
  5
232
100
AcDbEntity
  8
0
  6
CONTINUOUS
 62
               7
100
AcDbLine
 10
8.0
 20
5.0
 30
0.0
 11
14.999999975856099
 21
5.0
 31
0.0
  0
LINE
  5
233
100
AcDbEntity
  8
0
  6
CONTINUOUS
 62
               7
100
AcDbLine
 10
14.999999975856099
 20
5.0
 30
0.0
 11
14.999999975856099
 21
6.0
 31
0.0
  0
LINE
  5
234
100
AcDbEntity
  8
0
  6
CONTINUOUS
 62
               7
100
AcDbLine
 10
0.0
 20
9.2999999999999972
 30
0.0
 11
13.999999999999943
 21
9.2999999999999972
 31
0.0
  0
LINE
  5
235
100
AcDbEntity
  8
0
  6
CONTINUOUS
 62
               2
100
AcDbLine
 10
8.5443198906319822
 20
3.5
 30
0.0
 11
18.653955375846124
 21
3.5
 31
0.0
  0
LINE
  5
236
100
AcDbEntity
  8
0
  6
CONTINUOUS
 62
               7
100
AcDbLine
 10
58.499999999999943
 20
0.1000000000000014
 30
0.0
 11
58.499999999999943
 21
12.975425529479979
 31
0.0
  0
CIRCLE
  5
237
100
AcDbEntity
  8
0
  6
CONTINUOUS
 62
               2
100
AcDbCircle
 10
56.29999999999994
 20
9.7999999999999972
 30
0.0
 40
1.2294998168945739
  0
LINE
  5
238
100
AcDbEntity
  8
0
  6
CONTINUOUS
 62
               7
100
AcDbLine
 10
55.54999999999994
 20
10.233012701892218
 30
0.0
 11
56.29999999999994
 21
10.666025403784436
 31
0.0
  0
LINE
  5
239
100
AcDbEntity
  8
0
  6
CONTINUOUS
 62
               7
100
AcDbLine
 10
56.29999999999994
 20
8.9339745962155597
 30
0.0
 11
57.04999999999994
 21
9.3669872981077802
 31
0.0
  0
LINE
  5
23A
100
AcDbEntity
  8
0
  6
CONTINUOUS
 62
               7
100
AcDbLine
 10
56.29999999999994
 20
10.666025403784436
 30
0.0
 11
57.04999999999994
 21
10.233012701892216
 31
0.0
  0
LINE
  5
23B
100
AcDbEntity
  8
0
  6
CONTINUOUS
 62
               7
100
AcDbLine
 10
55.54999999999994
 20
9.3669872981077802
 30
0.0
 11
56.29999999999994
 21
8.9339745962155597
 31
0.0
  0
LINE
  5
23C
100
AcDbEntity
  8
0
  6
CONTINUOUS
 62
               7
100
AcDbLine
 10
55.54999999999994
 20
10.233012701892218
 30
0.0
 11
55.54999999999994
 21
9.3669872981077802
 31
0.0
  0
LINE
  5
23D
100
AcDbEntity
  8
0
  6
CONTINUOUS
 62
               7
100
AcDbLine
 10
57.04999999999994
 20
10.233012701892216
 30
0.0
 11
57.04999999999994
 21
9.3669872981077802
 31
0.0
  0
CIRCLE
  5
23E
100
AcDbEntity
  8
0
  6
CONTINUOUS
 62
               7
100
AcDbCircle
 10
56.29999999999994
 20
9.7999999999999972
 30
0.0
 40
1.5
  0
LINE
  5
23F
100
AcDbEntity
  8
0
  6
CONTINUOUS
 62
               2
100
AcDbLine
 10
77.59999997839563
 20
2.7164999999999964
 30
0.0
 11
77.999999999999943
 21
2.7164999999999964
 31
0.0
  0
LINE
  5
240
100
AcDbEntity
  8
0
  6
CONTINUOUS
 62
               2
100
AcDbLine
 10
77.59999997839563
 20
4.2835000000000036
 30
0.0
 11
77.999999999999943
 21
4.2835000000000036
 31
0.0
  0
LINE
  5
241
100
AcDbEntity
  8
0
  6
CONTINUOUS
 62
               2
100
AcDbLine
 10
67.999999999999943
 20
2.7165000000000035
 30
0.0
 11
68.499999999999943
 21
2.7165000000000035
 31
0.0
  0
LINE
  5
242
100
AcDbEntity
  8
0
  6
CONTINUOUS
 62
               2
100
AcDbLine
 10
67.999999999999943
 20
2.7165000000000035
 30
0.0
 11
67.62501100016128
 21
2.5
 31
0.0
  0
LINE
  5
243
100
AcDbEntity
  8
0
  6
CONTINUOUS
 62
               2
100
AcDbLine
 10
67.999999999999943
 20
4.2834999999999965
 30
0.0
 11
67.62501100016128
 21
4.5
 31
0.0
  0
LINE
  5
244
100
AcDbEntity
  8
0
  6
CONTINUOUS
 62
               2
100
AcDbLine
 10
67.999999999999943
 20
4.2834999999999965
 30
0.0
 11
68.499999999999943
 21
4.2834999999999965
 31
0.0
  0
LINE
  5
245
100
AcDbEntity
  8
0
  6
CONTINUOUS
 62
               7
100
AcDbLine
 10
67.999999999999943
 20
4.5
 30
0.0
 11
67.999999999999943
 21
2.5
 31
0.0
  0
LINE
  5
246
100
AcDbEntity
  8
0
  6
CONTINUOUS
 62
               2
100
AcDbLine
 10
56.29999999999994
 20
11.850000000000012
 30
0.0
 11
56.29999999999994
 21
7.7500000000000107
 31
0.0
  0
LINE
  5
247
100
AcDbEntity
  8
0
  6
CONTINUOUS
 62
               7
100
AcDbLine
 10
60.899999618530217
 20
8.3000000000000398
 30
0.0
 11
68.199999999999903
 21
8.3000000000000398
 31
0.0
  0
LINE
  5
248
100
AcDbEntity
  8
0
  6
CONTINUOUS
 62
               2
100
AcDbLine
 10
60.899999618530217
 20
8.5705001831055085
 30
0.0
 11
68.470500183105401
 21
8.5705001831055085
 31
0.0
  0
LINE
  5
249
100
AcDbEntity
  8
0
  6
CONTINUOUS
 62
               2
100
AcDbLine
 10
60.899999618530217
 20
11.029499816894573
 30
0.0
 11
68.470500183105315
 21
11.029499816894573
 31
0.0
  0
LINE
  5
24A
100
AcDbEntity
  8
0
  6
CONTINUOUS
 62
               7
100
AcDbLine
 10
60.899999618530217
 20
11.300000000000042
 30
0.0
 11
68.199999999999932
 21
11.300000000000042
 31
0.0
  0
LINE
  5
24B
100
AcDbEntity
  8
0
  6
CONTINUOUS
 62
               7
100
AcDbLine
 10
68.199999999999932
 20
8.3000000184291736
 30
0.0
 11
68.199999999999932
 21
11.300000018429175
 31
0.0
  0
LINE
  5
24C
100
AcDbEntity
  8
0
  6
CONTINUOUS
 62
               7
100
AcDbLine
 10
68.499999999999943
 20
8.6000000000000369
 30
0.0
 11
68.199999999999903
 21
8.3000000000000256
 31
0.0
  0
LINE
  5
24D
100
AcDbEntity
  8
0
  6
CONTINUOUS
 62
               7
100
AcDbLine
 10
68.199999999999932
 20
11.300000000000042
 30
0.0
 11
68.499999999999943
 21
10.999999999999952
 31
0.0
  0
LINE
  5
24E
100
AcDbEntity
  8
0
  6
CONTINUOUS
 62
               7
100
AcDbLine
 10
68.499999999999943
 20
8.6000000000000369
 30
0.0
 11
68.499999999999943
 21
10.999999999999952
 31
0.0
  0
LINE
  5
24F
100
AcDbEntity
  8
0
  6
CONTINUOUS
 62
               7
100
AcDbLine
 10
53.98284271247455
 20
8.3000000000000398
 30
0.0
 11
53.999999999999943
 21
8.3000000000000398
 31
0.0
  0
LINE
  5
250
100
AcDbEntity
  8
0
  6
CONTINUOUS
 62
               2
100
AcDbLine
 10
53.763518646097381
 20
8.5705001831055085
 30
0.0
 11
53.999999999999943
 21
8.5705001831055085
 31
0.0
  0
LINE
  5
251
100
AcDbEntity
  8
0
  6
CONTINUOUS
 62
               2
100
AcDbLine
 10
53.76351864609741
 20
11.029499816894573
 30
0.0
 11
53.999999999999943
 21
11.029499816894573
 31
0.0
  0
LINE
  5
252
100
AcDbEntity
  8
0
  6
CONTINUOUS
 62
               7
100
AcDbLine
 10
53.901923788646656
 20
11.300000000000042
 30
0.0
 11
53.999999999999943
 21
11.300000000000042
 31
0.0
  0
ARC
  5
253
100
AcDbEntity
  8
0
  6
CONTINUOUS
 62
               7
100
AcDbCircle
 10
56.499999999999943
 20
9.7999999999999972
 30
0.0
 40
3.0
100
AcDbArc
 50
149.99999999999906
 51
206.08701352790771
  0
LINE
  5
254
100
AcDbEntity
  8
0
  6
CONTINUOUS
 62
               7
100
AcDbLine
 10
53.901923788646656
 20
11.300000000000042
 30
0.0
 11
53.901923788646656
 21
8.4218710967624233
 31
0.0
  0
LINE
  5
255
100
AcDbEntity
  8
0
  6
CONTINUOUS
 62
               7
100
AcDbLine
 10
60.654378890991154
 20
6.6245735168457003
 30
0.0
 11
58.499999999999943
 21
6.6245735168457003
 31
0.0
  0
LINE
  5
256
100
AcDbEntity
  8
0
  6
CONTINUOUS
 62
               7
100
AcDbLine
 10
60.899999394635131
 20
7.0500001327411468
 30
0.0
 11
60.654379026812364
 21
6.6245734453537324
 31
0.0
  0
LINE
  5
257
100
AcDbEntity
  8
0
  6
CONTINUOUS
 62
               7
100
AcDbLine
 10
60.899999618530217
 20
7.0499999999999972
 30
0.0
 11
60.899999618530217
 21
12.549999046325683
 31
0.0
  0
LINE
  5
258
100
AcDbEntity
  8
0
  6
CONTINUOUS
 62
               7
100
AcDbLine
 10
60.654379844665471
 20
8.2122867584228487
 30
0.0
 11
58.499999999999943
 21
8.2122867584228487
 31
0.0
  0
LINE
  5
259
100
AcDbEntity
  8
0
  6
CONTINUOUS
 62
               7
100
AcDbLine
 10
60.654379844665471
 20
11.387713241577147
 30
0.0
 11
58.499999999999943
 21
11.387713241577147
 31
0.0
  0
LINE
  5
25A
100
AcDbEntity
  8
0
  6
CONTINUOUS
 62
               7
100
AcDbLine
 10
60.654378890991154
 20
12.975425529479979
 30
0.0
 11
58.499999999999943
 21
12.975425529479979
 31
0.0
  0
LINE
  5
25B
100
AcDbEntity
  8
0
  6
CONTINUOUS
 62
               7
100
AcDbLine
 10
60.899998511916749
 20
12.549998786145283
 30
0.0
 11
60.654378319775276
 21
12.975425590653559
 31
0.0
  0
ARC
  5
25C
100
AcDbEntity
  8
0
  6
CONTINUOUS
 62
               7
100
AcDbCircle
 10
59.494298458099308
 20
7.4184301376342745
 30
0.0
 40
1.40570068359375
100
AcDbArc
 50
334.38418648914558
 51
34.384229139932707
  0
ARC
  5
25D
100
AcDbEntity
  8
0
  6
CONTINUOUS
 62
               7
100
AcDbCircle
 10
55.645624160766545
 20
9.7999999999999972
 30
0.0
 40
5.2543754577636719
100
AcDbArc
 50
342.41200834898501
 51
17.587919706657587
  0
ARC
  5
25E
100
AcDbEntity
  8
0
  6
CONTINUOUS
 62
               7
100
AcDbCircle
 10
59.494298458099308
 20
12.181569862365722
 30
0.0
 40
1.40570068359375
100
AcDbArc
 50
325.61564427419654
 51
25.615686924983695
  0
LINE
  5
25F
100
AcDbEntity
  8
0
  6
CONTINUOUS
 62
               2
100
AcDbLine
 10
52.500000024960144
 20
9.7999999999999972
 30
0.0
 11
69.500000024960144
 21
9.7999999999999972
 31
0.0
  0
LINE
  5
260
100
AcDbEntity
  8
0
  6
CONTINUOUS
 62
               7
100
AcDbLine
 10
53.999999999999943
 20
12.0
 30
0.0
 11
58.499999999999943
 21
12.0
 31
0.0
  0
LINE
  5
261
100
AcDbEntity
  8
0
  6
CONTINUOUS
 62
               7
100
AcDbLine
 10
53.999999999999943
 20
12.0
 30
0.0
 11
53.999999999999943
 21
5.5
 31
0.0
  0
LINE
  5
262
100
AcDbEntity
  8
0
  6
CONTINUOUS
 62
               7
100
AcDbLine
 10
48.999999999999943
 20
10.0
 30
0.0
 11
48.999999999999943
 21
12.0
 31
0.0
  0
LINE
  5
263
100
AcDbEntity
  8
0
  6
CONTINUOUS
 62
               7
100
AcDbLine
 10
48.999999999999943
 20
12.0
 30
0.0
 11
53.499999999999943
 21
12.0
 31
0.0
  0
LINE
  5
264
100
AcDbEntity
  8
0
  6
CONTINUOUS
 62
               7
100
AcDbLine
 10
59.699999999999946
 20
4.5
 30
0.0
 11
68.499999999999943
 21
4.5
 31
0.0
  0
LINE
  5
265
100
AcDbEntity
  8
0
  6
CONTINUOUS
 62
               7
100
AcDbLine
 10
59.699999999999946
 20
2.5
 30
0.0
 11
68.499999999999943
 21
2.5
 31
0.0
  0
LINE
  5
266
100
AcDbEntity
  8
0
  6
CONTINUOUS
 62
               7
100
AcDbLine
 10
77.799999999999926
 20
4.5
 30
0.0
 11
77.799999999999926
 21
2.5
 31
0.0
  0
LINE
  5
267
100
AcDbEntity
  8
0
  6
CONTINUOUS
 62
               7
100
AcDbLine
 10
77.599999999999937
 20
2.5
 30
0.0
 11
77.799999999999955
 21
2.5
 31
0.0
  0
LINE
  5
268
100
AcDbEntity
  8
0
  6
CONTINUOUS
 62
               7
100
AcDbLine
 10
77.599999999999937
 20
4.5
 30
0.0
 11
77.799999999999926
 21
4.5
 31
0.0
  0
LINE
  5
269
100
AcDbEntity
  8
0
  6
CONTINUOUS
 62
               7
100
AcDbLine
 10
68.499999999999943
 20
5.75
 30
0.0
 11
68.499999999999943
 21
1.25
 31
0.0
  0
LINE
  5
26A
100
AcDbEntity
  8
0
  6
CONTINUOUS
 62
               7
100
AcDbLine
 10
68.499999999999943
 20
5.75
 30
0.0
 11
71.499999999999943
 21
5.75
 31
0.0
  0
LINE
  5
26B
100
AcDbEntity
  8
0
  6
CONTINUOUS
 62
               7
100
AcDbLine
 10
75.999999999999943
 20
6.0
 30
0.0
 11
75.999999999999943
 21
1.0
 31
0.0
  0
LINE
  5
26C
100
AcDbEntity
  8
0
  6
CONTINUOUS
 62
               7
100
AcDbLine
 10
71.499999999999943
 20
6.3867513459481273
 30
0.0
 11
71.499999999999943
 21
0.6132486540518798
 31
0.0
  0
LINE
  5
26D
100
AcDbEntity
  8
0
  6
CONTINUOUS
 62
               7
100
AcDbLine
 10
77.599999999999937
 20
5.5
 30
0.0
 11
77.599999999999937
 21
1.5
 31
0.0
  0
LINE
  5
26E
100
AcDbEntity
  8
0
  6
CONTINUOUS
 62
               7
100
AcDbLine
 10
68.499999999999943
 20
1.25
 30
0.0
 11
71.499999999999943
 21
1.25
 31
0.0
  0
LINE
  5
26F
100
AcDbEntity
  8
0
  6
CONTINUOUS
 62
               7
100
AcDbLine
 10
77.999999999999943
 20
4.3000000000000114
 30
0.0
 11
77.999999999999943
 21
2.7000000000000028
 31
0.0
  0
LINE
  5
270
100
AcDbEntity
  8
0
  6
CONTINUOUS
 62
               7
100
AcDbLine
 10
77.799999999999926
 20
4.5
 30
0.0
 11
77.999999999999943
 21
4.3000000000000114
 31
0.0
  0
LINE
  5
271
100
AcDbEntity
  8
0
  6
CONTINUOUS
 62
               7
100
AcDbLine
 10
77.999999999999943
 20
2.7000000000000028
 30
0.0
 11
77.799999999999955
 21
2.5
 31
0.0
  0
LINE
  5
272
100
AcDbEntity
  8
0
  6
CONTINUOUS
 62
               7
100
AcDbLine
 10
75.61324865405183
 20
6.3867513459481273
 30
0.0
 11
71.499999999999943
 21
6.3867513459481273
 31
0.0
  0
LINE
  5
273
100
AcDbEntity
  8
0
  6
CONTINUOUS
 62
               7
100
AcDbLine
 10
75.61324865405183
 20
0.6132486540518798
 30
0.0
 11
71.499999999999943
 21
0.6132486540518798
 31
0.0
  0
LINE
  5
274
100
AcDbEntity
  8
0
  6
CONTINUOUS
 62
               7
100
AcDbLine
 10
75.999999999999943
 20
6.0
 30
0.0
 11
75.61324865405183
 21
6.3867513459481273
 31
0.0
  0
LINE
  5
275
100
AcDbEntity
  8
0
  6
CONTINUOUS
 62
               7
100
AcDbLine
 10
75.999999999999943
 20
1.0
 30
0.0
 11
75.61324865405183
 21
0.6132486540518798
 31
0.0
  0
LINE
  5
276
100
AcDbEntity
  8
0
  6
CONTINUOUS
 62
               7
100
AcDbLine
 10
75.61324865405183
 20
4.9433756729740708
 30
0.0
 11
71.499999999999943
 21
4.9433756729740708
 31
0.0
  0
LINE
  5
277
100
AcDbEntity
  8
0
  6
CONTINUOUS
 62
               7
100
AcDbLine
 10
75.61324865405183
 20
2.0566243270259577
 30
0.0
 11
71.499999999999943
 21
2.0566243270259577
 31
0.0
  0
LINE
  5
278
100
AcDbEntity
  8
0
  6
CONTINUOUS
 62
               7
100
AcDbLine
 10
77.42136720504584
 20
5.8094010767585189
 30
0.0
 11
76.178632794954041
 21
5.8094010767585189
 31
0.0
  0
LINE
  5
279
100
AcDbEntity
  8
0
  6
CONTINUOUS
 62
               7
100
AcDbLine
 10
77.42136720504584
 20
4.6547005383792737
 30
0.0
 11
76.171075907346051
 21
4.6547005383792737
 31
0.0
  0
LINE
  5
27A
100
AcDbEntity
  8
0
  6
CONTINUOUS
 62
               7
100
AcDbLine
 10
77.599999999999937
 20
5.5
 30
0.0
 11
77.42136720504584
 21
5.8094010767585189
 31
0.0
  0
LINE
  5
27B
100
AcDbEntity
  8
0
  6
CONTINUOUS
 62
               7
100
AcDbLine
 10
77.42136720504584
 20
2.3452994616207263
 30
0.0
 11
76.171075907346051
 21
2.3452994616207263
 31
0.0
  0
LINE
  5
27C
100
AcDbEntity
  8
0
  6
CONTINUOUS
 62
               7
100
AcDbLine
 10
77.599999999999937
 20
1.5
 30
0.0
 11
77.42136720504584
 21
1.1905989232414811
 31
0.0
  0
LINE
  5
27D
100
AcDbEntity
  8
0
  6
CONTINUOUS
 62
               7
100
AcDbLine
 10
77.42136720504584
 20
1.1905989232414811
 30
0.0
 11
76.178632794954041
 21
1.1905989232414811
 31
0.0
  0
LINE
  5
27E
100
AcDbEntity
  8
0
  6
CONTINUOUS
 62
               7
100
AcDbLine
 10
75.999999999999943
 20
5.5
 30
0.0
 11
76.178632794954041
 21
5.8094010767585189
 31
0.0
  0
LINE
  5
27F
100
AcDbEntity
  8
0
  6
CONTINUOUS
 62
               7
100
AcDbLine
 10
75.999999999999943
 20
1.5
 30
0.0
 11
76.178632794954041
 21
1.1905989232414811
 31
0.0
  0
LINE
  5
280
100
AcDbEntity
  8
0
  6
CONTINUOUS
 62
               7
100
AcDbLine
 10
59.399999999999935
 20
4.8999999999999986
 30
0.0
 11
58.499999999999943
 21
4.8999999999999986
 31
0.0
  0
LINE
  5
281
100
AcDbEntity
  8
0
  6
CONTINUOUS
 62
               7
100
AcDbLine
 10
59.399999999999963
 20
1.1000000000000014
 30
0.0
 11
58.499999999999943
 21
1.1000000000000014
 31
0.0
  0
LINE
  5
282
100
AcDbEntity
  8
0
  6
CONTINUOUS
 62
               7
100
AcDbLine
 10
59.699999999999946
 20
4.6000000000000014
 30
0.0
 11
59.399999999999935
 21
4.8999999999999986
 31
0.0
  0
LINE
  5
283
100
AcDbEntity
  8
0
  6
CONTINUOUS
 62
               7
100
AcDbLine
 10
59.699999999999946
 20
1.3999999999999986
 30
0.0
 11
59.399999999999963
 21
1.1000000000000014
 31
0.0
  0
LINE
  5
284
100
AcDbEntity
  8
0
  6
CONTINUOUS
 62
               7
100
AcDbLine
 10
59.699999999999946
 20
1.3999999999999986
 30
0.0
 11
59.699999999999946
 21
4.6000000000000014
 31
0.0
  0
LINE
  5
285
100
AcDbEntity
  8
0
  6
CONTINUOUS
 62
               7
100
AcDbLine
 10
59.399999999999963
 20
1.1000000000000014
 30
0.0
 11
59.399999999999935
 21
4.8999999999999986
 31
0.0
  0
LINE
  5
286
100
AcDbEntity
  8
0
  6
CONTINUOUS
 62
               7
100
AcDbLine
 10
51.999999999999943
 20
5.5
 30
0.0
 11
58.499999999999943
 21
5.5
 31
0.0
  0
LINE
  5
287
100
AcDbEntity
  8
0
  6
CONTINUOUS
 62
               7
100
AcDbLine
 10
51.999999999999943
 20
0.1000000000000014
 30
0.0
 11
58.499999999999943
 21
0.1000000000000014
 31
0.0
  0
LINE
  5
288
100
AcDbEntity
  8
0
  6
CONTINUOUS
 62
               2
100
AcDbLine
 10
79.398968989032568
 20
3.5
 30
0.0
 11
56.028164021903279
 21
3.5
 31
0.0
  0
SPLINE
  5
289
100
AcDbEntity
  8
0
  6
CONTINUOUS
 62
               7
100
AcDbSpline
210
0.0
220
0.0
230
1.0
 70
               0
 71
               3
 72
               0
 73
               0
 74
               5
 44
0.000001
 12
0.7311721974753245
 22
-0.6821929475149278
 32
0.0
 13
-0.7311721974753291
 23
-0.6821929475149229
 33
0.0
 11
75.61324865405183
 21
6.3867513459481273
 31
0.0
 11
75.881458489689749
 21
6.0564920605946595
 31
0.0
 11
75.999999999999943
 21
5.6650635094610884
 31
0.0
 11
75.881458489689734
 21
5.2736349583275279
 31
0.0
 11
75.61324865405183
 21
4.9433756729740708
 31
0.0
  0
SPLINE
  5
28A
100
AcDbEntity
  8
0
  6
CONTINUOUS
 62
               7
100
AcDbSpline
210
0.0
220
0.0
230
1.0
 70
               0
 71
               3
 72
               0
 73
               0
 74
               5
 44
0.000001
 12
0.4723474904831461
 22
-0.8814124166553784
 32
0.0
 13
-0.4723474904831467
 23
-0.881412416655378
 33
0.0
 11
75.61324865405183
 21
4.9433756729740708
 31
0.0
 11
75.894852488339907
 21
4.2453667896579281
 31
0.0
 11
75.999999999999943
 21
3.5
 31
0.0
 11
75.894852488339907
 21
2.7546332103420861
 31
0.0
 11
75.61324865405183
 21
2.0566243270259577
 31
0.0
  0
SPLINE
  5
28B
100
AcDbEntity
  8
0
  6
CONTINUOUS
 62
               7
100
AcDbSpline
210
0.0
220
0.0
230
1.0
 70
               0
 71
               3
 72
               0
 73
               0
 74
               5
 44
0.000001
 12
0.7311721974753224
 22
-0.6821929475149301
 32
0.0
 13
-0.7311721974753213
 23
-0.6821929475149313
 33
0.0
 11
75.61324865405183
 21
2.0566243270259577
 31
0.0
 11
75.881458489689734
 21
1.7263650416724912
 31
0.0
 11
75.999999999999943
 21
1.3349364905389223
 31
0.0
 11
75.881458489689734
 21
0.9435079394053496
 31
0.0
 11
75.61324865405183
 21
0.6132486540518795
 31
0.0
  0
SPLINE
  5
28C
100
AcDbEntity
  8
0
  6
CONTINUOUS
 62
               7
100
AcDbSpline
210
0.0
220
0.0
230
1.0
 70
               0
 71
               3
 72
               0
 73
               0
 74
               5
 44
0.000001
 12
0.5262037021178491
 22
-0.850358550187784
 32
0.0
 13
-0.5262037021178496
 23
-0.8503585501877837
 33
0.0
 11
77.42136720504584
 21
5.8094010767585189
 31
0.0
 11
77.550435225812024
 21
5.532619668021411
 31
0.0
 11
77.599999999999937
 21
5.2320508075688927
 31
0.0
 11
77.550435225812024
 21
4.931481947116378
 31
0.0
 11
77.42136720504584
 21
4.6547005383792737
 31
0.0
  0
SPLINE
  5
28D
100
AcDbEntity
  8
0
  6
CONTINUOUS
 62
               7
100
AcDbSpline
210
0.0
220
0.0
230
1.0
 70
               0
 71
               3
 72
               0
 73
               0
 74
               5
 44
0.000001
 12
0.5262037021178491
 22
0.850358550187784
 32
0.0
 13
-0.5262037021178496
 23
0.8503585501877837
 33
0.0
 11
77.42136720504584
 21
1.1905989232414811
 31
0.0
 11
77.550435225812024
 21
1.4673803319785887
 31
0.0
 11
77.599999999999937
 21
1.7679491924311073
 31
0.0
 11
77.550435225812024
 21
2.068518052883622
 31
0.0
 11
77.42136720504584
 21
2.3452994616207263
 31
0.0
  0
SPLINE
  5
28E
100
AcDbEntity
  8
0
  6
CONTINUOUS
 62
               7
100
AcDbSpline
210
0.0
220
0.0
230
1.0
 70
               0
 71
               3
 72
               0
 73
               0
 74
               5
 44
0.000001
 12
0.2955767282156592
 22
-0.9553190031279218
 32
0.0
 13
-0.2955767282156593
 23
-0.9553190031279218
 33
0.0
 11
77.42136720504584
 21
4.6547005383792737
 31
0.0
 11
77.553853918875646
 21
4.0845636363893894
 31
0.0
 11
77.599999999999937
 21
3.5
 31
0.0
 11
77.553853918875646
 21
2.9154363636106106
 31
0.0
 11
77.42136720504584
 21
2.3452994616207263
 31
0.0
  0
SPLINE
  5
28F
100
AcDbEntity
  8
0
  6
CONTINUOUS
 62
               7
100
AcDbSpline
210
0.0
220
0.0
230
1.0
 70
               0
 71
               3
 72
               0
 73
               0
 74
               5
 44
0.000001
 12
-0.5262037021178492
 22
-0.850358550187784
 32
0.0
 13
0.5262037021178496
 23
-0.8503585501877836
 33
0.0
 11
76.178632794954041
 21
5.8094010767585189
 31
0.0
 11
76.049564774187857
 21
5.532619668021411
 31
0.0
 11
75.999999999999943
 21
5.2320508075688927
 31
0.0
 11
76.049564774187857
 21
4.931481947116378
 31
0.0
 11
76.178632794954041
 21
4.6547005383792737
 31
0.0
  0
SPLINE
  5
290
100
AcDbEntity
  8
0
  6
CONTINUOUS
 62
               7
100
AcDbSpline
210
0.0
220
0.0
230
1.0
 70
               0
 71
               3
 72
               0
 73
               0
 74
               5
 44
0.000001
 12
-0.2955767282156591
 22
-0.9553190031279218
 32
0.0
 13
0.2955767282156592
 23
-0.9553190031279218
 33
0.0
 11
76.178632794954041
 21
4.6547005383792737
 31
0.0
 11
76.046146081124235
 21
4.0845636363893894
 31
0.0
 11
75.999999999999943
 21
3.5
 31
0.0
 11
76.046146081124235
 21
2.9154363636106106
 31
0.0
 11
76.178632794954041
 21
2.3452994616207263
 31
0.0
  0
SPLINE
  5
291
100
AcDbEntity
  8
0
  6
CONTINUOUS
 62
               7
100
AcDbSpline
210
0.0
220
0.0
230
1.0
 70
               0
 71
               3
 72
               0
 73
               0
 74
               5
 44
0.000001
 12
-0.5262037021178492
 22
0.850358550187784
 32
0.0
 13
0.5262037021178496
 23
0.8503585501877836
 33
0.0
 11
76.178632794954041
 21
1.1905989232414811
 31
0.0
 11
76.049564774187857
 21
1.4673803319785887
 31
0.0
 11
75.999999999999943
 21
1.7679491924311073
 31
0.0
 11
76.049564774187857
 21
2.068518052883622
 31
0.0
 11
76.178632794954041
 21
2.3452994616207263
 31
0.0
  0
LINE
  5
292
100
AcDbEntity
  8
0
  6
CONTINUOUS
 62
               7
100
AcDbLine
 10
53.499999999999943
 20
12.0
 30
0.0
 11
53.499999999999943
 21
6.1999999999999957
 31
0.0
  0
ARC
  5
293
100
AcDbEntity
  8
0
  6
CONTINUOUS
 62
               7
100
AcDbCircle
 10
53.699999999999946
 20
8.2000000000000028
 30
0.0
 40
0.3
100
AcDbArc
 50
0.0
 51
90.0
  0
ARC
  5
294
100
AcDbEntity
  8
0
  6
CONTINUOUS
 62
               7
100
AcDbCircle
 10
53.699999999999946
 20
6.7999999999999972
 30
0.0
 40
0.3
100
AcDbArc
 50
270.0
 51
0.0
  0
LINE
  5
295
100
AcDbEntity
  8
0
  6
CONTINUOUS
 62
               7
100
AcDbLine
 10
53.499999999999943
 20
8.5
 30
0.0
 11
53.699999999999946
 21
8.5
 31
0.0
  0
LINE
  5
296
100
AcDbEntity
  8
0
  6
CONTINUOUS
 62
               7
100
AcDbLine
 10
53.499999999999943
 20
6.5
 30
0.0
 11
53.699999999999946
 21
6.5
 31
0.0
  0
LINE
  5
297
100
AcDbEntity
  8
0
  6
CONTINUOUS
 62
               7
100
AcDbLine
 10
52.000000001754358
 20
6.1999999999999957
 30
0.0
 11
53.500000001754358
 21
6.1999999999999957
 31
0.0
  0
LINE
  5
298
100
AcDbEntity
  8
0
  6
CONTINUOUS
 62
               2
100
AcDbLine
 10
50.999999999999943
 20
7.5
 30
0.0
 11
54.641499936682109
 21
7.5
 31
0.0
  0
LINE
  5
299
100
AcDbEntity
  8
0
  6
CONTINUOUS
 62
               7
100
AcDbLine
 10
38.899999999999892
 20
5.5
 30
0.0
 11
38.899999999999892
 21
3.5
 31
0.0
  0
LINE
  5
29A
100
AcDbEntity
  8
0
  6
CONTINUOUS
 62
               7
100
AcDbLine
 10
43.099999999999881
 20
5.5
 30
0.0
 11
43.099999999999881
 21
3.5
 31
0.0
  0
LINE
  5
29B
100
AcDbEntity
  8
0
  6
CONTINUOUS
 62
               7
100
AcDbLine
 10
38.899999999999892
 20
3.5
 30
0.0
 11
43.099999999999881
 21
3.5
 31
0.0
  0
LINE
  5
29C
100
AcDbEntity
  8
0
  6
CONTINUOUS
 62
               7
100
AcDbLine
 10
27.099999999999881
 20
5.5
 30
0.0
 11
27.099999999999881
 21
3.5
 31
0.0
  0
LINE
  5
29D
100
AcDbEntity
  8
0
  6
CONTINUOUS
 62
               7
100
AcDbLine
 10
22.899999999999892
 20
5.5
 30
0.0
 11
22.899999999999892
 21
3.5
 31
0.0
  0
LINE
  5
29E
100
AcDbEntity
  8
0
  6
CONTINUOUS
 62
               7
100
AcDbLine
 10
13.999999999999943
 20
9.5
 30
0.0
 11
51.999999999999943
 21
9.5
 31
0.0
  0
LINE
  5
29F
100
AcDbEntity
  8
0
  6
CONTINUOUS
 62
               7
100
AcDbLine
 10
22.899999999999892
 20
3.5
 30
0.0
 11
27.099999999999881
 21
3.5
 31
0.0
  0
LINE
  5
2A0
100
AcDbEntity
  8
0
  6
CONTINUOUS
 62
               7
100
AcDbLine
 10
18.000000001754358
 20
5.5
 30
0.0
 11
51.999999999999943
 21
5.5
 31
0.0
  0
LINE
  5
2A1
100
AcDbEntity
  8
0
  6
CONTINUOUS
 62
               2
100
AcDbLine
 10
45.499999999999886
 20
0.5
 30
0.0
 11
45.499999999999886
 21
5.5
 31
0.0
  0
CIRCLE
  5
2A2
100
AcDbEntity
  8
0
  6
CONTINUOUS
 62
               2
100
AcDbCircle
 10
45.499999999999886
 20
3.0
 30
0.0
 40
1.5
  0
LINE
  5
2A3
100
AcDbEntity
  8
0
  6
CONTINUOUS
 62
               2
100
AcDbLine
 10
42.999999999999886
 20
3.0
 30
0.0
 11
47.999999999999858
 21
3.0
 31
0.0
  0
CIRCLE
  5
2A4
100
AcDbEntity
  8
0
  6
CONTINUOUS
 62
               7
100
AcDbCircle
 10
45.499999999999886
 20
3.0
 30
0.0
 40
1.2
  0
LINE
  5
2A5
100
AcDbEntity
  8
0
  6
CONTINUOUS
 62
               2
100
AcDbLine
 10
29.499999999999886
 20
0.5
 30
0.0
 11
29.499999999999886
 21
5.5
 31
0.0
  0
CIRCLE
  5
2A6
100
AcDbEntity
  8
0
  6
CONTINUOUS
 62
               2
100
AcDbCircle
 10
29.499999999999886
 20
3.0
 30
0.0
 40
1.5
  0
LINE
  5
2A7
100
AcDbEntity
  8
0
  6
CONTINUOUS
 62
               2
100
AcDbLine
 10
26.999999999999886
 20
3.0
 30
0.0
 11
31.999999999999858
 21
3.0
 31
0.0
  0
CIRCLE
  5
2A8
100
AcDbEntity
  8
0
  6
CONTINUOUS
 62
               7
100
AcDbCircle
 10
29.499999999999886
 20
3.0
 30
0.0
 40
1.2
  0
LINE
  5
2A9
100
AcDbEntity
  8
0
  6
CONTINUOUS
 62
               2
100
AcDbLine
 10
33.499999999999943
 20
5.9000000000000057
 30
0.0
 11
33.499999999999943
 21
9.9000000000000057
 31
0.0
  0
LINE
  5
2AA
100
AcDbEntity
  8
0
  6
CONTINUOUS
 62
               2
100
AcDbLine
 10
31.499999999999943
 20
7.9000000000000057
 30
0.0
 11
35.499999999999943
 21
7.9000000000000057
 31
0.0
  0
CIRCLE
  5
2AB
100
AcDbEntity
  8
0
  6
CONTINUOUS
 62
               2
100
AcDbCircle
 10
33.499999999999943
 20
7.9000000000000057
 30
0.0
 40
1.0
  0
CIRCLE
  5
2AC
100
AcDbEntity
  8
0
  6
CONTINUOUS
 62
               7
100
AcDbCircle
 10
33.499999999999943
 20
7.9000000000000057
 30
0.0
 40
0.8
  0
LINE
  5
2AD
100
AcDbEntity
  8
0
  6
CONTINUOUS
 62
               2
100
AcDbLine
 10
46.499999999999943
 20
5.9000000000000057
 30
0.0
 11
46.499999999999943
 21
9.9000000000000057
 31
0.0
  0
LINE
  5
2AE
100
AcDbEntity
  8
0
  6
CONTINUOUS
 62
               2
100
AcDbLine
 10
44.499999999999943
 20
7.9000000000000057
 30
0.0
 11
48.499999999999943
 21
7.9000000000000057
 31
0.0
  0
CIRCLE
  5
2AF
100
AcDbEntity
  8
0
  6
CONTINUOUS
 62
               2
100
AcDbCircle
 10
46.499999999999943
 20
7.9000000000000057
 30
0.0
 40
1.0
  0
CIRCLE
  5
2B0
100
AcDbEntity
  8
0
  6
CONTINUOUS
 62
               7
100
AcDbCircle
 10
46.499999999999943
 20
7.9000000000000057
 30
0.0
 40
0.8
  0
LINE
  5
2B1
100
AcDbEntity
  8
0
  6
CONTINUOUS
 62
               2
100
AcDbLine
 10
48.999999999999943
 20
1.1999999999999886
 30
0.0
 11
48.999999999999943
 21
5.1999999999999886
 31
0.0
  0
LINE
  5
2B2
100
AcDbEntity
  8
0
  6
CONTINUOUS
 62
               2
100
AcDbLine
 10
46.999999999999943
 20
3.1999999999999886
 30
0.0
 11
50.999999999999943
 21
3.1999999999999886
 31
0.0
  0
CIRCLE
  5
2B3
100
AcDbEntity
  8
0
  6
CONTINUOUS
 62
               2
100
AcDbCircle
 10
48.999999999999943
 20
3.1999999999999886
 30
0.0
 40
1.0
  0
CIRCLE
  5
2B4
100
AcDbEntity
  8
0
  6
CONTINUOUS
 62
               7
100
AcDbCircle
 10
48.999999999999943
 20
3.1999999999999886
 30
0.0
 40
0.8
  0
CIRCLE
  5
2B5
100
AcDbEntity
  8
0
  6
CONTINUOUS
 62
               7
100
AcDbCircle
 10
20.999999999999943
 20
3.1999999999999886
 30
0.0
 40
0.8
  0
CIRCLE
  5
2B6
100
AcDbEntity
  8
0
  6
CONTINUOUS
 62
               2
100
AcDbCircle
 10
20.999999999999943
 20
3.1999999999999886
 30
0.0
 40
1.0
  0
LINE
  5
2B7
100
AcDbEntity
  8
0
  6
CONTINUOUS
 62
               7
100
AcDbLine
 10
17.999999999999943
 20
0.0
 30
0.0
 11
51.999999999999943
 21
0.0
 31
0.0
  0
LINE
  5
2B8
100
AcDbEntity
  8
0
  6
CONTINUOUS
 62
               7
100
AcDbLine
 10
13.999999999999943
 20
10.0
 30
0.0
 11
51.999999999999943
 21
10.0
 31
0.0
  0
LINE
  5
2B9
100
AcDbEntity
  8
0
  6
CONTINUOUS
 62
               7
100
AcDbLine
 10
51.999999999999943
 20
0.0
 30
0.0
 11
51.999999999999943
 21
10.0
 31
0.0
  0
LINE
  5
2BA
100
AcDbEntity
  8
0
  6
CONTINUOUS
 62
               2
100
AcDbLine
 10
18.999999999999943
 20
3.1999999999999886
 30
0.0
 11
22.999999999999943
 21
3.1999999999999886
 31
0.0
  0
LINE
  5
2BB
100
AcDbEntity
  8
0
  6
CONTINUOUS
 62
               2
100
AcDbLine
 10
20.999999999999943
 20
1.1999999999999886
 30
0.0
 11
20.999999999999943
 21
5.1999999999999886
 31
0.0
  0
LINE
  5
2BC
100
AcDbEntity
  8
0
  6
CONTINUOUS
 62
               7
100
AcDbLine
 10
17.999999999999943
 20
0.0
 30
0.0
 11
17.999999999999943
 21
6.0
 31
0.0
  0
LINE
  5
2BD
100
AcDbEntity
  8
0
  6
CONTINUOUS
 62
               7
100
AcDbLine
 10
13.999999975856042
 20
6.0
 30
0.0
 11
51.999999999999943
 21
6.0
 31
0.0
  0
LINE
  5
2BE
100
AcDbEntity
  8
0
  6
CONTINUOUS
 62
               7
100
AcDbLine
 10
13.999999975856042
 20
6.0
 30
0.0
 11
13.999999975856042
 21
9.9999999863093905
 31
0.0
  0
LINE
  5
2BF
100
AcDbEntity
  8
0
  6
CONTINUOUS
 62
               2
100
AcDbLine
 10
-2.0
 20
3.5
 30
0.0
 11
2.0
 21
3.5
 31
0.0
  0
LINE
  5
2C0
100
AcDbEntity
  8
0
  6
CONTINUOUS
 62
               2
100
AcDbLine
 10
25.0
 20
2.0
 30
0.0
 11
25.0
 21
-2.0
 31
0.0
  0
LINE
  5
2C1
100
AcDbEntity
  8
0
  6
CONTINUOUS
 62
               2
100
AcDbLine
 10
41.0
 20
2.0
 30
0.0
 11
41.0
 21
-2.0
 31
0.0
  0
LINE
  5
2C2
100
AcDbEntity
  8
0
  6
PHANTOM
 62
               3
100
AcDbLine
 10
64.125689293936887
 20
7.007511006056987
 30
0.0
 11
71.928320029598524
 21
7.007511006056987
 31
0.0
  0
LINE
  5
2C3
100
AcDbEntity
  8
0
  6
PHANTOM
 62
               3
100
AcDbLine
 10
71.928320029598524
 20
22.438899274775636
 30
0.0
 11
71.928320029598524
 21
7.007511006056987
 31
0.0
  0
ENDBLK
  5
2C4
100
AcDbEntity
  8
0
100
AcDbBlockEnd
  0
BLOCK
  5
2C5
100
AcDbEntity
  8
0
100
AcDbBlockBegin
  2
MGAEG4_5-6
 70
               0
 10
0.0
 20
0.0
 30
0.0
  3
MGAEG4_5-6
  1

  0
LINE
  5
2C6
100
AcDbEntity
  8
0
  6
CONTINUOUS
 62
               7
100
AcDbLine
 10
0.0
 20
-3.2999999999999972
 30
0.0
 11
6.3000000000000682
 21
-3.2999999999999972
 31
0.0
  0
LINE
  5
2C7
100
AcDbEntity
  8
0
  6
CONTINUOUS
 62
               7
100
AcDbLine
 10
0.0
 20
3.3000000000000114
 30
0.0
 11
6.3000000000000682
 21
3.3000000000000114
 31
0.0
  0
LINE
  5
2C8
100
AcDbEntity
  8
0
  6
CONTINUOUS
 62
               7
100
AcDbLine
 10
6.3000000000000682
 20
-1.8999999999999915
 30
0.0
 11
8.0000000000000568
 21
-1.8999999999999915
 31
0.0
  0
LINE
  5
2C9
100
AcDbEntity
  8
0
  6
CONTINUOUS
 62
               7
100
AcDbLine
 10
6.3000000000000682
 20
1.9000000000000057
 30
0.0
 11
8.0000000000000568
 21
1.9000000000000057
 31
0.0
  0
LINE
  5
2CA
100
AcDbEntity
  8
0
  6
CONTINUOUS
 62
               7
100
AcDbLine
 10
17.5
 20
3.3000000000000114
 30
0.0
 11
17.5
 21
1.0
 31
0.0
  0
LINE
  5
2CB
100
AcDbEntity
  8
0
  6
CONTINUOUS
 62
               7
100
AcDbLine
 10
17.0
 20
1.0
 30
0.0
 11
17.0
 21
2.2000000000000028
 31
0.0
  0
LINE
  5
2CC
100
AcDbEntity
  8
0
  6
CONTINUOUS
 62
               7
100
AcDbLine
 10
17.5
 20
3.3000000000000114
 30
0.0
 11
18.0
 21
3.3000000000000114
 31
0.0
  0
LINE
  5
2CD
100
AcDbEntity
  8
0
  6
CONTINUOUS
 62
               7
100
AcDbLine
 10
17.5
 20
1.5
 30
0.0
 11
18.0
 21
1.5
 31
0.0
  0
LINE
  5
2CE
100
AcDbEntity
  8
0
  6
CONTINUOUS
 62
               7
100
AcDbLine
 10
17.5
 20
2.5
 30
0.0
 11
17.300000000000011
 21
2.5
 31
0.0
  0
ARC
  5
2CF
100
AcDbEntity
  8
0
  6
CONTINUOUS
 62
               7
100
AcDbCircle
 10
17.300000000000011
 20
2.2000000000000028
 30
0.0
 40
0.3
100
AcDbArc
 50
90.0
 51
180.0
  0
LINE
  5
2D0
100
AcDbEntity
  8
0
  6
CONTINUOUS
 62
               7
100
AcDbLine
 10
17.5
 20
-1.0
 30
0.0
 11
17.5
 21
-3.2999999999999972
 31
0.0
  0
LINE
  5
2D1
100
AcDbEntity
  8
0
  6
CONTINUOUS
 62
               7
100
AcDbLine
 10
17.0
 20
-2.2000000000000028
 30
0.0
 11
17.0
 21
-1.0
 31
0.0
  0
LINE
  5
2D2
100
AcDbEntity
  8
0
  6
CONTINUOUS
 62
               7
100
AcDbLine
 10
17.5
 20
-3.2999999999999972
 30
0.0
 11
18.0
 21
-3.2999999999999972
 31
0.0
  0
LINE
  5
2D3
100
AcDbEntity
  8
0
  6
CONTINUOUS
 62
               7
100
AcDbLine
 10
17.5
 20
-1.5
 30
0.0
 11
18.0
 21
-1.5
 31
0.0
  0
ARC
  5
2D4
100
AcDbEntity
  8
0
  6
CONTINUOUS
 62
               7
100
AcDbCircle
 10
17.300000000000011
 20
-2.2000000000000028
 30
0.0
 40
0.3
100
AcDbArc
 50
180.0
 51
270.0
  0
LINE
  5
2D5
100
AcDbEntity
  8
0
  6
CONTINUOUS
 62
               7
100
AcDbLine
 10
17.5
 20
-2.5
 30
0.0
 11
17.300000000000011
 21
-2.5
 31
0.0
  0
CIRCLE
  5
2D6
100
AcDbEntity
  8
0
  6
CONTINUOUS
 62
               7
100
AcDbCircle
 10
8.9300000000000637
 20
2.3700000000000045
 30
0.0
 40
0.129999999999999
  0
CIRCLE
  5
2D7
100
AcDbEntity
  8
0
  6
CONTINUOUS
 62
               7
100
AcDbCircle
 10
15.670000000000073
 20
2.3700000000000045
 30
0.0
 40
0.129999999999999
  0
LINE
  5
2D8
100
AcDbEntity
  8
0
  6
PHANTOM
 62
               2
100
AcDbLine
 10
8.9300000000000637
 20
2.2399999999999949
 30
0.0
 11
15.670000000000073
 21
2.2399999999999949
 31
0.0
  0
LINE
  5
2D9
100
AcDbEntity
  8
0
  6
PHANTOM
 62
               2
100
AcDbLine
 10
8.9300000000000637
 20
2.5
 30
0.0
 11
15.650000000000063
 21
2.5
 31
0.0
  0
CIRCLE
  5
2DA
100
AcDbEntity
  8
0
  6
CONTINUOUS
 62
               7
100
AcDbCircle
 10
8.9300000000000637
 20
-2.3700000000000045
 30
0.0
 40
0.129999999999999
  0
CIRCLE
  5
2DB
100
AcDbEntity
  8
0
  6
CONTINUOUS
 62
               7
100
AcDbCircle
 10
15.670000000000073
 20
-2.3700000000000045
 30
0.0
 40
0.129999999999999
  0
LINE
  5
2DC
100
AcDbEntity
  8
0
  6
PHANTOM
 62
               2
100
AcDbLine
 10
8.9300000000000637
 20
-2.2399999999999949
 30
0.0
 11
15.670000000000073
 21
-2.2399999999999949
 31
0.0
  0
LINE
  5
2DD
100
AcDbEntity
  8
0
  6
PHANTOM
 62
               2
100
AcDbLine
 10
8.9300000000000637
 20
-2.5
 30
0.0
 11
15.650000000000063
 21
-2.5
 31
0.0
  0
LINE
  5
2DE
100
AcDbEntity
  8
0
  6
CONTINUOUS
 62
               7
100
AcDbLine
 10
15.800000000000068
 20
2.75
 30
0.0
 11
15.800000000000068
 21
-2.75
 31
0.0
  0
LINE
  5
2DF
100
AcDbEntity
  8
0
  6
CONTINUOUS
 62
               7
100
AcDbLine
 10
8.8000000000000682
 20
2.8999999999999915
 30
0.0
 11
8.8000000000000682
 21
-2.8999999999999915
 31
0.0
  0
LINE
  5
2E0
100
AcDbEntity
  8
0
  6
CONTINUOUS
 62
               7
100
AcDbLine
 10
14.500000000000085
 20
2.0
 30
0.0
 11
15.800000000000068
 21
2.0
 31
0.0
  0
LINE
  5
2E1
100
AcDbEntity
  8
0
  6
CONTINUOUS
 62
               7
100
AcDbLine
 10
10.300000000000082
 20
2.0
 30
0.0
 11
8.8000000000000682
 21
2.0
 31
0.0
  0
LINE
  5
2E2
100
AcDbEntity
  8
0
  6
CONTINUOUS
 62
               7
100
AcDbLine
 10
8.8000000000000682
 20
2.8999999999999915
 30
0.0
 11
8.0000000000000568
 21
2.8999999999999915
 31
0.0
  0
LINE
  5
2E3
100
AcDbEntity
  8
0
  6
CONTINUOUS
 62
               7
100
AcDbLine
 10
10.300000000000082
 20
2.0
 30
0.0
 11
10.300000000000082
 21
-2.0
 31
0.0
  0
LINE
  5
2E4
100
AcDbEntity
  8
0
  6
CONTINUOUS
 62
               7
100
AcDbLine
 10
14.500000000000085
 20
2.0
 30
0.0
 11
14.500000000000085
 21
-2.0
 31
0.0
  0
LINE
  5
2E5
100
AcDbEntity
  8
0
  6
CONTINUOUS
 62
               7
100
AcDbLine
 10
6.3000000000000682
 20
1.5
 30
0.0
 11
8.0000000000000568
 21
1.5
 31
0.0
  0
LINE
  5
2E6
100
AcDbEntity
  8
0
  6
CONTINUOUS
 62
               2
100
AcDbLine
 10
16.500000000000057
 20
-0.8500000000000085
 30
0.0
 11
16.759807621135394
 21
-1.0
 31
0.0
  0
LINE
  5
2E7
100
AcDbEntity
  8
0
  6
CONTINUOUS
 62
               2
100
AcDbLine
 10
16.500000000000057
 20
0.8500000000000085
 30
0.0
 11
16.759807621135394
 21
1.0
 31
0.0
  0
LINE
  5
2E8
100
AcDbEntity
  8
0
  6
CONTINUOUS
 62
               7
100
AcDbLine
 10
8.8000000000000682
 20
-2.8999999999999915
 30
0.0
 11
8.0000000000000568
 21
-2.8999999999999915
 31
0.0
  0
LINE
  5
2E9
100
AcDbEntity
  8
0
  6
CONTINUOUS
 62
               7
100
AcDbLine
 10
10.300000000000082
 20
-2.0
 30
0.0
 11
8.8000000000000682
 21
-2.0
 31
0.0
  0
LINE
  5
2EA
100
AcDbEntity
  8
0
  6
CONTINUOUS
 62
               7
100
AcDbLine
 10
14.500000000000085
 20
-2.0
 30
0.0
 11
15.800000000000068
 21
-2.0
 31
0.0
  0
LINE
  5
2EB
100
AcDbEntity
  8
0
  6
CONTINUOUS
 62
               7
100
AcDbLine
 10
16.500000000000057
 20
1.0
 30
0.0
 11
18.0
 21
1.0
 31
0.0
  0
LINE
  5
2EC
100
AcDbEntity
  8
0
  6
CONTINUOUS
 62
               7
100
AcDbLine
 10
16.500000000000057
 20
-1.0
 30
0.0
 11
18.0
 21
-1.0
 31
0.0
  0
LINE
  5
2ED
100
AcDbEntity
  8
0
  6
CONTINUOUS
 62
               7
100
AcDbLine
 10
4.3000000000000682
 20
2.7999999999999972
 30
0.0
 11
6.3000000000000682
 21
2.7999999999999972
 31
0.0
  0
LINE
  5
2EE
100
AcDbEntity
  8
0
  6
CONTINUOUS
 62
               7
100
AcDbLine
 10
4.3000000000000682
 20
-2.7999999999999972
 30
0.0
 11
6.3000000000000682
 21
-2.7999999999999972
 31
0.0
  0
LINE
  5
2EF
100
AcDbEntity
  8
0
  6
CONTINUOUS
 62
               7
100
AcDbLine
 10
6.3000000000000682
 20
-3.2999999999999972
 30
0.0
 11
6.3000000000000682
 21
3.3000000000000114
 31
0.0
  0
LINE
  5
2F0
100
AcDbEntity
  8
0
  6
CONTINUOUS
 62
               7
100
AcDbLine
 10
4.3000000000000682
 20
2.7999999999999972
 30
0.0
 11
4.3000000000000682
 21
-2.7999999999999972
 31
0.0
  0
LINE
  5
2F1
100
AcDbEntity
  8
0
  6
CONTINUOUS
 62
               7
100
AcDbLine
 10
6.3000000000000682
 20
-1.5
 30
0.0
 11
8.0000000000000568
 21
-1.5
 31
0.0
  0
LINE
  5
2F2
100
AcDbEntity
  8
0
  6
CONTINUOUS
 62
               7
100
AcDbLine
 10
10.300000000000082
 20
1.5
 30
0.0
 11
14.500000000000085
 21
1.5
 31
0.0
  0
LINE
  5
2F3
100
AcDbEntity
  8
0
  6
CONTINUOUS
 62
               7
100
AcDbLine
 10
10.300000000000082
 20
-1.5
 30
0.0
 11
14.500000000000085
 21
-1.5
 31
0.0
  0
LINE
  5
2F4
100
AcDbEntity
  8
0
  6
CONTINUOUS
 62
               7
100
AcDbLine
 10
8.0000000000000568
 20
3.4641016151377642
 30
0.0
 11
14.999999978393447
 21
3.4641016151377642
 31
0.0
  0
LINE
  5
2F5
100
AcDbEntity
  8
0
  6
CONTINUOUS
 62
               7
100
AcDbLine
 10
8.0000000000000568
 20
-3.4641016151377642
 30
0.0
 11
14.999999978393447
 21
-3.4641016151377642
 31
0.0
  0
LINE
  5
2F6
100
AcDbEntity
  8
0
  6
CONTINUOUS
 62
               7
100
AcDbLine
 10
16.500000000000057
 20
-2.4000000000000057
 30
0.0
 11
16.500000000000057
 21
2.4000000000000057
 31
0.0
  0
LINE
  5
2F7
100
AcDbEntity
  8
0
  6
CONTINUOUS
 62
               7
100
AcDbLine
 10
14.999999978393447
 20
3.4000000000000057
 30
0.0
 11
18.0
 21
3.4000000000000057
 31
0.0
  0
LINE
  5
2F8
100
AcDbEntity
  8
0
  6
CONTINUOUS
 62
               7
100
AcDbLine
 10
14.999999978393447
 20
-3.4000000000000057
 30
0.0
 11
18.0
 21
-3.4000000000000057
 31
0.0
  0
LINE
  5
2F9
100
AcDbEntity
  8
0
  6
CONTINUOUS
 62
               7
100
AcDbLine
 10
15.800000000000068
 20
2.75
 30
0.0
 11
16.300000000000054
 21
2.75
 31
0.0
  0
LINE
  5
2FA
100
AcDbEntity
  8
0
  6
CONTINUOUS
 62
               7
100
AcDbLine
 10
15.800000000000068
 20
-2.75
 30
0.0
 11
16.300000000000054
 21
-2.75
 31
0.0
  0
LINE
  5
2FB
100
AcDbEntity
  8
0
  6
CONTINUOUS
 62
               7
100
AcDbLine
 10
16.300000000000054
 20
-2.75
 30
0.0
 11
16.300000000000054
 21
2.75
 31
0.0
  0
LINE
  5
2FC
100
AcDbEntity
  8
0
  6
CONTINUOUS
 62
               7
100
AcDbLine
 10
16.300000000000054
 20
2.4000000000000057
 30
0.0
 11
16.500000000000057
 21
2.4000000000000057
 31
0.0
  0
LINE
  5
2FD
100
AcDbEntity
  8
0
  6
CONTINUOUS
 62
               7
100
AcDbLine
 10
16.300000000000054
 20
-2.4000000000000057
 30
0.0
 11
16.500000000000057
 21
-2.4000000000000057
 31
0.0
  0
LINE
  5
2FE
100
AcDbEntity
  8
0
  6
CONTINUOUS
 62
               7
100
AcDbLine
 10
14.999999978393447
 20
2.0
 30
0.0
 11
14.999999978393447
 21
9.0000000245290437
 31
0.0
  0
LINE
  5
2FF
100
AcDbEntity
  8
0
  6
CONTINUOUS
 62
               7
100
AcDbLine
 10
14.999999978393447
 20
-8.9999999754709563
 30
0.0
 11
14.999999978393447
 21
-2.0
 31
0.0
  0
LINE
  5
300
100
AcDbEntity
  8
0
  6
CONTINUOUS
 62
               7
100
AcDbLine
 10
8.0000000000000568
 20
-9.0
 30
0.0
 11
8.0000000000000568
 21
9.0
 31
0.0
  0
LINE
  5
301
100
AcDbEntity
  8
0
  6
CONTINUOUS
 62
               7
100
AcDbLine
 10
0.0
 20
9.0
 30
0.0
 11
0.0
 21
-9.0
 31
0.0
  0
LINE
  5
302
100
AcDbEntity
  8
0
  6
CONTINUOUS
 62
               2
100
AcDbLine
 10
77.599999978395687
 20
-0.7835000000000036
 30
0.0
 11
78.0
 21
-0.7835000000000036
 31
0.0
  0
LINE
  5
303
100
AcDbEntity
  8
0
  6
CONTINUOUS
 62
               2
100
AcDbLine
 10
77.599999978395687
 20
0.7835000000000036
 30
0.0
 11
78.0
 21
0.7835000000000036
 31
0.0
  0
LINE
  5
304
100
AcDbEntity
  8
0
  6
CONTINUOUS
 62
               2
100
AcDbLine
 10
68.0
 20
-0.7835000000000036
 30
0.0
 11
68.5
 21
-0.7835000000000036
 31
0.0
  0
LINE
  5
305
100
AcDbEntity
  8
0
  6
CONTINUOUS
 62
               2
100
AcDbLine
 10
68.0
 20
-0.7835000000000036
 30
0.0
 11
67.625011000161336
 21
-1.0
 31
0.0
  0
LINE
  5
306
100
AcDbEntity
  8
0
  6
CONTINUOUS
 62
               2
100
AcDbLine
 10
68.0
 20
0.7835000000000036
 30
0.0
 11
67.625011000161336
 21
1.0
 31
0.0
  0
LINE
  5
307
100
AcDbEntity
  8
0
  6
CONTINUOUS
 62
               2
100
AcDbLine
 10
68.0
 20
0.7835000000000036
 30
0.0
 11
68.5
 21
0.7835000000000036
 31
0.0
  0
LINE
  5
308
100
AcDbEntity
  8
0
  6
CONTINUOUS
 62
               7
100
AcDbLine
 10
68.0
 20
1.0
 30
0.0
 11
68.0
 21
-1.0
 31
0.0
  0
LINE
  5
309
100
AcDbEntity
  8
0
  6
CONTINUOUS
 62
               7
100
AcDbLine
 10
60.899999618530273
 20
1.0
 30
0.0
 11
60.899999618530273
 21
2.75
 31
0.0
  0
LINE
  5
30A
100
AcDbEntity
  8
0
  6
CONTINUOUS
 62
               7
100
AcDbLine
 10
60.899999618530273
 20
-2.75
 30
0.0
 11
59.549999999999997
 21
-2.75
 31
0.0
  0
LINE
  5
30B
100
AcDbEntity
  8
0
  6
CONTINUOUS
 62
               7
100
AcDbLine
 10
60.899999618530273
 20
-2.75
 30
0.0
 11
60.899999618530273
 21
-1.0
 31
0.0
  0
LINE
  5
30C
100
AcDbEntity
  8
0
  6
CONTINUOUS
 62
               7
100
AcDbLine
 10
60.899999618530273
 20
2.75
 30
0.0
 11
59.549999999999997
 21
2.75
 31
0.0
  0
ARC
  5
30D
100
AcDbEntity
  8
0
  6
CONTINUOUS
 62
               7
100
AcDbCircle
 10
56.92851448059082
 20
-1.375
 30
0.0
 40
3.9714851379394531
100
AcDbArc
 50
339.74380861009791
 51
5.4181175140624971
  0
ARC
  5
30E
100
AcDbEntity
  8
0
  6
CONTINUOUS
 62
               7
100
AcDbCircle
 10
56.92851448059082
 20
1.375
 30
0.0
 40
3.9714851379394531
100
AcDbArc
 50
354.58188248593751
 51
20.256064804031368
  0
LINE
  5
30F
100
AcDbEntity
  8
0
  6
CONTINUOUS
 62
               7
100
AcDbLine
 10
58.5
 20
1.0
 30
0.0
 11
68.5
 21
1.0
 31
0.0
  0
LINE
  5
310
100
AcDbEntity
  8
0
  6
CONTINUOUS
 62
               7
100
AcDbLine
 10
58.5
 20
-1.0
 30
0.0
 11
68.5
 21
-1.0
 31
0.0
  0
LINE
  5
311
100
AcDbEntity
  8
0
  6
CONTINUOUS
 62
               7
100
AcDbLine
 10
58.5
 20
8.0
 30
0.0
 11
58.5
 21
-8.0
 31
0.0
  0
LINE
  5
312
100
AcDbEntity
  8
0
  6
CONTINUOUS
 62
               7
100
AcDbLine
 10
78.0
 20
-0.7999999999999972
 30
0.0
 11
77.800000000000011
 21
-1.0
 31
0.0
  0
LINE
  5
313
100
AcDbEntity
  8
0
  6
CONTINUOUS
 62
               7
100
AcDbLine
 10
77.800000000000011
 20
1.0
 30
0.0
 11
78.0
 21
0.8000000000000114
 31
0.0
  0
LINE
  5
314
100
AcDbEntity
  8
0
  6
CONTINUOUS
 62
               7
100
AcDbLine
 10
78.0
 20
0.8000000000000114
 30
0.0
 11
78.0
 21
-0.7999999999999972
 31
0.0
  0
LINE
  5
315
100
AcDbEntity
  8
0
  6
CONTINUOUS
 62
               7
100
AcDbLine
 10
68.5
 20
-2.25
 30
0.0
 11
71.5
 21
-2.25
 31
0.0
  0
LINE
  5
316
100
AcDbEntity
  8
0
  6
CONTINUOUS
 62
               7
100
AcDbLine
 10
76.0
 20
-2.5
 30
0.0
 11
71.5
 21
-2.5
 31
0.0
  0
LINE
  5
317
100
AcDbEntity
  8
0
  6
CONTINUOUS
 62
               7
100
AcDbLine
 10
77.599999999999994
 20
-2.0
 30
0.0
 11
76.0
 21
-2.0
 31
0.0
  0
LINE
  5
318
100
AcDbEntity
  8
0
  6
CONTINUOUS
 62
               7
100
AcDbLine
 10
77.599999999999994
 20
2.0
 30
0.0
 11
76.0
 21
2.0
 31
0.0
  0
LINE
  5
319
100
AcDbEntity
  8
0
  6
CONTINUOUS
 62
               7
100
AcDbLine
 10
77.599999999999994
 20
2.0
 30
0.0
 11
77.599999999999994
 21
-2.0
 31
0.0
  0
LINE
  5
31A
100
AcDbEntity
  8
0
  6
CONTINUOUS
 62
               7
100
AcDbLine
 10
76.0
 20
2.5
 30
0.0
 11
71.5
 21
2.5
 31
0.0
  0
LINE
  5
31B
100
AcDbEntity
  8
0
  6
CONTINUOUS
 62
               7
100
AcDbLine
 10
71.5
 20
2.5
 30
0.0
 11
71.5
 21
-2.5
 31
0.0
  0
LINE
  5
31C
100
AcDbEntity
  8
0
  6
CONTINUOUS
 62
               7
100
AcDbLine
 10
76.0
 20
2.5
 30
0.0
 11
76.0
 21
-2.5
 31
0.0
  0
LINE
  5
31D
100
AcDbEntity
  8
0
  6
CONTINUOUS
 62
               7
100
AcDbLine
 10
68.5
 20
2.25
 30
0.0
 11
71.5
 21
2.25
 31
0.0
  0
LINE
  5
31E
100
AcDbEntity
  8
0
  6
CONTINUOUS
 62
               7
100
AcDbLine
 10
68.5
 20
2.25
 30
0.0
 11
68.5
 21
-2.25
 31
0.0
  0
LINE
  5
31F
100
AcDbEntity
  8
0
  6
CONTINUOUS
 62
               7
100
AcDbLine
 10
77.599999999999994
 20
1.0
 30
0.0
 11
77.800000000000011
 21
1.0
 31
0.0
  0
LINE
  5
320
100
AcDbEntity
  8
0
  6
CONTINUOUS
 62
               7
100
AcDbLine
 10
77.599999999999994
 20
-1.0
 30
0.0
 11
77.800000000000011
 21
-1.0
 31
0.0
  0
LINE
  5
321
100
AcDbEntity
  8
0
  6
CONTINUOUS
 62
               7
100
AcDbLine
 10
75.613248654051858
 20
0.0
 30
0.0
 11
71.5
 21
0.0
 31
0.0
  0
LINE
  5
322
100
AcDbEntity
  8
0
  6
CONTINUOUS
 62
               7
100
AcDbLine
 10
76.178632794954098
 20
-0.0000000000000568
 30
0.0
 11
77.421367205045897
 21
-0.0000000000000568
 31
0.0
  0
LINE
  5
323
100
AcDbEntity
  8
0
  6
CONTINUOUS
 62
               7
100
AcDbLine
 10
77.800000000000011
 20
1.0
 30
0.0
 11
77.800000000000011
 21
-1.0
 31
0.0
  0
LINE
  5
324
100
AcDbEntity
  8
0
  6
CONTINUOUS
 62
               7
100
AcDbLine
 10
59.399999999999991
 20
2.5999999999999943
 30
0.0
 11
58.5
 21
2.5999999999999943
 31
0.0
  0
LINE
  5
325
100
AcDbEntity
  8
0
  6
CONTINUOUS
 62
               7
100
AcDbLine
 10
59.40000000000002
 20
6.4000000000000057
 30
0.0
 11
58.5
 21
6.4000000000000057
 31
0.0
  0
LINE
  5
326
100
AcDbEntity
  8
0
  6
CONTINUOUS
 62
               7
100
AcDbLine
 10
59.700000000000003
 20
2.9000000000000057
 30
0.0
 11
59.399999999999991
 21
2.5999999999999943
 31
0.0
  0
LINE
  5
327
100
AcDbEntity
  8
0
  6
CONTINUOUS
 62
               7
100
AcDbLine
 10
59.700000000000003
 20
6.0999999999999943
 30
0.0
 11
59.40000000000002
 21
6.4000000000000057
 31
0.0
  0
LINE
  5
328
100
AcDbEntity
  8
0
  6
CONTINUOUS
 62
               7
100
AcDbLine
 10
59.700000000000003
 20
6.0999999999999943
 30
0.0
 11
59.700000000000003
 21
2.9000000000000057
 31
0.0
  0
LINE
  5
329
100
AcDbEntity
  8
0
  6
CONTINUOUS
 62
               7
100
AcDbLine
 10
59.40000000000002
 20
6.4000000000000057
 30
0.0
 11
59.399999999999991
 21
2.5999999999999943
 31
0.0
  0
LINE
  5
32A
100
AcDbEntity
  8
0
  6
CONTINUOUS
 62
               7
100
AcDbLine
 10
59.399999999999991
 20
-2.5999999999999943
 30
0.0
 11
58.5
 21
-2.5999999999999943
 31
0.0
  0
LINE
  5
32B
100
AcDbEntity
  8
0
  6
CONTINUOUS
 62
               7
100
AcDbLine
 10
59.40000000000002
 20
-6.4000000000000057
 30
0.0
 11
58.5
 21
-6.4000000000000057
 31
0.0
  0
LINE
  5
32C
100
AcDbEntity
  8
0
  6
CONTINUOUS
 62
               7
100
AcDbLine
 10
59.700000000000003
 20
-2.9000000000000057
 30
0.0
 11
59.399999999999991
 21
-2.5999999999999943
 31
0.0
  0
LINE
  5
32D
100
AcDbEntity
  8
0
  6
CONTINUOUS
 62
               7
100
AcDbLine
 10
59.700000000000003
 20
-6.0999999999999943
 30
0.0
 11
59.40000000000002
 21
-6.4000000000000057
 31
0.0
  0
LINE
  5
32E
100
AcDbEntity
  8
0
  6
CONTINUOUS
 62
               7
100
AcDbLine
 10
59.700000000000003
 20
-6.0999999999999943
 30
0.0
 11
59.700000000000003
 21
-2.9000000000000057
 31
0.0
  0
LINE
  5
32F
100
AcDbEntity
  8
0
  6
CONTINUOUS
 62
               7
100
AcDbLine
 10
59.40000000000002
 20
-6.4000000000000057
 30
0.0
 11
59.399999999999991
 21
-2.5999999999999943
 31
0.0
  0
LINE
  5
330
100
AcDbEntity
  8
0
  6
CONTINUOUS
 62
               7
100
AcDbLine
 10
52.0
 20
-8.0
 30
0.0
 11
58.5
 21
-8.0
 31
0.0
  0
LINE
  5
331
100
AcDbEntity
  8
0
  6
CONTINUOUS
 62
               7
100
AcDbLine
 10
52.0
 20
8.0
 30
0.0
 11
58.5
 21
8.0
 31
0.0
  0
SPLINE
  5
332
100
AcDbEntity
  8
0
  6
CONTINUOUS
 62
               7
100
AcDbSpline
210
0.0
220
0.0
230
1.0
 70
               0
 71
               3
 72
               0
 73
               0
 74
               5
 44
0.000001
 12
0.5262037021178121
 22
-0.8503585501878069
 32
0.0
 13
-0.5262037021178122
 23
-0.8503585501878068
 33
0.0
 11
75.613248654051858
 21
2.5
 31
0.0
 11
75.892689116051059
 21
1.9007506718460481
 31
0.0
 11
76.0
 21
1.25
 31
0.0
 11
75.892689116051059
 21
0.5992493281539522
 31
0.0
 11
75.613248654051858
 21
0.0000000000000002
 31
0.0
  0
SPLINE
  5
333
100
AcDbEntity
  8
0
  6
CONTINUOUS
 62
               7
100
AcDbSpline
210
0.0
220
0.0
230
1.0
 70
               0
 71
               3
 72
               0
 73
               0
 74
               5
 44
0.000001
 12
0.5262037021178121
 22
-0.8503585501878069
 32
0.0
 13
-0.5262037021178122
 23
-0.8503585501878068
 33
0.0
 11
75.613248654051858
 21
0.0
 31
0.0
 11
75.892689116051059
 21
-0.599249328153952
 31
0.0
 11
76.0
 21
-1.25
 31
0.0
 11
75.892689116051059
 21
-1.9007506718460478
 31
0.0
 11
75.613248654051858
 21
-2.5
 31
0.0
  0
SPLINE
  5
334
100
AcDbEntity
  8
0
  6
CONTINUOUS
 62
               7
100
AcDbSpline
210
0.0
220
0.0
230
1.0
 70
               0
 71
               3
 72
               0
 73
               0
 74
               5
 44
0.000001
 12
0.3364388986559677
 22
-0.9417052975698711
 32
0.0
 13
-0.3364388986559636
 23
-0.9417052975698725
 33
0.0
 11
77.421367205045897
 21
2.0
 31
0.0
 11
77.553404174417111
 21
1.5081352370579029
 31
0.0
 11
77.599999999999994
 21
1.0
 31
0.0
 11
77.553404174417111
 21
0.4918647629420685
 31
0.0
 11
77.421367205045897
 21
-0.0000000000000568
 31
0.0
  0
SPLINE
  5
335
100
AcDbEntity
  8
0
  6
CONTINUOUS
 62
               7
100
AcDbSpline
210
0.0
220
0.0
230
1.0
 70
               0
 71
               3
 72
               0
 73
               0
 74
               5
 44
0.000001
 12
0.3364388986559804
 22
-0.9417052975698665
 32
0.0
 13
-0.3364388986559803
 23
-0.9417052975698667
 33
0.0
 11
77.421367205045897
 21
-0.0000000000000568
 31
0.0
 11
77.553404174417111
 21
-0.4918647629421254
 31
0.0
 11
77.599999999999994
 21
-1.0
 31
0.0
 11
77.553404174417111
 21
-1.5081352370579033
 31
0.0
 11
77.421367205045897
 21
-2.0
 31
0.0
  0
SPLINE
  5
336
100
AcDbEntity
  8
0
  6
CONTINUOUS
 62
               7
100
AcDbSpline
210
0.0
220
0.0
230
1.0
 70
               0
 71
               3
 72
               0
 73
               0
 74
               5
 44
0.000001
 12
-0.3364388986559676
 22
-0.9417052975698712
 32
0.0
 13
0.3364388986559635
 23
-0.9417052975698727
 33
0.0
 11
76.178632794954098
 21
2.0
 31
0.0
 11
76.046595825582884
 21
1.5081352370579029
 31
0.0
 11
76.0
 21
1.0
 31
0.0
 11
76.046595825582884
 21
0.4918647629420685
 31
0.0
 11
76.178632794954098
 21
-0.0000000000000568
 31
0.0
  0
SPLINE
  5
337
100
AcDbEntity
  8
0
  6
CONTINUOUS
 62
               7
100
AcDbSpline
210
0.0
220
0.0
230
1.0
 70
               0
 71
               3
 72
               0
 73
               0
 74
               5
 44
0.000001
 12
-0.3364388986559803
 22
-0.9417052975698667
 32
0.0
 13
0.3364388986559804
 23
-0.9417052975698665
 33
0.0
 11
76.178632794954098
 21
-0.0000000000000568
 31
0.0
 11
76.046595825582884
 21
-0.4918647629421254
 31
0.0
 11
76.0
 21
-1.0
 31
0.0
 11
76.046595825582884
 21
-1.5081352370579033
 31
0.0
 11
76.178632794954098
 21
-2.0
 31
0.0
  0
LINE
  5
338
100
AcDbEntity
  8
0
  6
CONTINUOUS
 62
               7
100
AcDbLine
 10
0.0
 20
-9.0
 30
0.0
 11
52.0
 21
-9.0
 31
0.0
  0
LINE
  5
339
100
AcDbEntity
  8
0
  6
CONTINUOUS
 62
               7
100
AcDbLine
 10
0.0
 20
9.0
 30
0.0
 11
52.0
 21
9.0
 31
0.0
  0
LINE
  5
33A
100
AcDbEntity
  8
0
  6
CONTINUOUS
 62
               7
100
AcDbLine
 10
52.0
 20
9.0
 30
0.0
 11
52.0
 21
-9.0
 31
0.0
  0
LINE
  5
33B
100
AcDbEntity
  8
0
  6
CONTINUOUS
 62
               7
100
AcDbLine
 10
18.0
 20
8.5
 30
0.0
 11
18.0
 21
-8.4999999863093905
 31
0.0
  0
LINE
  5
33C
100
AcDbEntity
  8
0
  6
CONTINUOUS
 62
               7
100
AcDbLine
 10
17.999999975856099
 20
8.4999999863093905
 30
0.0
 11
52.0
 21
8.4999999863093905
 31
0.0
  0
LINE
  5
33D
100
AcDbEntity
  8
0
  6
CENTER
 62
               2
100
AcDbLine
 10
-4.0
 20
0.0
 30
0.0
 11
79.398968991569916
 21
0.0
 31
0.0
  0
LINE
  5
33E
100
AcDbEntity
  8
0
  6
CONTINUOUS
 62
               7
100
AcDbLine
 10
17.999999975856099
 20
-8.4999999863093905
 30
0.0
 11
52.0
 21
-8.4999999863093905
 31
0.0
  0
LINE
  5
33F
100
AcDbEntity
  8
0
  6
CONTINUOUS
 62
               2
100
AcDbLine
 10
35.299999999999997
 20
-6.0
 30
0.0
 11
30.699999999999989
 21
-6.0
 31
0.0
  0
LINE
  5
340
100
AcDbEntity
  8
0
  6
CONTINUOUS
 62
               2
100
AcDbLine
 10
33.0
 20
-3.7000000000000028
 30
0.0
 11
33.0
 21
-8.2999999999999972
 31
0.0
  0
LINE
  5
341
100
AcDbEntity
  8
0
  6
CONTINUOUS
 62
               2
100
AcDbLine
 10
35.299999999999997
 20
6.0
 30
0.0
 11
30.699999999999989
 21
6.0
 31
0.0
  0
LINE
  5
342
100
AcDbEntity
  8
0
  6
CONTINUOUS
 62
               2
100
AcDbLine
 10
33.0
 20
8.5499999999999972
 30
0.0
 11
33.0
 21
3.4500000000000028
 31
0.0
  0
CIRCLE
  5
343
100
AcDbEntity
  8
0
  6
CONTINUOUS
 62
               2
100
AcDbCircle
 10
25.0
 20
6.5
 30
0.0
 40
1.25
  0
CIRCLE
  5
344
100
AcDbEntity
  8
0
  6
CONTINUOUS
 62
               7
100
AcDbCircle
 10
25.0
 20
6.5
 30
0.0
 40
1.05
  0
LINE
  5
345
100
AcDbEntity
  8
0
  6
CONTINUOUS
 62
               2
100
AcDbLine
 10
25.0
 20
8.5499999999999972
 30
0.0
 11
25.0
 21
4.4500000000000028
 31
0.0
  0
LINE
  5
346
100
AcDbEntity
  8
0
  6
CONTINUOUS
 62
               2
100
AcDbLine
 10
22.949999999999989
 20
6.5
 30
0.0
 11
27.050000000000011
 21
6.5
 31
0.0
  0
CIRCLE
  5
347
100
AcDbEntity
  8
0
  6
CONTINUOUS
 62
               2
100
AcDbCircle
 10
25.0
 20
-6.5
 30
0.0
 40
1.25
  0
CIRCLE
  5
348
100
AcDbEntity
  8
0
  6
CONTINUOUS
 62
               7
100
AcDbCircle
 10
25.0
 20
-6.5
 30
0.0
 40
1.05
  0
LINE
  5
349
100
AcDbEntity
  8
0
  6
CONTINUOUS
 62
               2
100
AcDbLine
 10
25.0
 20
-4.4500000000000028
 30
0.0
 11
25.0
 21
-8.5499999999999972
 31
0.0
  0
LINE
  5
34A
100
AcDbEntity
  8
0
  6
CONTINUOUS
 62
               2
100
AcDbLine
 10
22.949999999999989
 20
-6.5
 30
0.0
 11
27.050000000000011
 21
-6.5
 31
0.0
  0
CIRCLE
  5
34B
100
AcDbEntity
  8
0
  6
CONTINUOUS
 62
               2
100
AcDbCircle
 10
41.0
 20
-6.5
 30
0.0
 40
1.25
  0
CIRCLE
  5
34C
100
AcDbEntity
  8
0
  6
CONTINUOUS
 62
               7
100
AcDbCircle
 10
41.0
 20
-6.5
 30
0.0
 40
1.05
  0
LINE
  5
34D
100
AcDbEntity
  8
0
  6
CONTINUOUS
 62
               2
100
AcDbLine
 10
41.0
 20
-4.4500000000000028
 30
0.0
 11
41.0
 21
-8.5499999999999972
 31
0.0
  0
LINE
  5
34E
100
AcDbEntity
  8
0
  6
CONTINUOUS
 62
               2
100
AcDbLine
 10
38.949999999999989
 20
-6.5
 30
0.0
 11
43.050000000000011
 21
-6.5
 31
0.0
  0
CIRCLE
  5
34F
100
AcDbEntity
  8
0
  6
CONTINUOUS
 62
               2
100
AcDbCircle
 10
41.0
 20
6.5
 30
0.0
 40
1.25
  0
CIRCLE
  5
350
100
AcDbEntity
  8
0
  6
CONTINUOUS
 62
               7
100
AcDbCircle
 10
41.0
 20
6.5
 30
0.0
 40
1.05
  0
LINE
  5
351
100
AcDbEntity
  8
0
  6
CONTINUOUS
 62
               2
100
AcDbLine
 10
41.0
 20
8.5499999999999972
 30
0.0
 11
41.0
 21
4.4500000000000028
 31
0.0
  0
LINE
  5
352
100
AcDbEntity
  8
0
  6
CONTINUOUS
 62
               2
100
AcDbLine
 10
38.949999999999989
 20
6.5
 30
0.0
 11
43.050000000000011
 21
6.5
 31
0.0
  0
LINE
  5
353
100
AcDbEntity
  8
0
  6
CONTINUOUS
 62
               7
100
AcDbLine
 10
18.0
 20
-2.7000000000000028
 30
0.0
 11
52.0
 21
-2.7000000000000028
 31
0.0
  0
LINE
  5
354
100
AcDbEntity
  8
0
  6
CONTINUOUS
 62
               7
100
AcDbLine
 10
18.0
 20
-2.4000000000000057
 30
0.0
 11
52.0
 21
-2.4000000000000057
 31
0.0
  0
LINE
  5
355
100
AcDbEntity
  8
0
  6
CONTINUOUS
 62
               7
100
AcDbLine
 10
18.0
 20
2.7000000000000028
 30
0.0
 11
52.0
 21
2.7000000000000028
 31
0.0
  0
LINE
  5
356
100
AcDbEntity
  8
0
  6
CONTINUOUS
 62
               7
100
AcDbLine
 10
18.0
 20
2.4000000000000057
 30
0.0
 11
52.0
 21
2.4000000000000057
 31
0.0
  0
CIRCLE
  5
357
100
AcDbEntity
  8
0
  6
CONTINUOUS
 62
               7
100
AcDbCircle
 10
33.0
 20
-6.0
 30
0.0
 40
1.5
  0
ARC
  5
358
100
AcDbEntity
  8
0
  6
CONTINUOUS
 62
               7
100
AcDbCircle
 10
33.0
 20
6.25
 30
0.0
 40
1.5
100
AcDbArc
 50
0.0
 51
180.0
  0
ARC
  5
359
100
AcDbEntity
  8
0
  6
CONTINUOUS
 62
               7
100
AcDbCircle
 10
33.0
 20
5.75
 30
0.0
 40
1.5
100
AcDbArc
 50
180.0
 51
0.0
  0
LINE
  5
35A
100
AcDbEntity
  8
0
  6
CONTINUOUS
 62
               7
100
AcDbLine
 10
31.5
 20
6.25
 30
0.0
 11
31.5
 21
5.75
 31
0.0
  0
LINE
  5
35B
100
AcDbEntity
  8
0
  6
CONTINUOUS
 62
               7
100
AcDbLine
 10
34.5
 20
6.25
 30
0.0
 11
34.5
 21
5.75
 31
0.0
  0
LINE
  5
35C
100
AcDbEntity
  8
0
  6
CONTINUOUS
 62
               2
100
AcDbLine
 10
-2.0
 20
6.0
 30
0.0
 11
2.0
 21
6.0
 31
0.0
  0
LINE
  5
35D
100
AcDbEntity
  8
0
  6
CONTINUOUS
 62
               2
100
AcDbLine
 10
-2.0
 20
-6.0
 30
0.0
 11
2.0
 21
-6.0
 31
0.0
  0
LINE
  5
35E
100
AcDbEntity
  8
0
  6
PHANTOM
 62
               3
100
AcDbLine
 10
65.801160484541583
 20
16.477576433718042
 30
0.0
 11
65.801160484541583
 21
-18.601426406647875
 31
0.0
  0
ENDBLK
  5
35F
100
AcDbEntity
  8
0
100
AcDbBlockEnd
  0
ENDSEC
  0
SECTION
  2
ENTITIES
  0
INSERT
  5
360
100
AcDbEntity
  8
0
  6
ByBlock
100
AcDbBlockReference
  2
MGAEG4_5-6
 10
-30.0
 20
-70.0
 30
0.0
  0
INSERT
  5
361
100
AcDbEntity
  8
0
  6
ByBlock
100
AcDbBlockReference
  2
MGAEG4_5-5
 10
-30.0
 20
-30.0
 30
0.0
  0
INSERT
  5
362
100
AcDbEntity
  8
0
  6
ByBlock
100
AcDbBlockReference
  2
MGAEG4_5-4
 10
-30.0
 20
90.0
 30
0.0
  0
INSERT
  5
363
100
AcDbEntity
  8
0
  6
ByBlock
100
AcDbBlockReference
  2
MGAEG4_5-3
 10
110.0
 20
30.0
 30
0.0
  0
INSERT
  5
364
100
AcDbEntity
  8
0
  6
ByBlock
100
AcDbBlockReference
  2
MGAEG4_5-2
 10
-90.0
 20
30.0
 30
0.0
 50
359.99999949630234
  0
INSERT
  5
365
100
AcDbEntity
  8
0
  6
ByBlock
100
AcDbBlockReference
  2
MGAEG4_5-1
 10
-30.0
 20
30.0
 30
0.0
  0
MTEXT
  5
366
100
AcDbEntity
  8
0
  6
CONTINUOUS
 62
               7
100
AcDbMText
 10
-266.0
 20
-181.0
 30
0.0
 40
4.5
 41
0.0
 71
               4
 72
               1
  1
\A1;STRETCH
  0
MTEXT
  5
367
100
AcDbEntity
  8
0
  6
CONTINUOUS
 62
               7
100
AcDbMText
 10
-263.75
 20
-173.0
 30
0.0
 40
4.5
 41
0.0
 71
               4
 72
               1
  1
\A1;STROKE
  0
MTEXT
  5
368
100
AcDbEntity
  8
0
  6
CONTINUOUS
 62
               3
100
AcDbMText
 10
-1.5285050705636394
 20
134.16416554372597
 30
0.0
 40
4.5
 41
0.0
 71
               4
 72
               1
  1
\W1.065;\A1;STRETCH LINE
  0
MTEXT
  5
369
100
AcDbEntity
  8
0
  6
CONTINUOUS
 62
               7
100
AcDbMText
 10
-230.42307598666696
 20
150.5
 30
0.0
 40
6.3000001907348633
 41
0.0
 71
               4
 72
               1
  1
\W1.121;\A1;MGAEG4.5*st(10)-L
  0
MTEXT
  5
36A
100
AcDbEntity
  8
0
  6
CONTINUOUS
 62
               7
100
AcDbMText
 10
-260.57535750936108
 20
-163.44223545487409
 30
0.0
 40
4.5
 41
0.0
 71
               4
 72
               1
  1
\W1.065;\A1;STRETCH LINE
  0
LINE
  5
36B
100
AcDbEntity
  8
0
  6
CONTINUOUS
 62
               7
100
AcDbLine
 10
-271.25
 20
-169.0
 30
0.0
 11
-200.75
 21
-169.0
 31
0.0
  0
LINE
  5
36C
100
AcDbEntity
  8
0
  6
CONTINUOUS
 62
               7
100
AcDbLine
 10
-271.25
 20
-185.0
 30
0.0
 11
-271.25
 21
-169.0
 31
0.0
  0
MTEXT
  5
36D
100
AcDbEntity
  8
0
  6
CONTINUOUS
 62
               7
100
AcDbMText
 10
-224.75
 20
-173.0
 30
0.0
 40
4.5
 41
0.0
 71
               4
 72
               1
  1
\A1;5
  0
MTEXT
  5
36E
100
AcDbEntity
  8
0
  6
CONTINUOUS
 62
               7
100
AcDbMText
 10
-211.75
 20
-173.0
 30
0.0
 40
4.5
 41
0.0
 71
               4
 72
               1
  1
\W1.333;\A1;10
  0
MTEXT
  5
36F
100
AcDbEntity
  8
0
  6
CONTINUOUS
 62
               7
100
AcDbMText
 10
-227.0
 20
-181.0
 30
0.0
 40
4.5
 41
0.0
 71
               4
 72
               1
  1
\A1;-5
  0
MTEXT
  5
370
100
AcDbEntity
  8
0
  6
CONTINUOUS
 62
               7
100
AcDbMText
 10
-209.59999997854231
 20
-181.0
 30
0.0
 40
4.5
 41
0.0
 71
               4
 72
               1
  1
\W1.200;\A1;0
  0
LINE
  5
371
100
AcDbEntity
  8
0
  6
CONTINUOUS
 62
               7
100
AcDbLine
 10
-200.75
 20
-185.0
 30
0.0
 11
-200.75
 21
-169.0
 31
0.0
  0
LINE
  5
372
100
AcDbEntity
  8
0
  6
CONTINUOUS
 62
               7
100
AcDbLine
 10
-215.75
 20
-185.0
 30
0.0
 11
-215.75
 21
-169.0
 31
0.0
  0
LINE
  5
373
100
AcDbEntity
  8
0
  6
CONTINUOUS
 62
               7
100
AcDbLine
 10
-230.75
 20
-185.0
 30
0.0
 11
-230.75
 21
-169.0
 31
0.0
  0
LINE
  5
374
100
AcDbEntity
  8
0
  6
CONTINUOUS
 62
               7
100
AcDbLine
 10
-271.25
 20
-185.0
 30
0.0
 11
-200.75
 21
-185.0
 31
0.0
  0
LINE
  5
375
100
AcDbEntity
  8
0
  6
CONTINUOUS
 62
               7
100
AcDbLine
 10
-271.25
 20
-177.0
 30
0.0
 11
-200.75
 21
-177.0
 31
0.0
  0
MTEXT
  5
376
100
AcDbEntity
  8
0
  6
CONTINUOUS
 62
               7
100
AcDbMText
 10
-273.59932894557409
 20
189.625
 30
0.0
 40
6.3000001907348633
 41
0.0
 71
               4
 72
               1
  1
\W1.143;\A1;MINI GUIDE SLIDER
  0
MTEXT
  5
377
100
AcDbEntity
  8
0
  6
CONTINUOUS
 62
               7
100
AcDbMText
 10
-245.30454618435752
 20
182.125
 30
0.0
 40
6.3000001907348633
 41
0.0
 71
               4
 72
               1
  1
\W1.091;\A1;MGAEG4.5
  0
LINE
  5
378
100
AcDbEntity
  8
0
  6
CONTINUOUS
 62
               7
100
AcDbLine
 10
-281.25
 20
175.5
 30
0.0
 11
-161.25
 21
175.5
 31
0.0
  0
LINE
  5
379
100
AcDbEntity
  8
0
  6
CONTINUOUS
 62
               7
100
AcDbLine
 10
-161.25
 20
195.5
 30
0.0
 11
-161.25
 21
175.5
 31
0.0
  0
LINE
  5
37A
100
AcDbEntity
  8
0
  6
CONTINUOUS
 62
               7
100
AcDbLine
 10
162.0999755859375
 20
-175.0
 30
0.0
 11
162.0999755859375
 21
-195.0
 31
0.0
  0
LINE
  5
37B
100
AcDbEntity
  8
0
  6
CONTINUOUS
 62
               7
100
AcDbLine
 10
162.0999755859375
 20
-175.0
 30
0.0
 11
282.099853515625
 21
-175.0
 31
0.0
  0
MTEXT
  5
37C
100
AcDbEntity
  8
0
  6
CONTINUOUS
 62
               7
100
AcDbMText
 10
170.28101006437726
 20
-185.0
 30
0.0
 40
9.0
 41
0.0
 71
               4
 72
               1
  1
\W1.121;\A1;KOGANEI CORP.
  0
MTEXT
  5
37D
100
AcDbEntity
  8
0
  6
CONTINUOUS
 62
               7
100
AcDbMText
 10
198.2770240315611
 20
185.5
 30
0.0
 40
6.3000001907348633
 41
0.0
 71
               4
 72
               1
  1
\W1.311;\A1;Ver. 1.0
  0
LINE
  5
37E
100
AcDbEntity
  8
0
  6
CONTINUOUS
 62
               7
100
AcDbLine
 10
162.0999755859375
 20
175.5
 30
0.0
 11
282.099853515625
 21
175.5
 31
0.0
  0
LINE
  5
37F
100
AcDbEntity
  8
0
  6
CONTINUOUS
 62
               7
100
AcDbLine
 10
162.0999755859375
 20
195.5
 30
0.0
 11
162.0999755859375
 21
175.5
 31
0.0
  0
LINE
  5
380
100
AcDbEntity
  8
0
  6
CONTINUOUS
 62
               7
100
AcDbLine
 10
282.099853515625
 20
195.5
 30
0.0
 11
282.099853515625
 21
-195.0
 31
0.0
  0
LINE
  5
381
100
AcDbEntity
  8
0
  6
CONTINUOUS
 62
               7
100
AcDbLine
 10
-281.25
 20
195.5
 30
0.0
 11
282.099853515625
 21
195.5
 31
0.0
  0
LINE
  5
382
100
AcDbEntity
  8
0
  6
CONTINUOUS
 62
               7
100
AcDbLine
 10
-281.25
 20
195.5
 30
0.0
 11
-281.25
 21
-195.0
 31
0.0
  0
LINE
  5
383
100
AcDbEntity
  8
0
  6
CONTINUOUS
 62
               7
100
AcDbLine
 10
-281.25
 20
-195.0
 30
0.0
 11
282.099853515625
 21
-195.0
 31
0.0
  0
MTEXT
  5
384
100
AcDbEntity
  8
0
  6
CONTINUOUS
 62
               7
100
AcDbMText
 10
-268.221951282639
 20
160.5
 30
0.0
 40
6.3000001907348633
 41
0.0
 71
               4
 72
               1
  1
\W1.122;\A1;MODEL:MGAEG4.5*st(10)-R
  0
ENDSEC
  0
SECTION
  2
OBJECTS
  0
DICTIONARY
  5
19
100
AcDbDictionary
  3
ACAD_GROUP
350
1A
  3
ACAD_MLINESTYLE
350
1B
  0
DICTIONARY
  5
1A
102
{ACAD_REACTORS
330
19
102
}
100
AcDbDictionary
  0
DICTIONARY
  5
1B
102
{ACAD_REACTORS
330
19
102
}
100
AcDbDictionary
  3
STANDARD
350
1C
  0
MLINESTYLE
  5
1C
102
{ACAD_REACTORS
330
1B
102
}
100
AcDbMlineStyle
  2
Standard
 70
               0
  3

 62
               0
 51
90.0
 52
90.0
 71
               2
 49
0.5
 62
             256
  6
ByLayer
 49
-0.5
 62
             256
  6
ByLayer
  0
ENDSEC
  0
EOF
