  0
SECTION
  2
HEADER
  0
ENDSEC
  0
SECTION
  2
TABLES
  0
TABLE
  2
LTYPE
 70
     4
  0
LTYPE
  2
CONTINUOUS
 70
    64
  3
Solid line
 72
    65
 73
     0
 40
0.000000
  0
LTYPE
  2
DASHED
 70
    64
  3
__ __ __ __ __ __ __ __ __ __ __ __ __ __ __
 72
    65
 73
     2
 40
3.500000
 49
2.000000
 49
-1.500000
  0
LTYPE
  2
CENTER
 70
    64
  3
____ _ ____ _ ____ _ ____ _ ____ _ ____ _ ____
 72
    65
 73
     4
 40
17.500000
 49
13.000000
 49
-1.500000
 49
1.500000
 49
-1.500000
  0
LTYPE
  2
PHANTOM
 70
    64
  3
_____ _ _ _____ _ _ _____ _ _ _____ _ _ ____  
 72
    65
 73
     6
 40
15.500000
 49
8.000000
 49
-1.500000
 49
1.500000
 49
-1.500000
 49
1.500000
 49
-1.500000
  0
LTYPE
  2
DASHED1
 70
    64
  3
__ __ __ __ __ __ __ __ __ __ __ __ __ __ __
 72
    65
 73
     2
 40
1.500000
 49
1.000000
 49
-0.500000
  0
LTYPE
  2
DASHED2
 70
    64
  3
__ __ __ __ __ __ __ __ __ __ __ __ __ __ __
 72
    65
 73
     2
 40
3.500000
 49
2.500000
 49
-1.000000
  0
LTYPE
  2
DASHED3
 70
    64
  3
__ __ __ __ __ __ __ __ __ __ __ __ __ __ __
 72
    65
 73
     2
 40
6.000000
 49
4.000000
 49
-2.000000
  0
LTYPE
  2
DASHED4
 70
    64
  3
__ __ __ __ __ __ __ __ __ __ __ __ __ __ __
 72
    65
 73
     2
 40
12.000000
 49
10.000000
 49
-2.000000
  0
LTYPE
  2
DASHED5
 70
    64
  3
__ __ __ __ __ __ __ __ __ __ __ __ __ __ __
 72
    65
 73
     2
 40
17.000000
 49
15.000000
 49
-2.000000
  0
LTYPE
  2
DASHED6
 70
    64
  3
__ __ __ __ __ __ __ __ __ __ __ __ __ __ __
 72
    65
 73
     2
 40
29.000000
 49
27.000000
 49
-2.000000
  0
LTYPE
  2
PHANTOM1
 70
    64
  3
_____ _ _ _____ _ _ _____ _ _ _____ _ _ ____  
 72
    65
 73
     6
 40
31.000000
 49
25.000000
 49
-1.500000
 49
1.000000
 49
-1.000000
 49
1.000000
 49
-1.500000
  0
LTYPE
  2
PHANTOM2
 70
    64
  3
_____ _ _ _____ _ _ _____ _ _ _____ _ _ ____  
 72
    65
 73
     6
 40
36.000000
 49
27.000000
 49
-1.500000
 49
2.500000
 49
-1.000000
 49
2.500000
 49
-1.500000
  0
LTYPE
  2
PHANTOM3
 70
    64
  3
_____ _ _ _____ _ _ _____ _ _ _____ _ _ ____  
 72
    65
 73
     6
 40
78.000000
 49
64.000000
 49
-2.000000
 49
4.000000
 49
-2.000000
 49
4.000000
 49
-2.000000
  0
LTYPE
  2
CENTER1
 70
    64
  3
____ _ ____ _ ____ _ ____ _ ____ _ ____ _ ____
 72
    65
 73
     4
 40
19.000000
 49
14.000000
 49
-1.000000
 49
3.000000
 49
-1.000000
  0
LTYPE
  2
CENTER2
 70
    64
  3
____ _ ____ _ ____ _ ____ _ ____ _ ____ _ ____
 72
    65
 73
     4
 40
28.500000
 49
25.000000
 49
-1.000000
 49
1.500000
 49
-1.000000
  0
LTYPE
  2
CENTER3
 70
    64
  3
____ _ ____ _ ____ _ ____ _ ____ _ ____ _ ____
 72
    65
 73
     4
 40
31.500000
 49
27.000000
 49
-1.000000
 49
2.500000
 49
-1.000000
  0
LTYPE
  2
CENTER4
 70
    64
  3
____ _ ____ _ ____ _ ____ _ ____ _ ____ _ ____
 72
    65
 73
     4
 40
50.000000
 49
45.000000
 49
-1.000000
 49
3.000000
 49
-1.000000
  0
LTYPE
  2
CENTER5
 70
    64
  3
____ _ ____ _ ____ _ ____ _ ____ _ ____ _ ____
 72
    65
 73
     4
 40
100.000000
 49
92.000000
 49
-2.000000
 49
4.000000
 49
-2.000000
  0
LTYPE
  2
SBK1
 70
    64
  3
______ _ _ _ ______ _ _ _ ______ _ _ _ _____  
 72
    65
 73
     8
 40
60.500000
 49
45.000000
 49
-2.000000
 49
2.500000
 49
-2.000000
 49
2.500000
 49
-2.000000
 49
2.500000
 49
-2.000000
  0
LTYPE
  2
SBK2
 70
    64
  3
______ _ _ _ ______ _ _ _ ______ _ _ _ _____  
 72
    65
 73
     8
 40
84.000000
 49
64.000000
 49
-2.000000
 49
4.000000
 49
-2.000000
 49
4.000000
 49
-2.000000
 49
4.000000
 49
-2.000000
  0
LTYPE
  2
STCH
 70
    64
  3
__ __ __ __ __ __ __ __ __ __ __ __ __ __ __
 72
    65
 73
     2
 40
3.000000
 49
1.000000
 49
-2.000000
  0
LTYPE
  2
MTCH
 70
    64
  3
_____ _ _ _____ _ _ _____ _ _ _____ _ _ ____  
 72
    65
 73
     6
 40
80.000000
 49
66.000000
 49
-2.000000
 49
4.000000
 49
-2.000000
 49
4.000000
 49
-2.000000
  0
ENDTAB
  0
TABLE
  2
LAYER
 70
     1
  0
LAYER
  2
0
 70
     0
 62
     7
  6
CONTINUOUS
  0
ENDTAB
  0
TABLE
  2
STYLE
 70
     1
  0
STYLE
  2
STANDARD
 70
     0
 40
0.000000
 41
1.000000
 50
0.000000
 71
     0
 42
0.200000
  3
txt
  4
BIGFONT
  0
ENDTAB
  0
TABLE
  2
VIEW
 70
     0
  0
ENDTAB
  0
ENDSEC
  0
SECTION
  2
BLOCKS
  0
ENDSEC
  0
SECTION
  2
ENTITIES
  0
LINE
  8
0
  6
CENTER
 62
     2
 10
15.471024
 20
84.623276
 11
-59.528976
 21
84.623276
  0
LINE
  8
0
 10
-52.528976
 20
69.623276
 11
-53.528976
 21
70.623276
  0
LINE
  8
0
 10
8.471015
 20
69.623268
 11
9.471014
 21
70.623268
  0
LINE
  8
0
 10
8.471015
 20
99.623291
 11
9.471016
 21
98.623283
  0
LINE
  8
0
 10
-52.528976
 20
99.623276
 11
-53.528976
 21
98.623276
  0
LINE
  8
0
 10
9.471024
 20
98.623276
 11
9.471024
 21
70.623276
  0
LINE
  8
0
 10
8.471024
 20
99.623276
 11
8.471024
 21
69.623276
  0
LINE
  8
0
 10
-53.528976
 20
98.623276
 11
-53.528976
 21
70.623276
  0
LINE
  8
0
 10
-52.528976
 20
99.623276
 11
-52.528976
 21
69.623276
  0
LINE
  8
0
 10
-52.528976
 20
69.623276
 11
8.471024
 21
69.623276
  0
LINE
  8
0
 10
-52.528976
 20
99.623276
 11
8.471024
 21
99.623276
  0
LINE
  8
0
 10
-53.528976
 20
98.623276
 11
9.471024
 21
98.623276
  0
LINE
  8
0
 10
-53.528976
 20
70.623276
 11
9.471024
 21
70.623276
  0
LINE
  8
0
  6
CENTER
 62
     2
 10
-22.028976
 20
122.123276
 11
-22.028976
 21
47.123276
  0
LINE
  8
0
 10
101.301086
 20
-128.908463
 11
95.641083
 21
-128.908463
  0
LINE
  8
0
 10
91.971085
 20
-121.308456
 11
104.971085
 21
-121.308456
  0
LINE
  8
0
 10
95.621086
 20
-123.708466
 11
95.621086
 21
-121.808456
  0
LINE
  8
0
 10
101.321083
 20
-123.708466
 11
101.321083
 21
-121.808456
  0
LINE
  8
0
 10
101.721077
 20
-123.908463
 11
101.301079
 21
-126.308456
  0
LINE
  8
0
 10
95.221100
 20
-123.908463
 11
95.641090
 21
-126.308456
  0
LINE
  8
0
 10
101.721085
 20
-123.908463
 11
101.721085
 21
-123.708466
  0
LINE
  8
0
 10
95.221085
 20
-123.908463
 11
95.221085
 21
-123.708466
  0
LINE
  8
0
 10
101.721085
 20
-126.508469
 11
95.221085
 21
-126.508469
  0
LINE
  8
0
 10
101.721085
 20
-123.908463
 11
95.221085
 21
-123.908463
  0
LINE
  8
0
 10
101.721085
 20
-123.708466
 11
95.221085
 21
-123.708466
  0
LINE
  8
0
 10
101.721085
 20
-126.308456
 11
95.221085
 21
-126.308456
  0
LINE
  8
0
 10
101.721085
 20
-126.508469
 11
101.721085
 21
-126.308456
  0
LINE
  8
0
 10
95.221085
 20
-126.508469
 11
95.221085
 21
-126.308456
  0
LINE
  8
0
 10
104.471085
 20
-121.808464
 11
104.971092
 21
-121.308464
  0
LINE
  8
0
 10
91.971085
 20
-121.308456
 11
92.471092
 21
-121.808456
  0
LINE
  8
0
 10
91.971085
 20
-121.308456
 11
91.971085
 21
-120.308456
  0
LINE
  8
0
 10
104.971085
 20
-121.308456
 11
104.971085
 21
-120.308456
  0
LINE
  8
0
 10
104.471085
 20
-121.808456
 11
92.471085
 21
-121.808456
  0
LINE
  8
0
 10
92.211082
 20
-119.808456
 11
91.461082
 21
-119.808456
  0
LINE
  8
0
 10
105.481087
 20
-119.808456
 11
104.731087
 21
-119.808456
  0
LINE
  8
0
 10
96.631088
 20
-119.808456
 11
94.811081
 21
-119.808456
  0
LINE
  8
0
 10
92.031082
 20
-119.308456
 11
92.211082
 21
-119.808464
  0
LINE
  8
0
 10
104.911079
 20
-119.308456
 11
104.731079
 21
-119.808456
  0
LINE
  8
0
 10
91.461082
 20
-119.808449
 11
90.871086
 21
-119.308456
  0
LINE
  8
0
 10
94.811089
 20
-119.808464
 11
94.161087
 21
-119.308456
  0
LINE
  8
0
 10
96.971100
 20
-119.308464
 11
96.631104
 21
-119.808464
  0
LINE
  8
0
 10
100.311073
 20
-119.808464
 11
99.971077
 21
-119.308464
  0
LINE
  8
0
 10
102.131065
 20
-119.808464
 11
102.791077
 21
-119.308456
  0
LINE
  8
0
 10
105.481087
 20
-119.808456
 11
106.071083
 21
-119.308464
  0
LINE
  8
0
 10
102.131088
 20
-119.808456
 11
100.311081
 21
-119.808456
  0
LINE
  8
0
 10
104.911087
 20
-119.308456
 11
102.791084
 21
-119.308456
  0
LINE
  8
0
 10
90.871086
 20
-119.308456
 11
90.721085
 21
-119.308456
  0
LINE
  8
0
 10
94.161087
 20
-119.308456
 11
92.031082
 21
-119.308456
  0
LINE
  8
0
 10
99.971085
 20
-119.308456
 11
96.971085
 21
-119.308456
  0
LINE
  8
0
 10
106.221085
 20
-119.308456
 11
106.071083
 21
-119.308456
  0
LINE
  8
0
 10
91.721085
 20
-120.308464
 11
90.721085
 21
-119.308464
  0
LINE
  8
0
 10
106.221085
 20
-119.308464
 11
105.221085
 21
-120.308464
  0
LINE
  8
0
 10
105.221085
 20
-120.308456
 11
91.721085
 21
-120.308456
  0
LINE
  8
0
 10
105.481079
 20
-110.098465
 11
106.071091
 21
-109.808464
  0
LINE
  8
0
 10
102.131088
 20
-110.098473
 11
102.791084
 21
-109.808472
  0
LINE
  8
0
 10
100.311096
 20
-110.098450
 11
99.971085
 21
-109.808449
  0
LINE
  8
0
 10
96.631073
 20
-110.098450
 11
96.971077
 21
-109.808456
  0
LINE
  8
0
 10
94.811089
 20
-110.098473
 11
94.151093
 21
-109.808464
  0
LINE
  8
0
 10
91.461098
 20
-110.098465
 11
90.871078
 21
-109.808456
  0
LINE
  8
0
 10
92.031082
 20
-110.098465
 11
91.461082
 21
-110.098465
  0
LINE
  8
0
 10
92.031082
 20
-109.808456
 11
90.871086
 21
-109.808456
  0
LINE
  8
0
 10
102.131088
 20
-110.098465
 11
100.311081
 21
-110.098465
  0
LINE
  8
0
 10
102.791084
 20
-109.808456
 11
99.971085
 21
-109.808456
  0
LINE
  8
0
 10
96.631088
 20
-110.098465
 11
94.811081
 21
-110.098465
  0
LINE
  8
0
 10
96.971085
 20
-109.808456
 11
94.161087
 21
-109.808456
  0
LINE
  8
0
 10
105.481087
 20
-110.098465
 11
104.911087
 21
-110.098465
  0
LINE
  8
0
 10
106.071083
 20
-109.808456
 11
104.911087
 21
-109.808456
  0
LINE
  8
0
 10
96.971085
 20
-109.808456
 11
96.971085
 21
-119.308456
  0
LINE
  8
0
 10
99.971085
 20
-109.808456
 11
99.971085
 21
-119.308456
  0
LINE
  8
0
 10
100.311081
 20
-110.098465
 11
100.311081
 21
-119.808456
  0
LINE
  8
0
 10
96.631088
 20
-110.098465
 11
96.631088
 21
-119.808456
  0
LINE
  8
0
 10
94.811081
 20
-110.098465
 11
94.811081
 21
-119.808456
  0
LINE
  8
0
 10
94.161087
 20
-109.808456
 11
94.161087
 21
-119.308456
  0
LINE
  8
0
 10
92.031082
 20
-109.808456
 11
92.031082
 21
-119.308456
  0
LINE
  8
0
 10
91.461082
 20
-110.098465
 11
91.461082
 21
-119.808456
  0
LINE
  8
0
 10
90.871086
 20
-109.808456
 11
90.871086
 21
-119.308456
  0
LINE
  8
0
 10
102.131088
 20
-110.098465
 11
102.131088
 21
-119.808456
  0
LINE
  8
0
 10
102.791084
 20
-109.808456
 11
102.791084
 21
-119.308456
  0
LINE
  8
0
 10
104.911087
 20
-109.808456
 11
104.911087
 21
-119.308456
  0
LINE
  8
0
 10
105.481087
 20
-110.098465
 11
105.481087
 21
-119.808456
  0
LINE
  8
0
 10
106.071083
 20
-109.808456
 11
106.071083
 21
-119.308456
  0
LINE
  8
0
 10
95.221085
 20
-126.508469
 11
95.641083
 21
-128.908463
  0
LINE
  8
0
 10
101.721085
 20
-126.508469
 11
101.301086
 21
-128.908463
  0
LINE
  8
0
 10
68.471092
 20
-22.228464
 11
67.471092
 21
-21.228460
  0
LINE
  8
0
 10
129.471069
 20
-21.228453
 11
128.471069
 21
-22.228456
  0
LINE
  8
0
 10
128.471085
 20
-1.228472
 11
129.471069
 21
-2.228460
  0
LINE
  8
0
 10
67.471092
 20
-2.228462
 11
68.471085
 21
-1.228473
  0
LINE
  8
0
 10
129.471085
 20
-2.228470
 11
129.471085
 21
-21.228470
  0
LINE
  8
0
 10
67.471085
 20
-2.228470
 11
67.471085
 21
-21.228470
  0
LINE
  8
0
 10
67.471085
 20
-2.228470
 11
129.471085
 21
-2.228470
  0
LINE
  8
0
 10
67.471085
 20
-21.228470
 11
129.471085
 21
-21.228470
  0
LINE
  8
0
 10
68.471085
 20
-22.228470
 11
128.471085
 21
-22.228470
  0
LINE
  8
0
 10
120.471085
 20
37.771530
 11
120.801079
 21
18.761534
  0
LINE
  8
0
 10
76.471085
 20
37.771530
 11
76.141090
 21
18.761532
  0
LINE
  8
0
  6
CENTER
 62
     2
 10
89.471085
 20
28.771530
 11
107.471085
 21
28.771530
  0
LINE
  8
0
 10
119.471077
 20
38.771526
 11
120.471077
 21
37.771526
  0
LINE
  8
0
 10
76.471092
 20
37.771526
 11
77.471092
 21
38.771526
  0
LINE
  8
0
 10
113.471085
 20
37.771530
 11
120.471085
 21
37.771530
  0
LINE
  8
0
 10
76.471085
 20
37.771530
 11
83.471085
 21
37.771530
  0
LINE
  8
0
 10
77.471085
 20
38.771530
 11
82.971085
 21
38.771530
  0
LINE
  8
0
 10
113.971085
 20
38.771530
 11
119.471085
 21
38.771530
  0
LINE
  8
0
 10
67.471085
 20
-0.228470
 11
129.471085
 21
-0.228470
  0
LINE
  8
0
 10
128.471085
 20
-1.228471
 11
129.471085
 21
-0.228470
  0
LINE
  8
0
 10
129.471085
 20
16.771530
 11
129.471085
 21
-0.228470
  0
LINE
  8
0
 10
68.471085
 20
-1.228470
 11
67.471085
 21
-0.228469
  0
LINE
  8
0
 10
67.471085
 20
16.771530
 11
67.471085
 21
-0.228470
  0
LINE
  8
0
  6
CENTER
 62
     2
 10
71.941086
 20
28.771530
 11
125.151077
 21
28.771530
  0
LINE
  8
0
 10
112.471085
 20
40.771530
 11
112.471085
 21
17.771530
  0
LINE
  8
0
 10
84.471085
 20
40.771530
 11
84.471085
 21
17.771530
  0
LINE
  8
0
 10
83.471085
 20
39.771530
 11
113.471085
 21
39.771530
  0
LINE
  8
0
 10
112.471077
 20
40.771519
 11
113.471069
 21
39.771523
  0
LINE
  8
0
 10
83.471092
 20
39.771523
 11
84.471092
 21
40.771519
  0
LINE
  8
0
 10
84.471085
 20
40.771530
 11
112.471085
 21
40.771530
  0
LINE
  8
0
 10
83.471085
 20
39.771530
 11
83.471085
 21
18.771530
  0
LINE
  8
0
 10
113.471085
 20
39.771530
 11
113.471085
 21
18.771530
  0
LINE
  8
0
 10
67.471085
 20
16.771530
 11
129.471085
 21
16.771530
  0
LINE
  8
0
 10
128.471069
 20
17.771538
 11
129.471069
 21
16.771538
  0
LINE
  8
0
 10
67.471092
 20
16.771538
 11
68.471092
 21
17.771538
  0
LINE
  8
0
 10
68.471085
 20
17.771530
 11
128.471085
 21
17.771530
  0
LINE
  8
0
 10
68.471085
 20
-1.228470
 11
128.471085
 21
-1.228470
  0
LINE
  8
0
 10
124.001083
 20
-94.098465
 11
124.631081
 21
-22.228456
  0
LINE
  8
0
 10
72.941078
 20
-94.098465
 11
72.311081
 21
-22.228456
  0
LINE
  8
0
 10
90.401085
 20
-105.018463
 11
106.551086
 21
-105.018463
  0
LINE
  8
0
 10
106.221085
 20
-107.308456
 11
90.721085
 21
-107.308456
  0
LINE
  8
0
 62
     2
 10
103.721085
 20
-105.518463
 11
103.721085
 21
-106.808456
  0
LINE
  8
0
 62
     2
 10
93.221085
 20
-105.518463
 11
93.221085
 21
-106.808456
  0
LINE
  8
0
 10
92.471085
 20
-105.518463
 11
92.471085
 21
-106.808456
  0
LINE
  8
0
 10
104.471085
 20
-105.518463
 11
104.471085
 21
-106.808456
  0
LINE
  8
0
 10
91.221085
 20
-106.808449
 11
90.721085
 21
-107.308449
  0
LINE
  8
0
 10
105.721069
 20
-106.808449
 11
106.221069
 21
-107.308449
  0
LINE
  8
0
 10
105.721085
 20
-106.808456
 11
91.221085
 21
-106.808456
  0
LINE
  8
0
 10
90.901077
 20
-105.518456
 11
90.401093
 21
-105.018463
  0
LINE
  8
0
 10
106.051086
 20
-105.518456
 11
106.551086
 21
-105.018456
  0
LINE
  8
0
 10
106.551086
 20
-105.018463
 11
106.551086
 21
-104.018463
  0
LINE
  8
0
 10
90.401085
 20
-105.018463
 11
90.401085
 21
-104.018463
  0
LINE
  8
0
 10
90.901085
 20
-105.518463
 11
106.051086
 21
-105.518463
  0
LINE
  8
0
 10
77.111099
 20
-26.528458
 11
83.821083
 21
-26.528458
  0
LINE
  8
0
 10
77.111099
 20
-87.518463
 11
83.821083
 21
-87.518463
  0
LINE
  8
0
 10
77.691086
 20
-27.028458
 11
83.821083
 21
-27.028458
  0
LINE
  8
0
 10
76.111099
 20
-27.528458
 11
76.111099
 21
-86.518463
  0
LINE
  8
0
 10
76.951096
 20
-28.528458
 11
76.951096
 21
-53.528458
  0
LINE
  8
0
 10
78.771088
 20
-29.028458
 11
78.771088
 21
-53.028458
  0
LINE
  8
0
 10
84.421082
 20
-28.528458
 11
84.421082
 21
-53.528458
  0
LINE
  8
0
 10
84.821083
 20
-27.528458
 11
84.821083
 21
-86.518463
  0
LINE
  8
0
 10
77.691086
 20
-87.018463
 11
83.821083
 21
-87.018463
  0
LINE
  8
0
 10
76.691086
 20
-28.028458
 11
76.691086
 21
-86.018463
  0
LINE
  8
0
 10
76.951096
 20
-59.528458
 11
76.951096
 21
-85.518463
  0
LINE
  8
0
 10
78.771088
 20
-60.028458
 11
78.771088
 21
-85.018463
  0
LINE
  8
0
 10
84.421082
 20
-59.528458
 11
84.421082
 21
-85.518463
  0
LINE
  8
0
 10
77.951096
 20
-86.518463
 11
83.421082
 21
-86.518463
  0
LINE
  8
0
 10
77.951096
 20
-58.528458
 11
83.421082
 21
-58.528458
  0
LINE
  8
0
 10
77.951096
 20
-54.528458
 11
83.421082
 21
-54.528458
  0
LINE
  8
0
 10
77.951096
 20
-27.528458
 11
83.421082
 21
-27.528458
  0
LINE
  8
0
 10
79.771088
 20
-86.018463
 11
83.421082
 21
-86.018463
  0
LINE
  8
0
 10
79.771088
 20
-28.028458
 11
83.421082
 21
-28.028458
  0
LINE
  8
0
 10
79.771088
 20
-54.028458
 11
83.421082
 21
-54.028458
  0
LINE
  8
0
 10
79.771088
 20
-59.028458
 11
83.421082
 21
-59.028458
  0
LINE
  8
0
 10
119.841080
 20
-26.528458
 11
113.121086
 21
-26.528458
  0
LINE
  8
0
 10
119.841080
 20
-87.518463
 11
113.121086
 21
-87.518463
  0
LINE
  8
0
 10
119.251083
 20
-27.028458
 11
113.121086
 21
-27.028458
  0
LINE
  8
0
 10
120.841080
 20
-27.528458
 11
120.841080
 21
-86.518463
  0
LINE
  8
0
 10
119.991074
 20
-28.528458
 11
119.991074
 21
-53.528458
  0
LINE
  8
0
 10
118.181076
 20
-29.028458
 11
118.181076
 21
-53.028458
  0
LINE
  8
0
 10
112.521088
 20
-28.528458
 11
112.521088
 21
-53.528458
  0
LINE
  8
0
 10
112.121086
 20
-27.528458
 11
112.121086
 21
-86.518463
  0
LINE
  8
0
 10
119.251083
 20
-87.018463
 11
113.121086
 21
-87.018463
  0
LINE
  8
0
 10
120.251083
 20
-28.028458
 11
120.251083
 21
-86.018463
  0
LINE
  8
0
 10
119.991074
 20
-59.528458
 11
119.991074
 21
-85.518463
  0
LINE
  8
0
 10
118.181076
 20
-60.028458
 11
118.181076
 21
-85.018463
  0
LINE
  8
0
 10
112.521088
 20
-59.528458
 11
112.521088
 21
-85.518463
  0
LINE
  8
0
 10
118.991074
 20
-86.518463
 11
113.521088
 21
-86.518463
  0
LINE
  8
0
 10
118.991074
 20
-58.528458
 11
113.521088
 21
-58.528458
  0
LINE
  8
0
 10
118.991074
 20
-54.528458
 11
113.521088
 21
-54.528458
  0
LINE
  8
0
 10
118.991074
 20
-27.528458
 11
113.521088
 21
-27.528458
  0
LINE
  8
0
 10
117.181076
 20
-86.018463
 11
113.521088
 21
-86.018463
  0
LINE
  8
0
 10
117.181076
 20
-28.028458
 11
113.521088
 21
-28.028458
  0
LINE
  8
0
 10
117.181076
 20
-54.028458
 11
113.521088
 21
-54.028458
  0
LINE
  8
0
 10
117.181076
 20
-59.028458
 11
113.521088
 21
-59.028458
  0
LINE
  8
0
 10
82.941086
 20
-104.018463
 11
114.001083
 21
-104.018463
  0
LINE
  8
0
  6
CENTER
 62
     2
 10
98.471085
 20
43.141529
 11
98.471085
 21
-131.838455
  0
LINE
  8
0
 10
90.721085
 20
-107.308456
 11
90.721085
 21
-119.308456
  0
LINE
  8
0
 10
106.221085
 20
-107.308456
 11
106.221085
 21
-119.308456
  0
LINE
  8
0
 10
-53.028931
 20
-2.228480
 11
-52.028938
 21
-1.228491
  0
LINE
  8
0
 10
-53.028931
 20
-2.228500
 11
8.971069
 21
-2.228500
  0
LINE
  8
0
 10
7.971049
 20
-1.228500
 11
8.971050
 21
-2.228501
  0
LINE
  8
0
 10
8.971069
 20
-2.228500
 11
8.971069
 21
-21.228500
  0
LINE
  8
0
 10
8.971059
 20
-21.228491
 11
7.971059
 21
-22.228491
  0
LINE
  8
0
 10
-52.028931
 20
-22.228500
 11
7.971069
 21
-22.228500
  0
LINE
  8
0
 10
-53.028931
 20
-21.228500
 11
8.971069
 21
-21.228500
  0
LINE
  8
0
 10
-52.028938
 20
-22.228491
 11
-53.028942
 21
-21.228491
  0
LINE
  8
0
 10
-53.028931
 20
-2.228500
 11
-53.028931
 21
-21.228500
  0
LINE
  8
0
 10
-5.938937
 20
37.771500
 11
-5.468937
 21
17.771500
  0
LINE
  8
0
 10
-38.128933
 20
37.771496
 11
-38.598930
 21
17.771500
  0
LINE
  8
0
 10
7.471069
 20
21.771500
 11
7.471069
 21
35.771500
  0
LINE
  8
0
 10
8.471060
 20
40.771503
 11
9.471061
 21
39.771500
  0
LINE
  8
0
 10
8.471069
 20
40.771500
 11
8.471069
 21
16.771500
  0
LINE
  8
0
 10
9.471069
 20
16.771500
 11
9.471069
 21
39.771500
  0
LINE
  8
0
 10
-52.528931
 20
40.771500
 11
-52.528931
 21
16.771500
  0
LINE
  8
0
 10
7.971049
 20
-1.228500
 11
8.971050
 21
-0.228499
  0
LINE
  8
0
 10
8.971069
 20
16.771500
 11
8.971069
 21
-0.228500
  0
LINE
  8
0
 10
-37.128933
 20
38.771500
 11
-38.128933
 21
37.771500
  0
LINE
  8
0
 10
-5.938938
 20
37.771500
 11
-6.938938
 21
38.771500
  0
LINE
  8
0
 10
-38.128929
 20
37.771500
 11
-5.938934
 21
37.771500
  0
LINE
  8
0
 10
-37.128937
 20
38.771500
 11
-6.938934
 21
38.771500
  0
LINE
  8
0
 10
8.471069
 20
40.771500
 11
-52.528931
 21
40.771500
  0
LINE
  8
0
 10
-49.158932
 20
16.771498
 11
-48.158932
 21
17.771498
  0
LINE
  8
0
 10
-53.528931
 20
39.771500
 11
9.471069
 21
39.771500
  0
LINE
  8
0
 10
-53.528931
 20
16.771500
 11
9.471069
 21
16.771500
  0
LINE
  8
0
 10
-53.028931
 20
-0.228500
 11
8.971069
 21
-0.228500
  0
LINE
  8
0
 10
-52.028938
 20
-1.228488
 11
-53.028931
 21
-0.228499
  0
LINE
  8
0
 10
-53.028931
 20
16.771500
 11
-53.028931
 21
-0.228500
  0
LINE
  8
0
 10
5.091059
 20
16.771509
 11
4.091058
 21
17.771509
  0
LINE
  8
0
 10
5.091059
 20
16.771509
 11
4.091058
 21
17.771509
  0
LINE
  8
0
 10
-48.158932
 20
17.771500
 11
4.091064
 21
17.771500
  0
LINE
  8
0
 10
4.471069
 20
21.771500
 11
7.471069
 21
21.771500
  0
LINE
  8
0
 10
4.471069
 20
35.771500
 11
7.471069
 21
35.771500
  0
LINE
  8
0
 10
-51.528931
 20
21.771500
 11
-48.528931
 21
21.771500
  0
LINE
  8
0
 10
-51.528931
 20
35.771500
 11
-48.828930
 21
35.771500
  0
LINE
  8
0
 10
-48.528931
 20
21.771500
 11
-48.528931
 21
35.771500
  0
LINE
  8
0
 10
-51.528931
 20
21.771500
 11
-51.528931
 21
35.771500
  0
LINE
  8
0
 10
4.471069
 20
21.771500
 11
4.471069
 21
35.771500
  0
LINE
  8
0
 10
-52.528927
 20
40.771500
 11
-53.528931
 21
39.771500
  0
LINE
  8
0
 10
-53.528931
 20
16.771500
 11
-53.528931
 21
39.771500
  0
LINE
  8
0
 10
-52.028931
 20
-1.228500
 11
7.971069
 21
-1.228500
  0
LINE
  8
0
 10
3.501057
 20
-94.098488
 11
4.131057
 21
-22.228491
  0
LINE
  8
0
 10
-48.078930
 20
-34.198490
 11
-48.178932
 21
-22.228495
  0
LINE
  8
0
 10
-51.428932
 20
-24.638498
 11
-50.918930
 21
-46.638493
  0
LINE
  8
0
 10
-50.938931
 20
-24.128490
 11
-50.608932
 21
-38.168499
  0
LINE
  8
0
 10
-28.528931
 20
-121.308487
 11
-15.528931
 21
-121.308487
  0
LINE
  8
0
 10
-24.878937
 20
-123.708496
 11
-24.878937
 21
-121.808487
  0
LINE
  8
0
 10
-19.178940
 20
-123.708496
 11
-19.178940
 21
-121.808487
  0
LINE
  8
0
 10
-18.778938
 20
-123.908485
 11
-19.198940
 21
-126.308487
  0
LINE
  8
0
 10
-18.778931
 20
-126.508484
 11
-19.198933
 21
-128.908493
  0
LINE
  8
0
 10
-25.278933
 20
-126.508492
 11
-24.848930
 21
-128.908493
  0
LINE
  8
0
 10
-25.278931
 20
-123.908493
 11
-24.848932
 21
-126.308495
  0
LINE
  8
0
 10
-18.778931
 20
-123.908493
 11
-18.778931
 21
-123.708496
  0
LINE
  8
0
 10
-25.278931
 20
-123.908493
 11
-25.278931
 21
-123.708496
  0
LINE
  8
0
 10
-18.778931
 20
-126.508499
 11
-25.278931
 21
-126.508499
  0
LINE
  8
0
 10
-18.778931
 20
-123.908493
 11
-25.278931
 21
-123.908493
  0
LINE
  8
0
 10
-18.778931
 20
-123.708496
 11
-25.278931
 21
-123.708496
  0
LINE
  8
0
 10
-18.778931
 20
-126.308487
 11
-25.278931
 21
-126.308487
  0
LINE
  8
0
 10
-18.778931
 20
-126.508499
 11
-18.778931
 21
-126.308487
  0
LINE
  8
0
 10
-25.278931
 20
-126.508499
 11
-25.278931
 21
-126.308487
  0
LINE
  8
0
 10
-19.198944
 20
-128.908493
 11
-24.848938
 21
-128.908493
  0
LINE
  8
0
 10
-16.028933
 20
-121.808487
 11
-15.528933
 21
-121.308487
  0
LINE
  8
0
 10
-28.528936
 20
-121.308495
 11
-28.028934
 21
-121.808495
  0
LINE
  8
0
 10
-28.528931
 20
-121.308487
 11
-28.528931
 21
-120.308487
  0
LINE
  8
0
 10
-15.528931
 20
-121.308487
 11
-15.528931
 21
-120.308487
  0
LINE
  8
0
 10
-16.028931
 20
-121.808487
 11
-28.028931
 21
-121.808487
  0
LINE
  8
0
 10
-14.278931
 20
-107.308487
 11
-29.778931
 21
-107.308487
  0
LINE
  8
0
 10
-28.288940
 20
-119.808487
 11
-29.038940
 21
-119.808487
  0
LINE
  8
0
 10
-15.008942
 20
-119.808487
 11
-15.768936
 21
-119.808487
  0
LINE
  8
0
 10
-23.868942
 20
-119.808487
 11
-25.678940
 21
-119.808487
  0
LINE
  8
0
 10
-28.458937
 20
-119.308495
 11
-28.288937
 21
-119.808502
  0
LINE
  8
0
 10
-15.588927
 20
-119.308502
 11
-15.768928
 21
-119.808495
  0
LINE
  8
0
 10
-15.008928
 20
-110.098488
 11
-14.418926
 21
-109.808487
  0
LINE
  8
0
 10
-18.368925
 20
-110.098488
 11
-17.708925
 21
-109.808487
  0
LINE
  8
0
 10
-20.178925
 20
-110.098488
 11
-20.528919
 21
-109.808487
  0
LINE
  8
0
 10
-23.868938
 20
-110.098495
 11
-23.528931
 21
-109.808479
  0
LINE
  8
0
 10
-25.678928
 20
-110.098488
 11
-26.338928
 21
-109.808487
  0
LINE
  8
0
 10
-29.038946
 20
-110.098503
 11
-29.628937
 21
-109.808502
  0
LINE
  8
0
 10
-29.038931
 20
-119.808495
 11
-29.628939
 21
-119.308479
  0
LINE
  8
0
 10
-25.678925
 20
-119.808479
 11
-26.338919
 21
-119.308487
  0
LINE
  8
0
 10
-23.528923
 20
-119.308495
 11
-23.868923
 21
-119.808487
  0
LINE
  8
0
 10
-20.178923
 20
-119.808479
 11
-20.528919
 21
-119.308487
  0
LINE
  8
0
 10
-18.368938
 20
-119.808487
 11
-17.708946
 21
-119.308487
  0
LINE
  8
0
 10
-15.008926
 20
-119.808487
 11
-14.418938
 21
-119.308495
  0
LINE
  8
0
 10
-18.368942
 20
-119.808487
 11
-20.178940
 21
-119.808487
  0
LINE
  8
0
 10
-15.588943
 20
-119.308487
 11
-17.708939
 21
-119.308487
  0
LINE
  8
0
 10
-29.628937
 20
-119.308487
 11
-29.778931
 21
-119.308487
  0
LINE
  8
0
 10
-26.338943
 20
-119.308487
 11
-28.458939
 21
-119.308487
  0
LINE
  8
0
 10
-20.528931
 20
-119.308487
 11
-23.528931
 21
-119.308487
  0
LINE
  8
0
 10
-28.458939
 20
-110.098495
 11
-29.038940
 21
-110.098495
  0
LINE
  8
0
 10
-28.458939
 20
-109.808487
 11
-29.628937
 21
-109.808487
  0
LINE
  8
0
 10
-18.368942
 20
-110.098495
 11
-20.178940
 21
-110.098495
  0
LINE
  8
0
 10
-17.708939
 20
-109.808487
 11
-20.528931
 21
-109.808487
  0
LINE
  8
0
 10
-23.868942
 20
-110.098495
 11
-25.678940
 21
-110.098495
  0
LINE
  8
0
 10
-23.528931
 20
-109.808487
 11
-26.338943
 21
-109.808487
  0
LINE
  8
0
 10
-14.278931
 20
-119.308487
 11
-14.418945
 21
-119.308487
  0
LINE
  8
0
 10
-15.008942
 20
-110.098495
 11
-15.588943
 21
-110.098495
  0
LINE
  8
0
 10
-14.418945
 20
-109.808487
 11
-15.588943
 21
-109.808487
  0
LINE
  8
0
 10
-14.418945
 20
-109.808487
 11
-14.418945
 21
-119.308487
  0
LINE
  8
0
 10
-15.008942
 20
-110.098495
 11
-15.008942
 21
-119.808487
  0
LINE
  8
0
 10
-15.588943
 20
-109.808487
 11
-15.588943
 21
-119.308487
  0
LINE
  8
0
 10
-17.708939
 20
-109.808487
 11
-17.708939
 21
-119.308487
  0
LINE
  8
0
 10
-18.368942
 20
-110.098495
 11
-18.368942
 21
-119.808487
  0
LINE
  8
0
 10
-29.628937
 20
-109.808487
 11
-29.628937
 21
-119.308487
  0
LINE
  8
0
 10
-29.038940
 20
-110.098495
 11
-29.038940
 21
-119.808487
  0
LINE
  8
0
 10
-28.458939
 20
-109.808487
 11
-28.458939
 21
-119.308487
  0
LINE
  8
0
 10
-26.338943
 20
-109.808487
 11
-26.338943
 21
-119.308487
  0
LINE
  8
0
 10
-25.678940
 20
-110.098495
 11
-25.678940
 21
-119.808487
  0
LINE
  8
0
 10
-23.868942
 20
-110.098495
 11
-23.868942
 21
-119.808487
  0
LINE
  8
0
 10
-20.178940
 20
-110.098495
 11
-20.178940
 21
-119.808487
  0
LINE
  8
0
 10
-20.528931
 20
-109.808487
 11
-20.528931
 21
-119.308487
  0
LINE
  8
0
 10
-23.528931
 20
-109.808487
 11
-23.528931
 21
-119.308487
  0
LINE
  8
0
 62
     2
 10
-16.778931
 20
-105.518494
 11
-16.778931
 21
-106.808487
  0
LINE
  8
0
 62
     2
 10
-27.278931
 20
-105.518494
 11
-27.278931
 21
-106.808487
  0
LINE
  8
0
 10
-28.028931
 20
-105.518494
 11
-28.028931
 21
-106.808487
  0
LINE
  8
0
 10
-16.028931
 20
-105.518494
 11
-16.028931
 21
-106.808487
  0
LINE
  8
0
 10
-29.278923
 20
-106.808487
 11
-29.778917
 21
-107.308479
  0
LINE
  8
0
 10
-14.778937
 20
-106.808487
 11
-14.278942
 21
-107.308487
  0
LINE
  8
0
 10
-14.778931
 20
-106.808487
 11
-29.278931
 21
-106.808487
  0
LINE
  8
0
 10
-28.778929
 20
-120.308502
 11
-29.778933
 21
-119.308495
  0
LINE
  8
0
 10
-14.278922
 20
-119.308495
 11
-15.278924
 21
-120.308495
  0
LINE
  8
0
 10
-29.778931
 20
-107.308487
 11
-29.778931
 21
-119.308487
  0
LINE
  8
0
 10
-14.278931
 20
-107.308487
 11
-14.278931
 21
-119.308487
  0
LINE
  8
0
 10
-15.278931
 20
-120.308487
 11
-28.778931
 21
-120.308487
  0
LINE
  8
0
 10
-29.598932
 20
-105.518494
 11
-30.098934
 21
-105.018494
  0
LINE
  8
0
 10
-14.448933
 20
-105.518486
 11
-13.948932
 21
-105.018486
  0
LINE
  8
0
 10
-13.948944
 20
-105.018494
 11
-13.948944
 21
-104.018494
  0
LINE
  8
0
 10
-30.098938
 20
-105.018494
 11
-30.098938
 21
-104.018494
  0
LINE
  8
0
 10
-29.598938
 20
-105.518494
 11
-14.448944
 21
-105.518494
  0
LINE
  8
0
 10
-30.098938
 20
-105.018494
 11
-13.948944
 21
-105.018494
  0
LINE
  8
0
 10
-50.918930
 20
-46.638489
 11
-50.768929
 21
-46.778492
  0
LINE
  8
0
 10
-50.838936
 20
-38.528492
 11
-48.078934
 21
-34.198486
  0
LINE
  8
0
 10
-47.918926
 20
-52.028484
 11
-50.698925
 21
-48.048489
  0
LINE
  8
0
 10
-50.758930
 20
-47.908485
 11
-50.838932
 21
-38.528488
  0
LINE
  8
0
 10
-0.658936
 20
-26.528488
 11
-7.378937
 21
-26.528488
  0
LINE
  8
0
 10
-0.658936
 20
-87.518494
 11
-7.378937
 21
-87.518494
  0
LINE
  8
0
 10
-1.248932
 20
-27.028488
 11
-7.378937
 21
-27.028488
  0
LINE
  8
0
 10
0.341064
 20
-27.528488
 11
0.341064
 21
-86.518494
  0
LINE
  8
0
 10
-0.508942
 20
-28.528488
 11
-0.508942
 21
-53.528488
  0
LINE
  8
0
 10
-2.318939
 20
-29.028488
 11
-2.318939
 21
-53.028488
  0
LINE
  8
0
 10
-7.978943
 20
-28.528488
 11
-7.978943
 21
-53.528488
  0
LINE
  8
0
 10
-8.378937
 20
-27.528488
 11
-8.378937
 21
-86.518494
  0
LINE
  8
0
 10
-1.248932
 20
-87.018494
 11
-7.378937
 21
-87.018494
  0
LINE
  8
0
 10
-0.248932
 20
-28.028488
 11
-0.248932
 21
-86.018494
  0
LINE
  8
0
 10
-0.508942
 20
-59.528488
 11
-0.508942
 21
-85.518494
  0
LINE
  8
0
 10
-2.318939
 20
-60.028488
 11
-2.318939
 21
-85.018494
  0
LINE
  8
0
 10
-7.978943
 20
-59.528488
 11
-7.978943
 21
-85.518494
  0
LINE
  8
0
 10
-1.508942
 20
-86.518494
 11
-6.978943
 21
-86.518494
  0
LINE
  8
0
 10
-1.508942
 20
-58.528488
 11
-6.978943
 21
-58.528488
  0
LINE
  8
0
 10
-1.508942
 20
-54.528488
 11
-6.978943
 21
-54.528488
  0
LINE
  8
0
 10
-1.508942
 20
-27.528488
 11
-6.978943
 21
-27.528488
  0
LINE
  8
0
 10
-3.318939
 20
-86.018494
 11
-6.978943
 21
-86.018494
  0
LINE
  8
0
 10
-3.318939
 20
-28.028488
 11
-6.978943
 21
-28.028488
  0
LINE
  8
0
 10
-3.318939
 20
-54.028488
 11
-6.978943
 21
-54.028488
  0
LINE
  8
0
 10
-3.318939
 20
-59.028488
 11
-6.978943
 21
-59.028488
  0
LINE
  8
0
 10
-43.388931
 20
-26.528488
 11
-36.668945
 21
-26.528488
  0
LINE
  8
0
 10
-43.388931
 20
-87.518494
 11
-36.668945
 21
-87.518494
  0
LINE
  8
0
 10
-42.798931
 20
-27.028488
 11
-36.668945
 21
-27.028488
  0
LINE
  8
0
 10
-44.388931
 20
-27.528488
 11
-44.388931
 21
-86.518494
  0
LINE
  8
0
 10
-43.548931
 20
-28.528488
 11
-43.548931
 21
-53.528488
  0
LINE
  8
0
 10
-41.728931
 20
-29.028488
 11
-41.728931
 21
-53.028488
  0
LINE
  8
0
 10
-36.068939
 20
-28.528488
 11
-36.068939
 21
-53.528488
  0
LINE
  8
0
 10
-35.668945
 20
-27.528488
 11
-35.668945
 21
-86.518494
  0
LINE
  8
0
 10
-42.798931
 20
-87.018494
 11
-36.668945
 21
-87.018494
  0
LINE
  8
0
 10
-43.798931
 20
-28.028488
 11
-43.798931
 21
-86.018494
  0
LINE
  8
0
 10
-43.548931
 20
-59.528488
 11
-43.548931
 21
-85.518494
  0
LINE
  8
0
 10
-41.728931
 20
-60.028488
 11
-41.728931
 21
-85.018494
  0
LINE
  8
0
 10
-36.068939
 20
-59.528488
 11
-36.068939
 21
-85.518494
  0
LINE
  8
0
 10
-42.548931
 20
-86.518494
 11
-37.068939
 21
-86.518494
  0
LINE
  8
0
 10
-42.548931
 20
-58.528488
 11
-37.068939
 21
-58.528488
  0
LINE
  8
0
 10
-42.548931
 20
-54.528488
 11
-37.068939
 21
-54.528488
  0
LINE
  8
0
 10
-42.548931
 20
-27.528488
 11
-37.068939
 21
-27.528488
  0
LINE
  8
0
 10
-47.548931
 20
-94.098495
 11
-47.918930
 21
-52.028496
  0
LINE
  8
0
 10
-40.728931
 20
-86.018494
 11
-37.068939
 21
-86.018494
  0
LINE
  8
0
 10
-40.728931
 20
-28.028488
 11
-37.068939
 21
-28.028488
  0
LINE
  8
0
 10
-40.728931
 20
-54.028488
 11
-37.068939
 21
-54.028488
  0
LINE
  8
0
 10
-40.728931
 20
-59.028488
 11
-37.068939
 21
-59.028488
  0
LINE
  8
0
 10
-6.498932
 20
-104.018494
 11
-37.558929
 21
-104.018494
  0
LINE
  8
0
 10
-50.488926
 20
-22.228489
 11
-50.438927
 21
-24.118498
  0
LINE
  8
0
 10
-49.908932
 20
-22.228498
 11
-49.868931
 21
-24.098494
  0
LINE
  8
0
 10
-51.428928
 20
-24.638494
 11
-50.938923
 21
-24.128487
  0
LINE
  8
0
 10
-50.938931
 20
-24.128490
 11
-49.868931
 21
-24.098490
  0
LINE
  8
0
  6
CENTER
 62
     2
 10
-22.028931
 20
-130.848495
 11
-22.028931
 21
44.651497
  0
LINE
  8
0
  6
CENTER
 62
     2
 10
22.799149
 20
28.771500
 11
-63.938549
 21
28.771500
  0
LINE
  8
0
 10
-194.250000
 20
132.600006
 11
194.800003
 21
132.600006
  0
LINE
  8
0
 10
194.800003
 20
132.600006
 11
194.800003
 21
-133.500000
  0
LINE
  8
0
 10
-194.250000
 20
132.600006
 11
-194.250000
 21
-133.500000
  0
LINE
  8
0
 10
-194.250000
 20
-133.500000
 11
194.800003
 21
-133.500000
  0
LINE
  8
0
 10
109.800003
 20
-118.500000
 11
109.800003
 21
-133.500000
  0
LINE
  8
0
 10
109.800003
 20
-118.500000
 11
194.800003
 21
-118.500000
  0
LINE
  8
0
 10
109.800003
 20
132.600006
 11
109.800003
 21
117.600006
  0
LINE
  8
0
 10
109.800003
 20
117.600006
 11
194.800003
 21
117.600006
  0
LINE
  8
0
 10
-194.250000
 20
117.600006
 11
-109.250000
 21
117.600006
  0
LINE
  8
0
 10
-109.250000
 20
132.600006
 11
-109.250000
 21
117.600006
  0
ARC
  8
0
 10
-22.033981
 20
84.623276
 40
30.996218
 50
208.942444
 51
331.057617
  0
ARC
  8
0
 10
-22.033981
 20
84.623276
 40
30.003662
 50
209.995987
 51
330.004028
  0
ARC
  8
0
 10
-22.033981
 20
84.623276
 40
22.001114
 50
222.983231
 51
317.016815
  0
ARC
  8
0
 10
-22.033981
 20
84.623276
 40
21.280474
 50
224.819199
 51
315.180847
  0
ARC
  8
0
 10
-22.033981
 20
84.623276
 40
22.001114
 50
42.983181
 51
137.016769
  0
ARC
  8
0
 10
-22.033981
 20
84.623276
 40
21.280474
 50
44.819138
 51
135.180801
  0
ARC
  8
0
 10
-22.033981
 20
84.623276
 40
30.996218
 50
28.942394
 51
151.057556
  0
ARC
  8
0
 10
-22.033981
 20
84.623276
 40
30.003664
 50
29.995960
 51
150.004013
  0
CIRCLE
  8
0
 62
     2
 10
98.471054
 20
28.771591
 40
8.331000
  0
CIRCLE
  8
0
 10
98.471054
 20
28.771591
 40
7.474999
  0
ARC
  8
0
 10
113.971069
 20
39.271515
 40
0.499985
 50
179.998245
 51
270.001740
  0
ARC
  8
0
 10
121.801941
 20
18.772457
 40
1.000929
 50
180.625519
 51
269.950226
  0
ARC
  8
0
 10
75.140228
 20
18.772457
 40
1.000925
 50
270.049774
 51
359.374481
  0
CIRCLE
  8
0
 10
98.471054
 20
28.771591
 40
10.250000
  0
ARC
  8
0
 10
114.471100
 20
18.771545
 40
1.000015
 50
180.000870
 51
269.999115
  0
ARC
  8
0
 10
82.471039
 20
18.771576
 40
1.000046
 50
270.002625
 51
359.997375
  0
ARC
  8
0
 10
82.971100
 20
39.271515
 40
0.499985
 50
269.998260
 51
0.001749
  0
ARC
  8
0
 10
77.953430
 20
-53.526123
 40
1.002337
 50
180.133240
 51
269.866547
  0
ARC
  8
0
 10
79.771255
 20
-53.028290
 40
1.000168
 50
180.009827
 51
269.990387
  0
ARC
  8
0
 10
77.101944
 20
-27.519318
 40
0.990895
 50
89.471054
 51
180.528839
  0
ARC
  8
0
 10
77.685883
 20
-28.023254
 40
0.994805
 50
89.699875
 51
180.300018
  0
ARC
  8
0
 10
77.944458
 20
-28.521835
 40
0.993394
 50
89.617599
 51
180.382294
  0
ARC
  8
0
 10
79.762283
 20
-29.019653
 40
0.991229
 50
89.490639
 51
180.509140
  0
ARC
  8
0
 10
83.415680
 20
-53.523056
 40
1.005424
 50
270.308258
 51
359.691742
  0
ARC
  8
0
 10
83.415680
 20
-53.023056
 40
1.005424
 50
270.308258
 51
359.691742
  0
ARC
  8
0
 10
83.825653
 20
-27.523895
 40
0.995448
 50
359.737274
 51
90.262604
  0
ARC
  8
0
 10
83.825653
 20
-28.023895
 40
0.995448
 50
359.737274
 51
90.262604
  0
ARC
  8
0
 10
83.424606
 20
-28.524933
 40
0.996481
 50
359.797333
 51
90.202667
  0
ARC
  8
0
 10
83.424606
 20
-29.024933
 40
0.996481
 50
359.797333
 51
90.202667
  0
ARC
  8
0
 10
77.105881
 20
-86.523666
 40
0.994810
 50
179.700317
 51
270.299683
  0
ARC
  8
0
 10
77.689804
 20
-86.019745
 40
0.998719
 50
179.926468
 51
270.073547
  0
ARC
  8
0
 10
77.948395
 20
-85.521164
 40
0.997310
 50
179.844833
 51
270.154724
  0
ARC
  8
0
 10
77.944458
 20
-59.521820
 40
0.993385
 50
89.617157
 51
180.382614
  0
ARC
  8
0
 10
79.766220
 20
-85.023331
 40
0.995144
 50
179.719742
 51
270.280243
  0
ARC
  8
0
 10
79.762268
 20
-60.019638
 40
0.991223
 50
89.490196
 51
180.509583
  0
ARC
  8
0
 10
83.821724
 20
-86.519104
 40
0.999359
 50
269.963257
 51
0.036743
  0
ARC
  8
0
 10
83.821724
 20
-86.019104
 40
0.999359
 50
269.963257
 51
0.036743
  0
ARC
  8
0
 10
83.420692
 20
-85.518066
 40
1.000397
 50
270.022736
 51
359.977264
  0
ARC
  8
0
 10
83.420692
 20
-85.018066
 40
1.000397
 50
270.022736
 51
359.977264
  0
ARC
  8
0
 10
83.424614
 20
-59.524933
 40
0.996474
 50
359.796906
 51
90.203110
  0
ARC
  8
0
 10
83.424614
 20
-60.024933
 40
0.996474
 50
359.796906
 51
90.203110
  0
ARC
  8
0
 10
118.985092
 20
-53.522476
 40
1.006007
 50
270.341095
 51
359.658905
  0
ARC
  8
0
 10
117.172272
 20
-53.019669
 40
1.008839
 50
270.500031
 51
359.500183
  0
ARC
  8
0
 10
119.841507
 20
-27.528030
 40
0.999565
 50
359.975067
 51
90.024925
  0
ARC
  8
0
 10
119.252594
 20
-28.026947
 40
0.998483
 50
359.912659
 51
90.087120
  0
ARC
  8
0
 10
118.994019
 20
-28.525528
 40
0.997067
 50
359.831207
 51
90.168793
  0
ARC
  8
0
 10
117.181183
 20
-29.028366
 40
0.999901
 50
359.994110
 51
90.005684
  0
ARC
  8
0
 10
113.522835
 20
-53.526703
 40
1.001756
 50
180.100143
 51
269.899628
  0
ARC
  8
0
 10
113.522835
 20
-53.026703
 40
1.001756
 50
180.100143
 51
269.899628
  0
ARC
  8
0
 10
113.112823
 20
-27.520203
 40
0.991777
 50
89.523094
 51
180.477020
  0
ARC
  8
0
 10
113.112823
 20
-28.020203
 40
0.991777
 50
89.523094
 51
180.477020
  0
ARC
  8
0
 10
113.513870
 20
-28.521255
 40
0.992813
 50
89.583473
 51
180.416306
  0
ARC
  8
0
 10
113.513870
 20
-29.021255
 40
0.992813
 50
89.583473
 51
180.416306
  0
ARC
  8
0
 10
119.837601
 20
-86.514984
 40
1.003477
 50
270.198212
 51
359.801788
  0
ARC
  8
0
 10
119.248688
 20
-86.016068
 40
1.002391
 50
270.136505
 51
359.863495
  0
ARC
  8
0
 10
118.990097
 20
-85.517487
 40
1.000977
 50
270.056335
 51
359.944092
  0
ARC
  8
0
 10
118.994019
 20
-59.525513
 40
0.997059
 50
359.830780
 51
90.169228
  0
ARC
  8
0
 10
117.177277
 20
-85.014664
 40
1.003814
 50
270.217316
 51
359.782684
  0
ARC
  8
0
 10
117.181183
 20
-60.028351
 40
0.999893
 50
359.993652
 51
90.006119
  0
ARC
  8
0
 10
113.116768
 20
-86.522781
 40
0.995691
 50
179.751511
 51
270.248474
  0
ARC
  8
0
 10
113.116768
 20
-86.022781
 40
0.995691
 50
179.751511
 51
270.248474
  0
ARC
  8
0
 10
113.517807
 20
-85.521744
 40
0.996725
 50
179.811417
 51
270.188599
  0
ARC
  8
0
 10
113.517807
 20
-85.021744
 40
0.996725
 50
179.811417
 51
270.188599
  0
ARC
  8
0
 10
113.513863
 20
-59.521240
 40
0.992805
 50
89.583031
 51
180.416748
  0
ARC
  8
0
 10
113.513863
 20
-60.021240
 40
0.992805
 50
89.583031
 51
180.416748
  0
ARC
  8
0
 10
82.938881
 20
-94.020355
 40
9.998100
 50
180.447632
 51
270.012634
  0
ARC
  8
0
 10
113.999641
 20
-94.016678
 40
10.001778
 50
270.008301
 51
359.531525
  0
ARC
  8
0
 10
-50.461662
 20
-47.869156
 40
0.297418
 50
181.797806
 51
217.082565
  0
ARC
  8
0
 10
-1.513092
 20
-53.524338
 40
1.004155
 50
270.236725
 51
359.763397
  0
ARC
  8
0
 10
-3.325897
 20
-53.021530
 40
1.006982
 50
270.396057
 51
359.603882
  0
ARC
  8
0
 10
-0.656647
 20
-27.526199
 40
0.997704
 50
359.868011
 51
90.131943
  0
ARC
  8
0
 10
-1.245560
 20
-28.025116
 40
0.996631
 50
359.806030
 51
90.194016
  0
ARC
  8
0
 10
-1.504135
 20
-28.523697
 40
0.995216
 50
359.723938
 51
90.276085
  0
ARC
  8
0
 10
-3.316986
 20
-29.026535
 40
0.998043
 50
359.887543
 51
90.112442
  0
ARC
  8
0
 10
-6.975357
 20
-53.524918
 40
1.003589
 50
180.204498
 51
269.795502
  0
ARC
  8
0
 10
-6.975357
 20
-53.024918
 40
1.003589
 50
180.204498
 51
269.795502
  0
ARC
  8
0
 10
-7.385345
 20
-27.522095
 40
0.993616
 50
89.630669
 51
180.369339
  0
ARC
  8
0
 10
-7.385345
 20
-28.022095
 40
0.993616
 50
89.630669
 51
180.369339
  0
ARC
  8
0
 10
-6.984299
 20
-28.523132
 40
0.994647
 50
89.690819
 51
180.309174
  0
ARC
  8
0
 10
-6.984299
 20
-29.023132
 40
0.994647
 50
89.690819
 51
180.309174
  0
ARC
  8
0
 10
-0.660553
 20
-86.516876
 40
1.001619
 50
270.092590
 51
359.907471
  0
ARC
  8
0
 10
-1.249481
 20
-86.017944
 40
1.000542
 50
270.031281
 51
359.968536
  0
ARC
  8
0
 10
-1.508072
 20
-85.519363
 40
0.999131
 50
269.950195
 51
0.049876
  0
ARC
  8
0
 10
-1.504135
 20
-59.523697
 40
0.995208
 50
359.723511
 51
90.276520
  0
ARC
  8
0
 10
-3.320892
 20
-85.016541
 40
1.001955
 50
270.111908
 51
359.888306
  0
ARC
  8
0
 10
-3.316971
 20
-60.026520
 40
0.998036
 50
359.887207
 51
90.112862
  0
ARC
  8
0
 10
-7.381409
 20
-86.520966
 40
0.997531
 50
179.858017
 51
270.141907
  0
ARC
  8
0
 10
-7.381409
 20
-86.020966
 40
0.997531
 50
179.858017
 51
270.141907
  0
ARC
  8
0
 10
-6.980377
 20
-85.519928
 40
0.998563
 50
179.917267
 51
270.082458
  0
ARC
  8
0
 10
-6.980377
 20
-85.019928
 40
0.998563
 50
179.917267
 51
270.082458
  0
ARC
  8
0
 10
-6.984314
 20
-59.523117
 40
0.994640
 50
89.690376
 51
180.309616
  0
ARC
  8
0
 10
-6.984314
 20
-60.023117
 40
0.994640
 50
89.690376
 51
180.309616
  0
ARC
  8
0
 10
-42.544762
 20
-53.524323
 40
1.004178
 50
180.237900
 51
269.762115
  0
ARC
  8
0
 10
-40.726933
 20
-53.026489
 40
1.001997
 50
180.114304
 51
269.885925
  0
ARC
  8
0
 10
-43.396225
 20
-27.521194
 40
0.992731
 50
89.578819
 51
180.421066
  0
ARC
  8
0
 10
-42.807304
 20
-28.020111
 40
0.991660
 50
89.515984
 51
180.483902
  0
ARC
  8
0
 10
-42.553703
 20
-28.523727
 40
0.995239
 50
89.725266
 51
180.274734
  0
ARC
  8
0
 10
-40.735897
 20
-29.021530
 40
0.993059
 50
89.598106
 51
180.401901
  0
ARC
  8
0
 10
-37.077484
 20
-53.519943
 40
1.008589
 50
270.485870
 51
359.514130
  0
ARC
  8
0
 10
-37.077484
 20
-53.019943
 40
1.008589
 50
270.485870
 51
359.514130
  0
ARC
  8
0
 10
-36.667542
 20
-27.527100
 40
0.998605
 50
359.920013
 51
90.079887
  0
ARC
  8
0
 10
-36.667542
 20
-28.027100
 40
0.998605
 50
359.920013
 51
90.079887
  0
ARC
  8
0
 10
-37.068588
 20
-28.528137
 40
0.999649
 50
359.979889
 51
90.020119
  0
ARC
  8
0
 10
-37.068588
 20
-29.028137
 40
0.999649
 50
359.979889
 51
90.020119
  0
ARC
  8
0
 10
-43.392292
 20
-86.521851
 40
0.996645
 50
179.807007
 51
270.193207
  0
ARC
  8
0
 10
-42.803368
 20
-86.022934
 40
0.995577
 50
179.744904
 51
270.255096
  0
ARC
  8
0
 10
-42.549778
 20
-85.519333
 40
0.999153
 50
179.951431
 51
270.048553
  0
ARC
  8
0
 10
-42.553711
 20
-59.523712
 40
0.995232
 50
89.724823
 51
180.275177
  0
ARC
  8
0
 10
-40.731960
 20
-85.021530
 40
0.996976
 50
179.825928
 51
270.174072
  0
ARC
  8
0
 10
-40.735905
 20
-60.021515
 40
0.993051
 50
89.597664
 51
180.402344
  0
ARC
  8
0
 10
-36.671463
 20
-86.515976
 40
1.002521
 50
270.143890
 51
359.856110
  0
ARC
  8
0
 10
-36.671463
 20
-86.015976
 40
1.002521
 50
270.143890
 51
359.856110
  0
ARC
  8
0
 10
-37.072495
 20
-85.514938
 40
1.003562
 50
270.203186
 51
359.797028
  0
ARC
  8
0
 10
-37.072495
 20
-85.014938
 40
1.003562
 50
270.203186
 51
359.797028
  0
ARC
  8
0
 10
-37.068573
 20
-59.528137
 40
0.999641
 50
359.979462
 51
90.020554
  0
ARC
  8
0
 10
-37.068573
 20
-60.028137
 40
0.999641
 50
359.979462
 51
90.020554
  0
ARC
  8
0
 10
-6.498550
 20
-94.018570
 40
9.999924
 50
269.997772
 51
359.542053
  0
ARC
  8
0
 10
-37.554260
 20
-94.023544
 40
9.994952
 50
180.429703
 51
269.973236
  0
POLYLINE
  8
0
 66
     1
  0
VERTEX
  8
0
 10
-48.078930
 20
-34.198486
  0
VERTEX
  8
0
 10
-47.750290
 20
-35.018196
  0
VERTEX
  8
0
 10
-47.450737
 20
-35.833221
  0
VERTEX
  8
0
 10
-47.181118
 20
-36.650959
  0
VERTEX
  8
0
 10
-46.942268
 20
-37.478806
  0
VERTEX
  8
0
 10
-46.735027
 20
-38.324154
  0
VERTEX
  8
0
 10
-46.560234
 20
-39.194401
  0
VERTEX
  8
0
 10
-46.418728
 20
-40.096943
  0
VERTEX
  8
0
 10
-46.311344
 20
-41.039173
  0
VERTEX
  8
0
 10
-46.238930
 20
-42.028488
  0
VERTEX
  8
0
 10
-46.209278
 20
-42.956089
  0
VERTEX
  8
0
 10
-46.219345
 20
-43.884789
  0
VERTEX
  8
0
 10
-46.268051
 20
-44.812992
  0
VERTEX
  8
0
 10
-46.354313
 20
-45.739090
  0
VERTEX
  8
0
 10
-46.477051
 20
-46.661491
  0
VERTEX
  8
0
 10
-46.635185
 20
-47.578587
  0
VERTEX
  8
0
 10
-46.827633
 20
-48.488781
  0
VERTEX
  8
0
 10
-47.053310
 20
-49.390469
  0
VERTEX
  8
0
 10
-47.311142
 20
-50.282051
  0
VERTEX
  8
0
 10
-47.600040
 20
-51.161922
  0
VERTEX
  8
0
 10
-47.918930
 20
-52.028488
  0
SEQEND
  0
TEXT
  8
0
 10
136.157150
 20
122.050003
 40
4.500000
  1
Ｖｅｒ．２．０
 50
0.000000
 41
0.833333
 51
0.000000
  7
STANDARD
  0
TEXT
  8
0
 10
-165.642654
 20
122.050003
 40
4.500000
  1
FILTER
 50
0.000000
 41
1.052632
 51
0.000000
  7
STANDARD
  0
TEXT
  8
0
 10
-152.000000
 20
97.900009
 40
4.500000
  1
MMF150-03-A
 50
0.000000
 41
1.052632
 51
0.000000
  7
STANDARD
  0
TEXT
  8
0
 10
25.083389
 20
29.771484
 40
4.500000
  1
OUT
 50
0.000000
 41
1.052632
 51
0.000000
  7
STANDARD
  0
TEXT
  8
0
 10
-82.916656
 20
29.771515
 40
4.500000
  1
IN
 50
0.000000
 41
1.052632
 51
0.000000
  7
STANDARD
  0
TEXT
  8
0
 10
-179.000000
 20
105.900009
 40
4.500000
  1
MODEL:MF300-03-A
 50
0.000000
 41
1.052632
 51
0.000000
  7
STANDARD
  0
TEXT
  8
0
 10
113.700287
 20
-130.669998
 40
6.300000
  1
KOGANEI CORP.
 50
0.000000
 41
1.052632
 51
0.000000
  7
STANDARD
  0
LINE
  8
0
 10
44.471069
 20
28.771484
 11
19.471085
 21
28.771484
  0
LINE
  8
0
 10
44.471069
 20
28.771484
 11
41.573292
 21
29.547941
  0
LINE
  8
0
 10
44.471069
 20
28.771484
 11
41.573292
 21
27.995028
  0
LINE
  8
0
 10
-63.528976
 20
28.771500
 11
-88.528961
 21
28.771500
  0
LINE
  8
0
 10
-63.528976
 20
28.771500
 11
-66.426758
 21
29.547956
  0
LINE
  8
0
 10
-63.528976
 20
28.771500
 11
-66.426750
 21
27.995043
  0
ENDSEC
  0
EOF
