  0
SECTION
  2
HEADER
  9
$ACADVER
  1
AC1015
  9
$ACADMAINTVER
 70
    20
  9
$DWGCODEPAGE
  3
ANSI_932
  9
$INSBASE
 10
0.0
 20
0.0
 30
0.0
  9
$EXTMIN
 10
-194.25
 20
-133.5
 30
0.0
  9
$EXTMAX
 10
194.80000305
 20
132.6000061
 30
0.0
  9
$LIMMIN
 10
-194.25
 20
-133.5
  9
$LIMMAX
 10
194.80000305
 20
132.6000061
  9
$ORTHOMODE
 70
     0
  9
$REGENMODE
 70
     1
  9
$FILLMODE
 70
     1
  9
$QTEXTMODE
 70
     0
  9
$MIRRTEXT
 70
     1
  9
$LTSCALE
 40
1.0
  9
$ATTMODE
 70
     1
  9
$TEXTSIZE
 40
3.200000049999999
  9
$TRACEWID
 40
0.05
  9
$TEXTSTYLE
  7
MX_NOTE_STANDARD
  9
$CLAYER
  8
0
  9
$CELTYPE
  6
CONTINUOUS
  9
$CECOLOR
 62
   256
  9
$CELTSCALE
 40
1.0
  9
$DISPSILH
 70
     0
  9
$DIMSCALE
 40
1.0
  9
$DIMASZ
 40
2.5
  9
$DIMEXO
 40
1.5
  9
$DIMDLI
 40
3.75
  9
$DIMRND
 40
0.0
  9
$DIMDLE
 40
0.0
  9
$DIMEXE
 40
1.5
  9
$DIMTP
 40
0.0
  9
$DIMTM
 40
0.0
  9
$DIMTXT
 40
3.200000049999999
  9
$DIMCEN
 40
2.5
  9
$DIMTSZ
 40
0.0
  9
$DIMTOL
 70
     0
  9
$DIMLIM
 70
     0
  9
$DIMTIH
 70
     0
  9
$DIMTOH
 70
     0
  9
$DIMSE1
 70
     0
  9
$DIMSE2
 70
     0
  9
$DIMTAD
 70
     1
  9
$DIMZIN
 70
     8
  9
$DIMBLK
  1

  9
$DIMASO
 70
     1
  9
$DIMSHO
 70
     1
  9
$DIMPOST
  1

  9
$DIMAPOST
  1

  9
$DIMALT
 70
     0
  9
$DIMALTD
 70
     4
  9
$DIMALTF
 40
0.03937008
  9
$DIMLFAC
 40
1.0
  9
$DIMTOFL
 70
     1
  9
$DIMTVP
 40
0.0
  9
$DIMTIX
 70
     0
  9
$DIMSOXD
 70
     0
  9
$DIMSAH
 70
     0
  9
$DIMBLK1
  1

  9
$DIMBLK2
  1

  9
$DIMSTYLE
  2
MXDIMSTYLE
  9
$DIMCLRD
 70
     0
  9
$DIMCLRE
 70
     0
  9
$DIMCLRT
 70
     0
  9
$DIMTFAC
 40
1.0
  9
$DIMGAP
 40
1.0
  9
$DIMJUST
 70
     0
  9
$DIMSD1
 70
     0
  9
$DIMSD2
 70
     0
  9
$DIMTOLJ
 70
     1
  9
$DIMTZIN
 70
     0
  9
$DIMALTZ
 70
     0
  9
$DIMALTTZ
 70
     0
  9
$DIMUPT
 70
     0
  9
$DIMDEC
 70
     4
  9
$DIMTDEC
 70
     4
  9
$DIMALTU
 70
     2
  9
$DIMALTTD
 70
     2
  9
$DIMTXSTY
  7
Standard
  9
$DIMAUNIT
 70
     0
  9
$DIMADEC
 70
     0
  9
$DIMALTRND
 40
0.0
  9
$DIMAZIN
 70
     0
  9
$DIMDSEP
 70
    46
  9
$DIMATFIT
 70
     3
  9
$DIMFRAC
 70
     0
  9
$DIMLDRBLK
  1

  9
$DIMLUNIT
 70
     2
  9
$DIMLWD
 70
    -2
  9
$DIMLWE
 70
    -2
  9
$DIMTMOVE
 70
     0
  9
$LUNITS
 70
     2
  9
$LUPREC
 70
     4
  9
$SKETCHINC
 40
0.1
  9
$FILLETRAD
 40
0.0
  9
$AUNITS
 70
     0
  9
$AUPREC
 70
     0
  9
$MENU
  1
acad
  9
$ELEVATION
 40
0.0
  9
$PELEVATION
 40
0.0
  9
$THICKNESS
 40
0.0
  9
$LIMCHECK
 70
     0
  9
$CHAMFERA
 40
0.0
  9
$CHAMFERB
 40
0.0
  9
$CHAMFERC
 40
0.0
  9
$CHAMFERD
 40
0.0
  9
$SKPOLY
 70
     0
  9
$TDCREATE
 40
2453770.647118056
  9
$TDUCREATE
 40
2453770.272118056
  9
$TDUPDATE
 40
2454271.730043843
  9
$TDUUPDATE
 40
2454271.355043843
  9
$TDINDWG
 40
0.0005620602
  9
$TDUSRTIMER
 40
0.0005501273
  9
$USRTIMER
 70
     1
  9
$ANGBASE
 50
0.0
  9
$ANGDIR
 70
     0
  9
$PDMODE
 70
     0
  9
$PDSIZE
 40
0.0
  9
$PLINEWID
 40
0.0
  9
$SPLFRAME
 70
     0
  9
$SPLINETYPE
 70
     6
  9
$SPLINESEGS
 70
     8
  9
$HANDSEED
  5
1A7
  9
$SURFTAB1
 70
     6
  9
$SURFTAB2
 70
     6
  9
$SURFTYPE
 70
     6
  9
$SURFU
 70
     6
  9
$SURFV
 70
     6
  9
$UCSBASE
  2

  9
$UCSNAME
  2

  9
$UCSORG
 10
0.0
 20
0.0
 30
0.0
  9
$UCSXDIR
 10
1.0
 20
0.0
 30
0.0
  9
$UCSYDIR
 10
0.0
 20
1.0
 30
0.0
  9
$UCSORTHOREF
  2

  9
$UCSORTHOVIEW
 70
     0
  9
$UCSORGTOP
 10
0.0
 20
0.0
 30
0.0
  9
$UCSORGBOTTOM
 10
0.0
 20
0.0
 30
0.0
  9
$UCSORGLEFT
 10
0.0
 20
0.0
 30
0.0
  9
$UCSORGRIGHT
 10
0.0
 20
0.0
 30
0.0
  9
$UCSORGFRONT
 10
0.0
 20
0.0
 30
0.0
  9
$UCSORGBACK
 10
0.0
 20
0.0
 30
0.0
  9
$PUCSBASE
  2

  9
$PUCSNAME
  2

  9
$PUCSORG
 10
0.0
 20
0.0
 30
0.0
  9
$PUCSXDIR
 10
1.0
 20
0.0
 30
0.0
  9
$PUCSYDIR
 10
0.0
 20
1.0
 30
0.0
  9
$PUCSORTHOREF
  2

  9
$PUCSORTHOVIEW
 70
     0
  9
$PUCSORGTOP
 10
0.0
 20
0.0
 30
0.0
  9
$PUCSORGBOTTOM
 10
0.0
 20
0.0
 30
0.0
  9
$PUCSORGLEFT
 10
0.0
 20
0.0
 30
0.0
  9
$PUCSORGRIGHT
 10
0.0
 20
0.0
 30
0.0
  9
$PUCSORGFRONT
 10
0.0
 20
0.0
 30
0.0
  9
$PUCSORGBACK
 10
0.0
 20
0.0
 30
0.0
  9
$USERI1
 70
     0
  9
$USERI2
 70
     0
  9
$USERI3
 70
     0
  9
$USERI4
 70
     0
  9
$USERI5
 70
     0
  9
$USERR1
 40
0.0
  9
$USERR2
 40
0.0
  9
$USERR3
 40
0.0
  9
$USERR4
 40
0.0
  9
$USERR5
 40
0.0
  9
$WORLDVIEW
 70
     1
  9
$SHADEDGE
 70
     3
  9
$SHADEDIF
 70
    70
  9
$TILEMODE
 70
     1
  9
$MAXACTVP
 70
    16
  9
$PINSBASE
 10
0.0
 20
0.0
 30
0.0
  9
$PLIMCHECK
 70
     0
  9
$PEXTMIN
 10
1.000000000000000E+20
 20
1.000000000000000E+20
 30
1.000000000000000E+20
  9
$PEXTMAX
 10
-1.000000000000000E+20
 20
-1.000000000000000E+20
 30
-1.000000000000000E+20
  9
$PLIMMIN
 10
0.0
 20
0.0
  9
$PLIMMAX
 10
12.0
 20
9.0
  9
$UNITMODE
 70
     0
  9
$VISRETAIN
 70
     0
  9
$PLINEGEN
 70
     1
  9
$PSLTSCALE
 70
     0
  9
$TREEDEPTH
 70
  3020
  9
$CMLSTYLE
  2
Standard
  9
$CMLJUST
 70
     0
  9
$CMLSCALE
 40
1.0
  9
$PROXYGRAPHICS
 70
     1
  9
$MEASUREMENT
 70
     0
  9
$CELWEIGHT
370
    -1
  9
$ENDCAPS
280
     0
  9
$JOINSTYLE
280
     0
  9
$LWDISPLAY
290
     0
  9
$INSUNITS
 70
     0
  9
$HYPERLINKBASE
  1

  9
$STYLESHEET
  1

  9
$XEDIT
290
     1
  9
$CEPSNTYPE
380
     0
  9
$PSTYLEMODE
290
     1
  9
$FINGERPRINTGUID
  2
{579F2B41-2123-485E-9892-2077A62D6F6F}
  9
$VERSIONGUID
  2
{283501AB-DF70-4202-95B6-F1E7C5240A34}
  9
$EXTNAMES
290
     1
  9
$PSVPSCALE
 40
0.0
  9
$OLESTARTUP
290
     0
  0
ENDSEC
  0
SECTION
  2
CLASSES
  0
CLASS
  1
ACDBDICTIONARYWDFLT
  2
AcDbDictionaryWithDefault
  3
ObjectDBX Classes
 90
        0
280
     0
281
     0
  0
CLASS
  1
TABLESTYLE
  2
AcDbTableStyle
  3
ObjectDBX Classes
 90
     2047
280
     0
281
     0
  0
CLASS
  1
DICTIONARYVAR
  2
AcDbDictionaryVar
  3
ObjectDBX Classes
 90
        0
280
     0
281
     0
  0
CLASS
  1
ACDBPLACEHOLDER
  2
AcDbPlaceHolder
  3
ObjectDBX Classes
 90
        0
280
     0
281
     0
  0
CLASS
  1
LAYOUT
  2
AcDbLayout
  3
ObjectDBX Classes
 90
        0
280
     0
281
     0
  0
ENDSEC
  0
SECTION
  2
TABLES
  0
TABLE
  2
VPORT
  5
176
330
0
100
AcDbSymbolTable
 70
     2
  0
VPORT
  5
1A0
330
176
100
AcDbSymbolTableRecord
100
AcDbViewportTableRecord
  2
*Active
 70
     0
 10
0.0
 20
0.0
 11
1.0
 21
1.0
 12
0.2750015299999973
 22
22.22644308515871
 13
0.0
 23
0.0
 14
1.0
 24
1.0
 15
0.0
 25
0.0
 16
0.0
 26
0.0
 36
1.0
 17
0.0
 27
0.0
 37
0.0
 40
314.1138862303175
 41
1.481971153846153
 42
50.0
 43
0.0
 44
0.0
 50
0.0
 51
0.0
 71
     0
 72
   100
 73
     1
 74
     1
 75
     0
 76
     0
 77
     0
 78
     0
281
     0
 65
     1
110
0.0
120
0.0
130
0.0
111
1.0
121
0.0
131
0.0
112
0.0
122
1.0
132
0.0
 79
     0
146
0.0
  0
ENDTAB
  0
TABLE
  2
LTYPE
  5
173
330
0
100
AcDbSymbolTable
 70
     2
  0
LTYPE
  5
181
330
173
100
AcDbSymbolTableRecord
100
AcDbLinetypeTableRecord
  2
ByBlock
 70
     0
  3

 72
    65
 73
     0
 40
0.0
  0
LTYPE
  5
182
330
173
100
AcDbSymbolTableRecord
100
AcDbLinetypeTableRecord
  2
ByLayer
 70
     0
  3

 72
    65
 73
     0
 40
0.0
  0
LTYPE
  5
183
330
173
100
AcDbSymbolTableRecord
100
AcDbLinetypeTableRecord
  2
CONTINUOUS
 70
     0
  3
Solid line
 72
    65
 73
     0
 40
0.0
  0
LTYPE
  5
196
330
173
100
AcDbSymbolTableRecord
100
AcDbLinetypeTableRecord
  2
PHANTOM
 70
     0
  3
Phantom ______  __  __  ______  __  __  ______
 72
    65
 73
     6
 40
30.0
 49
20.0
 74
     0
 49
-2.0
 74
     0
 49
2.0
 74
     0
 49
-2.0
 74
     0
 49
2.0
 74
     0
 49
-2.0
 74
     0
  0
ENDTAB
  0
TABLE
  2
LAYER
  5
170
330
0
100
AcDbSymbolTable
 70
     2
  0
LAYER
  5
17E
330
170
100
AcDbSymbolTableRecord
100
AcDbLayerTableRecord
  2
0
 70
     0
 62
     7
  6
CONTINUOUS
370
    -3
390
17D
  0
LAYER
  5
197
330
170
100
AcDbSymbolTableRecord
100
AcDbLayerTableRecord
  2
DEFPOINTS
 70
     0
 62
     7
  6
CONTINUOUS
290
     0
370
    -3
390
17D
  0
ENDTAB
  0
TABLE
  2
STYLE
  5
171
330
0
100
AcDbSymbolTable
 70
     2
  0
STYLE
  5
17F
330
171
100
AcDbSymbolTableRecord
100
AcDbTextStyleTableRecord
  2
Standard
 70
     0
 40
0.0
 41
1.0
 50
0.0
 71
     0
 42
0.2
  3
txt
  4

  0
STYLE
  5
194
330
171
100
AcDbSymbolTableRecord
100
AcDbTextStyleTableRecord
  2
MX_NOTE_STANDARD
 70
     0
 40
0.0
 41
1.0
 50
0.0
 71
     0
 42
3.200000049999999
  3
txt.shx
  4
extfont.shx
  0
ENDTAB
  0
TABLE
  2
VIEW
  5
174
330
0
100
AcDbSymbolTable
 70
     0
  0
ENDTAB
  0
TABLE
  2
UCS
  5
175
330
0
100
AcDbSymbolTable
 70
     0
  0
ENDTAB
  0
TABLE
  2
APPID
  5
177
330
0
100
AcDbSymbolTable
 70
     1
  0
APPID
  5
180
330
177
100
AcDbSymbolTableRecord
100
AcDbRegAppTableRecord
  2
ACAD
 70
     0
  0
ENDTAB
  0
TABLE
  2
DIMSTYLE
  5
178
330
0
100
AcDbSymbolTable
 70
     1
100
AcDbDimStyleTable
 71
     0
  0
DIMSTYLE
105
198
330
178
100
AcDbSymbolTableRecord
100
AcDbDimStyleTableRecord
  2
MXDIMSTYLE
 70
     0
 41
2.5
 42
1.5
 43
3.75
 44
1.5
 73
     0
 74
     0
 77
     1
 78
     8
140
3.200000049999999
141
2.5
143
0.03937008
147
1.0
171
     4
172
     1
274
     4
279
     2
284
     8
285
     8
286
     8
340
194
  0
ENDTAB
  0
TABLE
  2
BLOCK_RECORD
  5
16F
330
0
100
AcDbSymbolTable
 70
     0
  0
BLOCK_RECORD
  5
190
330
16F
100
AcDbSymbolTableRecord
100
AcDbBlockTableRecord
  2
*Model_Space
340
193
  0
BLOCK_RECORD
  5
18C
330
16F
100
AcDbSymbolTableRecord
100
AcDbBlockTableRecord
  2
*Paper_Space
340
18F
  0
ENDTAB
  0
ENDSEC
  0
SECTION
  2
BLOCKS
  0
BLOCK
  5
191
330
190
100
AcDbEntity
  8
0
100
AcDbBlockBegin
  2
*Model_Space
 70
     0
 10
0.0
 20
0.0
 30
0.0
  3
*Model_Space
  1

  0
ENDBLK
  5
192
330
190
100
AcDbEntity
  8
0
100
AcDbBlockEnd
  0
BLOCK
  5
18D
330
18C
100
AcDbEntity
 67
     1
  8
0
100
AcDbBlockBegin
  2
*Paper_Space
 70
     0
 10
0.0
 20
0.0
 30
0.0
  3
*Paper_Space
  1

  0
ENDBLK
  5
18E
330
18C
100
AcDbEntity
 67
     1
  8
0
100
AcDbBlockEnd
  0
ENDSEC
  0
SECTION
  2
ENTITIES
  0
CIRCLE
  5
1E
330
190
100
AcDbEntity
  8
0
  6
Continuous
 62
     7
100
AcDbCircle
 10
-11.72382403
 20
-21.61145436
 30
0.0
 40
2.25
  0
CIRCLE
  5
1F
330
190
100
AcDbEntity
  8
0
  6
Continuous
 62
     7
100
AcDbCircle
 10
28.27617597
 20
-21.61145436
 30
0.0
 40
2.25
  0
LINE
  5
20
330
190
100
AcDbEntity
  8
0
  6
Continuous
 62
     2
100
AcDbLine
 10
110.77617597
 20
2.388545639999999
 30
0.0
 11
110.77617597
 21
-60.18995416
 31
0.0
  0
LINE
  5
21
330
190
100
AcDbEntity
  8
0
  6
Continuous
 62
     7
100
AcDbLine
 10
-25.39564944
 20
54.38854487
 30
0.0
 11
-24.22382403
 21
54.38854487
 31
0.0
  0
LINE
  5
22
330
190
100
AcDbEntity
  8
0
  6
Continuous
 62
     7
100
AcDbLine
 10
-25.39564944
 20
49.38854639999999
 30
0.0
 11
-24.22382403
 21
49.38854639999999
 31
0.0
  0
ARC
  5
23
330
190
100
AcDbEntity
  8
0
  6
Continuous
 62
     7
100
AcDbCircle
 10
-25.39564944
 20
53.72187884
 30
0.0
 40
0.66666669
100
AcDbArc
 50
89.99998201
 51
150.50764432
  0
ARC
  5
24
330
190
100
AcDbEntity
  8
0
  6
Continuous
 62
     7
100
AcDbCircle
 10
-25.39564944
 20
50.05521243
 30
0.0
 40
0.66666669
100
AcDbArc
 50
209.49235568
 51
270.00001799
  0
LINE
  5
25
330
190
100
AcDbEntity
  8
0
  6
Continuous
 62
     2
100
AcDbLine
 10
-27.72382403
 20
51.88854563999999
 30
0.0
 11
-22.72382403
 21
51.88854563999999
 31
0.0
  0
ARC
  5
26
330
190
100
AcDbEntity
  8
0
  6
Continuous
 62
     7
100
AcDbCircle
 10
-22.69415405
 20
51.88854563999999
 30
0.0
 40
3.9296696
100
AcDbArc
 50
145.04636224
 51
214.95363776
  0
LINE
  5
27
330
190
100
AcDbEntity
  8
0
  6
Continuous
 62
     7
100
AcDbLine
 10
-16.64306317
 20
66.46930682999999
 30
0.0
 11
-14.80458514
 21
68.30778470000002
 31
0.0
  0
LINE
  5
28
330
190
100
AcDbEntity
  8
0
  6
Continuous
 62
     7
100
AcDbLine
 10
-16.64306254
 20
68.30778372000001
 30
0.0
 11
-14.80458535
 21
66.46930637
 31
0.0
  0
LINE
  5
29
330
190
100
AcDbEntity
  8
0
  6
Continuous
 62
     2
100
AcDbLine
 10
-17.97382403
 20
67.38854564
 30
0.0
 11
-13.47382403
 21
67.38854564
 31
0.0
  0
LINE
  5
2A
330
190
100
AcDbEntity
  8
0
  6
Continuous
 62
     2
100
AcDbLine
 10
-15.72382403
 20
65.13854564
 30
0.0
 11
-15.72382403
 21
69.63854564
 31
0.0
  0
CIRCLE
  5
2B
330
190
100
AcDbEntity
  8
0
  6
Continuous
 62
     7
100
AcDbCircle
 10
-15.72382403
 20
67.38854564
 30
0.0
 40
2.0
  0
LINE
  5
2C
330
190
100
AcDbEntity
  8
0
  6
Continuous
 62
     7
100
AcDbLine
 10
33.19541511
 20
52.30778444
 30
0.0
 11
31.35693709
 21
50.46930657
 31
0.0
  0
LINE
  5
2D
330
190
100
AcDbEntity
  8
0
  6
Continuous
 62
     7
100
AcDbLine
 10
33.19541448
 20
50.46930755
 30
0.0
 11
31.35693729
 21
52.3077849
 31
0.0
  0
LINE
  5
2E
330
190
100
AcDbEntity
  8
0
  6
Continuous
 62
     2
100
AcDbLine
 10
34.52617597
 20
51.38854563999999
 30
0.0
 11
30.02617597
 21
51.38854563999999
 31
0.0
  0
LINE
  5
2F
330
190
100
AcDbEntity
  8
0
  6
Continuous
 62
     2
100
AcDbLine
 10
32.27617597
 20
53.63854564
 30
0.0
 11
32.27617597
 21
49.13854564
 31
0.0
  0
CIRCLE
  5
30
330
190
100
AcDbEntity
  8
0
  6
Continuous
 62
     7
100
AcDbCircle
 10
32.27617597
 20
51.38854563999999
 30
0.0
 40
2.0
  0
LINE
  5
31
330
190
100
AcDbEntity
  8
0
  6
Continuous
 62
     7
100
AcDbLine
 10
41.94800138
 20
64.38854640000001
 30
0.0
 11
40.77617596999999
 21
64.38854640000001
 31
0.0
  0
LINE
  5
32
330
190
100
AcDbEntity
  8
0
  6
Continuous
 62
     7
100
AcDbLine
 10
41.94800138
 20
69.38854487
 30
0.0
 11
40.77617596999999
 21
69.38854487
 31
0.0
  0
ARC
  5
33
330
190
100
AcDbEntity
  8
0
  6
Continuous
 62
     7
100
AcDbCircle
 10
41.94800138
 20
65.05521243
 30
0.0
 40
0.66666669
100
AcDbArc
 50
269.99998201
 51
330.50764432
  0
ARC
  5
34
330
190
100
AcDbEntity
  8
0
  6
Continuous
 62
     7
100
AcDbCircle
 10
41.94800138
 20
68.72187884
 30
0.0
 40
0.66666669
100
AcDbArc
 50
29.49235568
 51
90.00001799000001
  0
LINE
  5
35
330
190
100
AcDbEntity
  8
0
  6
Continuous
 62
     2
100
AcDbLine
 10
44.27617597
 20
66.88854564
 30
0.0
 11
39.27617597
 21
66.88854564
 31
0.0
  0
ARC
  5
36
330
190
100
AcDbEntity
  8
0
  6
Continuous
 62
     7
100
AcDbCircle
 10
39.24650599
 20
66.88854564
 30
0.0
 40
3.9296696
100
AcDbArc
 50
325.04636224
 51
34.95363776
  0
LINE
  5
37
330
190
100
AcDbEntity
  8
0
  6
Continuous
 62
     2
100
AcDbLine
 10
-126.72382403
 20
-45.68995415999999
 30
0.0
 11
-118.72382403
 21
-45.68995415999999
 31
0.0
  0
LINE
  5
38
330
190
100
AcDbEntity
  8
0
  6
Continuous
 62
     2
100
AcDbLine
 10
-122.72382403
 20
-41.68995416
 30
0.0
 11
-122.72382403
 21
-49.68995416
 31
0.0
  0
LINE
  5
3A
330
190
100
AcDbEntity
  8
0
  6
PHANTOM
 62
     2
100
AcDbLine
 10
-121.80458522
 20
-46.60919329999999
 30
0.0
 11
-123.64306309
 21
-44.77071526999999
 31
0.0
  0
LINE
  5
3B
330
190
100
AcDbEntity
  8
0
  6
PHANTOM
 62
     2
100
AcDbLine
 10
-123.64306211
 20
-46.60919266999999
 30
0.0
 11
-121.80458476
 21
-44.77071548
 31
0.0
  0
CIRCLE
  5
3C
330
190
100
AcDbEntity
  8
0
  6
PHANTOM
 62
     2
100
AcDbCircle
 10
-122.72382403
 20
-45.68995415999999
 30
0.0
 40
2.0
  0
LINE
  5
3D
330
190
100
AcDbEntity
  8
0
  6
Continuous
 62
     2
100
AcDbLine
 10
-139.72382403
 20
-53.68995416
 30
0.0
 11
-131.72382403
 21
-53.68995416
 31
0.0
  0
LINE
  5
3E
330
190
100
AcDbEntity
  8
0
  6
Continuous
 62
     2
100
AcDbLine
 10
-135.72382403
 20
-49.68995416
 30
0.0
 11
-135.72382403
 21
-57.68995416
 31
0.0
  0
LINE
  5
3F
330
190
100
AcDbEntity
  8
0
  6
PHANTOM
 62
     2
100
AcDbLine
 10
-134.80458522
 20
-54.60919329999999
 30
0.0
 11
-136.64306309
 21
-52.77071527
 31
0.0
  0
LINE
  5
40
330
190
100
AcDbEntity
  8
0
  6
PHANTOM
 62
     2
100
AcDbLine
 10
-136.64306211
 20
-54.60919267
 30
0.0
 11
-134.80458476
 21
-52.77071548
 31
0.0
  0
CIRCLE
  5
41
330
190
100
AcDbEntity
  8
0
  6
PHANTOM
 62
     2
100
AcDbCircle
 10
-135.72382403
 20
-53.68995416
 30
0.0
 40
2.0
  0
LINE
  5
42
330
190
100
AcDbEntity
  8
0
  6
Continuous
 62
     7
100
AcDbLine
 10
41.94800138
 20
-16.61145513
 30
0.0
 11
40.77617596999999
 21
-16.61145513
 31
0.0
  0
LINE
  5
43
330
190
100
AcDbEntity
  8
0
  6
Continuous
 62
     7
100
AcDbLine
 10
41.94800138
 20
-21.6114536
 30
0.0
 11
40.77617596999999
 21
-21.6114536
 31
0.0
  0
ARC
  5
44
330
190
100
AcDbEntity
  8
0
  6
Continuous
 62
     7
100
AcDbCircle
 10
41.94800138
 20
-17.27812116
 30
0.0
 40
0.66666669
100
AcDbArc
 50
29.49235568
 51
90.00001799000001
  0
ARC
  5
45
330
190
100
AcDbEntity
  8
0
  6
Continuous
 62
     7
100
AcDbCircle
 10
41.94800138
 20
-20.94478757
 30
0.0
 40
0.66666669
100
AcDbArc
 50
269.99998201
 51
330.50764432
  0
LINE
  5
46
330
190
100
AcDbEntity
  8
0
  6
Continuous
 62
     2
100
AcDbLine
 10
44.27617597
 20
-19.11145436
 30
0.0
 11
39.27617597
 21
-19.11145436
 31
0.0
  0
ARC
  5
47
330
190
100
AcDbEntity
  8
0
  6
Continuous
 62
     7
100
AcDbCircle
 10
39.24650599
 20
-19.11145436
 30
0.0
 40
3.9296696
100
AcDbArc
 50
325.04636224
 51
34.95363776
  0
LINE
  5
48
330
190
100
AcDbEntity
  8
0
  6
Continuous
 62
     7
100
AcDbLine
 10
-25.39564944
 20
-6.611453599999999
 30
0.0
 11
-24.22382403
 21
-6.611453599999999
 31
0.0
  0
LINE
  5
49
330
190
100
AcDbEntity
  8
0
  6
Continuous
 62
     7
100
AcDbLine
 10
-25.39564944
 20
-1.611455129999999
 30
0.0
 11
-24.22382403
 21
-1.611455129999999
 31
0.0
  0
ARC
  5
4A
330
190
100
AcDbEntity
  8
0
  6
Continuous
 62
     7
100
AcDbCircle
 10
-25.39564944
 20
-5.944787569999999
 30
0.0
 40
0.66666669
100
AcDbArc
 50
209.49235568
 51
270.00001799
  0
ARC
  5
4B
330
190
100
AcDbEntity
  8
0
  6
Continuous
 62
     7
100
AcDbCircle
 10
-25.39564944
 20
-2.278121159999999
 30
0.0
 40
0.66666669
100
AcDbArc
 50
89.99998201
 51
150.50764432
  0
LINE
  5
4C
330
190
100
AcDbEntity
  8
0
  6
Continuous
 62
     2
100
AcDbLine
 10
-27.72382403
 20
-4.111454359999999
 30
0.0
 11
-22.72382403
 21
-4.111454359999999
 31
0.0
  0
ARC
  5
4D
330
190
100
AcDbEntity
  8
0
  6
Continuous
 62
     7
100
AcDbCircle
 10
-22.69415405
 20
-4.111454359999999
 30
0.0
 40
3.9296696
100
AcDbArc
 50
145.04636224
 51
214.95363776
  0
LINE
  5
4E
330
190
100
AcDbEntity
  8
0
  6
Continuous
 62
     7
100
AcDbLine
 10
102.21551594
 20
-3.050793999999999
 30
0.0
 11
104.33683625
 21
-5.17211448
 31
0.0
  0
LINE
  5
4F
330
190
100
AcDbEntity
  8
0
  6
Continuous
 62
     7
100
AcDbLine
 10
104.33683592
 20
-3.050793919999999
 30
0.0
 11
102.21551543
 21
-5.17211422
 31
0.0
  0
LINE
  5
50
330
190
100
AcDbEntity
  8
0
  6
Continuous
 62
     2
100
AcDbLine
 10
103.2761758
 20
-1.311455129999999
 30
0.0
 11
103.2761758
 21
-6.911453599999998
 31
0.0
  0
LINE
  5
51
330
190
100
AcDbEntity
  8
0
  6
Continuous
 62
     2
100
AcDbLine
 10
100.47617673
 20
-4.111454359999999
 30
0.0
 11
106.07617521
 21
-4.111454359999999
 31
0.0
  0
CIRCLE
  5
52
330
190
100
AcDbEntity
  8
0
  6
Continuous
 62
     7
100
AcDbCircle
 10
103.27617538
 20
-4.111454359999999
 30
0.0
 40
2.5
  0
LINE
  5
53
330
190
100
AcDbEntity
  8
0
  6
Continuous
 62
     7
100
AcDbLine
 10
117.21551594
 20
-18.050794
 30
0.0
 11
119.33683625
 21
-20.17211448
 31
0.0
  0
LINE
  5
54
330
190
100
AcDbEntity
  8
0
  6
Continuous
 62
     7
100
AcDbLine
 10
119.33683592
 20
-18.05079392
 30
0.0
 11
117.21551543
 21
-20.17211422
 31
0.0
  0
LINE
  5
55
330
190
100
AcDbEntity
  8
0
  6
Continuous
 62
     2
100
AcDbLine
 10
118.2761758
 20
-16.31145513
 30
0.0
 11
118.2761758
 21
-21.9114536
 31
0.0
  0
LINE
  5
56
330
190
100
AcDbEntity
  8
0
  6
Continuous
 62
     2
100
AcDbLine
 10
115.47617673
 20
-19.11145436
 30
0.0
 11
121.07617521
 21
-19.11145436
 31
0.0
  0
CIRCLE
  5
57
330
190
100
AcDbEntity
  8
0
  6
Continuous
 62
     7
100
AcDbCircle
 10
118.27617538
 20
-19.11145436
 30
0.0
 40
2.5
  0
LINE
  5
58
330
190
100
AcDbEntity
  8
0
  6
PHANTOM
 62
     2
100
AcDbLine
 10
57.77617696
 20
-48.61145420999999
 30
0.0
 11
57.77617696
 21
-51.61145426
 31
0.0
  0
LINE
  5
59
330
190
100
AcDbEntity
  8
0
  6
PHANTOM
 62
     2
100
AcDbLine
 10
50.98692692
 20
-47.55919272999999
 30
0.0
 11
52.33962792999999
 21
-52.62357333
 31
0.0
  0
LINE
  5
5A
330
190
100
AcDbEntity
  8
0
  6
PHANTOM
 62
     2
100
AcDbLine
 10
49.44119881999999
 20
-47.61159188999999
 30
0.0
 11
50.84757814
 21
-52.85814468
 31
0.0
  0
LINE
  5
5B
330
190
100
AcDbEntity
  8
0
  6
PHANTOM
 62
     2
100
AcDbLine
 10
57.77617696
 20
-51.61145426
 30
0.0
 11
52.07617685999999
 21
-51.61145426
 31
0.0
  0
LINE
  5
5C
330
190
100
AcDbEntity
  8
0
  6
PHANTOM
 62
     2
100
AcDbLine
 10
57.77617696
 20
-48.61145420999999
 30
0.0
 11
51.26189113
 21
-48.61145420999999
 31
0.0
  0
LINE
  5
5D
330
190
100
AcDbEntity
  8
0
  6
PHANTOM
 62
     2
100
AcDbLine
 10
62.77617704
 20
-49.11145422
 30
0.0
 11
57.77617696
 21
-49.11145422
 31
0.0
  0
LINE
  5
5E
330
190
100
AcDbEntity
  8
0
  6
PHANTOM
 62
     2
100
AcDbLine
 10
62.77617704
 20
-51.11145425
 30
0.0
 11
57.77617696
 21
-51.11145425
 31
0.0
  0
LINE
  5
5F
330
190
100
AcDbEntity
  8
0
  6
PHANTOM
 62
     2
100
AcDbLine
 10
62.77617704
 20
-50.11145424
 30
0.0
 11
57.77617696
 21
-50.11145424
 31
0.0
  0
ARC
  5
60
330
190
100
AcDbEntity
  8
0
  6
Continuous
 62
     7
100
AcDbCircle
 10
110.77617597
 20
-32.61145436
 30
0.0
 40
5.5
100
AcDbArc
 50
187.83747976
 51
352.16252024
  0
LINE
  5
61
330
190
100
AcDbEntity
  8
0
  6
Continuous
 62
     7
100
AcDbLine
 10
104.82323552
 20
-33.36145436000001
 30
0.0
 11
116.72911642
 21
-33.36145436000001
 31
0.0
  0
LINE
  5
62
330
190
100
AcDbEntity
  8
0
  6
Continuous
 62
     7
100
AcDbLine
 10
104.82323552
 20
-31.86145436
 30
0.0
 11
116.72911642
 21
-31.86145436
 31
0.0
  0
CIRCLE
  5
63
330
190
100
AcDbEntity
  8
0
  6
Continuous
 62
     7
100
AcDbCircle
 10
110.77617597
 20
-32.61145436
 30
0.0
 40
9.0
  0
CIRCLE
  5
64
330
190
100
AcDbEntity
  8
0
  6
Continuous
 62
     7
100
AcDbCircle
 10
110.77617597
 20
-11.61145436
 30
0.0
 40
3.5
  0
ARC
  5
65
330
190
100
AcDbEntity
  8
0
  6
Continuous
 62
     7
100
AcDbCircle
 10
110.77617597
 20
-11.61145436
 30
0.0
 40
10.0
100
AcDbArc
 50
148.52405667
 51
301.47594163
  0
CIRCLE
  5
66
330
190
100
AcDbEntity
  8
0
  6
Continuous
 62
     2
100
AcDbCircle
 10
110.77617597
 20
-11.61145436
 30
0.0
 40
6.57849979
  0
CIRCLE
  5
67
330
190
100
AcDbEntity
  8
0
  6
Continuous
 62
     7
100
AcDbCircle
 10
110.77617597
 20
-11.61145436
 30
0.0
 40
5.72249985
  0
ARC
  5
68
330
190
100
AcDbEntity
  8
0
  6
Continuous
 62
     7
100
AcDbCircle
 10
110.77617597
 20
-32.61145436
 30
0.0
 40
5.5
100
AcDbArc
 50
7.837479759999999
 51
172.16252024
  0
CIRCLE
  5
69
330
190
100
AcDbEntity
  8
0
  6
Continuous
 62
     7
100
AcDbCircle
 10
110.77617597
 20
-32.61145436
 30
0.0
 40
6.0
  0
CIRCLE
  5
6A
330
190
100
AcDbEntity
  8
0
  6
Continuous
 62
     7
100
AcDbCircle
 10
110.77617597
 20
-11.61145436
 30
0.0
 40
8.0
  0
ARC
  5
6B
330
190
100
AcDbEntity
  8
0
  6
Continuous
 62
     7
100
AcDbCircle
 10
110.77617597
 20
-11.61145436
 30
0.0
 40
10.0
100
AcDbArc
 50
328.52405387
 51
121.47594782
  0
LINE
  5
6C
330
190
100
AcDbEntity
  8
0
  6
Continuous
 62
     7
100
AcDbLine
 10
100.77617597
 20
-42.61145436
 30
0.0
 11
120.77617597
 21
-42.61145436
 31
0.0
  0
LINE
  5
6D
330
190
100
AcDbEntity
  8
0
  6
Continuous
 62
     7
100
AcDbLine
 10
100.77617597
 20
-22.61145436
 30
0.0
 11
120.77617597
 21
-22.61145436
 31
0.0
  0
LINE
  5
6E
330
190
100
AcDbEntity
  8
0
  6
Continuous
 62
     7
100
AcDbLine
 10
100.77617597
 20
-0.61145436
 30
0.0
 11
120.77617597
 21
-0.61145436
 31
0.0
  0
LINE
  5
6F
330
190
100
AcDbEntity
  8
0
  6
Continuous
 62
     7
100
AcDbLine
 10
120.77617597
 20
-42.61145436
 30
0.0
 11
120.77617597
 21
-0.61145436
 31
0.0
  0
LINE
  5
70
330
190
100
AcDbEntity
  8
0
  6
Continuous
 62
     7
100
AcDbLine
 10
100.77617597
 20
-42.61145436
 30
0.0
 11
100.77617597
 21
-0.61145436
 31
0.0
  0
LINE
  5
71
330
190
100
AcDbEntity
  8
0
  6
Continuous
 62
     2
100
AcDbLine
 10
122.77617597
 20
-32.61145436
 30
0.0
 11
98.77617597
 21
-32.61145436
 31
0.0
  0
LINE
  5
72
330
190
100
AcDbEntity
  8
0
  6
Continuous
 62
     2
100
AcDbLine
 10
123.77617597
 20
-11.61145436
 30
0.0
 11
97.77617597
 21
-11.61145436
 31
0.0
  0
LINE
  5
73
330
190
100
AcDbEntity
  8
0
  6
PHANTOM
 62
     2
100
AcDbLine
 10
120.77617597
 20
-57.61145436
 30
0.0
 11
120.77617597
 21
-42.61145436
 31
0.0
  0
LINE
  5
74
330
190
100
AcDbEntity
  8
0
  6
PHANTOM
 62
     2
100
AcDbLine
 10
100.77617597
 20
-57.61145436
 30
0.0
 11
100.77617597
 21
-42.61145436
 31
0.0
  0
LINE
  5
75
330
190
100
AcDbEntity
  8
0
  6
PHANTOM
 62
     2
100
AcDbLine
 10
101.37617597
 20
-56.61145436
 30
0.0
 11
101.37617597
 21
-43.61145436
 31
0.0
  0
LINE
  5
76
330
190
100
AcDbEntity
  8
0
  6
PHANTOM
 62
     2
100
AcDbLine
 10
101.37617597
 20
-56.61145436
 30
0.0
 11
119.77617597
 21
-56.61145436
 31
0.0
  0
LINE
  5
77
330
190
100
AcDbEntity
  8
0
  6
PHANTOM
 62
     2
100
AcDbLine
 10
101.37617597
 20
-43.61145436
 30
0.0
 11
119.77617597
 21
-43.61145436
 31
0.0
  0
LINE
  5
78
330
190
100
AcDbEntity
  8
0
  6
PHANTOM
 62
     2
100
AcDbLine
 10
119.77617597
 20
-56.61145436
 30
0.0
 11
119.77617597
 21
-43.61145436
 31
0.0
  0
LINE
  5
79
330
190
100
AcDbEntity
  8
0
  6
PHANTOM
 62
     2
100
AcDbLine
 10
104.77617597
 20
-56.61145436
 30
0.0
 11
104.77617597
 21
-51.49145436
 31
0.0
  0
LINE
  5
7A
330
190
100
AcDbEntity
  8
0
  6
PHANTOM
 62
     2
100
AcDbLine
 10
105.27617597
 20
-55.61145436
 30
0.0
 11
105.27617597
 21
-50.91145436
 31
0.0
  0
LINE
  5
7B
330
190
100
AcDbEntity
  8
0
  6
PHANTOM
 62
     2
100
AcDbLine
 10
105.27617597
 20
-55.61145436
 30
0.0
 11
118.77617597
 21
-55.61145436
 31
0.0
  0
LINE
  5
7C
330
190
100
AcDbEntity
  8
0
  6
PHANTOM
 62
     2
100
AcDbLine
 10
105.27617597
 20
-44.61145436
 30
0.0
 11
118.77617597
 21
-44.61145436
 31
0.0
  0
LINE
  5
7D
330
190
100
AcDbEntity
  8
0
  6
PHANTOM
 62
     2
100
AcDbLine
 10
118.77617597
 20
-55.61145436
 30
0.0
 11
118.77617597
 21
-44.61145436
 31
0.0
  0
LINE
  5
7E
330
190
100
AcDbEntity
  8
0
  6
PHANTOM
 62
     2
100
AcDbLine
 10
118.77617597
 20
-55.61145436
 30
0.0
 11
119.77617597
 21
-56.61145436
 31
0.0
  0
LINE
  5
7F
330
190
100
AcDbEntity
  8
0
  6
PHANTOM
 62
     2
100
AcDbLine
 10
118.77617597
 20
-44.61145436
 30
0.0
 11
119.77617597
 21
-43.61145436
 31
0.0
  0
LINE
  5
80
330
190
100
AcDbEntity
  8
0
  6
PHANTOM
 62
     2
100
AcDbLine
 10
105.27617597
 20
-44.61145436
 30
0.0
 11
104.77617597
 21
-43.61145436
 31
0.0
  0
LINE
  5
81
330
190
100
AcDbEntity
  8
0
  6
PHANTOM
 62
     2
100
AcDbLine
 10
105.27617597
 20
-55.61145436
 30
0.0
 11
104.77617597
 21
-56.61145436
 31
0.0
  0
LINE
  5
82
330
190
100
AcDbEntity
  8
0
  6
PHANTOM
 62
     2
100
AcDbLine
 10
104.77617597
 20
-48.74145436
 30
0.0
 11
104.77617597
 21
-43.61145436
 31
0.0
  0
LINE
  5
83
330
190
100
AcDbEntity
  8
0
  6
PHANTOM
 62
     2
100
AcDbLine
 10
105.27617597
 20
-49.31145436
 30
0.0
 11
105.27617597
 21
-44.61145436
 31
0.0
  0
LINE
  5
84
330
190
100
AcDbEntity
  8
0
  6
PHANTOM
 62
     2
100
AcDbLine
 10
107.27617597
 20
-50.31145436
 30
0.0
 11
107.27617597
 21
-49.92145436
 31
0.0
  0
LINE
  5
85
330
190
100
AcDbEntity
  8
0
  6
PHANTOM
 62
     2
100
AcDbLine
 10
110.27617597
 20
-50.31145436
 30
0.0
 11
110.27617597
 21
-49.92145436
 31
0.0
  0
LINE
  5
86
330
190
100
AcDbEntity
  8
0
  6
PHANTOM
 62
     2
100
AcDbLine
 10
107.32617597
 20
-53.01145436
 30
0.0
 11
110.22617597
 21
-53.01145436
 31
0.0
  0
LINE
  5
87
330
190
100
AcDbEntity
  8
0
  6
PHANTOM
 62
     2
100
AcDbLine
 10
107.32617597
 20
-52.21145436
 30
0.0
 11
110.22617597
 21
-52.21145436
 31
0.0
  0
LINE
  5
88
330
190
100
AcDbEntity
  8
0
  6
PHANTOM
 62
     2
100
AcDbLine
 10
107.32617597
 20
-48.01145436
 30
0.0
 11
110.22617597
 21
-48.01145436
 31
0.0
  0
LINE
  5
89
330
190
100
AcDbEntity
  8
0
  6
PHANTOM
 62
     2
100
AcDbLine
 10
107.32617597
 20
-47.21145435999999
 30
0.0
 11
110.22617597
 21
-47.21145435999999
 31
0.0
  0
LINE
  5
8A
330
190
100
AcDbEntity
  8
0
  6
PHANTOM
 62
     2
100
AcDbLine
 10
105.27617597
 20
-50.31145436
 30
0.0
 11
105.27617597
 21
-49.92145436
 31
0.0
  0
LINE
  5
8B
330
190
100
AcDbEntity
  8
0
  6
PHANTOM
 62
     2
100
AcDbLine
 10
114.07617597
 20
-55.31145436
 30
0.0
 11
114.07617597
 21
-51.26145436
 31
0.0
  0
LINE
  5
8C
330
190
100
AcDbEntity
  8
0
  6
PHANTOM
 62
     2
100
AcDbLine
 10
114.07617597
 20
-49.45145436
 30
0.0
 11
114.07617597
 21
-45.03145435999999
 31
0.0
  0
ARC
  5
8D
330
190
100
AcDbEntity
  8
0
  6
PHANTOM
 62
     2
100
AcDbCircle
 10
103.77949685
 20
-50.11645436
 30
0.0
 40
1.69823269
100
AcDbArc
 50
305.93676153
 51
54.06323847000001
  0
CIRCLE
  5
8E
330
190
100
AcDbEntity
  8
0
  6
PHANTOM
 62
     2
100
AcDbCircle
 10
108.77950117
 20
-47.61145436
 30
0.0
 40
1.5
  0
CIRCLE
  5
8F
330
190
100
AcDbEntity
  8
0
  6
PHANTOM
 62
     2
100
AcDbCircle
 10
116.29085371
 20
-49.61146962
 30
0.0
 40
0.5
  0
CIRCLE
  5
90
330
190
100
AcDbEntity
  8
0
  6
PHANTOM
 62
     2
100
AcDbCircle
 10
108.77950117
 20
-52.61145436
 30
0.0
 40
2.25
  0
CIRCLE
  5
91
330
190
100
AcDbEntity
  8
0
  6
PHANTOM
 62
     2
100
AcDbCircle
 10
116.29085371
 20
-50.61146962
 30
0.0
 40
0.5
  0
ARC
  5
92
330
190
100
AcDbEntity
  8
0
  6
PHANTOM
 62
     2
100
AcDbCircle
 10
108.77617597
 20
-52.61145605
 30
0.0
 40
2.74590746
100
AcDbArc
 50
123.11132274
 51
56.88867726
  0
ARC
  5
93
330
190
100
AcDbEntity
  8
0
  6
PHANTOM
 62
     2
100
AcDbCircle
 10
108.77617597
 20
-47.61145267999999
 30
0.0
 40
2.75428898
100
AcDbArc
 50
302.99768603
 51
237.00231397
  0
CIRCLE
  5
94
330
190
100
AcDbEntity
  8
0
  6
PHANTOM
 62
     2
100
AcDbCircle
 10
108.77950117
 20
-47.61145436
 30
0.0
 40
2.25
  0
CIRCLE
  5
95
330
190
100
AcDbEntity
  8
0
  6
PHANTOM
 62
     2
100
AcDbCircle
 10
108.77950117
 20
-52.61145436
 30
0.0
 40
1.5
  0
CIRCLE
  5
96
330
190
100
AcDbEntity
  8
0
  6
PHANTOM
 62
     2
100
AcDbCircle
 10
103.77950117
 20
-50.11145436
 30
0.0
 40
1.5
  0
CIRCLE
  5
97
330
190
100
AcDbEntity
  8
0
  6
PHANTOM
 62
     2
100
AcDbCircle
 10
116.57951948
 20
-50.11146962
 30
0.0
 40
1.5
  0
CIRCLE
  5
98
330
190
100
AcDbEntity
  8
0
  6
PHANTOM
 62
     2
100
AcDbCircle
 10
117.15688154
 20
-50.11146962
 30
0.0
 40
0.5
  0
LINE
  5
99
330
190
100
AcDbEntity
  8
0
  6
PHANTOM
 62
     2
100
AcDbLine
 10
100.77617597
 20
-57.61145436
 30
0.0
 11
120.77617597
 21
-57.61145436
 31
0.0
  0
LINE
  5
9A
330
190
100
AcDbEntity
  8
0
  6
Continuous
 62
     2
100
AcDbLine
 10
-11.72382403
 20
-25.90502327
 30
0.0
 11
-11.72382403
 21
-17.94691563
 31
0.0
  0
LINE
  5
9B
330
190
100
AcDbEntity
  8
0
  6
Continuous
 62
     2
100
AcDbLine
 10
28.27617597
 20
-26.32832686
 30
0.0
 11
28.27617597
 21
-17.52361203
 31
0.0
  0
LINE
  5
9C
330
190
100
AcDbEntity
  8
0
  6
Continuous
 62
     2
100
AcDbLine
 10
32.84182831
 20
-21.61145436
 30
0.0
 11
-15.7534247
 21
-21.61145436
 31
0.0
  0
LINE
  5
9D
330
190
100
AcDbEntity
  8
0
  6
Continuous
 62
     7
100
AcDbLine
 10
-19.22382403
 20
-22.61145436
 30
0.0
 11
-24.22382403
 21
-22.61145436
 31
0.0
  0
LINE
  5
9E
330
190
100
AcDbEntity
  8
0
  6
Continuous
 62
     7
100
AcDbLine
 10
47.77617596999999
 20
-38.61145436000001
 30
0.0
 11
47.77617596999999
 21
-33.36145436000001
 31
0.0
  0
LINE
  5
9F
330
190
100
AcDbEntity
  8
0
  6
Continuous
 62
     7
100
AcDbLine
 10
47.77617596999999
 20
-26.61145436
 30
0.0
 11
47.77617596999999
 21
-31.86145436
 31
0.0
  0
LINE
  5
A0
330
190
100
AcDbEntity
  8
0
  6
Continuous
 62
     7
100
AcDbLine
 10
48.27617596999999
 20
-31.86145436
 30
0.0
 11
48.27617596999999
 21
-27.11145436
 31
0.0
  0
LINE
  5
A1
330
190
100
AcDbEntity
  8
0
  6
Continuous
 62
     7
100
AcDbLine
 10
48.27617596999999
 20
-31.86145436
 30
0.0
 11
45.77617596999999
 21
-31.86145436
 31
0.0
  0
LINE
  5
A2
330
190
100
AcDbEntity
  8
0
  6
Continuous
 62
     7
100
AcDbLine
 10
48.27617596999999
 20
-33.36145436000001
 30
0.0
 11
45.77617596999999
 21
-33.36145436000001
 31
0.0
  0
LINE
  5
A3
330
190
100
AcDbEntity
  8
0
  6
Continuous
 62
     7
100
AcDbLine
 10
45.77617596999999
 20
-33.36145436000001
 30
0.0
 11
45.77617596999999
 21
-31.86145436
 31
0.0
  0
LINE
  5
A4
330
190
100
AcDbEntity
  8
0
  6
Continuous
 62
     7
100
AcDbLine
 10
48.27617596999999
 20
-38.11145436
 30
0.0
 11
47.77617596999999
 21
-38.61145436000001
 31
0.0
  0
LINE
  5
A5
330
190
100
AcDbEntity
  8
0
  6
Continuous
 62
     7
100
AcDbLine
 10
47.77617596999999
 20
-26.61145436
 30
0.0
 11
48.27617596999999
 21
-27.11145436
 31
0.0
  0
LINE
  5
A6
330
190
100
AcDbEntity
  8
0
  6
Continuous
 62
     7
100
AcDbLine
 10
47.77617596999999
 20
-26.61145436
 30
0.0
 11
40.77617596999999
 21
-26.61145436
 31
0.0
  0
LINE
  5
A7
330
190
100
AcDbEntity
  8
0
  6
Continuous
 62
     7
100
AcDbLine
 10
47.77617596999999
 20
-38.61145436000001
 30
0.0
 11
40.77617596999999
 21
-38.61145436000001
 31
0.0
  0
LINE
  5
A8
330
190
100
AcDbEntity
  8
0
  6
Continuous
 62
     7
100
AcDbLine
 10
48.27617596999999
 20
-38.11145436
 30
0.0
 11
48.27617596999999
 21
-33.36145436000001
 31
0.0
  0
LINE
  5
A9
330
190
100
AcDbEntity
  8
0
  6
Continuous
 62
     7
100
AcDbLine
 10
40.77617596999999
 20
-42.61145436
 30
0.0
 11
-24.22382403
 21
-42.61145436
 31
0.0
  0
LINE
  5
AA
330
190
100
AcDbEntity
  8
0
  6
Continuous
 62
     7
100
AcDbLine
 10
34.27617597
 20
-1.91770875
 30
0.0
 11
34.27617597
 21
-2.61145436
 31
0.0
  0
LINE
  5
AB
330
190
100
AcDbEntity
  8
0
  6
Continuous
 62
     7
100
AcDbLine
 10
30.27617597
 20
-1.91770875
 30
0.0
 11
30.27617597
 21
-2.61145436
 31
0.0
  0
ARC
  5
AC
330
190
100
AcDbEntity
  8
0
  6
Continuous
 62
     7
100
AcDbCircle
 10
33.47617578
 20
-1.91770875
 30
0.0
 40
0.8000000099999999
100
AcDbArc
 50
359.99998201
 51
73.80864543
  0
ARC
  5
AD
330
190
100
AcDbEntity
  8
0
  6
Continuous
 62
     7
100
AcDbCircle
 10
31.07617616
 20
-1.91770875
 30
0.0
 40
0.8000000099999999
100
AcDbArc
 50
106.19135457
 51
180.00001799
  0
LINE
  5
AE
330
190
100
AcDbEntity
  8
0
  6
Continuous
 62
     2
100
AcDbLine
 10
32.27617597
 20
0.38854564
 30
0.0
 11
32.27617597
 21
-3.61145436
 31
0.0
  0
ARC
  5
AF
330
190
100
AcDbEntity
  8
0
  6
Continuous
 62
     7
100
AcDbCircle
 10
32.27617597
 20
-5.285216929999999
 30
0.0
 40
4.373762369999999
100
AcDbArc
 50
69.76109821999999
 51
110.23890178
  0
LINE
  5
B0
330
190
100
AcDbEntity
  8
0
  6
Continuous
 62
     7
100
AcDbLine
 10
34.77617597
 20
-2.61145436
 30
0.0
 11
29.77617597
 21
-2.61145436
 31
0.0
  0
LINE
  5
B1
330
190
100
AcDbEntity
  8
0
  6
Continuous
 62
     7
100
AcDbLine
 10
35.77617597
 20
-4.611454359999999
 30
0.0
 11
-9.223824029999999
 21
-4.611454359999999
 31
0.0
  0
LINE
  5
B2
330
190
100
AcDbEntity
  8
0
  6
Continuous
 62
     7
100
AcDbLine
 10
-9.223824029999999
 20
-4.611454359999999
 30
0.0
 11
-9.223824029999999
 21
-0.61145436
 31
0.0
  0
LINE
  5
B3
330
190
100
AcDbEntity
  8
0
  6
Continuous
 62
     7
100
AcDbLine
 10
-81.72382403
 20
-2.811454359999999
 30
0.0
 11
-81.72382403
 21
-20.41145436
 31
0.0
  0
LINE
  5
B4
330
190
100
AcDbEntity
  8
0
  6
Continuous
 62
     7
100
AcDbLine
 10
-31.72382403
 20
-3.61145436
 30
0.0
 11
-31.72382403
 21
-19.61145436
 31
0.0
  0
LINE
  5
B5
330
190
100
AcDbEntity
  8
0
  6
Continuous
 62
     7
100
AcDbLine
 10
-78.72382403
 20
-1.611454359999999
 30
0.0
 11
-80.52382403000001
 21
-1.611454359999999
 31
0.0
  0
LINE
  5
B6
330
190
100
AcDbEntity
  8
0
  6
Continuous
 62
     7
100
AcDbLine
 10
-78.72382403
 20
-21.61145436
 30
0.0
 11
-80.52382403000001
 21
-21.61145436
 31
0.0
  0
LINE
  5
B7
330
190
100
AcDbEntity
  8
0
  6
Continuous
 62
     7
100
AcDbLine
 10
-78.72382403
 20
-1.611454359999999
 30
0.0
 11
-78.72382403
 21
-21.61145436
 31
0.0
  0
LINE
  5
B8
330
190
100
AcDbEntity
  8
0
  6
Continuous
 62
     7
100
AcDbLine
 10
-80.52382403000001
 20
-1.611454359999999
 30
0.0
 11
-81.72382403
 21
-2.811454359999999
 31
0.0
  0
LINE
  5
B9
330
190
100
AcDbEntity
  8
0
  6
Continuous
 62
     7
100
AcDbLine
 10
-81.72382403
 20
-20.41145436
 30
0.0
 11
-80.52382403000001
 21
-21.61145436
 31
0.0
  0
LINE
  5
BA
330
190
100
AcDbEntity
  8
0
  6
Continuous
 62
     7
100
AcDbLine
 10
-80.52382403000001
 20
-1.611454359999999
 30
0.0
 11
-80.52382403000001
 21
-21.61145436
 31
0.0
  0
LINE
  5
BB
330
190
100
AcDbEntity
  8
0
  6
Continuous
 62
     7
100
AcDbLine
 10
-69.72382403000001
 20
-3.811454359999999
 30
0.0
 11
-71.52382403
 21
-3.811454359999999
 31
0.0
  0
LINE
  5
BC
330
190
100
AcDbEntity
  8
0
  6
Continuous
 62
     7
100
AcDbLine
 10
-69.72382403000001
 20
-19.41145436
 30
0.0
 11
-71.52382403
 21
-19.41145436
 31
0.0
  0
LINE
  5
BD
330
190
100
AcDbEntity
  8
0
  6
Continuous
 62
     7
100
AcDbLine
 10
-76.92382403
 20
-1.611454359999999
 30
0.0
 11
-76.92382403
 21
-21.61145436
 31
0.0
  0
LINE
  5
BE
330
190
100
AcDbEntity
  8
0
  6
Continuous
 62
     7
100
AcDbLine
 10
-75.12382403
 20
-1.611454359999999
 30
0.0
 11
-75.12382403
 21
-21.61145436
 31
0.0
  0
LINE
  5
BF
330
190
100
AcDbEntity
  8
0
  6
Continuous
 62
     7
100
AcDbLine
 10
-73.32382403
 20
-1.611454359999999
 30
0.0
 11
-73.32382403
 21
-21.61145436
 31
0.0
  0
LINE
  5
C0
330
190
100
AcDbEntity
  8
0
  6
Continuous
 62
     7
100
AcDbLine
 10
-71.52382403
 20
-1.611454359999999
 30
0.0
 11
-71.52382403
 21
-21.61145436
 31
0.0
  0
LINE
  5
C1
330
190
100
AcDbEntity
  8
0
  6
Continuous
 62
     7
100
AcDbLine
 10
-69.72382403000001
 20
-1.611454359999999
 30
0.0
 11
-69.72382403000001
 21
-21.61145436
 31
0.0
  0
LINE
  5
C2
330
190
100
AcDbEntity
  8
0
  6
Continuous
 62
     7
100
AcDbLine
 10
-67.92382403000001
 20
-1.611454359999999
 30
0.0
 11
-67.92382403000001
 21
-21.61145436
 31
0.0
  0
LINE
  5
C3
330
190
100
AcDbEntity
  8
0
  6
Continuous
 62
     7
100
AcDbLine
 10
-66.12382402999999
 20
-1.611454359999999
 30
0.0
 11
-66.12382402999999
 21
-21.61145436
 31
0.0
  0
LINE
  5
C4
330
190
100
AcDbEntity
  8
0
  6
Continuous
 62
     7
100
AcDbLine
 10
-62.52382403
 20
-1.611454359999999
 30
0.0
 11
-62.52382403
 21
-21.61145436
 31
0.0
  0
LINE
  5
C5
330
190
100
AcDbEntity
  8
0
  6
Continuous
 62
     7
100
AcDbLine
 10
-73.32382403
 20
-3.811454359999999
 30
0.0
 11
-75.12382403
 21
-3.811454359999999
 31
0.0
  0
LINE
  5
C6
330
190
100
AcDbEntity
  8
0
  6
Continuous
 62
     7
100
AcDbLine
 10
-76.92382403
 20
-3.811454359999999
 30
0.0
 11
-78.72382403
 21
-3.811454359999999
 31
0.0
  0
LINE
  5
C7
330
190
100
AcDbEntity
  8
0
  6
Continuous
 62
     7
100
AcDbLine
 10
-73.32382403
 20
-19.41145436
 30
0.0
 11
-75.12382403
 21
-19.41145436
 31
0.0
  0
LINE
  5
C8
330
190
100
AcDbEntity
  8
0
  6
Continuous
 62
     7
100
AcDbLine
 10
-76.92382403
 20
-19.41145436
 30
0.0
 11
-78.72382403
 21
-19.41145436
 31
0.0
  0
LINE
  5
C9
330
190
100
AcDbEntity
  8
0
  6
Continuous
 62
     7
100
AcDbLine
 10
-69.72382403000001
 20
-8.611454359999999
 30
0.0
 11
-71.52382403
 21
-8.611454359999999
 31
0.0
  0
LINE
  5
CA
330
190
100
AcDbEntity
  8
0
  6
Continuous
 62
     7
100
AcDbLine
 10
-69.72382403000001
 20
-14.61145436
 30
0.0
 11
-71.52382403
 21
-14.61145436
 31
0.0
  0
LINE
  5
CB
330
190
100
AcDbEntity
  8
0
  6
Continuous
 62
     7
100
AcDbLine
 10
-76.92382403
 20
-8.611454359999999
 30
0.0
 11
-78.72382403
 21
-8.611454359999999
 31
0.0
  0
LINE
  5
CC
330
190
100
AcDbEntity
  8
0
  6
Continuous
 62
     7
100
AcDbLine
 10
-73.32382403
 20
-8.611454359999999
 30
0.0
 11
-75.12382403
 21
-8.611454359999999
 31
0.0
  0
LINE
  5
CD
330
190
100
AcDbEntity
  8
0
  6
Continuous
 62
     7
100
AcDbLine
 10
-76.92382403
 20
-14.61145436
 30
0.0
 11
-78.72382403
 21
-14.61145436
 31
0.0
  0
LINE
  5
CE
330
190
100
AcDbEntity
  8
0
  6
Continuous
 62
     7
100
AcDbLine
 10
-73.32382403
 20
-14.61145436
 30
0.0
 11
-75.12382403
 21
-14.61145436
 31
0.0
  0
LINE
  5
CF
330
190
100
AcDbEntity
  8
0
  6
Continuous
 62
     7
100
AcDbLine
 10
-76.92382403
 20
-1.611454359999999
 30
0.0
 11
-75.12382403
 21
-1.611454359999999
 31
0.0
  0
LINE
  5
D0
330
190
100
AcDbEntity
  8
0
  6
Continuous
 62
     7
100
AcDbLine
 10
-76.92382403
 20
-21.61145436
 30
0.0
 11
-75.12382403
 21
-21.61145436
 31
0.0
  0
LINE
  5
D1
330
190
100
AcDbEntity
  8
0
  6
Continuous
 62
     7
100
AcDbLine
 10
-73.32382403
 20
-1.611454359999999
 30
0.0
 11
-71.52382403
 21
-1.611454359999999
 31
0.0
  0
LINE
  5
D2
330
190
100
AcDbEntity
  8
0
  6
Continuous
 62
     7
100
AcDbLine
 10
-69.72382403000001
 20
-1.611454359999999
 30
0.0
 11
-67.92382403000001
 21
-1.611454359999999
 31
0.0
  0
LINE
  5
D3
330
190
100
AcDbEntity
  8
0
  6
Continuous
 62
     7
100
AcDbLine
 10
-73.32382403
 20
-21.61145436
 30
0.0
 11
-71.52382403
 21
-21.61145436
 31
0.0
  0
LINE
  5
D4
330
190
100
AcDbEntity
  8
0
  6
Continuous
 62
     7
100
AcDbLine
 10
-69.72382403000001
 20
-21.61145436
 30
0.0
 11
-67.92382403000001
 21
-21.61145436
 31
0.0
  0
LINE
  5
D5
330
190
100
AcDbEntity
  8
0
  6
Continuous
 62
     7
100
AcDbLine
 10
-66.12382402999999
 20
-2.211454359999999
 30
0.0
 11
-67.92382403000001
 21
-2.211454359999999
 31
0.0
  0
LINE
  5
D6
330
190
100
AcDbEntity
  8
0
  6
Continuous
 62
     7
100
AcDbLine
 10
-62.52382403
 20
-2.211454359999999
 30
0.0
 11
-64.32382403
 21
-2.211454359999999
 31
0.0
  0
LINE
  5
D7
330
190
100
AcDbEntity
  8
0
  6
Continuous
 62
     7
100
AcDbLine
 10
-66.12382402999999
 20
-21.01145436
 30
0.0
 11
-67.92382403000001
 21
-21.01145436
 31
0.0
  0
LINE
  5
D8
330
190
100
AcDbEntity
  8
0
  6
Continuous
 62
     7
100
AcDbLine
 10
-62.52382403
 20
-21.01145436
 30
0.0
 11
-64.32382403
 21
-21.01145436
 31
0.0
  0
LINE
  5
D9
330
190
100
AcDbEntity
  8
0
  6
Continuous
 62
     7
100
AcDbLine
 10
-64.32382403
 20
-1.611454359999999
 30
0.0
 11
-64.32382403
 21
-21.61145436
 31
0.0
  0
LINE
  5
DA
330
190
100
AcDbEntity
  8
0
  6
Continuous
 62
     7
100
AcDbLine
 10
-66.12382402999999
 20
-1.611454359999999
 30
0.0
 11
-64.32382403
 21
-1.611454359999999
 31
0.0
  0
LINE
  5
DB
330
190
100
AcDbEntity
  8
0
  6
Continuous
 62
     7
100
AcDbLine
 10
-66.12382402999999
 20
-21.61145436
 30
0.0
 11
-64.32382403
 21
-21.61145436
 31
0.0
  0
LINE
  5
DC
330
190
100
AcDbEntity
  8
0
  6
Continuous
 62
     7
100
AcDbLine
 10
-56.52382403
 20
-1.611454359999999
 30
0.0
 11
-56.52382403
 21
-21.61145436
 31
0.0
  0
LINE
  5
DD
330
190
100
AcDbEntity
  8
0
  6
Continuous
 62
     7
100
AcDbLine
 10
-62.52382403
 20
-1.611454359999999
 30
0.0
 11
-56.52382403
 21
-1.611454359999999
 31
0.0
  0
LINE
  5
DE
330
190
100
AcDbEntity
  8
0
  6
Continuous
 62
     7
100
AcDbLine
 10
-62.52382403
 20
-21.61145436
 30
0.0
 11
-56.52382403
 21
-21.61145436
 31
0.0
  0
LINE
  5
DF
330
190
100
AcDbEntity
  8
0
  6
Continuous
 62
     7
100
AcDbLine
 10
-69.72382403000001
 20
-2.211454359999999
 30
0.0
 11
-71.52382403
 21
-2.211454359999999
 31
0.0
  0
LINE
  5
E0
330
190
100
AcDbEntity
  8
0
  6
Continuous
 62
     7
100
AcDbLine
 10
-69.72382403000001
 20
-21.01145436
 30
0.0
 11
-71.52382403
 21
-21.01145436
 31
0.0
  0
LINE
  5
E1
330
190
100
AcDbEntity
  8
0
  6
Continuous
 62
     7
100
AcDbLine
 10
-73.32382403
 20
-2.211454359999999
 30
0.0
 11
-75.12382403
 21
-2.211454359999999
 31
0.0
  0
LINE
  5
E2
330
190
100
AcDbEntity
  8
0
  6
Continuous
 62
     7
100
AcDbLine
 10
-73.32382403
 20
-21.01145436
 30
0.0
 11
-75.12382403
 21
-21.01145436
 31
0.0
  0
LINE
  5
E3
330
190
100
AcDbEntity
  8
0
  6
Continuous
 62
     7
100
AcDbLine
 10
-76.92382403
 20
-2.211454359999999
 30
0.0
 11
-78.72382403
 21
-2.211454359999999
 31
0.0
  0
LINE
  5
E4
330
190
100
AcDbEntity
  8
0
  6
Continuous
 62
     7
100
AcDbLine
 10
-76.92382403
 20
-21.01145436
 30
0.0
 11
-78.72382403
 21
-21.01145436
 31
0.0
  0
LINE
  5
E5
330
190
100
AcDbEntity
  8
0
  6
Continuous
 62
     7
100
AcDbLine
 10
-24.22382403
 20
-0.61145436
 30
0.0
 11
-24.22382403
 21
-42.61145436
 31
0.0
  0
LINE
  5
E6
330
190
100
AcDbEntity
  8
0
  6
Continuous
 62
     7
100
AcDbLine
 10
-19.22382403
 20
-0.61145436
 30
0.0
 11
-19.22382403
 21
-22.61145436
 31
0.0
  0
LINE
  5
E7
330
190
100
AcDbEntity
  8
0
  6
Continuous
 62
     7
100
AcDbLine
 10
-56.52382403
 20
-1.611454359999999
 30
0.0
 11
-31.72382403
 21
-3.61145436
 31
0.0
  0
LINE
  5
E8
330
190
100
AcDbEntity
  8
0
  6
Continuous
 62
     7
100
AcDbLine
 10
-31.72382403
 20
-19.61145436
 30
0.0
 11
-56.52382403
 21
-21.61145436
 31
0.0
  0
LINE
  5
E9
330
190
100
AcDbEntity
  8
0
  6
Continuous
 62
     7
100
AcDbLine
 10
40.77617596999999
 20
-22.61145436
 30
0.0
 11
35.77617597
 21
-22.61145436
 31
0.0
  0
LINE
  5
EA
330
190
100
AcDbEntity
  8
0
  6
Continuous
 62
     7
100
AcDbLine
 10
40.77617596999999
 20
-0.61145436
 30
0.0
 11
-24.22382403
 21
-0.61145436
 31
0.0
  0
LINE
  5
EB
330
190
100
AcDbEntity
  8
0
  6
Continuous
 62
     7
100
AcDbLine
 10
-24.22382403
 20
-21.61145436
 30
0.0
 11
-31.72382403
 21
-19.61145436
 31
0.0
  0
LINE
  5
EC
330
190
100
AcDbEntity
  8
0
  6
Continuous
 62
     7
100
AcDbLine
 10
-31.72382403
 20
-3.61145436
 30
0.0
 11
-26.07266769
 21
-2.10447934
 31
0.0
  0
LINE
  5
ED
330
190
100
AcDbEntity
  8
0
  6
Continuous
 62
     7
100
AcDbLine
 10
40.77617596999999
 20
-1.611454359999999
 30
0.0
 11
48.27617596999999
 21
-3.61145436
 31
0.0
  0
LINE
  5
EE
330
190
100
AcDbEntity
  8
0
  6
Continuous
 62
     7
100
AcDbLine
 10
48.27617596999999
 20
-19.61145436
 30
0.0
 11
42.62501963
 21
-21.11842939
 31
0.0
  0
LINE
  5
EF
330
190
100
AcDbEntity
  8
0
  6
Continuous
 62
     7
100
AcDbLine
 10
29.77617597
 20
-0.61145436
 30
0.0
 11
29.77617597
 21
-2.61145436
 31
0.0
  0
LINE
  5
F0
330
190
100
AcDbEntity
  8
0
  6
Continuous
 62
     7
100
AcDbLine
 10
34.77617597
 20
-0.61145436
 30
0.0
 11
34.77617597
 21
-2.61145436
 31
0.0
  0
LINE
  5
F1
330
190
100
AcDbEntity
  8
0
  6
Continuous
 62
     7
100
AcDbLine
 10
35.77617597
 20
-22.61145436
 30
0.0
 11
35.77617597
 21
-0.61145436
 31
0.0
  0
LINE
  5
F2
330
190
100
AcDbEntity
  8
0
  6
Continuous
 62
     7
100
AcDbLine
 10
48.27617596999999
 20
-3.61145436
 30
0.0
 11
48.27617596999999
 21
-19.61145436
 31
0.0
  0
LINE
  5
F3
330
190
100
AcDbEntity
  8
0
  6
Continuous
 62
     7
100
AcDbLine
 10
40.77617596999999
 20
-42.61145436
 30
0.0
 11
40.77617596999999
 21
-0.61145436
 31
0.0
  0
LINE
  5
F4
330
190
100
AcDbEntity
  8
0
  6
PHANTOM
 62
     2
100
AcDbLine
 10
40.77617596999999
 20
-57.61145436
 30
0.0
 11
-24.22382403
 21
-57.61145436
 31
0.0
  0
LINE
  5
F5
330
190
100
AcDbEntity
  8
0
  6
PHANTOM
 62
     2
100
AcDbLine
 10
0.7761759700000001
 20
-42.61145436
 30
0.0
 11
0.7761759700000001
 21
-57.61145436
 31
0.0
  0
LINE
  5
F6
330
190
100
AcDbEntity
  8
0
  6
PHANTOM
 62
     2
100
AcDbLine
 10
-24.22382403
 20
-42.61145436
 30
0.0
 11
-24.22382403
 21
-57.61145436
 31
0.0
  0
LINE
  5
F7
330
190
100
AcDbEntity
  8
0
  6
PHANTOM
 62
     2
100
AcDbLine
 10
-10.22382403
 20
-53.61145436000001
 30
0.0
 11
-10.22382403
 21
-49.61145436
 31
0.0
  0
ARC
  5
F8
330
190
100
AcDbEntity
  8
0
  6
PHANTOM
 62
     2
100
AcDbCircle
 10
-10.22382403
 20
-47.93769179999999
 30
0.0
 40
4.373762369999999
100
AcDbArc
 50
255.57275583
 51
284.42724417
  0
LINE
  5
F9
330
190
100
AcDbEntity
  8
0
  6
PHANTOM
 62
     2
100
AcDbLine
 10
-9.134099289999999
 20
-50.61145436
 30
0.0
 11
-11.31354877
 21
-50.61145436
 31
0.0
  0
LINE
  5
FA
330
190
100
AcDbEntity
  8
0
  6
PHANTOM
 62
     2
100
AcDbLine
 10
-9.134099289999999
 20
-57.61145436
 30
0.0
 11
-9.134099289999999
 21
-50.61145436
 31
0.0
  0
LINE
  5
FB
330
190
100
AcDbEntity
  8
0
  6
PHANTOM
 62
     2
100
AcDbLine
 10
-11.31354877
 20
-57.61145436
 30
0.0
 11
-11.31354877
 21
-50.61145436
 31
0.0
  0
LINE
  5
FC
330
190
100
AcDbEntity
  8
0
  6
PHANTOM
 62
     2
100
AcDbLine
 10
40.77617596999999
 20
-57.61145436
 30
0.0
 11
40.77617596999999
 21
-42.61145436
 31
0.0
  0
LINE
  5
FD
330
190
100
AcDbEntity
  8
0
  6
PHANTOM
 62
     2
100
AcDbLine
 10
40.77617667
 20
-57.61145436
 30
0.0
 11
42.7761767
 21
-55.61145433
 31
0.0
  0
LINE
  5
FE
330
190
100
AcDbEntity
  8
0
  6
PHANTOM
 62
     2
100
AcDbLine
 10
40.77617667
 20
-42.61145411
 30
0.0
 11
42.7761767
 21
-44.61145413999999
 31
0.0
  0
ARC
  5
FF
330
190
100
AcDbEntity
  8
0
  6
PHANTOM
 62
     2
100
AcDbCircle
 10
40.78569030999999
 20
-50.11145424
 30
0.0
 40
1.500030199999999
100
AcDbArc
 50
269.63661071
 51
90.36338928999999
  0
LINE
  5
100
330
190
100
AcDbEntity
  8
0
  6
PHANTOM
 62
     2
100
AcDbLine
 10
42.7761767
 20
-44.61145413999999
 30
0.0
 11
42.7761767
 21
-55.61145433
 31
0.0
  0
LINE
  5
101
330
190
100
AcDbEntity
  8
0
  6
PHANTOM
 62
     2
100
AcDbLine
 10
50.51903398
 20
-51.61145426
 30
0.0
 11
42.7761767
 21
-51.61145426
 31
0.0
  0
LINE
  5
102
330
190
100
AcDbEntity
  8
0
  6
PHANTOM
 62
     2
100
AcDbLine
 10
49.71903396
 20
-48.61145420999999
 30
0.0
 11
42.7761767
 21
-48.61145420999999
 31
0.0
  0
LINE
  5
103
330
190
100
AcDbEntity
  8
0
  6
Continuous
 62
     2
100
AcDbLine
 10
51.27617597
 20
-11.61145436
 30
0.0
 11
-84.72382403000001
 21
-11.61145436
 31
0.0
  0
LINE
  5
104
330
190
100
AcDbEntity
  8
0
  6
Continuous
 62
     2
100
AcDbLine
 10
49.53451479
 20
-32.61145436
 30
0.0
 11
39.37080309
 21
-32.61145436
 31
0.0
  0
CIRCLE
  5
105
330
190
100
AcDbEntity
  8
0
  6
Continuous
 62
     2
100
AcDbCircle
 10
-129.22382403
 20
-32.61145436
 30
0.0
 40
6.57849979
  0
CIRCLE
  5
106
330
190
100
AcDbEntity
  8
0
  6
Continuous
 62
     7
100
AcDbCircle
 10
-129.22382403
 20
-32.61145436
 30
0.0
 40
5.72249985
  0
CIRCLE
  5
107
330
190
100
AcDbEntity
  8
0
  6
Continuous
 62
     7
100
AcDbCircle
 10
-129.22382403
 20
-11.61145436
 30
0.0
 40
9.0
  0
LINE
  5
108
330
190
100
AcDbEntity
  8
0
  6
Continuous
 62
     7
100
AcDbLine
 10
-122.15275607
 20
-18.68252203
 30
0.0
 11
-120.66316375
 21
-20.17211448
 31
0.0
  0
LINE
  5
109
330
190
100
AcDbEntity
  8
0
  6
Continuous
 62
     7
100
AcDbLine
 10
-120.66316408
 20
-18.05079392
 30
0.0
 11
-122.78448457
 21
-20.17211422
 31
0.0
  0
LINE
  5
10A
330
190
100
AcDbEntity
  8
0
  6
Continuous
 62
     2
100
AcDbLine
 10
-121.7238242
 20
-18.22583283
 30
0.0
 11
-121.7238242
 21
-21.9114536
 31
0.0
  0
LINE
  5
10B
330
190
100
AcDbEntity
  8
0
  6
Continuous
 62
     2
100
AcDbLine
 10
-122.60944575
 20
-19.11145436
 30
0.0
 11
-118.92382479
 21
-19.11145436
 31
0.0
  0
ARC
  5
10C
330
190
100
AcDbEntity
  8
0
  6
Continuous
 62
     7
100
AcDbCircle
 10
-121.72382462
 20
-19.11145436
 30
0.0
 40
2.5
100
AcDbArc
 50
204.29519604
 51
65.70479946
  0
LINE
  5
10D
330
190
100
AcDbEntity
  8
0
  6
Continuous
 62
     7
100
AcDbLine
 10
-137.78448406
 20
-3.050793999999999
 30
0.0
 11
-136.29489173
 21
-4.540386439999999
 31
0.0
  0
LINE
  5
10E
330
190
100
AcDbEntity
  8
0
  6
Continuous
 62
     7
100
AcDbLine
 10
-135.66316408
 20
-3.050793919999999
 30
0.0
 11
-137.78448457
 21
-5.17211422
 31
0.0
  0
LINE
  5
10F
330
190
100
AcDbEntity
  8
0
  6
Continuous
 62
     2
100
AcDbLine
 10
-136.7238242
 20
-1.311455129999999
 30
0.0
 11
-136.7238242
 21
-4.997076279999999
 31
0.0
  0
LINE
  5
110
330
190
100
AcDbEntity
  8
0
  6
Continuous
 62
     2
100
AcDbLine
 10
-139.52382327
 20
-4.111454359999999
 30
0.0
 11
-135.83820231
 21
-4.111454359999999
 31
0.0
  0
ARC
  5
111
330
190
100
AcDbEntity
  8
0
  6
Continuous
 62
     7
100
AcDbCircle
 10
-136.72382462
 20
-4.111454359999999
 30
0.0
 40
2.5
100
AcDbArc
 50
24.29518185
 51
245.70482265
  0
LINE
  5
112
330
190
100
AcDbEntity
  8
0
  6
Continuous
 62
     7
100
AcDbLine
 10
-139.22382403
 20
-0.61145436
 30
0.0
 11
-119.22382403
 21
-0.61145436
 31
0.0
  0
LINE
  5
113
330
190
100
AcDbEntity
  8
0
  6
Continuous
 62
     7
100
AcDbLine
 10
-139.22382403
 20
-22.61145436
 30
0.0
 11
-119.22382403
 21
-22.61145436
 31
0.0
  0
LINE
  5
114
330
190
100
AcDbEntity
  8
0
  6
Continuous
 62
     7
100
AcDbLine
 10
-139.22382403
 20
-42.61145436
 30
0.0
 11
-119.22382403
 21
-42.61145436
 31
0.0
  0
CIRCLE
  5
115
330
190
100
AcDbEntity
  8
0
  6
Continuous
 62
     7
100
AcDbCircle
 10
-129.22382403
 20
-11.61145436
 30
0.0
 40
10.0
  0
LINE
  5
116
330
190
100
AcDbEntity
  8
0
  6
Continuous
 62
     7
100
AcDbLine
 10
-139.22382403
 20
-42.61145436
 30
0.0
 11
-139.22382403
 21
-0.61145436
 31
0.0
  0
LINE
  5
117
330
190
100
AcDbEntity
  8
0
  6
Continuous
 62
     7
100
AcDbLine
 10
-119.22382403
 20
-42.61145436
 30
0.0
 11
-119.22382403
 21
-0.61145436
 31
0.0
  0
LINE
  5
118
330
190
100
AcDbEntity
  8
0
  6
PHANTOM
 62
     2
100
AcDbLine
 10
-139.22382403
 20
-57.18995416
 30
0.0
 11
-139.22382403
 21
-42.18995416
 31
0.0
  0
LINE
  5
119
330
190
100
AcDbEntity
  8
0
  6
PHANTOM
 62
     2
100
AcDbLine
 10
-139.22382403
 20
-57.18995416
 30
0.0
 11
-119.22382403
 21
-57.18995416
 31
0.0
  0
CIRCLE
  5
11A
330
190
100
AcDbEntity
  8
0
  6
PHANTOM
 62
     2
100
AcDbCircle
 10
-135.72382403
 20
-53.68995416
 30
0.0
 40
2.5
  0
CIRCLE
  5
11B
330
190
100
AcDbEntity
  8
0
  6
PHANTOM
 62
     2
100
AcDbCircle
 10
-122.72382403
 20
-45.68995415999999
 30
0.0
 40
2.5
  0
LINE
  5
11C
330
190
100
AcDbEntity
  8
0
  6
PHANTOM
 62
     2
100
AcDbLine
 10
-119.22382403
 20
-57.18995416
 30
0.0
 11
-119.22382403
 21
-42.18995416
 31
0.0
  0
LINE
  5
11D
330
190
100
AcDbEntity
  8
0
  6
Continuous
 62
     2
100
AcDbLine
 10
-116.22382403
 20
-11.61145436
 30
0.0
 11
-142.22382403
 21
-11.61145436
 31
0.0
  0
LINE
  5
11E
330
190
100
AcDbEntity
  8
0
  6
Continuous
 62
     2
100
AcDbLine
 10
-120.22382403
 20
-32.61145436
 30
0.0
 11
-138.22382403
 21
-32.61145436
 31
0.0
  0
LINE
  5
11F
330
190
100
AcDbEntity
  8
0
  6
Continuous
 62
     2
100
AcDbLine
 10
-129.22382403
 20
2.388545639999999
 30
0.0
 11
-129.22382403
 21
-60.18995416
 31
0.0
  0
LINE
  5
120
330
190
100
AcDbEntity
  8
0
  6
Continuous
 62
     7
100
AcDbLine
 10
48.27617596999999
 20
67.38854564
 30
0.0
 11
48.27617596999999
 21
51.38854563999999
 31
0.0
  0
LINE
  5
121
330
190
100
AcDbEntity
  8
0
  6
Continuous
 62
     7
100
AcDbLine
 10
40.77617596999999
 20
49.38854563999999
 30
0.0
 11
40.77617596999999
 21
69.38854564
 31
0.0
  0
LINE
  5
122
330
190
100
AcDbEntity
  8
0
  6
Continuous
 62
     7
100
AcDbLine
 10
35.77617597
 20
49.38854563999999
 30
0.0
 11
35.77617597
 21
69.38854564
 31
0.0
  0
LINE
  5
123
330
190
100
AcDbEntity
  8
0
  6
Continuous
 62
     7
100
AcDbLine
 10
35.77617597
 20
59.38854563999999
 30
0.0
 11
25.77617597
 21
69.38854564
 31
0.0
  0
ARC
  5
124
330
190
100
AcDbEntity
  8
0
  6
Continuous
 62
     7
100
AcDbCircle
 10
32.27617597
 20
51.38854538
 30
0.0
 40
2.5
100
AcDbArc
 50
0.00000726
 51
180.0
  0
LINE
  5
125
330
190
100
AcDbEntity
  8
0
  6
Continuous
 62
     7
100
AcDbLine
 10
34.77617597
 20
51.38854570000001
 30
0.0
 11
34.77617597
 21
49.38854563999999
 31
0.0
  0
LINE
  5
126
330
190
100
AcDbEntity
  8
0
  6
Continuous
 62
     7
100
AcDbLine
 10
29.77617597
 20
51.38854538
 30
0.0
 11
29.77617597
 21
49.38854563999999
 31
0.0
  0
LINE
  5
127
330
190
100
AcDbEntity
  8
0
  6
Continuous
 62
     7
100
AcDbLine
 10
48.27617596999999
 20
67.38854564
 30
0.0
 11
42.62501963
 21
68.89552066
 31
0.0
  0
LINE
  5
128
330
190
100
AcDbEntity
  8
0
  6
Continuous
 62
     7
100
AcDbLine
 10
40.77617596999999
 20
49.38854563999999
 30
0.0
 11
48.27617596999999
 21
51.38854563999999
 31
0.0
  0
LINE
  5
129
330
190
100
AcDbEntity
  8
0
  6
Continuous
 62
     7
100
AcDbLine
 10
-13.22382403
 20
67.38854589
 30
0.0
 11
-13.22382403
 21
69.38854564
 31
0.0
  0
LINE
  5
12A
330
190
100
AcDbEntity
  8
0
  6
Continuous
 62
     7
100
AcDbLine
 10
-18.22382403
 20
67.38854557
 30
0.0
 11
-18.22382403
 21
69.38854564
 31
0.0
  0
ARC
  5
12B
330
190
100
AcDbEntity
  8
0
  6
Continuous
 62
     7
100
AcDbCircle
 10
-15.72382403
 20
67.38854589
 30
0.0
 40
2.5
100
AcDbArc
 50
180.0000072599999
 51
0.0
  0
LINE
  5
12C
330
190
100
AcDbEntity
  8
0
  6
Continuous
 62
     7
100
AcDbLine
 10
-19.22382403
 20
59.38854563999999
 30
0.0
 11
-9.223824029999999
 21
49.38854563999999
 31
0.0
  0
LINE
  5
12D
330
190
100
AcDbEntity
  8
0
  6
Continuous
 62
     7
100
AcDbLine
 10
-31.72382403
 20
51.38854563999999
 30
0.0
 11
-26.07266769
 21
49.88157060999999
 31
0.0
  0
LINE
  5
12E
330
190
100
AcDbEntity
  8
0
  6
Continuous
 62
     7
100
AcDbLine
 10
-24.22382403
 20
69.38854564
 30
0.0
 11
-31.72382403
 21
67.38854564
 31
0.0
  0
LINE
  5
12F
330
190
100
AcDbEntity
  8
0
  6
Continuous
 62
     7
100
AcDbLine
 10
40.77617596999999
 20
69.38854564
 30
0.0
 11
-24.22382403
 21
69.38854564
 31
0.0
  0
LINE
  5
130
330
190
100
AcDbEntity
  8
0
  6
Continuous
 62
     7
100
AcDbLine
 10
40.77617596999999
 20
49.38854563999999
 30
0.0
 11
-24.22382403
 21
49.38854563999999
 31
0.0
  0
LINE
  5
131
330
190
100
AcDbEntity
  8
0
  6
Continuous
 62
     7
100
AcDbLine
 10
-31.72382403
 20
51.38854563999999
 30
0.0
 11
-56.52382403
 21
49.38854563999999
 31
0.0
  0
LINE
  5
132
330
190
100
AcDbEntity
  8
0
  6
Continuous
 62
     7
100
AcDbLine
 10
-56.52382403
 20
69.38854564
 30
0.0
 11
-31.72382403
 21
67.38854564
 31
0.0
  0
LINE
  5
133
330
190
100
AcDbEntity
  8
0
  6
Continuous
 62
     7
100
AcDbLine
 10
-19.22382403
 20
69.38854564
 30
0.0
 11
-19.22382403
 21
49.38854563999999
 31
0.0
  0
LINE
  5
134
330
190
100
AcDbEntity
  8
0
  6
Continuous
 62
     7
100
AcDbLine
 10
-24.22382403
 20
69.38854564
 30
0.0
 11
-24.22382403
 21
49.38854563999999
 31
0.0
  0
LINE
  5
135
330
190
100
AcDbEntity
  8
0
  6
Continuous
 62
     7
100
AcDbLine
 10
-76.92382403
 20
49.98854564
 30
0.0
 11
-78.72382403
 21
49.98854564
 31
0.0
  0
LINE
  5
136
330
190
100
AcDbEntity
  8
0
  6
Continuous
 62
     7
100
AcDbLine
 10
-76.92382403
 20
68.78854564
 30
0.0
 11
-78.72382403
 21
68.78854564
 31
0.0
  0
LINE
  5
137
330
190
100
AcDbEntity
  8
0
  6
Continuous
 62
     7
100
AcDbLine
 10
-73.32382403
 20
49.98854564
 30
0.0
 11
-75.12382403
 21
49.98854564
 31
0.0
  0
LINE
  5
138
330
190
100
AcDbEntity
  8
0
  6
Continuous
 62
     7
100
AcDbLine
 10
-73.32382403
 20
68.78854564
 30
0.0
 11
-75.12382403
 21
68.78854564
 31
0.0
  0
LINE
  5
139
330
190
100
AcDbEntity
  8
0
  6
Continuous
 62
     7
100
AcDbLine
 10
-69.72382403000001
 20
49.98854564
 30
0.0
 11
-71.52382403
 21
49.98854564
 31
0.0
  0
LINE
  5
13A
330
190
100
AcDbEntity
  8
0
  6
Continuous
 62
     7
100
AcDbLine
 10
-69.72382403000001
 20
68.78854564
 30
0.0
 11
-71.52382403
 21
68.78854564
 31
0.0
  0
LINE
  5
13B
330
190
100
AcDbEntity
  8
0
  6
Continuous
 62
     7
100
AcDbLine
 10
-62.52382403
 20
49.38854563999999
 30
0.0
 11
-56.52382403
 21
49.38854563999999
 31
0.0
  0
LINE
  5
13C
330
190
100
AcDbEntity
  8
0
  6
Continuous
 62
     7
100
AcDbLine
 10
-62.52382403
 20
69.38854564
 30
0.0
 11
-56.52382403
 21
69.38854564
 31
0.0
  0
LINE
  5
13D
330
190
100
AcDbEntity
  8
0
  6
Continuous
 62
     7
100
AcDbLine
 10
-56.52382403
 20
69.38854564
 30
0.0
 11
-56.52382403
 21
49.38854563999999
 31
0.0
  0
LINE
  5
13E
330
190
100
AcDbEntity
  8
0
  6
Continuous
 62
     7
100
AcDbLine
 10
-66.12382402999999
 20
49.38854563999999
 30
0.0
 11
-64.32382403
 21
49.38854563999999
 31
0.0
  0
LINE
  5
13F
330
190
100
AcDbEntity
  8
0
  6
Continuous
 62
     7
100
AcDbLine
 10
-66.12382402999999
 20
69.38854564
 30
0.0
 11
-64.32382403
 21
69.38854564
 31
0.0
  0
LINE
  5
140
330
190
100
AcDbEntity
  8
0
  6
Continuous
 62
     7
100
AcDbLine
 10
-64.32382403
 20
69.38854564
 30
0.0
 11
-64.32382403
 21
49.38854563999999
 31
0.0
  0
LINE
  5
141
330
190
100
AcDbEntity
  8
0
  6
Continuous
 62
     7
100
AcDbLine
 10
-62.52382403
 20
49.98854564
 30
0.0
 11
-64.32382403
 21
49.98854564
 31
0.0
  0
LINE
  5
142
330
190
100
AcDbEntity
  8
0
  6
Continuous
 62
     7
100
AcDbLine
 10
-66.12382402999999
 20
49.98854564
 30
0.0
 11
-67.92382403000001
 21
49.98854564
 31
0.0
  0
LINE
  5
143
330
190
100
AcDbEntity
  8
0
  6
Continuous
 62
     7
100
AcDbLine
 10
-62.52382403
 20
68.78854564
 30
0.0
 11
-64.32382403
 21
68.78854564
 31
0.0
  0
LINE
  5
144
330
190
100
AcDbEntity
  8
0
  6
Continuous
 62
     7
100
AcDbLine
 10
-66.12382402999999
 20
68.78854564
 30
0.0
 11
-67.92382403000001
 21
68.78854564
 31
0.0
  0
LINE
  5
145
330
190
100
AcDbEntity
  8
0
  6
Continuous
 62
     7
100
AcDbLine
 10
-69.72382403000001
 20
49.38854563999999
 30
0.0
 11
-67.92382403000001
 21
49.38854563999999
 31
0.0
  0
LINE
  5
146
330
190
100
AcDbEntity
  8
0
  6
Continuous
 62
     7
100
AcDbLine
 10
-73.32382403
 20
49.38854563999999
 30
0.0
 11
-71.52382403
 21
49.38854563999999
 31
0.0
  0
LINE
  5
147
330
190
100
AcDbEntity
  8
0
  6
Continuous
 62
     7
100
AcDbLine
 10
-69.72382403000001
 20
69.38854564
 30
0.0
 11
-67.92382403000001
 21
69.38854564
 31
0.0
  0
LINE
  5
148
330
190
100
AcDbEntity
  8
0
  6
Continuous
 62
     7
100
AcDbLine
 10
-73.32382403
 20
69.38854564
 30
0.0
 11
-71.52382403
 21
69.38854564
 31
0.0
  0
LINE
  5
149
330
190
100
AcDbEntity
  8
0
  6
Continuous
 62
     7
100
AcDbLine
 10
-76.92382403
 20
49.38854563999999
 30
0.0
 11
-75.12382403
 21
49.38854563999999
 31
0.0
  0
LINE
  5
14A
330
190
100
AcDbEntity
  8
0
  6
Continuous
 62
     7
100
AcDbLine
 10
-76.92382403
 20
69.38854564
 30
0.0
 11
-75.12382403
 21
69.38854564
 31
0.0
  0
LINE
  5
14B
330
190
100
AcDbEntity
  8
0
  6
Continuous
 62
     7
100
AcDbLine
 10
-73.32382403
 20
56.38854563999999
 30
0.0
 11
-75.12382403
 21
56.38854563999999
 31
0.0
  0
LINE
  5
14C
330
190
100
AcDbEntity
  8
0
  6
Continuous
 62
     7
100
AcDbLine
 10
-76.92382403
 20
56.38854563999999
 30
0.0
 11
-78.72382403
 21
56.38854563999999
 31
0.0
  0
LINE
  5
14D
330
190
100
AcDbEntity
  8
0
  6
Continuous
 62
     7
100
AcDbLine
 10
-73.32382403
 20
62.38854564
 30
0.0
 11
-75.12382403
 21
62.38854564
 31
0.0
  0
LINE
  5
14E
330
190
100
AcDbEntity
  8
0
  6
Continuous
 62
     7
100
AcDbLine
 10
-76.92382403
 20
62.38854564
 30
0.0
 11
-78.72382403
 21
62.38854564
 31
0.0
  0
LINE
  5
14F
330
190
100
AcDbEntity
  8
0
  6
Continuous
 62
     7
100
AcDbLine
 10
-69.72382403000001
 20
56.38854563999999
 30
0.0
 11
-71.52382403
 21
56.38854563999999
 31
0.0
  0
LINE
  5
150
330
190
100
AcDbEntity
  8
0
  6
Continuous
 62
     7
100
AcDbLine
 10
-69.72382403000001
 20
62.38854564
 30
0.0
 11
-71.52382403
 21
62.38854564
 31
0.0
  0
LINE
  5
151
330
190
100
AcDbEntity
  8
0
  6
Continuous
 62
     7
100
AcDbLine
 10
-76.92382403
 20
51.58854564
 30
0.0
 11
-78.72382403
 21
51.58854564
 31
0.0
  0
LINE
  5
152
330
190
100
AcDbEntity
  8
0
  6
Continuous
 62
     7
100
AcDbLine
 10
-73.32382403
 20
51.58854564
 30
0.0
 11
-75.12382403
 21
51.58854564
 31
0.0
  0
LINE
  5
153
330
190
100
AcDbEntity
  8
0
  6
Continuous
 62
     7
100
AcDbLine
 10
-76.92382403
 20
67.18854564
 30
0.0
 11
-78.72382403
 21
67.18854564
 31
0.0
  0
LINE
  5
154
330
190
100
AcDbEntity
  8
0
  6
Continuous
 62
     7
100
AcDbLine
 10
-73.32382403
 20
67.18854564
 30
0.0
 11
-75.12382403
 21
67.18854564
 31
0.0
  0
LINE
  5
155
330
190
100
AcDbEntity
  8
0
  6
Continuous
 62
     7
100
AcDbLine
 10
-62.52382403
 20
69.38854564
 30
0.0
 11
-62.52382403
 21
49.38854563999999
 31
0.0
  0
LINE
  5
156
330
190
100
AcDbEntity
  8
0
  6
Continuous
 62
     7
100
AcDbLine
 10
-66.12382402999999
 20
69.38854564
 30
0.0
 11
-66.12382402999999
 21
49.38854563999999
 31
0.0
  0
LINE
  5
157
330
190
100
AcDbEntity
  8
0
  6
Continuous
 62
     7
100
AcDbLine
 10
-67.92382403000001
 20
69.38854564
 30
0.0
 11
-67.92382403000001
 21
49.38854563999999
 31
0.0
  0
LINE
  5
158
330
190
100
AcDbEntity
  8
0
  6
Continuous
 62
     7
100
AcDbLine
 10
-69.72382403000001
 20
69.38854564
 30
0.0
 11
-69.72382403000001
 21
49.38854563999999
 31
0.0
  0
LINE
  5
159
330
190
100
AcDbEntity
  8
0
  6
Continuous
 62
     7
100
AcDbLine
 10
-71.52382403
 20
69.38854564
 30
0.0
 11
-71.52382403
 21
49.38854563999999
 31
0.0
  0
LINE
  5
15A
330
190
100
AcDbEntity
  8
0
  6
Continuous
 62
     7
100
AcDbLine
 10
-73.32382403
 20
69.38854564
 30
0.0
 11
-73.32382403
 21
49.38854563999999
 31
0.0
  0
LINE
  5
15B
330
190
100
AcDbEntity
  8
0
  6
Continuous
 62
     7
100
AcDbLine
 10
-75.12382403
 20
69.38854564
 30
0.0
 11
-75.12382403
 21
49.38854563999999
 31
0.0
  0
LINE
  5
15C
330
190
100
AcDbEntity
  8
0
  6
Continuous
 62
     7
100
AcDbLine
 10
-76.92382403
 20
69.38854564
 30
0.0
 11
-76.92382403
 21
49.38854563999999
 31
0.0
  0
LINE
  5
15D
330
190
100
AcDbEntity
  8
0
  6
Continuous
 62
     7
100
AcDbLine
 10
-69.72382403000001
 20
51.58854564
 30
0.0
 11
-71.52382403
 21
51.58854564
 31
0.0
  0
LINE
  5
15E
330
190
100
AcDbEntity
  8
0
  6
Continuous
 62
     7
100
AcDbLine
 10
-69.72382403000001
 20
67.18854564
 30
0.0
 11
-71.52382403
 21
67.18854564
 31
0.0
  0
LINE
  5
15F
330
190
100
AcDbEntity
  8
0
  6
Continuous
 62
     7
100
AcDbLine
 10
-80.52382403000001
 20
69.38854564
 30
0.0
 11
-80.52382403000001
 21
49.38854563999999
 31
0.0
  0
LINE
  5
160
330
190
100
AcDbEntity
  8
0
  6
Continuous
 62
     7
100
AcDbLine
 10
-81.72382403
 20
50.58854564
 30
0.0
 11
-80.52382403000001
 21
49.38854563999999
 31
0.0
  0
LINE
  5
161
330
190
100
AcDbEntity
  8
0
  6
Continuous
 62
     7
100
AcDbLine
 10
-80.52382403000001
 20
69.38854564
 30
0.0
 11
-81.72382403
 21
68.18854564
 31
0.0
  0
LINE
  5
162
330
190
100
AcDbEntity
  8
0
  6
Continuous
 62
     7
100
AcDbLine
 10
-78.72382403
 20
69.38854564
 30
0.0
 11
-78.72382403
 21
49.38854563999999
 31
0.0
  0
LINE
  5
163
330
190
100
AcDbEntity
  8
0
  6
Continuous
 62
     7
100
AcDbLine
 10
-78.72382403
 20
49.38854563999999
 30
0.0
 11
-80.52382403000001
 21
49.38854563999999
 31
0.0
  0
LINE
  5
164
330
190
100
AcDbEntity
  8
0
  6
Continuous
 62
     7
100
AcDbLine
 10
-78.72382403
 20
69.38854564
 30
0.0
 11
-80.52382403000001
 21
69.38854564
 31
0.0
  0
LINE
  5
165
330
190
100
AcDbEntity
  8
0
  6
Continuous
 62
     2
100
AcDbLine
 10
51.27617597
 20
59.38854563999999
 30
0.0
 11
-84.72382403000001
 21
59.38854563999999
 31
0.0
  0
LINE
  5
166
330
190
100
AcDbEntity
  8
0
  6
Continuous
 62
     7
100
AcDbLine
 10
-31.72382403
 20
67.38854564
 30
0.0
 11
-31.72382403
 21
51.38854563999999
 31
0.0
  0
LINE
  5
167
330
190
100
AcDbEntity
  8
0
  6
Continuous
 62
     7
100
AcDbLine
 10
-81.72382403
 20
68.18854564
 30
0.0
 11
-81.72382403
 21
50.58854564
 31
0.0
  0
TEXT
  5
168
330
190
100
AcDbEntity
  8
0
  6
Continuous
 62
     7
100
AcDbText
 10
-185.68181818
 20
115.3500061
 30
0.0
 40
4.5
  1
MODEL:MEDT12
 41
1.09090909
  7
MX_NOTE_STANDARD
 11
-185.68181818
 21
117.6000061
 31
0.0
100
AcDbText
 73
     2
  0
LINE
  5
169
330
190
100
AcDbEntity
  8
0
  6
Continuous
 62
     7
100
AcDbLine
 10
-194.25
 20
132.6000061
 30
0.0
 11
194.80000305
 21
132.6000061
 31
0.0
  0
LINE
  5
16A
330
190
100
AcDbEntity
  8
0
  6
Continuous
 62
     7
100
AcDbLine
 10
194.80000305
 20
132.6000061
 30
0.0
 11
194.80000305
 21
-133.5
 31
0.0
  0
LINE
  5
16B
330
190
100
AcDbEntity
  8
0
  6
Continuous
 62
     7
100
AcDbLine
 10
-194.25
 20
132.6000061
 30
0.0
 11
-194.25
 21
-133.5
 31
0.0
  0
LINE
  5
16C
330
190
100
AcDbEntity
  8
0
  6
Continuous
 62
     7
100
AcDbLine
 10
-194.25
 20
-133.5
 30
0.0
 11
194.80000305
 21
-133.5
 31
0.0
  0
ENDSEC
  0
SECTION
  2
OBJECTS
  0
DICTIONARY
  5
17A
330
0
100
AcDbDictionary
281
     1
  3
ACAD_COLOR
350
189
  3
ACAD_GROUP
350
17B
  3
ACAD_LAYOUT
350
187
  3
ACAD_MATERIAL
350
188
  3
ACAD_MLINESTYLE
350
184
  3
ACAD_PLOTSETTINGS
350
186
  3
ACAD_PLOTSTYLENAME
350
17C
  3
ACAD_TABLESTYLE
350
18A
  3
ACDBHEADERROUNDTRIPXREC
350
1A2
  3
AcDbVariableDictionary
350
19C
  3
DWGPROPS
350
1A1
  0
DICTIONARY
  5
189
102
{ACAD_REACTORS
330
17A
102
}
330
17A
100
AcDbDictionary
281
     1
  0
DICTIONARY
  5
17B
102
{ACAD_REACTORS
330
17A
102
}
330
17A
100
AcDbDictionary
281
     1
  0
DICTIONARY
  5
187
102
{ACAD_REACTORS
330
17A
102
}
330
17A
100
AcDbDictionary
281
     1
  3
Model
350
193
  3
レイアウト1
350
18F
  0
DICTIONARY
  5
188
102
{ACAD_REACTORS
330
17A
102
}
330
17A
100
AcDbDictionary
281
     1
  0
DICTIONARY
  5
184
102
{ACAD_REACTORS
330
17A
102
}
330
17A
100
AcDbDictionary
281
     1
  3
Standard
350
185
  0
DICTIONARY
  5
186
102
{ACAD_REACTORS
330
17A
102
}
330
17A
100
AcDbDictionary
281
     1
  0
ACDBDICTIONARYWDFLT
  5
17C
102
{ACAD_REACTORS
330
17A
102
}
330
17A
100
AcDbDictionary
281
     1
  3
Normal
350
17D
100
AcDbDictionaryWithDefault
340
17D
  0
DICTIONARY
  5
18A
102
{ACAD_REACTORS
330
17A
102
}
330
17A
100
AcDbDictionary
281
     1
  3
Standard
350
18B
  0
DICTIONARY
  5
1A2
102
{ACAD_REACTORS
330
17A
102
}
330
17A
100
AcDbDictionary
281
     1
  0
DICTIONARY
  5
19C
102
{ACAD_REACTORS
330
17A
102
}
330
17A
100
AcDbDictionary
281
     1
  3
CTABLESTYLE
350
19D
  3
DIMASSOC
350
19E
  3
PROJECTNAME
350
19F
  0
XRECORD
  5
1A1
102
{ACAD_REACTORS
330
17A
102
}
330
17A
100
AcDbXrecord
280
     1
  1
DWGPROPS COOKIE
  2

  3

  4

  6

  7

  8

  9

300
=
301
=
302
=
303
=
304
=
305
=
306
=
307
=
308
=
309
=
 40
0.0005611574074074
 41
2453770.647118056
 42
2454271.730043843
  1

 90
        0
  0
LAYOUT
  5
193
102
{ACAD_XDICTIONARY
360
1A5
102
}
102
{ACAD_REACTORS
330
187
102
}
330
187
100
AcDbPlotSettings
  1

  2
DocuCentre Color f450
  4

  6

 40
0.0
 41
0.0
 42
0.0
 43
0.0
 44
0.0
 45
0.0
 46
0.0
 47
0.0
 48
0.0
 49
0.0
140
0.0
141
0.0
142
1.0
143
1.0
 70
  1712
 72
     0
 73
     0
 74
     0
  7

 75
     0
147
1.0
148
0.0
149
0.0
100
AcDbLayout
  1
Model
 70
     1
 71
     0
 10
0.0
 20
0.0
 11
12.0
 21
9.0
 12
0.0
 22
0.0
 32
0.0
 14
0.0
 24
0.0
 34
0.0
 15
0.0
 25
0.0
 35
0.0
146
0.0
 13
0.0
 23
0.0
 33
0.0
 16
1.0
 26
0.0
 36
0.0
 17
0.0
 27
1.0
 37
0.0
 76
     0
330
190
  0
LAYOUT
  5
18F
102
{ACAD_XDICTIONARY
360
1A3
102
}
102
{ACAD_REACTORS
330
187
102
}
330
187
100
AcDbPlotSettings
  1

  2
DocuCentre Color f450
  4

  6

 40
0.0
 41
0.0
 42
0.0
 43
0.0
 44
0.0
 45
0.0
 46
0.0
 47
0.0
 48
0.0
 49
0.0
140
0.0
141
0.0
142
1.0
143
1.0
 70
   688
 72
     0
 73
     0
 74
     5
  7

 75
    16
147
1.0
148
0.0
149
0.0
100
AcDbLayout
  1
レイアウト1
 70
     0
 71
     1
 10
0.0
 20
0.0
 11
12.0
 21
9.0
 12
0.0
 22
0.0
 32
0.0
 14
1.000000000000000E+20
 24
1.000000000000000E+20
 34
1.000000000000000E+20
 15
-1.000000000000000E+20
 25
-1.000000000000000E+20
 35
-1.000000000000000E+20
146
0.0
 13
0.0
 23
0.0
 33
0.0
 16
1.0
 26
0.0
 36
0.0
 17
0.0
 27
1.0
 37
0.0
 76
     0
330
18C
  0
MLINESTYLE
  5
185
102
{ACAD_REACTORS
330
184
102
}
330
184
100
AcDbMlineStyle
  2
STANDARD
 70
     0
  3

 62
   256
 51
90.0
 52
90.0
 71
     2
 49
0.5
 62
   256
  6
BYLAYER
 49
-0.5
 62
   256
  6
BYLAYER
  0
ACDBPLACEHOLDER
  5
17D
102
{ACAD_REACTORS
330
17C
102
}
330
17C
  0
TABLESTYLE
  5
18B
102
{ACAD_REACTORS
330
18A
102
}
330
18A
100
AcDbTableStyle
  3
Standard
 70
     0
 71
     0
 40
0.06
 41
0.06
280
     0
281
     0
  7
Standard
140
0.18
170
     2
 62
     0
 63
     7
283
     0
274
    -2
284
     1
 64
     0
275
    -2
285
     1
 65
     0
276
    -2
286
     1
 66
     0
277
    -2
287
     1
 67
     0
278
    -2
288
     1
 68
     0
279
    -2
289
     1
 69
     0
  7
Standard
140
0.25
170
     5
 62
     0
 63
     7
283
     0
274
    -2
284
     1
 64
     0
275
    -2
285
     1
 65
     0
276
    -2
286
     1
 66
     0
277
    -2
287
     1
 67
     0
278
    -2
288
     1
 68
     0
279
    -2
289
     1
 69
     0
  7
Standard
140
0.18
170
     5
 62
     0
 63
     7
283
     0
274
    -2
284
     1
 64
     0
275
    -2
285
     1
 65
     0
276
    -2
286
     1
 66
     0
277
    -2
287
     1
 67
     0
278
    -2
288
     1
 68
     0
279
    -2
289
     1
 69
     0
  0
DICTIONARYVAR
  5
19D
102
{ACAD_REACTORS
330
19C
102
}
330
19C
100
DictionaryVariables
280
     0
  1
STANDARD
  0
DICTIONARYVAR
  5
19E
102
{ACAD_REACTORS
330
19C
102
}
330
19C
100
DictionaryVariables
280
     0
  1
1
  0
DICTIONARYVAR
  5
19F
102
{ACAD_REACTORS
330
19C
102
}
330
19C
100
DictionaryVariables
280
     0
  1

  0
DICTIONARY
  5
1A5
330
193
100
AcDbDictionary
280
     1
281
     1
  3
ACAD_XREC_ROUNDTRIP
360
1A6
  0
DICTIONARY
  5
1A3
330
18F
100
AcDbDictionary
280
     1
281
     1
  3
ACAD_XREC_ROUNDTRIP
360
1A4
  0
XRECORD
  5
1A6
102
{ACAD_REACTORS
330
1A5
102
}
330
1A5
100
AcDbXrecord
280
     1
102
SHADEPLOT
 70
     0
102
SHADEPLOTRESLEVEL
 70
     2
102
SHADEPLOTCUSTOMDPI
 70
   300
  0
XRECORD
  5
1A4
102
{ACAD_REACTORS
330
1A3
102
}
330
1A3
100
AcDbXrecord
280
     1
102
SHADEPLOT
 70
     0
102
SHADEPLOTRESLEVEL
 70
     2
102
SHADEPLOTCUSTOMDPI
 70
   300
  0
ENDSEC
  0
EOF
