  0
SECTION
  2
HEADER
  9
$ACADVER
  1
AC1009
  9
$INSBASE
 10
0.0
 20
0.0
 30
0.0
  9
$EXTMIN
 10
-138.3999939
 20
-94.80000305
 30
0.0
  9
$EXTMAX
 10
138.3500061
 20
94.5
 30
0.0
  9
$LIMMIN
 10
-138.3999939
 20
-94.80000305
  9
$LIMMAX
 10
138.3500061
 20
94.5
  9
$ORTHOMODE
 70
       0
  9
$REGENMODE
 70
       1
  9
$FILLMODE
 70
       1
  9
$QTEXTMODE
 70
       0
  9
$MIRRTEXT
 70
       1
  9
$DRAGMODE
 70
       2
  9
$LTSCALE
 40
1.0
  9
$OSMODE
 70
       0
  9
$ATTMODE
 70
       1
  9
$TEXTSIZE
 40
3.20000005
  9
$TRACEWID
 40
0.05
  9
$TEXTSTYLE
  7
MX_NOTE_STANDARD
  9
$CLAYER
  8
0
  9
$CELTYPE
  6
CONTINUOUS
  9
$CECOLOR
 62
     256
  9
$DIMSCALE
 40
1.0
  9
$DIMASZ
 40
2.5
  9
$DIMEXO
 40
1.5
  9
$DIMDLI
 40
3.75
  9
$DIMRND
 40
0.0
  9
$DIMDLE
 40
0.0
  9
$DIMEXE
 40
1.5
  9
$DIMTP
 40
0.0
  9
$DIMTM
 40
0.0
  9
$DIMTXT
 40
3.20000005
  9
$DIMCEN
 40
2.5
  9
$DIMTSZ
 40
0.0
  9
$DIMTOL
 70
       0
  9
$DIMLIM
 70
       0
  9
$DIMTIH
 70
       0
  9
$DIMTOH
 70
       0
  9
$DIMSE1
 70
       0
  9
$DIMSE2
 70
       0
  9
$DIMTAD
 70
       1
  9
$DIMZIN
 70
       8
  9
$DIMBLK
  1

  9
$DIMASO
 70
       1
  9
$DIMSHO
 70
       1
  9
$DIMPOST
  1

  9
$DIMAPOST
  1

  9
$DIMALT
 70
       0
  9
$DIMALTD
 70
       4
  9
$DIMALTF
 40
0.0394
  9
$DIMLFAC
 40
1.0
  9
$DIMTOFL
 70
       1
  9
$DIMTVP
 40
0.0
  9
$DIMTIX
 70
       0
  9
$DIMSOXD
 70
       0
  9
$DIMSAH
 70
       0
  9
$DIMBLK1
  1

  9
$DIMBLK2
  1

  9
$DIMSTYLE
  2
MXDIMSTYLE
  9
$DIMCLRD
 70
       0
  9
$DIMCLRE
 70
       0
  9
$DIMCLRT
 70
       0
  9
$DIMTFAC
 40
1.0
  9
$DIMGAP
 40
1.0
  9
$LUNITS
 70
       2
  9
$LUPREC
 70
       4
  9
$AXISMODE
 70
       0
  9
$AXISUNIT
 10
0.0
 20
0.0
  9
$SKETCHINC
 40
0.1
  9
$FILLETRAD
 40
0.0
  9
$AUNITS
 70
       0
  9
$AUPREC
 70
       0
  9
$MENU
  1
acad
  9
$ELEVATION
 40
0.0
  9
$PELEVATION
 40
0.0
  9
$THICKNESS
 40
0.0
  9
$LIMCHECK
 70
       0
  9
$BLIPMODE
 70
       1
  9
$CHAMFERA
 40
0.0
  9
$CHAMFERB
 40
0.0
  9
$SKPOLY
 70
       0
  9
$TDCREATE
 40
2452698.664178241
  9
$TDUPDATE
 40
2452698.664178241
  9
$TDINDWG
 40
0.0000000000
  9
$TDUSRTIMER
 40
0.0000000000
  9
$USRTIMER
 70
       1
  9
$ANGBASE
 50
0.0
  9
$ANGDIR
 70
       0
  9
$PDMODE
 70
       0
  9
$PDSIZE
 40
0.0
  9
$PLINEWID
 40
0.0
  9
$COORDS
 70
       1
  9
$SPLFRAME
 70
       0
  9
$SPLINETYPE
 70
       6
  9
$SPLINESEGS
 70
       8
  9
$ATTDIA
 70
       0
  9
$ATTREQ
 70
       1
  9
$HANDLING
 70
       1
  9
$HANDSEED
  5
FF
  9
$SURFTAB1
 70
       6
  9
$SURFTAB2
 70
       6
  9
$SURFTYPE
 70
       6
  9
$SURFU
 70
       6
  9
$SURFV
 70
       6
  9
$UCSNAME
  2

  9
$UCSORG
 10
0.0
 20
0.0
 30
0.0
  9
$UCSXDIR
 10
1.0
 20
0.0
 30
0.0
  9
$UCSYDIR
 10
0.0
 20
1.0
 30
0.0
  9
$PUCSNAME
  2

  9
$PUCSORG
 10
0.0
 20
0.0
 30
0.0
  9
$PUCSXDIR
 10
1.0
 20
0.0
 30
0.0
  9
$PUCSYDIR
 10
0.0
 20
1.0
 30
0.0
  9
$USERI1
 70
       0
  9
$USERI2
 70
       0
  9
$USERI3
 70
       0
  9
$USERI4
 70
       0
  9
$USERI5
 70
       0
  9
$USERR1
 40
0.0
  9
$USERR2
 40
0.0
  9
$USERR3
 40
0.0
  9
$USERR4
 40
0.0
  9
$USERR5
 40
0.0
  9
$WORLDVIEW
 70
       1
  9
$SHADEDGE
 70
       3
  9
$SHADEDIF
 70
      70
  9
$TILEMODE
 70
       1
  9
$MAXACTVP
 70
      16
  9
$PINSBASE
 10
0.0
 20
0.0
 30
0.0
  9
$PLIMCHECK
 70
       0
  9
$PEXTMIN
 10
1.00000000E+20
 20
1.00000000E+20
 30
1.00000000E+20
  9
$PEXTMAX
 10
-1.00000000E+20
 20
-1.00000000E+20
 30
-1.00000000E+20
  9
$PLIMMIN
 10
0.0
 20
0.0
  9
$PLIMMAX
 10
12.0
 20
9.0
  9
$UNITMODE
 70
       0
  9
$VISRETAIN
 70
       0
  9
$PLINEGEN
 70
       1
  9
$PSLTSCALE
 70
       0
  9
$TREEDEPTH
 70
    3020
  9
$DWGCODEPAGE
  3
dos932
  0
ENDSEC
  0
SECTION
  2
TABLES
  0
TABLE
  2
VPORT
 70
       1
  0
VPORT
  2
*ACTIVE
 70
       0
 10
0.0
 20
0.0
 11
1.0
 21
1.0
 12
-0.0249939
 22
-0.15000153
 13
0.0
 23
0.0
 14
1.0
 24
1.0
 15
0.0
 25
0.0
 16
0.0
 26
0.0
 36
1.0
 17
0.0
 27
0.0
 37
0.0
 40
191.19300308
 41
1.73205081
 42
50.0
 43
0.0
 44
0.0
 50
0.0
 51
0.0
 71
       0
 72
     100
 73
       1
 74
       1
 75
       0
 76
       0
 77
       0
 78
       0
  0
ENDTAB
  0
TABLE
  2
LTYPE
 70
       2
  0
LTYPE
  2
CONTINUOUS
 70
      64
  3
Solid line
 72
      65
 73
       0
 40
0.0
  0
LTYPE
  2
CENTER
 70
      64
  3
Center ____ _ ____ _ ____ _ ____ _ ____ _ ____
 72
      65
 73
       4
 40
50.8
 49
31.75
 49
-6.35
 49
6.35
 49
-6.35
  0
ENDTAB
  0
TABLE
  2
LAYER
 70
       2
  0
LAYER
  2
0
 70
       0
 62
       7
  6
CONTINUOUS
  0
LAYER
  2
DEFPOINTS
 70
       0
 62
       7
  6
CONTINUOUS
  0
ENDTAB
  0
TABLE
  2
STYLE
 70
       1
  0
STYLE
  2
MX_NOTE_STANDARD
 70
       0
 40
3.20000005
 41
1.0
 50
0.0
 71
       0
 42
3.20000005
  3
txt.shx
  4
extfont.shx
  0
ENDTAB
  0
TABLE
  2
VIEW
 70
       0
  0
ENDTAB
  0
TABLE
  2
UCS
 70
       0
  0
ENDTAB
  0
TABLE
  2
APPID
 70
       1
  0
APPID
  2
ACAD
 70
       0
  0
ENDTAB
  0
TABLE
  2
DIMSTYLE
 70
       1
  0
DIMSTYLE
  2
MXDIMSTYLE
 70
       0
  3

  4

  5

  6

  7

 40
1.0
 41
2.5
 42
1.5
 43
3.75
 44
1.5
 45
0.0
 46
0.0
 47
0.0
 48
0.0
 71
       0
 72
       0
 73
       0
 74
       0
 75
       0
 76
       0
 77
       1
 78
       8
140
3.20000005
141
2.5
142
0.0
143
0.0394
144
1.0
145
0.0
146
1.0
147
1.0
170
       0
171
       4
172
       1
173
       0
174
       0
175
       0
176
       0
177
       0
178
       0
  0
ENDTAB
  0
ENDSEC
  0
SECTION
  2
BLOCKS
  0
ENDSEC
  0
SECTION
  2
ENTITIES
  0
LINE
  8
0
  6
CONTINUOUS
 62
       7
  5
1E
 10
88.99235945
 20
29.94729957
 30
0.0
 11
88.99235945
 21
31.64160177
 31
0.0
  0
LINE
  8
0
  6
CONTINUOUS
 62
       7
  5
1F
 10
95.99235945
 20
29.94729957
 30
0.0
 11
95.99235945
 21
31.64160177
 31
0.0
  0
LINE
  8
0
  6
CONTINUOUS
 62
       7
  5
20
 10
87.49235945
 20
27.45063583
 30
0.0
 11
97.49235945
 21
27.45063583
 31
0.0
  0
LINE
  8
0
  6
CONTINUOUS
 62
       7
  5
21
 10
88.99235945
 20
31.64160177
 30
0.0
 11
95.99235945
 21
31.64160177
 31
0.0
  0
LINE
  8
0
  6
CONTINUOUS
 62
       7
  5
22
 10
89.99235945
 20
31.64160177
 30
0.0
 11
89.99235945
 21
35.25992464
 31
0.0
  0
LINE
  8
0
  6
CONTINUOUS
 62
       7
  5
23
 10
94.99235945
 20
31.64160177
 30
0.0
 11
94.99235945
 21
35.25992464
 31
0.0
  0
LINE
  8
0
  6
CONTINUOUS
 62
       7
  5
24
 10
89.99235945
 20
35.25992464
 30
0.0
 11
94.99235945
 21
35.25992464
 31
0.0
  0
LINE
  8
0
  6
CONTINUOUS
 62
       7
  5
25
 10
87.49235945
 20
29.94729957
 30
0.0
 11
97.49235945
 21
29.94729957
 31
0.0
  0
LINE
  8
0
  6
CONTINUOUS
 62
       7
  5
26
 10
97.49235945
 20
24.75992464
 30
0.0
 11
97.49235945
 21
29.94729957
 31
0.0
  0
LINE
  8
0
  6
CONTINUOUS
 62
       7
  5
27
 10
87.49235945
 20
24.75992464
 30
0.0
 11
87.49235945
 21
29.94729957
 31
0.0
  0
LINE
  8
0
  6
CENTER
 62
       2
  5
29
 10
92.49235945
 20
20.75361937
 30
0.0
 11
92.49235945
 21
38.3092144
 31
0.0
  0
LINE
  8
0
  6
CENTER
 62
       2
  5
2A
 10
68.66884394
 20
-3.24007532
 30
0.0
 11
86.54041151
 21
-3.24007532
 31
0.0
  0
LINE
  8
0
  6
CONTINUOUS
 62
       7
  5
2B
 10
-14.4109652
 20
29.94729958
 30
0.0
 11
-4.4109652
 21
29.94729958
 31
0.0
  0
LINE
  8
0
  6
CONTINUOUS
 62
       7
  5
2C
 10
-11.9109652
 20
35.25992465
 30
0.0
 11
-6.9109652
 21
35.25992465
 31
0.0
  0
LINE
  8
0
  6
CONTINUOUS
 62
       7
  5
2D
 10
-6.9109652
 20
31.64160178
 30
0.0
 11
-6.9109652
 21
35.25992465
 31
0.0
  0
LINE
  8
0
  6
CONTINUOUS
 62
       7
  5
2E
 10
-11.9109652
 20
31.64160178
 30
0.0
 11
-11.9109652
 21
35.25992465
 31
0.0
  0
LINE
  8
0
  6
CONTINUOUS
 62
       7
  5
2F
 10
-12.9109652
 20
31.64160178
 30
0.0
 11
-5.9109652
 21
31.64160178
 31
0.0
  0
LINE
  8
0
  6
CONTINUOUS
 62
       7
  5
30
 10
-14.4109652
 20
27.45063585
 30
0.0
 11
-4.4109652
 21
27.45063585
 31
0.0
  0
LINE
  8
0
  6
CONTINUOUS
 62
       7
  5
31
 10
-4.4109652
 20
24.75992465
 30
0.0
 11
-4.4109652
 21
29.94729958
 31
0.0
  0
LINE
  8
0
  6
CONTINUOUS
 62
       7
  5
32
 10
-14.4109652
 20
24.75992465
 30
0.0
 11
-14.4109652
 21
29.94729958
 31
0.0
  0
LINE
  8
0
  6
CONTINUOUS
 62
       7
  5
33
 10
-5.9109652
 20
29.94729958
 30
0.0
 11
-5.9109652
 21
31.64160178
 31
0.0
  0
LINE
  8
0
  6
CONTINUOUS
 62
       7
  5
34
 10
-12.9109652
 20
29.94729958
 30
0.0
 11
-12.9109652
 21
31.64160178
 31
0.0
  0
LINE
  8
0
  6
CENTER
 62
       2
  5
35
 10
-9.4109652
 20
20.75361937
 30
0.0
 11
-9.4109652
 21
38.3092144
 31
0.0
  0
LINE
  8
0
  6
CONTINUOUS
 62
       7
  5
36
 10
23.0890348
 20
-0.24007532
 30
0.0
 11
23.0890348
 21
24.75992465
 31
0.0
  0
LINE
  8
0
  6
CONTINUOUS
 62
       7
  5
37
 10
88.99235946
 20
-33.24007535
 30
0.0
 11
100.99235946
 21
-33.24007535
 31
0.0
  0
LINE
  8
0
  6
CONTINUOUS
 62
       7
  5
38
 10
82.49235946
 20
-0.24007535
 30
0.0
 11
82.49235946
 21
-10.24007535
 31
0.0
  0
LINE
  8
0
  6
CONTINUOUS
 62
       7
  5
39
 10
107.49235945
 20
-0.24007535
 30
0.0
 11
107.49235945
 21
-25.24007535
 31
0.0
  0
LINE
  8
0
  6
CONTINUOUS
 62
       7
  5
3A
 10
63.13650273
 20
-16.24007535
 30
0.0
 11
78.49235946
 21
-16.24007535
 31
0.0
  0
LINE
  8
0
  6
CONTINUOUS
 62
       7
  5
3B
 10
64.29120327
 20
-14.24007535
 30
0.0
 11
78.49235946
 21
-14.24007535
 31
0.0
  0
LINE
  8
0
  6
CONTINUOUS
 62
       7
  5
3C
 10
52.72836886
 20
-14.74007535
 30
0.0
 11
52.72836886
 21
-15.74007535
 31
0.0
  0
LINE
  8
0
  6
CONTINUOUS
 62
       7
  5
3D
 10
57.72836883
 20
-16.24007535
 30
0.0
 11
57.72836883
 21
-14.24007535
 31
0.0
  0
LINE
  8
0
  6
CENTER
 62
       2
  5
3E
 10
50.53922781
 20
-15.24007535
 30
0.0
 11
81.71415437
 21
-15.24007535
 31
0.0
  0
LINE
  8
0
  6
CONTINUOUS
 62
       7
  5
3F
 10
57.72836883
 20
-14.24007535
 30
0.0
 11
63.13650273
 21
-14.24007535
 31
0.0
  0
LINE
  8
0
  6
CONTINUOUS
 62
       7
  5
40
 10
57.72836883
 20
-16.24007535
 30
0.0
 11
61.98180219
 21
-16.24007535
 31
0.0
  0
LINE
  8
0
  6
CONTINUOUS
 62
       7
  5
41
 10
52.72836886
 20
-14.74007535
 30
0.0
 11
57.72836883
 21
-14.74007535
 31
0.0
  0
LINE
  8
0
  6
CONTINUOUS
 62
       7
  5
42
 10
52.72836886
 20
-15.74007535
 30
0.0
 11
57.72836883
 21
-15.74007535
 31
0.0
  0
LINE
  8
0
  6
CONTINUOUS
 62
       7
  5
43
 10
82.49235946
 20
-0.24007535
 30
0.0
 11
107.49235945
 21
-0.24007535
 31
0.0
  0
LINE
  8
0
  6
CONTINUOUS
 62
       7
  5
44
 10
83.49235946
 20
-30.24007535
 30
0.0
 11
106.49235946
 21
-30.24007535
 31
0.0
  0
CIRCLE
  8
0
  6
CONTINUOUS
 62
       7
  5
45
 10
97.49235945
 20
14.75992465
 30
0.0
 40
5.5
  0
CIRCLE
  8
0
  6
CONTINUOUS
 62
       2
  5
46
 10
97.49235945
 20
14.75992465
 30
0.0
 40
6.5
  0
LINE
  8
0
  6
CONTINUOUS
 62
       7
  5
47
 10
82.49235946
 20
18.75992465
 30
0.0
 11
73.49235946
 21
18.75992465
 31
0.0
  0
LINE
  8
0
  6
CONTINUOUS
 62
       7
  5
48
 10
72.49235946
 20
17.75992465
 30
0.0
 11
72.49235946
 21
-14.24007535
 31
0.0
  0
LINE
  8
0
  6
CONTINUOUS
 62
       7
  5
49
 10
107.49235945
 20
-25.24007535
 30
0.0
 11
106.49235946
 21
-25.24007535
 31
0.0
  0
LINE
  8
0
  6
CONTINUOUS
 62
       7
  5
4A
 10
107.49235945
 20
24.75992465
 30
0.0
 11
82.49235945
 21
24.75992465
 31
0.0
  0
LINE
  8
0
  6
CONTINUOUS
 62
       7
  5
4B
 10
107.49235945
 20
24.75992464
 30
0.0
 11
107.49235945
 21
-0.24007535
 31
0.0
  0
LINE
  8
0
  6
CONTINUOUS
 62
       7
  5
4C
 10
82.49235946
 20
24.75992464
 30
0.0
 11
82.49235946
 21
-0.24007535
 31
0.0
  0
LINE
  8
0
  6
CONTINUOUS
 62
       7
  5
4D
 10
106.49235946
 20
-0.24007535
 30
0.0
 11
106.49235946
 21
-30.24007535
 31
0.0
  0
LINE
  8
0
  6
CONTINUOUS
 62
       7
  5
4E
 10
83.49235946
 20
-0.24007535
 30
0.0
 11
83.49235946
 21
-30.24007535
 31
0.0
  0
LINE
  8
0
  6
CONTINUOUS
 62
       7
  5
4F
 10
83.49235946
 20
-25.24007535
 30
0.0
 11
73.49235946
 21
-25.24007535
 31
0.0
  0
LINE
  8
0
  6
CENTER
 62
       2
  5
50
 10
105.80076591
 20
14.75992465
 30
0.0
 11
88.67270088
 21
14.75992465
 31
0.0
  0
LINE
  8
0
  6
CENTER
 62
       2
  5
51
 10
97.49235945
 20
23.20505735
 30
0.0
 11
97.49235945
 21
5.3973072
 31
0.0
  0
LINE
  8
0
  6
CENTER
 62
       2
  5
52
 10
78.29979501
 20
4.75992465
 30
0.0
 11
83.89913914
 21
4.75992465
 31
0.0
  0
LINE
  8
0
  6
CONTINUOUS
 62
       7
  5
53
 10
80.99235944
 20
-10.24007535
 30
0.0
 11
83.49235946
 21
-10.24007535
 31
0.0
  0
LINE
  8
0
  6
CONTINUOUS
 62
       7
  5
54
 10
80.99235944
 20
-20.24007535
 30
0.0
 11
83.49235944
 21
-20.24007535
 31
0.0
  0
LINE
  8
0
  6
CONTINUOUS
 62
       7
  5
55
 10
78.49235944
 20
-17.74007535
 30
0.0
 11
80.99235946
 21
-17.74007535
 31
0.0
  0
LINE
  8
0
  6
CONTINUOUS
 62
       7
  5
56
 10
78.49235944
 20
-12.74007535
 30
0.0
 11
80.99235946
 21
-12.74007535
 31
0.0
  0
LINE
  8
0
  6
CONTINUOUS
 62
       7
  5
57
 10
78.49235946
 20
-12.74007535
 30
0.0
 11
78.49235946
 21
-17.74007535
 31
0.0
  0
LINE
  8
0
  6
CONTINUOUS
 62
       7
  5
58
 10
82.49235946
 20
-20.24007535
 30
0.0
 11
82.49235946
 21
-25.24007535
 31
0.0
  0
LINE
  8
0
  6
CONTINUOUS
 62
       7
  5
59
 10
72.49235946
 20
-16.24007535
 30
0.0
 11
72.49235946
 21
-24.24007535
 31
0.0
  0
LINE
  8
0
  6
CONTINUOUS
 62
       7
  5
5A
 10
80.49235944
 20
7.75992465
 30
0.0
 11
82.49235944
 21
7.75992465
 31
0.0
  0
LINE
  8
0
  6
CONTINUOUS
 62
       7
  5
5B
 10
80.49235944
 20
1.75992465
 30
0.0
 11
82.49235944
 21
1.75992465
 31
0.0
  0
LINE
  8
0
  6
CONTINUOUS
 62
       7
  5
5C
 10
80.49235946
 20
7.75992465
 30
0.0
 11
80.49235946
 21
1.75992465
 31
0.0
  0
LINE
  8
0
  6
CONTINUOUS
 62
       7
  5
5D
 10
79.49235946
 20
6.25992465
 30
0.0
 11
79.49235946
 21
5.25992465
 31
0.0
  0
LINE
  8
0
  6
CONTINUOUS
 62
       7
  5
5E
 10
79.49235946
 20
6.25992465
 30
0.0
 11
80.49235946
 21
6.25992465
 31
0.0
  0
LINE
  8
0
  6
CONTINUOUS
 62
       7
  5
5F
 10
79.49235946
 20
3.25992465
 30
0.0
 11
80.49235946
 21
3.25992465
 31
0.0
  0
LINE
  8
0
  6
CONTINUOUS
 62
       7
  5
60
 10
79.49235946
 20
5.25992465
 30
0.0
 11
80.49235946
 21
5.25992465
 31
0.0
  0
LINE
  8
0
  6
CONTINUOUS
 62
       7
  5
61
 10
79.49235946
 20
4.25992465
 30
0.0
 11
80.49235946
 21
4.25992465
 31
0.0
  0
LINE
  8
0
  6
CONTINUOUS
 62
       7
  5
62
 10
79.49235946
 20
4.25992465
 30
0.0
 11
79.49235946
 21
3.25992465
 31
0.0
  0
LINE
  8
0
  6
CENTER
 62
       2
  5
63
 10
90.96450899
 20
21.25992465
 30
0.0
 11
81.08875427
 21
21.25992465
 31
0.0
  0
LINE
  8
0
  6
CENTER
 62
       2
  5
64
 10
85.99235946
 20
25.71967204
 30
0.0
 11
85.99235946
 21
16.02680166
 31
0.0
  0
ARC
  8
0
  6
CONTINUOUS
 62
       7
  5
65
 10
85.99235946
 20
21.25992465
 30
0.0
 40
4.2
 50
270.0
 51
0.0
  0
LINE
  8
0
  6
CONTINUOUS
 62
       7
  5
66
 10
90.19235946
 20
21.25992465
 30
0.0
 11
90.19235946
 21
24.75992465
 31
0.0
  0
LINE
  8
0
  6
CONTINUOUS
 62
       7
  5
67
 10
85.99235946
 20
17.05992465
 30
0.0
 11
82.49235946
 21
17.05992465
 31
0.0
  0
LINE
  8
0
  6
CENTER
 62
       2
  5
68
 10
98.76757446
 20
3.75992465
 30
0.0
 11
108.16439642
 21
3.75992465
 31
0.0
  0
LINE
  8
0
  6
CENTER
 62
       2
  5
69
 10
103.49235945
 20
8.94354577
 30
0.0
 11
103.49235945
 21
-0.85461475
 31
0.0
  0
ARC
  8
0
  6
CONTINUOUS
 62
       7
  5
6A
 10
103.49235945
 20
3.75992465
 30
0.0
 40
4.2
 50
90.0
 51
180.0
  0
LINE
  8
0
  6
CONTINUOUS
 62
       7
  5
6B
 10
103.49235945
 20
7.95992465
 30
0.0
 11
107.49235945
 21
7.95992465
 31
0.0
  0
LINE
  8
0
  6
CONTINUOUS
 62
       7
  5
6C
 10
99.29235945
 20
3.75992465
 30
0.0
 11
99.29235945
 21
1.75992465
 31
0.0
  0
LINE
  8
0
  6
CONTINUOUS
 62
       7
  5
6D
 10
82.49235946
 20
1.75992465
 30
0.0
 11
100.62007813
 21
1.75992465
 31
0.0
  0
CIRCLE
  8
0
  6
CONTINUOUS
 62
       7
  5
6E
 10
85.99235946
 20
21.25992465
 30
0.0
 40
3.5
  0
CIRCLE
  8
0
  6
CONTINUOUS
 62
       7
  5
6F
 10
103.49235945
 20
3.75992465
 30
0.0
 40
3.5
  0
LINE
  8
0
  6
CONTINUOUS
 62
       7
  5
70
 10
84.57814584
 20
19.84571109
 30
0.0
 11
87.40657304
 21
22.67413822
 31
0.0
  0
LINE
  8
0
  6
CONTINUOUS
 62
       7
  5
71
 10
84.57814584
 20
22.67413816
 30
0.0
 11
87.40657297
 21
19.84571104
 31
0.0
  0
LINE
  8
0
  6
CONTINUOUS
 62
       7
  5
72
 10
102.07814584
 20
5.17413814
 30
0.0
 11
104.90657296
 21
2.34571102
 31
0.0
  0
LINE
  8
0
  6
CONTINUOUS
 62
       7
  5
73
 10
102.07814584
 20
2.34571107
 30
0.0
 11
104.90657303
 21
5.1741382
 31
0.0
  0
LINE
  8
0
  6
CONTINUOUS
 62
       7
  5
74
 10
106.36464078
 20
1.75992465
 30
0.0
 11
107.49235945
 21
1.75992465
 31
0.0
  0
LINE
  8
0
  6
CONTINUOUS
 62
       7
  5
75
 10
80.99235945
 20
-20.24007535
 30
0.0
 11
80.99235944
 21
-10.24007535
 31
0.0
  0
LINE
  8
0
  6
CONTINUOUS
 62
       7
  5
76
 10
94.99235946
 20
-30.24007535
 30
0.0
 11
94.99235946
 21
-32.69862348
 31
0.0
  0
LINE
  8
0
  6
CONTINUOUS
 62
       7
  5
77
 10
72.49235946
 20
17.75992465
 30
0.0
 11
73.49235946
 21
18.75992465
 31
0.0
  0
LINE
  8
0
  6
CONTINUOUS
 62
       7
  5
78
 10
73.49235946
 20
-25.24007535
 30
0.0
 11
72.49235946
 21
-24.24007535
 31
0.0
  0
LINE
  8
0
  6
CONTINUOUS
 62
       7
  5
79
 10
73.49235946
 20
18.75992465
 30
0.0
 11
73.49235946
 21
-14.24007535
 31
0.0
  0
LINE
  8
0
  6
CONTINUOUS
 62
       7
  5
7A
 10
73.49235946
 20
-25.24007535
 30
0.0
 11
73.49235946
 21
-16.24007535
 31
0.0
  0
ARC
  8
0
  6
CONTINUOUS
 62
       7
  5
7B
 10
100.99235946
 20
0.27460303
 30
0.0
 40
33.51467837
 50
259.68696572
 51
270.0
  0
ARC
  8
0
  6
CONTINUOUS
 62
       7
  5
7C
 10
88.99235946
 20
0.27460303
 30
0.0
 40
33.51467837
 50
270.0
 51
280.31303428
  0
LINE
  8
0
  6
CONTINUOUS
 62
       7
  5
7D
 10
88.99235946
 20
-30.24007535
 30
0.0
 11
88.99235946
 21
-33.24007535
 31
0.0
  0
LINE
  8
0
  6
CONTINUOUS
 62
       7
  5
7E
 10
100.99235946
 20
-30.24007535
 30
0.0
 11
100.99235946
 21
-33.24007535
 31
0.0
  0
LINE
  8
0
  6
CENTER
 62
       2
  5
7F
 10
94.99235946
 20
28.23472724
 30
0.0
 11
94.99235946
 21
-38.78222562
 31
0.0
  0
LINE
  8
0
  6
CENTER
 62
       2
  5
80
 10
-83.97656752
 20
-3.24007532
 30
0.0
 11
-30.44385875
 21
-3.24007532
 31
0.0
  0
LINE
  8
0
  6
CONTINUOUS
 62
       7
  5
81
 10
-27.9109652
 20
-0.24007532
 30
0.0
 11
-27.9109652
 21
-25.24007532
 31
0.0
  0
CIRCLE
  8
0
  6
CONTINUOUS
 62
       7
  5
82
 10
-55.9109652
 20
-3.24007532
 30
0.0
 40
20.0
  0
LINE
  8
0
  6
CONTINUOUS
 62
       7
  5
83
 10
-27.9109652
 20
24.75992465
 30
0.0
 11
23.0890348
 21
24.75992465
 31
0.0
  0
LINE
  8
0
  6
CONTINUOUS
 62
       7
  5
84
 10
-0.4109652
 20
-30.24007532
 30
0.0
 11
-0.4109652
 21
-0.24007532
 31
0.0
  0
LINE
  8
0
  6
CONTINUOUS
 62
       7
  5
85
 10
18.0890348
 20
17.75992468
 30
0.0
 11
17.0890348
 21
17.75992468
 31
0.0
  0
ARC
  8
0
  6
CONTINUOUS
 62
       7
  5
86
 10
18.0890348
 20
20.35992468
 30
0.0
 40
2.6
 50
-90.0
 51
0.0
  0
ARC
  8
0
  6
CONTINUOUS
 62
       7
  5
87
 10
18.0890348
 20
22.15992468
 30
0.0
 40
2.6
 50
0.0
 51
90.0
  0
LINE
  8
0
  6
CONTINUOUS
 62
       7
  5
88
 10
20.6890348
 20
20.35992468
 30
0.0
 11
20.6890348
 21
22.15992468
 31
0.0
  0
LINE
  8
0
  6
CONTINUOUS
 62
       7
  5
89
 10
18.0890348
 20
17.75992468
 30
0.0
 11
18.0890348
 21
24.75992465
 31
0.0
  0
LINE
  8
0
  6
CENTER
 62
       2
  5
8A
 10
16.11935947
 20
21.25992468
 30
0.0
 11
21.69528942
 21
21.25992468
 31
0.0
  0
LINE
  8
0
  6
CONTINUOUS
 62
       7
  5
8B
 10
17.0890348
 20
16.75992468
 30
0.0
 11
23.0890348
 21
16.75992468
 31
0.0
  0
LINE
  8
0
  6
CONTINUOUS
 62
       7
  5
8C
 10
17.0890348
 20
16.75992468
 30
0.0
 11
17.0890348
 21
24.75992465
 31
0.0
  0
CIRCLE
  8
0
  6
CONTINUOUS
 62
       7
  5
8D
 10
16.0890348
 20
4.75992468
 30
0.0
 40
2.75
  0
LINE
  8
0
  6
CONTINUOUS
 62
       7
  5
8E
 10
14.92230811
 20
5.92665124
 30
0.0
 11
17.25576058
 21
3.59319857
 31
0.0
  0
LINE
  8
0
  6
CONTINUOUS
 62
       7
  5
8F
 10
14.922308
 20
3.59319824
 30
0.0
 11
17.25576067
 21
5.92665071
 31
0.0
  0
LINE
  8
0
  6
CONTINUOUS
 62
       7
  5
90
 10
9.67482124
 20
4.25992468
 30
0.0
 11
12.50324836
 21
4.25992468
 31
0.0
  0
LINE
  8
0
  6
CONTINUOUS
 62
       7
  5
91
 10
9.67482124
 20
5.25992468
 30
0.0
 11
12.50324836
 21
5.25992468
 31
0.0
  0
CIRCLE
  8
0
  6
CONTINUOUS
 62
       7
  5
92
 10
11.0890348
 20
4.75992468
 30
0.0
 40
1.5
  0
ARC
  8
0
  6
CONTINUOUS
 62
       7
  5
93
 10
16.0890348
 20
4.75992468
 30
0.0
 40
3.0
 50
-90.0
 51
90.0
  0
LINE
  8
0
  6
CONTINUOUS
 62
       7
  5
94
 10
16.0890348
 20
2.78577481
 30
0.0
 11
16.0890348
 21
6.57799736
 31
0.0
  0
ARC
  8
0
  6
CONTINUOUS
 62
       7
  5
95
 10
11.0890348
 20
4.75992468
 30
0.0
 40
3.0
 50
90.0
 51
270.0
  0
LINE
  8
0
  6
CONTINUOUS
 62
       7
  5
96
 10
11.0890348
 20
1.75992468
 30
0.0
 11
16.0890348
 21
1.75992468
 31
0.0
  0
LINE
  8
0
  6
CONTINUOUS
 62
       7
  5
97
 10
11.0890348
 20
7.75992468
 30
0.0
 11
16.0890348
 21
7.75992468
 31
0.0
  0
LINE
  8
0
  6
CENTER
 62
       2
  5
98
 10
5.69255872
 20
4.75992468
 30
0.0
 11
21.20619642
 21
4.75992468
 31
0.0
  0
ARC
  8
0
  6
CONTINUOUS
 62
       7
  5
99
 10
16.33903486
 20
-30.14130495
 30
0.0
 40
3.09877036
 50
235.61575077
 51
304.38424923
  0
ARC
  8
0
  6
CONTINUOUS
 62
       7
  5
9A
 10
5.83903482
 20
-30.14130519
 30
0.0
 40
3.09877013
 50
235.61574941
 51
304.38425059
  0
ARC
  8
0
  6
CONTINUOUS
 62
       7
  5
9B
 10
11.0890348
 20
-21.65717253
 30
0.0
 40
11.58290279
 50
252.41204469
 51
287.58795531
  0
LINE
  8
0
  6
CONTINUOUS
 62
       7
  5
9C
 10
4.08903483
 20
-32.69862338
 30
0.0
 11
5.02685711
 21
-33.24007535
 31
0.0
  0
LINE
  8
0
  6
CONTINUOUS
 62
       7
  5
9D
 10
17.15121267
 20
-33.24007532
 30
0.0
 11
18.0890348
 21
-32.69862345
 31
0.0
  0
LINE
  8
0
  6
CONTINUOUS
 62
       7
  5
9E
 10
14.5890348
 20
-32.69862338
 30
0.0
 11
14.5890348
 21
-30.24007535
 31
0.0
  0
LINE
  8
0
  6
CONTINUOUS
 62
       7
  5
9F
 10
7.5890348
 20
-32.69862338
 30
0.0
 11
7.5890348
 21
-30.24007532
 31
0.0
  0
LINE
  8
0
  6
CONTINUOUS
 62
       7
  5
A0
 10
18.0890348
 20
-32.69862345
 30
0.0
 11
18.0890348
 21
-30.24007532
 31
0.0
  0
LINE
  8
0
  6
CONTINUOUS
 62
       7
  5
A1
 10
4.0890348
 20
-32.69862337
 30
0.0
 11
4.0890348
 21
-30.24007532
 31
0.0
  0
CIRCLE
  8
0
  6
CONTINUOUS
 62
       7
  5
A2
 10
8.5890348
 20
-15.24007532
 30
0.0
 40
1.0
  0
CIRCLE
  8
0
  6
CONTINUOUS
 62
       7
  5
A3
 10
13.5890348
 20
-15.24007532
 30
0.0
 40
1.0
  0
ARC
  8
0
  6
CONTINUOUS
 62
       7
  5
A4
 10
13.5890348
 20
-15.24007532
 30
0.0
 40
2.5
 50
270.0
 51
90.0
  0
ARC
  8
0
  6
CONTINUOUS
 62
       7
  5
A5
 10
8.5890348
 20
-15.24007532
 30
0.0
 40
2.5
 50
90.0
 51
270.0
  0
LINE
  8
0
  6
CONTINUOUS
 62
       7
  5
A6
 10
8.5890348
 20
-17.74007532
 30
0.0
 11
13.5890348
 21
-17.74007532
 31
0.0
  0
LINE
  8
0
  6
CONTINUOUS
 62
       7
  5
A7
 10
8.5890348
 20
-12.74007532
 30
0.0
 11
13.5890348
 21
-12.74007532
 31
0.0
  0
LINE
  8
0
  6
CENTER
 62
       2
  5
A8
 10
13.5890348
 20
-19.03982532
 30
0.0
 11
13.5890348
 21
-11.75598323
 31
0.0
  0
LINE
  8
0
  6
CENTER
 62
       2
  5
A9
 10
8.5890348
 20
-19.03982532
 30
0.0
 11
8.5890348
 21
-11.75598323
 31
0.0
  0
ARC
  8
0
  6
CONTINUOUS
 62
       7
  5
AA
 10
18.5890348
 20
-19.24007532
 30
0.0
 40
1.0
 50
270.0
 51
0.0
  0
ARC
  8
0
  6
CONTINUOUS
 62
       7
  5
AB
 10
3.5890348
 20
-19.24007532
 30
0.0
 40
1.0
 50
180.0
 51
270.0
  0
ARC
  8
0
  6
CONTINUOUS
 62
       7
  5
AC
 10
3.5890348
 20
-11.24007532
 30
0.0
 40
1.0
 50
90.0
 51
180.0
  0
ARC
  8
0
  6
CONTINUOUS
 62
       7
  5
AD
 10
18.5890348
 20
-11.24007532
 30
0.0
 40
1.0
 50
0.0
 51
90.0
  0
LINE
  8
0
  6
CONTINUOUS
 62
       7
  5
AE
 10
3.5890348
 20
-20.24007532
 30
0.0
 11
18.5890348
 21
-20.24007532
 31
0.0
  0
LINE
  8
0
  6
CONTINUOUS
 62
       7
  5
AF
 10
3.5890348
 20
-10.24007532
 30
0.0
 11
18.5890348
 21
-10.24007532
 31
0.0
  0
LINE
  8
0
  6
CONTINUOUS
 62
       7
  5
B0
 10
19.5890348
 20
-19.24007532
 30
0.0
 11
19.5890348
 21
-11.24007532
 31
0.0
  0
LINE
  8
0
  6
CONTINUOUS
 62
       7
  5
B1
 10
2.5890348
 20
-19.24007532
 30
0.0
 11
2.5890348
 21
-11.24007532
 31
0.0
  0
LINE
  8
0
  6
CENTER
 62
       2
  5
B2
 10
3.85670819
 20
-15.24007532
 30
0.0
 11
19.00247507
 21
-15.24007532
 31
0.0
  0
LINE
  8
0
  6
CONTINUOUS
 62
       7
  5
B3
 10
22.5890348
 20
-30.24007532
 30
0.0
 11
22.5890348
 21
-0.24007532
 31
0.0
  0
LINE
  8
0
  6
CENTER
 62
       2
  5
B4
 10
11.0890348
 20
-37.35427451
 30
0.0
 11
11.0890348
 21
26.83191324
 31
0.0
  0
LINE
  8
0
  6
CONTINUOUS
 62
       7
  5
B5
 10
5.02685697
 20
-33.24007532
 30
0.0
 11
17.15121263
 21
-33.24007532
 31
0.0
  0
LINE
  8
0
  6
CONTINUOUS
 62
       7
  5
B6
 10
-1.9109652
 20
-0.24007532
 30
0.0
 11
23.0890348
 21
-0.24007532
 31
0.0
  0
LINE
  8
0
  6
CONTINUOUS
 62
       7
  5
B7
 10
-0.4109652
 20
-30.24007532
 30
0.0
 11
22.5890348
 21
-30.24007532
 31
0.0
  0
LINE
  8
0
  6
CONTINUOUS
 62
       7
  5
B8
 10
-102.9109652
 20
24.75992468
 30
0.0
 11
-27.9109652
 21
24.75992468
 31
0.0
  0
LINE
  8
0
  6
CONTINUOUS
 62
       7
  5
B9
 10
-102.9109652
 20
-25.24007532
 30
0.0
 11
-102.9109652
 21
24.75992465
 31
0.0
  0
LINE
  8
0
  6
CONTINUOUS
 62
       7
  5
BA
 10
-27.9109652
 20
-0.24007532
 30
0.0
 11
-27.9109652
 21
24.75992465
 31
0.0
  0
LINE
  8
0
  6
CONTINUOUS
 62
       7
  5
BB
 10
-102.9109652
 20
-25.24007532
 30
0.0
 11
-27.91096517
 21
-25.24007532
 31
0.0
  0
LINE
  8
0
  6
CENTER
 62
       2
  5
BC
 10
-55.9109652
 20
-28.51968098
 30
0.0
 11
-55.9109652
 21
22.00172439
 31
0.0
  0
CIRCLE
  8
0
  6
CONTINUOUS
 62
       7
  5
BD
 10
-55.9109652
 20
-3.24007532
 30
0.0
 40
22.0
  0
LINE
  8
0
  6
CENTER
 62
       2
  5
BE
 10
-73.8207924
 20
20.25992468
 30
0.0
 11
-64.97259634
 21
20.25992468
 31
0.0
  0
LINE
  8
0
  6
CENTER
 62
       2
  5
BF
 10
-44.9109652
 20
17.06266587
 30
0.0
 11
-44.9109652
 21
23.73058711
 31
0.0
  0
LINE
  8
0
  6
CENTER
 62
       2
  5
C0
 10
-69.9109652
 20
17.06266587
 30
0.0
 11
-69.9109652
 21
23.73058711
 31
0.0
  0
CIRCLE
  8
0
  6
CONTINUOUS
 62
       7
  5
C1
 10
-44.9109652
 20
20.25992468
 30
0.0
 40
2.1
  0
CIRCLE
  8
0
  6
CONTINUOUS
 62
       7
  5
C2
 10
-69.9109652
 20
20.25992468
 30
0.0
 40
2.1
  0
LINE
  8
0
  6
CONTINUOUS
 62
       7
  5
C3
 10
-73.6609652
 20
20.25992468
 30
0.0
 11
-73.6609652
 21
24.75992468
 31
0.0
  0
LINE
  8
0
  6
CONTINUOUS
 62
       7
  5
C4
 10
-66.1609652
 20
20.25992468
 30
0.0
 11
-66.1609652
 21
24.75992468
 31
0.0
  0
LINE
  8
0
  6
CONTINUOUS
 62
       7
  5
C5
 10
-48.6609652
 20
20.25992468
 30
0.0
 11
-48.6609652
 21
24.75992468
 31
0.0
  0
LINE
  8
0
  6
CONTINUOUS
 62
       7
  5
C6
 10
-41.1609652
 20
20.25992468
 30
0.0
 11
-41.1609652
 21
24.75992468
 31
0.0
  0
ARC
  8
0
  6
CONTINUOUS
 62
       7
  5
C7
 10
-69.9109652
 20
20.25992468
 30
0.0
 40
3.75
 50
180.0
 51
0.0
  0
ARC
  8
0
  6
CONTINUOUS
 62
       7
  5
C8
 10
-44.9109652
 20
20.25992468
 30
0.0
 40
3.75
 50
180.0
 51
0.0
  0
LINE
  8
0
  6
CENTER
 62
       2
  5
C9
 10
-49.49045043
 20
20.25992468
 30
0.0
 11
-40.04394545
 21
20.25992468
 31
0.0
  0
LINE
  8
0
  6
CONTINUOUS
 62
       7
  5
CA
 10
-20.97314303
 20
-33.24007532
 30
0.0
 11
-8.84878737
 21
-33.24007532
 31
0.0
  0
LINE
  8
0
  6
CONTINUOUS
 62
       7
  5
CB
 10
-27.9109652
 20
-0.24007532
 30
0.0
 11
-1.9109652
 21
-0.24007532
 31
0.0
  0
LINE
  8
0
  6
CONTINUOUS
 62
       7
  5
CC
 10
-26.4109652
 20
-30.24007532
 30
0.0
 11
-3.4109652
 21
-30.24007532
 31
0.0
  0
LINE
  8
0
  6
CENTER
 62
       2
  5
CD
 10
-14.9109652
 20
-37.35427451
 30
0.0
 11
-14.9109652
 21
26.83191324
 31
0.0
  0
LINE
  8
0
  6
CONTINUOUS
 62
       7
  5
CE
 10
-26.4109652
 20
-30.24007532
 30
0.0
 11
-26.4109652
 21
-0.24007532
 31
0.0
  0
LINE
  8
0
  6
CONTINUOUS
 62
       7
  5
CF
 10
-3.4109652
 20
-30.24007532
 30
0.0
 11
-3.4109652
 21
-0.24007532
 31
0.0
  0
LINE
  8
0
  6
CENTER
 62
       2
  5
D0
 10
-22.14329181
 20
-15.24007532
 30
0.0
 11
-6.99752493
 21
-15.24007532
 31
0.0
  0
LINE
  8
0
  6
CONTINUOUS
 62
       7
  5
D1
 10
-23.4109652
 20
-19.24007532
 30
0.0
 11
-23.4109652
 21
-11.24007532
 31
0.0
  0
LINE
  8
0
  6
CONTINUOUS
 62
       7
  5
D2
 10
-6.4109652
 20
-19.24007532
 30
0.0
 11
-6.4109652
 21
-11.24007532
 31
0.0
  0
LINE
  8
0
  6
CONTINUOUS
 62
       7
  5
D3
 10
-22.4109652
 20
-10.24007532
 30
0.0
 11
-7.4109652
 21
-10.24007532
 31
0.0
  0
LINE
  8
0
  6
CONTINUOUS
 62
       7
  5
D4
 10
-22.4109652
 20
-20.24007532
 30
0.0
 11
-7.4109652
 21
-20.24007532
 31
0.0
  0
ARC
  8
0
  6
CONTINUOUS
 62
       7
  5
D5
 10
-7.4109652
 20
-11.24007532
 30
0.0
 40
1.0
 50
0.0
 51
90.0
  0
ARC
  8
0
  6
CONTINUOUS
 62
       7
  5
D6
 10
-22.4109652
 20
-11.24007532
 30
0.0
 40
1.0
 50
90.0
 51
180.0
  0
ARC
  8
0
  6
CONTINUOUS
 62
       7
  5
D7
 10
-22.4109652
 20
-19.24007532
 30
0.0
 40
1.0
 50
180.0
 51
270.0
  0
ARC
  8
0
  6
CONTINUOUS
 62
       7
  5
D8
 10
-7.4109652
 20
-19.24007532
 30
0.0
 40
1.0
 50
270.0
 51
0.0
  0
LINE
  8
0
  6
CENTER
 62
       2
  5
D9
 10
-17.4109652
 20
-19.03982532
 30
0.0
 11
-17.4109652
 21
-11.75598323
 31
0.0
  0
LINE
  8
0
  6
CENTER
 62
       2
  5
DA
 10
-12.4109652
 20
-19.03982532
 30
0.0
 11
-12.4109652
 21
-11.75598323
 31
0.0
  0
LINE
  8
0
  6
CONTINUOUS
 62
       7
  5
DB
 10
-17.4109652
 20
-12.74007532
 30
0.0
 11
-12.4109652
 21
-12.74007532
 31
0.0
  0
LINE
  8
0
  6
CONTINUOUS
 62
       7
  5
DC
 10
-17.4109652
 20
-17.74007532
 30
0.0
 11
-12.4109652
 21
-17.74007532
 31
0.0
  0
ARC
  8
0
  6
CONTINUOUS
 62
       7
  5
DD
 10
-17.4109652
 20
-15.24007532
 30
0.0
 40
2.5
 50
90.0
 51
270.0
  0
ARC
  8
0
  6
CONTINUOUS
 62
       7
  5
DE
 10
-12.4109652
 20
-15.24007532
 30
0.0
 40
2.5
 50
270.0
 51
90.0
  0
CIRCLE
  8
0
  6
CONTINUOUS
 62
       7
  5
DF
 10
-12.4109652
 20
-15.24007532
 30
0.0
 40
1.0
  0
CIRCLE
  8
0
  6
CONTINUOUS
 62
       7
  5
E0
 10
-17.4109652
 20
-15.24007532
 30
0.0
 40
1.0
  0
LINE
  8
0
  6
CONTINUOUS
 62
       7
  5
E1
 10
-21.9109652
 20
-32.69862337
 30
0.0
 11
-21.9109652
 21
-30.24007532
 31
0.0
  0
LINE
  8
0
  6
CONTINUOUS
 62
       7
  5
E2
 10
-7.9109652
 20
-32.69862345
 30
0.0
 11
-7.9109652
 21
-30.24007532
 31
0.0
  0
LINE
  8
0
  6
CONTINUOUS
 62
       7
  5
E3
 10
-18.4109652
 20
-32.69862338
 30
0.0
 11
-18.4109652
 21
-30.24007532
 31
0.0
  0
LINE
  8
0
  6
CONTINUOUS
 62
       7
  5
E4
 10
-11.4109652
 20
-32.69862338
 30
0.0
 11
-11.4109652
 21
-30.24007535
 31
0.0
  0
LINE
  8
0
  6
CONTINUOUS
 62
       7
  5
E5
 10
-8.84878733
 20
-33.24007532
 30
0.0
 11
-7.9109652
 21
-32.69862345
 31
0.0
  0
LINE
  8
0
  6
CONTINUOUS
 62
       7
  5
E6
 10
-21.91096517
 20
-32.69862338
 30
0.0
 11
-20.97314289
 21
-33.24007535
 31
0.0
  0
ARC
  8
0
  6
CONTINUOUS
 62
       7
  5
E7
 10
-14.9109652
 20
-21.65717253
 30
0.0
 40
11.58290279
 50
252.41204469
 51
287.58795531
  0
ARC
  8
0
  6
CONTINUOUS
 62
       7
  5
E8
 10
-20.16096518
 20
-30.14130519
 30
0.0
 40
3.09877013
 50
235.61574941
 51
304.38425059
  0
ARC
  8
0
  6
CONTINUOUS
 62
       7
  5
E9
 10
-9.66096514
 20
-30.14130495
 30
0.0
 40
3.09877036
 50
235.61575077
 51
304.38424923
  0
LINE
  8
0
  6
CENTER
 62
       2
  5
EA
 10
-20.30744128
 20
4.75992468
 30
0.0
 11
-4.79380358
 21
4.75992468
 31
0.0
  0
LINE
  8
0
  6
CONTINUOUS
 62
       7
  5
EB
 10
-14.9109652
 20
7.75992468
 30
0.0
 11
-9.9109652
 21
7.75992468
 31
0.0
  0
LINE
  8
0
  6
CONTINUOUS
 62
       7
  5
EC
 10
-14.9109652
 20
1.75992468
 30
0.0
 11
-9.9109652
 21
1.75992468
 31
0.0
  0
ARC
  8
0
  6
CONTINUOUS
 62
       7
  5
ED
 10
-14.9109652
 20
4.75992468
 30
0.0
 40
3.0
 50
90.0
 51
270.0
  0
LINE
  8
0
  6
CONTINUOUS
 62
       7
  5
EE
 10
-9.9109652
 20
2.78577481
 30
0.0
 11
-9.9109652
 21
6.57799736
 31
0.0
  0
ARC
  8
0
  6
CONTINUOUS
 62
       7
  5
EF
 10
-9.9109652
 20
4.75992468
 30
0.0
 40
3.0
 50
-90.0
 51
90.0
  0
CIRCLE
  8
0
  6
CONTINUOUS
 62
       7
  5
F0
 10
-14.9109652
 20
4.75992468
 30
0.0
 40
1.5
  0
LINE
  8
0
  6
CONTINUOUS
 62
       7
  5
F1
 10
-16.32517876
 20
5.25992468
 30
0.0
 11
-13.49675164
 21
5.25992468
 31
0.0
  0
LINE
  8
0
  6
CONTINUOUS
 62
       7
  5
F2
 10
-16.32517876
 20
4.25992468
 30
0.0
 11
-13.49675164
 21
4.25992468
 31
0.0
  0
LINE
  8
0
  6
CONTINUOUS
 62
       7
  5
F3
 10
-11.077692
 20
3.59319824
 30
0.0
 11
-8.74423933
 21
5.92665071
 31
0.0
  0
LINE
  8
0
  6
CONTINUOUS
 62
       7
  5
F4
 10
-11.07769189
 20
5.92665124
 30
0.0
 11
-8.74423942
 21
3.59319857
 31
0.0
  0
CIRCLE
  8
0
  6
CONTINUOUS
 62
       7
  5
F5
 10
-9.9109652
 20
4.75992468
 30
0.0
 40
2.75
  0
LINE
  8
0
  6
CONTINUOUS
 62
       2
  5
F6
 10
62.27047733
 20
-17.74007535
 30
0.0
 11
65.15722867
 21
-12.74007535
 31
0.0
  0
LINE
  8
0
  6
CONTINUOUS
 62
       2
  5
F7
 10
61.11577679
 20
-17.74007535
 30
0.0
 11
64.00252813
 21
-12.74007535
 31
0.0
  0
LINE
  8
0
  6
CONTINUOUS
 62
       7
  5
F8
 10
-138.3999939
 20
94.5
 30
0.0
 11
138.3500061
 21
94.5
 31
0.0
  0
LINE
  8
0
  6
CONTINUOUS
 62
       7
  5
F9
 10
138.3500061
 20
94.5
 30
0.0
 11
138.3500061
 21
-94.80000305
 31
0.0
  0
LINE
  8
0
  6
CONTINUOUS
 62
       7
  5
FA
 10
-138.3999939
 20
-94.80000305
 30
0.0
 11
138.3500061
 21
-94.80000305
 31
0.0
  0
LINE
  8
0
  6
CONTINUOUS
 62
       7
  5
FB
 10
-138.3999939
 20
94.5
 30
0.0
 11
-138.3999939
 21
-94.80000305
 31
0.0
  0
TEXT
  8
0
  6
CONTINUOUS
 62
       7
  5
FC
 10
-129.43783167
 20
72.9000001
 30
0.0
 40
3.19999981
  1
MODEL:ME25-T3
 41
1.05405405
  7
MX_NOTE_STANDARD
 11
-129.43783167
 21
74.5
 31
0.0
 73
       2
  0
ENDSEC
  0
EOF
