  0
SECTION
  2
HEADER
  9
$ACADVER
  1
AC1009
  9
$DWGCODEPAGE
  3
dos932
  9
$INSBASE
 10
0.0
 20
0.0
 30
0.0
  9
$EXTMIN
 10
-194.25
 20
-133.5
 30
0.0
  9
$EXTMAX
 10
194.80000305
 20
132.6000061
 30
0.0
  9
$LIMMIN
 10
-210.0
 20
-148.5
  9
$LIMMAX
 10
210.0
 20
148.5
  9
$ORTHOMODE
 70
       0
  9
$REGENMODE
 70
       1
  9
$FILLMODE
 70
       1
  9
$QTEXTMODE
 70
       0
  9
$MIRRTEXT
 70
       1
  9
$DRAGMODE
 70
       2
  9
$LTSCALE
 40
1.0
  9
$OSMODE
 70
       0
  9
$ATTMODE
 70
       1
  9
$TEXTSIZE
 40
3.20000005
  9
$TRACEWID
 40
0.05
  9
$TEXTSTYLE
  7
MX_NOTE_STANDARD
  9
$CLAYER
  8
0
  9
$CELTYPE
  6
CONTINUOUS
  9
$CECOLOR
 62
     256
  9
$DIMSCALE
 40
1.0
  9
$DIMASZ
 40
2.5
  9
$DIMEXO
 40
1.5
  9
$DIMDLI
 40
3.75
  9
$DIMRND
 40
0.0
  9
$DIMDLE
 40
0.0
  9
$DIMEXE
 40
1.5
  9
$DIMTP
 40
0.0
  9
$DIMTM
 40
0.0
  9
$DIMTXT
 40
3.20000005
  9
$DIMCEN
 40
2.5
  9
$DIMTSZ
 40
0.0
  9
$DIMTOL
 70
       0
  9
$DIMLIM
 70
       0
  9
$DIMTIH
 70
       0
  9
$DIMTOH
 70
       0
  9
$DIMSE1
 70
       0
  9
$DIMSE2
 70
       0
  9
$DIMTAD
 70
       1
  9
$DIMZIN
 70
       8
  9
$DIMBLK
  1

  9
$DIMASO
 70
       1
  9
$DIMSHO
 70
       1
  9
$DIMPOST
  1

  9
$DIMAPOST
  1

  9
$DIMALT
 70
       0
  9
$DIMALTD
 70
       4
  9
$DIMALTF
 40
0.03937008
  9
$DIMLFAC
 40
1.0
  9
$DIMTOFL
 70
       1
  9
$DIMTVP
 40
0.0
  9
$DIMTIX
 70
       0
  9
$DIMSOXD
 70
       0
  9
$DIMSAH
 70
       1
  9
$DIMBLK1
  1
_OPEN30
  9
$DIMBLK2
  1
_OPEN30
  9
$DIMSTYLE
  2
MXDIMSTYLE
  9
$DIMCLRD
 70
       0
  9
$DIMCLRE
 70
       0
  9
$DIMCLRT
 70
       0
  9
$DIMTFAC
 40
1.0
  9
$DIMGAP
 40
1.0
  9
$LUNITS
 70
       2
  9
$LUPREC
 70
       4
  9
$AXISMODE
 70
       0
  9
$AXISUNIT
 10
0.0
 20
0.0
  9
$SKETCHINC
 40
0.1
  9
$FILLETRAD
 40
0.0
  9
$AUNITS
 70
       0
  9
$AUPREC
 70
       0
  9
$MENU
  1
acad
  9
$ELEVATION
 40
0.0
  9
$PELEVATION
 40
0.0
  9
$THICKNESS
 40
0.0
  9
$LIMCHECK
 70
       0
  9
$BLIPMODE
 70
       1
  9
$CHAMFERA
 40
0.0
  9
$CHAMFERB
 40
0.0
  9
$SKPOLY
 70
       0
  9
$TDCREATE
 40
2454159.727210648
  9
$TDUPDATE
 40
2454159.727210648
  9
$TDINDWG
 40
0.0000000000
  9
$TDUSRTIMER
 40
0.0000000000
  9
$USRTIMER
 70
       1
  9
$ANGBASE
 50
0.0
  9
$ANGDIR
 70
       0
  9
$PDMODE
 70
       0
  9
$PDSIZE
 40
0.0
  9
$PLINEWID
 40
0.0
  9
$COORDS
 70
       1
  9
$SPLFRAME
 70
       0
  9
$SPLINETYPE
 70
       6
  9
$SPLINESEGS
 70
       8
  9
$ATTDIA
 70
       0
  9
$ATTREQ
 70
       1
  9
$HANDLING
 70
       1
  9
$HANDSEED
  5
2AB
  9
$SURFTAB1
 70
       6
  9
$SURFTAB2
 70
       6
  9
$SURFTYPE
 70
       6
  9
$SURFU
 70
       6
  9
$SURFV
 70
       6
  9
$UCSNAME
  2

  9
$UCSORG
 10
0.0
 20
0.0
 30
0.0
  9
$UCSXDIR
 10
1.0
 20
0.0
 30
0.0
  9
$UCSYDIR
 10
0.0
 20
1.0
 30
0.0
  9
$PUCSNAME
  2

  9
$PUCSORG
 10
0.0
 20
0.0
 30
0.0
  9
$PUCSXDIR
 10
1.0
 20
0.0
 30
0.0
  9
$PUCSYDIR
 10
0.0
 20
1.0
 30
0.0
  9
$USERI1
 70
       0
  9
$USERI2
 70
       0
  9
$USERI3
 70
       0
  9
$USERI4
 70
       0
  9
$USERI5
 70
       0
  9
$USERR1
 40
0.0
  9
$USERR2
 40
0.0
  9
$USERR3
 40
0.0
  9
$USERR4
 40
0.0
  9
$USERR5
 40
0.0
  9
$WORLDVIEW
 70
       1
  9
$SHADEDGE
 70
       3
  9
$SHADEDIF
 70
      70
  9
$TILEMODE
 70
       1
  9
$MAXACTVP
 70
      16
  9
$PINSBASE
 10
0.0
 20
0.0
 30
0.0
  9
$PLIMCHECK
 70
       0
  9
$PEXTMIN
 10
1.00000000E+20
 20
1.00000000E+20
 30
1.00000000E+20
  9
$PEXTMAX
 10
-1.00000000E+20
 20
-1.00000000E+20
 30
-1.00000000E+20
  9
$PLIMMIN
 10
0.0
 20
0.0
  9
$PLIMMAX
 10
12.0
 20
9.0
  9
$UNITMODE
 70
       0
  9
$VISRETAIN
 70
       0
  9
$PLINEGEN
 70
       1
  9
$PSLTSCALE
 70
       0
  9
$TREEDEPTH
 70
    3020
  0
ENDSEC
  0
SECTION
  2
TABLES
  0
TABLE
  2
VPORT
 70
       1
  0
VPORT
  2
*ACTIVE
 70
       0
 10
0.0
 20
0.0
 11
1.0
 21
1.0
 12
0.0
 22
0.0
 13
0.0
 23
0.0
 14
1.0
 24
1.0
 15
0.0
 25
0.0
 16
0.0
 26
0.0
 36
1.0
 17
0.0
 27
0.0
 37
0.0
 40
299.97
 41
1.73205081
 42
50.0
 43
0.0
 44
0.0
 50
0.0
 51
0.0
 71
       0
 72
     100
 73
       1
 74
       1
 75
       0
 76
       0
 77
       0
 78
       0
  0
ENDTAB
  0
TABLE
  2
LTYPE
 70
       1
  0
LTYPE
  2
CONTINUOUS
 70
      64
  3
Solid line
 72
      65
 73
       0
 40
0.0
  0
ENDTAB
  0
TABLE
  2
LAYER
 70
       2
  0
LAYER
  2
0
 70
       0
 62
       7
  6
CONTINUOUS
  0
LAYER
  2
DEFPOINTS
 70
       0
 62
       7
  6
CONTINUOUS
  0
ENDTAB
  0
TABLE
  2
STYLE
 70
       1
  0
STYLE
  2
MX_NOTE_STANDARD
 70
       0
 40
0.0
 41
1.0
 50
0.0
 71
       0
 42
3.20000005
  3
txt.shx
  4
extfont.shx
  0
ENDTAB
  0
TABLE
  2
VIEW
 70
       0
  0
ENDTAB
  0
TABLE
  2
UCS
 70
       0
  0
ENDTAB
  0
TABLE
  2
APPID
 70
       1
  0
APPID
  2
ACAD
 70
       0
  0
ENDTAB
  0
TABLE
  2
DIMSTYLE
 70
       1
  0
DIMSTYLE
  2
MXDIMSTYLE
 70
       0
  3

  4

  5

  6
_OPEN30
  7
_OPEN30
 40
1.0
 41
2.5
 42
1.5
 43
3.75
 44
1.5
 45
0.0
 46
0.0
 47
0.0
 48
0.0
 71
       0
 72
       0
 73
       0
 74
       0
 75
       0
 76
       0
 77
       1
 78
       8
140
3.20000005
141
2.5
142
0.0
143
0.03937008
144
1.0
145
0.0
146
1.0
147
1.0
170
       0
171
       4
172
       1
173
       1
174
       0
175
       0
176
       0
177
       0
178
       0
  0
ENDTAB
  0
ENDSEC
  0
SECTION
  2
BLOCKS
  0
BLOCK
  8
0
  5
27
  2
MS_1
 70
       0
 10
0.0
 20
0.0
 30
0.0
  3
MS_1
  0
ARC
  8
0
  6
CONTINUOUS
 62
       7
  5
28
 10
1.5
 20
-2.5
 30
0.0
 40
0.5
 50
270.0
 51
0.0
  0
ARC
  8
0
  6
CONTINUOUS
 62
       7
  5
29
 10
1.5
 20
2.5
 30
0.0
 40
0.5
 50
0.0
 51
90.0
  0
LINE
  8
0
  6
CONTINUOUS
 62
       7
  5
2A
 10
0.0
 20
-3.0
 30
0.0
 11
1.5
 21
-3.0
 31
0.0
  0
LINE
  8
0
  6
CONTINUOUS
 62
       7
  5
2B
 10
2.0
 20
2.5
 30
0.0
 11
2.0
 21
-2.5
 31
0.0
  0
LINE
  8
0
  6
CONTINUOUS
 62
       7
  5
2C
 10
0.0
 20
3.0
 30
0.0
 11
1.5
 21
3.0
 31
0.0
  0
LINE
  8
0
  6
CONTINUOUS
 62
       7
  5
2D
 10
0.0
 20
3.0
 30
0.0
 11
0.0
 21
-3.0
 31
0.0
  0
ENDBLK
  8
0
  5
2E
  0
BLOCK
  8
0
  5
2F
  2
MS_2
 70
       0
 10
0.0
 20
0.0
 30
0.0
  3
MS_2
  0
ARC
  8
0
  6
CONTINUOUS
 62
       7
  5
30
 10
1.49999847
 20
-1.19999847
 30
0.0
 40
0.50000153
 50
270.00017485
 51
359.99982515
  0
ARC
  8
0
  6
CONTINUOUS
 62
       7
  5
31
 10
1.49999847
 20
1.19999847
 30
0.0
 40
0.50000153
 50
0.00017485
 51
89.99982515
  0
LINE
  8
0
  6
CONTINUOUS
 62
       7
  5
32
 10
1.5
 20
-1.7
 30
0.0
 11
0.0
 21
-1.7
 31
0.0
  0
LINE
  8
0
  6
CONTINUOUS
 62
       7
  5
33
 10
2.0
 20
-1.2
 30
0.0
 11
2.0
 21
1.2
 31
0.0
  0
LINE
  8
0
  6
CONTINUOUS
 62
       7
  5
34
 10
1.5
 20
1.7
 30
0.0
 11
0.0
 21
1.7
 31
0.0
  0
LINE
  8
0
  6
CONTINUOUS
 62
       7
  5
35
 10
0.0
 20
1.7
 30
0.0
 11
0.0
 21
-1.7
 31
0.0
  0
ENDBLK
  8
0
  5
36
  0
BLOCK
  8
0
  5
37
  2
MS_3
 70
       0
 10
0.0
 20
0.0
 30
0.0
  3
MS_3
  0
CIRCLE
  8
0
  6
CONTINUOUS
 62
       7
  5
38
 10
1.30000305
 20
0.0
 30
0.0
 40
0.85000002
  0
CIRCLE
  8
0
  6
CONTINUOUS
 62
       7
  5
39
 10
-1.30000305
 20
0.0
 30
0.0
 40
0.85000002
  0
ARC
  8
0
  6
CONTINUOUS
 62
       7
  5
3A
 10
1.3
 20
0.0
 30
0.0
 40
1.7
 50
270.0
 51
90.0
  0
ARC
  8
0
  6
CONTINUOUS
 62
       7
  5
3B
 10
-1.3
 20
0.0
 30
0.0
 40
1.7
 50
90.0
 51
270.0
  0
LINE
  8
0
  6
CONTINUOUS
 62
       7
  5
3C
 10
-1.3
 20
-1.7
 30
0.0
 11
1.3
 21
-1.7
 31
0.0
  0
LINE
  8
0
  6
CONTINUOUS
 62
       7
  5
3D
 10
-1.3
 20
1.7
 30
0.0
 11
1.3
 21
1.7
 31
0.0
  0
ENDBLK
  8
0
  5
3E
  0
BLOCK
  8
0
  6
BYBLOCK
 62
       0
  5
22
  2
_OPEN30
 70
       2
 10
0.0
 20
0.0
 30
0.0
  3
_OPEN30
  0
LINE
  8
0
  6
BYBLOCK
 62
       0
  5
23
 10
-1.0
 20
0.267949
 30
0.0
 11
0.0
 21
0.0
 31
0.0
  0
LINE
  8
0
  6
BYBLOCK
 62
       0
  5
24
 10
0.0
 20
0.0
 30
0.0
 11
-1.0
 21
-0.267949
 31
0.0
  0
LINE
  8
0
  6
BYBLOCK
 62
       0
  5
25
 10
0.0
 20
0.0
 30
0.0
 11
-1.0
 21
0.0
 31
0.0
  0
ENDBLK
  8
0
  6
BYBLOCK
 62
       0
  5
26
  0
BLOCK
  8
0
  6
BYBLOCK
 62
       0
  5
DD
  2
*X4
 70
       1
 10
0.0
 20
0.0
 30
0.0
  3
*X4
  0
LINE
  8
0
  6
CONTINUOUS
 62
       0
  5
DE
 10
48.77740735
 20
86.0
 30
0.0
 11
51.05990421
 21
86.0
 31
0.0
  0
LINE
  8
0
  6
CONTINUOUS
 62
       0
  5
DF
 10
48.23865286
 20
87.0
 30
0.0
 11
49.10938974
 21
87.0
 31
0.0
  0
LINE
  8
0
  6
CONTINUOUS
 62
       0
  5
E0
 10
50.72792182
 20
87.0
 30
0.0
 11
51.5986587
 21
87.0
 31
0.0
  0
LINE
  8
0
  6
CONTINUOUS
 62
       0
  5
E1
 10
48.21865581
 20
88.0
 30
0.0
 11
49.50048445
 21
88.0
 31
0.0
  0
LINE
  8
0
  6
CONTINUOUS
 62
       0
  5
E2
 10
50.33682711
 20
88.0
 30
0.0
 11
51.61865575
 21
88.0
 31
0.0
  0
LINE
  8
0
  6
CONTINUOUS
 62
       0
  5
E3
 10
48.21865581
 20
89.0
 30
0.0
 11
51.61865575
 21
89.0
 31
0.0
  0
LINE
  8
0
  6
CONTINUOUS
 62
       0
  5
E4
 10
48.2244319
 20
90.0
 30
0.0
 11
49.08026714
 21
90.0
 31
0.0
  0
LINE
  8
0
  6
CONTINUOUS
 62
       0
  5
E5
 10
50.75704442
 20
90.0
 30
0.0
 11
51.61287966
 21
90.0
 31
0.0
  0
LINE
  8
0
  6
CONTINUOUS
 62
       0
  5
E6
 10
48.65756249
 20
91.0
 30
0.0
 11
51.17974908
 21
91.0
 31
0.0
  0
ENDBLK
  8
0
  6
BYBLOCK
 62
       0
  5
E7
  0
BLOCK
  8
0
  6
BYBLOCK
 62
       0
  5
EF
  2
*X5
 70
       1
 10
0.0
 20
0.0
 30
0.0
  3
*X5
  0
LINE
  8
0
  6
CONTINUOUS
 62
       0
  5
F0
 10
-44.72260092
 20
86.0
 30
0.0
 11
-42.44010434
 21
86.0
 31
0.0
  0
LINE
  8
0
  6
CONTINUOUS
 62
       0
  5
F1
 10
-45.26135554
 20
87.0
 30
0.0
 11
-44.39061863
 21
87.0
 31
0.0
  0
LINE
  8
0
  6
CONTINUOUS
 62
       0
  5
F2
 10
-42.77208663
 20
87.0
 30
0.0
 11
-41.90134973
 21
87.0
 31
0.0
  0
LINE
  8
0
  6
CONTINUOUS
 62
       0
  5
F3
 10
-45.2813526
 20
88.0
 30
0.0
 11
-43.99952419
 21
88.0
 31
0.0
  0
LINE
  8
0
  6
CONTINUOUS
 62
       0
  5
F4
 10
-43.16318108
 20
88.0
 30
0.0
 11
-41.88135266
 21
88.0
 31
0.0
  0
LINE
  8
0
  6
CONTINUOUS
 62
       0
  5
F5
 10
-45.2813526
 20
89.0
 30
0.0
 11
-41.88135266
 21
89.0
 31
0.0
  0
LINE
  8
0
  6
CONTINUOUS
 62
       0
  5
F6
 10
-45.27557652
 20
90.0
 30
0.0
 11
-44.4197413
 21
90.0
 31
0.0
  0
LINE
  8
0
  6
CONTINUOUS
 62
       0
  5
F7
 10
-42.74296397
 20
90.0
 30
0.0
 11
-41.88712874
 21
90.0
 31
0.0
  0
LINE
  8
0
  6
CONTINUOUS
 62
       0
  5
F8
 10
-44.84244604
 20
91.0
 30
0.0
 11
-42.32025922
 21
91.0
 31
0.0
  0
ENDBLK
  8
0
  6
BYBLOCK
 62
       0
  5
F9
  0
BLOCK
  8
0
  6
BYBLOCK
 62
       0
  5
114
  2
*X6
 70
       1
 10
0.0
 20
0.0
 30
0.0
  3
*X6
  0
LINE
  8
0
  6
CONTINUOUS
 62
       0
  5
115
 10
-45.27420539
 20
32.0
 30
0.0
 11
-41.87420544
 21
32.0
 31
0.0
  0
LINE
  8
0
  6
CONTINUOUS
 62
       0
  5
116
 10
-45.22506909
 20
33.0
 30
0.0
 11
-41.92334174
 21
33.0
 31
0.0
  0
ENDBLK
  8
0
  6
BYBLOCK
 62
       0
  5
117
  0
BLOCK
  8
0
  6
BYBLOCK
 62
       0
  5
13C
  2
*X7
 70
       1
 10
0.0
 20
0.0
 30
0.0
  3
*X7
  0
LINE
  8
0
  6
CONTINUOUS
 62
       0
  5
13D
 10
48.22579025
 20
32.0
 30
0.0
 11
51.6257902
 21
32.0
 31
0.0
  0
LINE
  8
0
  6
CONTINUOUS
 62
       0
  5
13E
 10
48.27492655
 20
33.0
 30
0.0
 11
51.5766539
 21
33.0
 31
0.0
  0
ENDBLK
  8
0
  6
BYBLOCK
 62
       0
  5
13F
  0
BLOCK
  8
0
  6
BYBLOCK
 62
       0
  5
1AC
  2
*X8
 70
       1
 10
0.0
 20
0.0
 30
0.0
  3
*X8
  0
LINE
  8
0
  6
CONTINUOUS
 62
       0
  5
1AD
 10
-121.70156705
 20
32.0
 30
0.0
 11
-115.70156715
 21
32.0
 31
0.0
  0
LINE
  8
0
  6
CONTINUOUS
 62
       0
  5
1AE
 10
-121.6524355
 20
33.0
 30
0.0
 11
-115.7506987
 21
33.0
 31
0.0
  0
ENDBLK
  8
0
  6
BYBLOCK
 62
       0
  5
1AF
  0
BLOCK
  8
0
  6
BYBLOCK
 62
       0
  5
262
  2
*X9
 70
       1
 10
0.0
 20
0.0
 30
0.0
  3
*X9
  0
LINE
  8
0
  6
CONTINUOUS
 62
       0
  5
263
 10
114.57929413
 20
32.0
 30
0.0
 11
120.57929403
 21
32.0
 31
0.0
  0
LINE
  8
0
  6
CONTINUOUS
 62
       0
  5
264
 10
114.62842568
 20
33.0
 30
0.0
 11
120.53016248
 21
33.0
 31
0.0
  0
ENDBLK
  8
0
  6
BYBLOCK
 62
       0
  5
265
  0
ENDSEC
  0
SECTION
  2
ENTITIES
  0
TEXT
  8
0
  6
CONTINUOUS
 62
       7
  5
3F
 10
-185.13415379
 20
100.44738326
 30
0.0
 40
3.20000005
  1
搭載
 41
0.78124996
  7
MX_NOTE_STANDARD
 11
-185.13415379
 21
102.04738328
 31
0.0
 73
       2
  0
TEXT
  8
0
  6
CONTINUOUS
 62
       7
  5
40
 10
-185.0466548
 20
94.42656628
 30
0.0
 40
3.20000005
  1
stn1:AME05-E2-11 DC24V
 41
1.02611938
  7
MX_NOTE_STANDARD
 11
-185.0466548
 21
96.0265663
 31
0.0
 73
       2
  0
TEXT
  8
0
  6
CONTINUOUS
 62
       7
  5
41
 10
-188.17146456
 20
117.45940944
 30
0.0
 40
3.20000005
  1
MODEL:ME05M1A
 41
1.02992956
  7
MX_NOTE_STANDARD
 11
-188.17146456
 21
119.05940946
 31
0.0
 73
       2
  0
LINE
  8
0
  6
CONTINUOUS
 62
       2
  5
42
 10
9.41865616
 20
-60.67323884
 30
0.0
 11
9.41865616
 21
-67.67323884
 31
0.0
  0
LINE
  8
0
  6
CONTINUOUS
 62
       2
  5
43
 10
5.91865616
 20
-64.17323884
 30
0.0
 11
12.91865616
 21
-64.17323884
 31
0.0
  0
CIRCLE
  8
0
  6
CONTINUOUS
 62
       7
  5
44
 10
9.41865616
 20
-64.17323884
 30
0.0
 40
2.1
  0
LINE
  8
0
  6
CONTINUOUS
 62
       2
  5
45
 10
-8.58134384
 20
-60.67323884
 30
0.0
 11
-8.58134384
 21
-67.67323884
 31
0.0
  0
LINE
  8
0
  6
CONTINUOUS
 62
       2
  5
46
 10
-12.08134384
 20
-64.17323884
 30
0.0
 11
-5.08134384
 21
-64.17323884
 31
0.0
  0
CIRCLE
  8
0
  6
CONTINUOUS
 62
       7
  5
47
 10
-8.58134384
 20
-64.17323884
 30
0.0
 40
2.1
  0
LINE
  8
0
  6
CONTINUOUS
 62
       7
  5
48
 10
-14.58134384
 20
-85.17323884
 30
0.0
 11
-14.58134384
 21
-59.17323884
 31
0.0
  0
LINE
  8
0
  6
CONTINUOUS
 62
       7
  5
49
 10
25.41865616
 20
-85.17323884
 30
0.0
 11
25.41865616
 21
-59.17323884
 31
0.0
  0
LINE
  8
0
  6
CONTINUOUS
 62
       7
  5
4A
 10
-14.58134384
 20
-85.17323884
 30
0.0
 11
25.41865616
 21
-85.17323884
 31
0.0
  0
LINE
  8
0
  6
CONTINUOUS
 62
       7
  5
4B
 10
-14.58134384
 20
-59.17323884
 30
0.0
 11
25.41865616
 21
-59.17323884
 31
0.0
  0
LINE
  8
0
  6
CONTINUOUS
 62
       7
  5
4C
 10
25.41865616
 20
-83.67323871
 30
0.0
 11
58.11865564
 21
-83.67323871
 31
0.0
  0
LINE
  8
0
  6
CONTINUOUS
 62
       7
  5
4D
 10
25.41865616
 20
-68.67323871
 30
0.0
 11
58.11865564
 21
-68.67323871
 31
0.0
  0
LINE
  8
0
  6
CONTINUOUS
 62
       7
  5
4E
 10
-51.78134391
 20
-83.67323871
 30
0.0
 11
-14.58134384
 21
-83.67323871
 31
0.0
  0
LINE
  8
0
  6
CONTINUOUS
 62
       7
  5
4F
 10
-51.78134391
 20
-68.67323871
 30
0.0
 11
-14.58134384
 21
-68.67323871
 31
0.0
  0
LINE
  8
0
  6
CONTINUOUS
 62
       2
  5
50
 10
-56.62420106
 20
-76.17323884
 30
0.0
 11
64.09008466
 21
-76.17323884
 31
0.0
  0
LINE
  8
0
  6
CONTINUOUS
 62
       7
  5
51
 10
-50.78134391
 20
-83.67323871
 30
0.0
 11
-50.78134391
 21
-68.67323871
 31
0.0
  0
LINE
  8
0
  6
CONTINUOUS
 62
       7
  5
52
 10
-51.78134391
 20
-83.67323871
 30
0.0
 11
-51.78134391
 21
-68.67323871
 31
0.0
  0
LINE
  8
0
  6
CONTINUOUS
 62
       7
  5
53
 10
-53.78134391
 20
-82.67323871
 30
0.0
 11
-53.78134391
 21
-82.50181014
 31
0.0
  0
LINE
  8
0
  6
CONTINUOUS
 62
       7
  5
54
 10
-51.78134391
 20
-68.67323871
 30
0.0
 11
-53.78134391
 21
-69.67323871
 31
0.0
  0
LINE
  8
0
  6
CONTINUOUS
 62
       7
  5
55
 10
-51.78134391
 20
-83.67323871
 30
0.0
 11
-53.78134391
 21
-82.67323871
 31
0.0
  0
LINE
  8
0
  6
CONTINUOUS
 62
       2
  5
56
 10
-56.09191181
 20
-80.67323871
 30
0.0
 11
-47.78134391
 21
-80.67323871
 31
0.0
  0
LINE
  8
0
  6
CONTINUOUS
 62
       7
  5
57
 10
-52.38134391
 20
-78.13038157
 30
0.0
 11
-52.38134391
 21
-83.23038157
 31
0.0
  0
LINE
  8
0
  6
CONTINUOUS
 62
       7
  5
58
 10
-52.38134391
 20
-83.23038157
 30
0.0
 11
-51.78134391
 21
-83.23038157
 31
0.0
  0
LINE
  8
0
  6
CONTINUOUS
 62
       7
  5
59
 10
-53.08134391
 20
-82.93038157
 30
0.0
 11
-52.38134391
 21
-82.93038157
 31
0.0
  0
LINE
  8
0
  6
CONTINUOUS
 62
       7
  5
5A
 10
-53.78134391
 20
-78.858953
 30
0.0
 11
-53.78134391
 21
-69.67323871
 31
0.0
  0
LINE
  8
0
  6
CONTINUOUS
 62
       2
  5
5B
 10
-56.09191181
 20
-71.67323871
 30
0.0
 11
-47.78134391
 21
-71.67323871
 31
0.0
  0
LINE
  8
0
  6
CONTINUOUS
 62
       7
  5
5C
 10
-52.38134391
 20
-78.13038157
 30
0.0
 11
-51.78134391
 21
-78.13038157
 31
0.0
  0
LINE
  8
0
  6
CONTINUOUS
 62
       7
  5
5D
 10
-53.08134391
 20
-78.43038157
 30
0.0
 11
-52.38134391
 21
-78.43038157
 31
0.0
  0
LINE
  8
0
  6
CONTINUOUS
 62
       7
  5
5E
 10
-53.78134391
 20
-77.67323871
 30
0.0
 11
-51.78134391
 21
-77.67323871
 31
0.0
  0
ARC
  8
0
  6
CONTINUOUS
 62
       7
  5
5F
 10
-48.08131805
 20
-80.68038157
 30
0.0
 40
6.010598
 50
163.78344127
 51
196.21655873
  0
ARC
  8
0
  6
CONTINUOUS
 62
       7
  5
60
 10
-53.08555304
 20
-79.23112782
 30
0.0
 40
0.80075731
 50
89.69882692
 51
163.35888381
  0
ARC
  8
0
  6
CONTINUOUS
 62
       7
  5
61
 10
-53.07877754
 20
-82.1204884
 30
0.0
 40
0.80989724
 50
197.12384644
 51
269.81844282
  0
ARC
  8
0
  6
CONTINUOUS
 62
       7
  5
62
 10
-48.08131805
 20
-71.68038157
 30
0.0
 40
6.010598
 50
163.78344128
 51
196.21655872
  0
ARC
  8
0
  6
CONTINUOUS
 62
       7
  5
63
 10
-53.09880901
 20
-73.07125698
 30
0.0
 40
0.80698818
 50
200.88576391
 51
212.24433845
  0
ARC
  8
0
  6
CONTINUOUS
 62
       7
  5
64
 10
-53.1036019
 20
-70.28710972
 30
0.0
 40
0.80165605
 50
147.71776092
 51
159.15213672
  0
ARC
  8
0
  6
CONTINUOUS
 62
       7
  5
65
 10
59.41221362
 20
-82.12366194
 30
0.0
 40
0.79727492
 50
332.38357861
 51
344.01360242
  0
ARC
  8
0
  6
CONTINUOUS
 62
       7
  5
66
 10
59.40871072
 20
-79.21421675
 30
0.0
 40
0.80102833
 50
16.01373853
 51
27.58908044
  0
ARC
  8
0
  6
CONTINUOUS
 62
       7
  5
67
 10
54.41863844
 20
-80.66823877
 30
0.0
 40
5.99861839
 50
343.78568864
 51
16.21431136
  0
ARC
  8
0
  6
CONTINUOUS
 62
       7
  5
68
 10
59.41054087
 20
-70.2218568
 30
0.0
 40
0.79862006
 50
15.88720841
 51
90.13525482
  0
ARC
  8
0
  6
CONTINUOUS
 62
       7
  5
69
 10
59.41240708
 20
-73.12321894
 30
0.0
 40
0.80002873
 50
269.73132977
 51
343.29078247
  0
ARC
  8
0
  6
CONTINUOUS
 62
       7
  5
6A
 10
54.41863844
 20
-71.67823892
 30
0.0
 40
5.99861839
 50
343.78568864
 51
16.21431136
  0
LINE
  8
0
  6
CONTINUOUS
 62
       7
  5
6B
 10
60.11865561
 20
-74.67323887
 30
0.0
 11
58.11865564
 21
-74.67323887
 31
0.0
  0
LINE
  8
0
  6
CONTINUOUS
 62
       7
  5
6C
 10
59.40865562
 20
-73.92323888
 30
0.0
 11
58.71865563
 21
-73.92323888
 31
0.0
  0
LINE
  8
0
  6
CONTINUOUS
 62
       7
  5
6D
 10
58.71865563
 20
-74.22323888
 30
0.0
 11
58.11865564
 21
-74.22323888
 31
0.0
  0
LINE
  8
0
  6
CONTINUOUS
 62
       2
  5
6E
 10
63.11865609
 20
-80.67323877
 30
0.0
 11
54.11865571
 21
-80.67323877
 31
0.0
  0
LINE
  8
0
  6
CONTINUOUS
 62
       7
  5
6F
 10
60.11865561
 20
-73.50323889
 30
0.0
 11
60.11865561
 21
-82.67323873
 31
0.0
  0
LINE
  8
0
  6
CONTINUOUS
 62
       7
  5
70
 10
59.40865562
 20
-69.42323896
 30
0.0
 11
58.71865563
 21
-69.42323896
 31
0.0
  0
LINE
  8
0
  6
CONTINUOUS
 62
       7
  5
71
 10
58.71865563
 20
-69.12323896
 30
0.0
 11
58.11865564
 21
-69.12323896
 31
0.0
  0
LINE
  8
0
  6
CONTINUOUS
 62
       7
  5
72
 10
58.71865563
 20
-74.22323888
 30
0.0
 11
58.71865563
 21
-69.12323896
 31
0.0
  0
LINE
  8
0
  6
CONTINUOUS
 62
       2
  5
73
 10
63.11865609
 20
-71.67323892
 30
0.0
 11
54.11865571
 21
-71.67323892
 31
0.0
  0
LINE
  8
0
  6
CONTINUOUS
 62
       7
  5
74
 10
58.11865564
 20
-68.67323897
 30
0.0
 11
60.11865561
 21
-69.67323895
 31
0.0
  0
LINE
  8
0
  6
CONTINUOUS
 62
       7
  5
75
 10
58.11865564
 20
-83.67323871
 30
0.0
 11
60.11865561
 21
-82.67323873
 31
0.0
  0
LINE
  8
0
  6
CONTINUOUS
 62
       7
  5
76
 10
60.11865561
 20
-69.67323895
 30
0.0
 11
60.11865561
 21
-69.85323895
 31
0.0
  0
LINE
  8
0
  6
CONTINUOUS
 62
       7
  5
77
 10
58.11865564
 20
-68.67323897
 30
0.0
 11
58.11865564
 21
-83.67323871
 31
0.0
  0
LINE
  8
0
  6
CONTINUOUS
 62
       7
  5
78
 10
57.11865566
 20
-68.67323897
 30
0.0
 11
57.11865566
 21
-83.67323871
 31
0.0
  0
LINE
  8
0
  6
CONTINUOUS
 62
       7
  5
79
 10
31.91865609
 20
-68.67323897
 30
0.0
 11
31.91865609
 21
-83.67323897
 31
0.0
  0
LINE
  8
0
  6
CONTINUOUS
 62
       7
  5
7A
 10
-25.58134391
 20
-83.67323897
 30
0.0
 11
-25.58134391
 21
-68.67323897
 31
0.0
  0
CIRCLE
  8
0
  6
CONTINUOUS
 62
       7
  5
7B
 10
-22.08134391
 20
88.55998103
 30
0.0
 40
1.85
  0
LINE
  8
0
  6
CONTINUOUS
 62
       2
  5
7C
 10
-14.98134391
 20
91.70106989
 30
0.0
 11
-14.98134391
 21
83.98470026
 31
0.0
  0
LINE
  8
0
  6
CONTINUOUS
 62
       2
  5
7D
 10
-22.08134391
 20
85.5599809
 30
0.0
 11
-22.08134391
 21
91.5599809
 31
0.0
  0
LINE
  8
0
  6
CONTINUOUS
 62
       2
  5
7E
 10
-11.06325309
 20
88.05998103
 30
0.0
 11
-18.52240837
 21
88.05998103
 31
0.0
  0
LINE
  8
0
  6
CONTINUOUS
 62
       7
  5
7F
 10
-25.58134391
 20
96.05998103
 30
0.0
 11
-25.58134391
 21
81.05998103
 31
0.0
  0
LINE
  8
0
  6
CONTINUOUS
 62
       7
  5
80
 10
-25.58134391
 20
31.29337103
 30
0.0
 11
-25.58134391
 21
7.29337103
 31
0.0
  0
LINE
  8
0
  6
CONTINUOUS
 62
       2
  5
81
 10
-14.98134391
 20
30.3999077
 30
0.0
 11
-14.98134391
 21
46.04076055
 31
0.0
  0
LINE
  8
0
  6
CONTINUOUS
 62
       7
  5
82
 10
-18.23134391
 20
31.29337103
 30
0.0
 11
-18.23134391
 21
33.99337103
 31
0.0
  0
LINE
  8
0
  6
CONTINUOUS
 62
       7
  5
83
 10
-11.73134391
 20
31.29337103
 30
0.0
 11
-11.73134391
 21
33.99337103
 31
0.0
  0
LINE
  8
0
  6
CONTINUOUS
 62
       7
  5
84
 10
-18.23134391
 20
33.99337103
 30
0.0
 11
-11.73134391
 21
33.99337103
 31
0.0
  0
LINE
  8
0
  6
CONTINUOUS
 62
       7
  5
85
 10
-17.98134391
 20
35.63255299
 30
0.0
 11
-11.98134391
 21
35.63255299
 31
0.0
  0
LINE
  8
0
  6
CONTINUOUS
 62
       7
  5
86
 10
-17.98134391
 20
37.63255299
 30
0.0
 11
-11.98134391
 21
37.63255299
 31
0.0
  0
LINE
  8
0
  6
CONTINUOUS
 62
       7
  5
87
 10
-17.48134391
 20
39.83755299
 30
0.0
 11
-12.48134391
 21
39.83755299
 31
0.0
  0
LINE
  8
0
  6
CONTINUOUS
 62
       2
  5
88
 10
-13.90634391
 20
35.13255299
 30
0.0
 11
-13.90634391
 21
34.49337103
 31
0.0
  0
LINE
  8
0
  6
CONTINUOUS
 62
       7
  5
89
 10
-13.73134391
 20
35.13255299
 30
0.0
 11
-13.73134391
 21
34.49337103
 31
0.0
  0
LINE
  8
0
  6
CONTINUOUS
 62
       7
  5
8A
 10
-17.48134391
 20
43.83755299
 30
0.0
 11
-16.98134391
 21
44.33755299
 31
0.0
  0
LINE
  8
0
  6
CONTINUOUS
 62
       7
  5
8B
 10
-12.48134391
 20
43.83755299
 30
0.0
 11
-12.98134391
 21
44.33755299
 31
0.0
  0
LINE
  8
0
  6
CONTINUOUS
 62
       7
  5
8C
 10
-13.73134391
 20
39.33755299
 30
0.0
 11
-13.73134391
 21
38.13255299
 31
0.0
  0
LINE
  8
0
  6
CONTINUOUS
 62
       2
  5
8D
 10
-13.90634391
 20
39.33755299
 30
0.0
 11
-13.90634391
 21
38.13255299
 31
0.0
  0
LINE
  8
0
  6
CONTINUOUS
 62
       7
  5
8E
 10
-16.23134391
 20
39.33755299
 30
0.0
 11
-16.23134391
 21
38.13255299
 31
0.0
  0
LINE
  8
0
  6
CONTINUOUS
 62
       2
  5
8F
 10
-16.05634391
 20
39.33755299
 30
0.0
 11
-16.05634391
 21
38.13255299
 31
0.0
  0
LINE
  8
0
  6
CONTINUOUS
 62
       7
  5
90
 10
-12.48134391
 20
35.13255299
 30
0.0
 11
-17.48134391
 21
35.13255299
 31
0.0
  0
LINE
  8
0
  6
CONTINUOUS
 62
       7
  5
91
 10
-11.98134391
 20
35.63255299
 30
0.0
 11
-11.98134391
 21
37.63255299
 31
0.0
  0
LINE
  8
0
  6
CONTINUOUS
 62
       7
  5
92
 10
-11.98134391
 20
35.63255299
 30
0.0
 11
-12.48134391
 21
35.13255299
 31
0.0
  0
LINE
  8
0
  6
CONTINUOUS
 62
       7
  5
93
 10
-11.98134391
 20
37.63255299
 30
0.0
 11
-12.48134391
 21
38.13255299
 31
0.0
  0
LINE
  8
0
  6
CONTINUOUS
 62
       7
  5
94
 10
-17.98134391
 20
35.63255299
 30
0.0
 11
-17.48134391
 21
35.13255299
 31
0.0
  0
LINE
  8
0
  6
CONTINUOUS
 62
       7
  5
95
 10
-17.98134391
 20
37.63255299
 30
0.0
 11
-17.48134391
 21
38.13255299
 31
0.0
  0
LINE
  8
0
  6
CONTINUOUS
 62
       7
  5
96
 10
-12.48134391
 20
38.13255299
 30
0.0
 11
-17.48134391
 21
38.13255299
 31
0.0
  0
LINE
  8
0
  6
CONTINUOUS
 62
       7
  5
97
 10
-16.98134391
 20
39.33755299
 30
0.0
 11
-17.48134391
 21
39.83755299
 31
0.0
  0
LINE
  8
0
  6
CONTINUOUS
 62
       7
  5
98
 10
-12.48134391
 20
39.83755299
 30
0.0
 11
-12.98134391
 21
39.33755299
 31
0.0
  0
LINE
  8
0
  6
CONTINUOUS
 62
       7
  5
99
 10
-16.98134391
 20
39.33755299
 30
0.0
 11
-12.98134391
 21
39.33755299
 31
0.0
  0
LINE
  8
0
  6
CONTINUOUS
 62
       7
  5
9A
 10
-17.98134391
 20
35.63255299
 30
0.0
 11
-17.98134391
 21
37.63255299
 31
0.0
  0
LINE
  8
0
  6
CONTINUOUS
 62
       7
  5
9B
 10
-17.48134391
 20
43.83755299
 30
0.0
 11
-17.48134391
 21
39.83755299
 31
0.0
  0
LINE
  8
0
  6
CONTINUOUS
 62
       7
  5
9C
 10
-12.48134391
 20
43.83755299
 30
0.0
 11
-12.48134391
 21
39.83755299
 31
0.0
  0
LINE
  8
0
  6
CONTINUOUS
 62
       7
  5
9D
 10
-11.73134391
 20
33.99337103
 30
0.0
 11
-12.23134391
 21
34.49337103
 31
0.0
  0
LINE
  8
0
  6
CONTINUOUS
 62
       7
  5
9E
 10
-12.23134391
 20
34.49337103
 30
0.0
 11
-17.73134391
 21
34.49337103
 31
0.0
  0
LINE
  8
0
  6
CONTINUOUS
 62
       7
  5
9F
 10
-18.23134391
 20
33.99337103
 30
0.0
 11
-17.73134391
 21
34.49337103
 31
0.0
  0
LINE
  8
0
  6
CONTINUOUS
 62
       2
  5
A0
 10
-16.05634391
 20
35.13255299
 30
0.0
 11
-16.05634391
 21
34.49337103
 31
0.0
  0
LINE
  8
0
  6
CONTINUOUS
 62
       7
  5
A1
 10
-16.23134391
 20
35.13255299
 30
0.0
 11
-16.23134391
 21
34.49337103
 31
0.0
  0
LINE
  8
0
  6
CONTINUOUS
 62
       2
  5
A2
 10
-12.98134391
 20
43.83755299
 30
0.0
 11
-12.98134391
 21
39.83755299
 31
0.0
  0
LINE
  8
0
  6
CONTINUOUS
 62
       2
  5
A3
 10
-12.48134391
 20
35.63255299
 30
0.0
 11
-12.48134391
 21
37.63255299
 31
0.0
  0
LINE
  8
0
  6
CONTINUOUS
 62
       2
  5
A4
 10
-13.48134391
 20
43.83755299
 30
0.0
 11
-13.48134391
 21
39.83755299
 31
0.0
  0
LINE
  8
0
  6
CONTINUOUS
 62
       2
  5
A5
 10
-12.98134391
 20
35.63255299
 30
0.0
 11
-12.98134391
 21
37.63255299
 31
0.0
  0
LINE
  8
0
  6
CONTINUOUS
 62
       2
  5
A6
 10
-13.98134391
 20
43.83755299
 30
0.0
 11
-13.98134391
 21
39.83755299
 31
0.0
  0
LINE
  8
0
  6
CONTINUOUS
 62
       2
  5
A7
 10
-13.48134391
 20
35.63255299
 30
0.0
 11
-13.48134391
 21
37.63255299
 31
0.0
  0
LINE
  8
0
  6
CONTINUOUS
 62
       2
  5
A8
 10
-14.48134391
 20
43.83755299
 30
0.0
 11
-14.48134391
 21
39.83755299
 31
0.0
  0
LINE
  8
0
  6
CONTINUOUS
 62
       2
  5
A9
 10
-13.98134391
 20
35.63255299
 30
0.0
 11
-13.98134391
 21
37.63255299
 31
0.0
  0
LINE
  8
0
  6
CONTINUOUS
 62
       2
  5
AA
 10
-14.48134391
 20
35.63255299
 30
0.0
 11
-14.48134391
 21
37.63255299
 31
0.0
  0
LINE
  8
0
  6
CONTINUOUS
 62
       2
  5
AB
 10
-15.48134391
 20
43.83755299
 30
0.0
 11
-15.48134391
 21
39.83755299
 31
0.0
  0
LINE
  8
0
  6
CONTINUOUS
 62
       2
  5
AC
 10
-15.98134391
 20
43.83755299
 30
0.0
 11
-15.98134391
 21
39.83755299
 31
0.0
  0
LINE
  8
0
  6
CONTINUOUS
 62
       2
  5
AD
 10
-15.48134391
 20
35.63255299
 30
0.0
 11
-15.48134391
 21
37.63255299
 31
0.0
  0
LINE
  8
0
  6
CONTINUOUS
 62
       2
  5
AE
 10
-16.48134391
 20
43.83755299
 30
0.0
 11
-16.48134391
 21
39.83755299
 31
0.0
  0
LINE
  8
0
  6
CONTINUOUS
 62
       2
  5
AF
 10
-15.98134391
 20
35.63255299
 30
0.0
 11
-15.98134391
 21
37.63255299
 31
0.0
  0
LINE
  8
0
  6
CONTINUOUS
 62
       2
  5
B0
 10
-16.98134391
 20
43.83755299
 30
0.0
 11
-16.98134391
 21
39.83755299
 31
0.0
  0
LINE
  8
0
  6
CONTINUOUS
 62
       2
  5
B1
 10
-16.48134391
 20
35.63255299
 30
0.0
 11
-16.48134391
 21
37.63255299
 31
0.0
  0
LINE
  8
0
  6
CONTINUOUS
 62
       2
  5
B2
 10
-16.98134391
 20
35.63255299
 30
0.0
 11
-16.98134391
 21
37.63255299
 31
0.0
  0
LINE
  8
0
  6
CONTINUOUS
 62
       2
  5
B3
 10
-17.48134391
 20
35.63255299
 30
0.0
 11
-17.48134391
 21
37.63255299
 31
0.0
  0
LINE
  8
0
  6
CONTINUOUS
 62
       7
  5
B4
 10
-12.98134391
 20
44.33755299
 30
0.0
 11
-16.98134391
 21
44.33755299
 31
0.0
  0
LINE
  8
0
  6
CONTINUOUS
 62
       7
  5
B5
 10
-17.48134391
 20
43.83755299
 30
0.0
 11
-12.48134391
 21
43.83755299
 31
0.0
  0
CIRCLE
  8
0
  6
CONTINUOUS
 62
       7
  5
B6
 10
-14.98134391
 20
88.05998103
 30
0.0
 40
3.25
  0
CIRCLE
  8
0
  6
CONTINUOUS
 62
       7
  5
B7
 10
-14.98134391
 20
88.05998103
 30
0.0
 40
2.0
  0
CIRCLE
  8
0
  6
CONTINUOUS
 62
       7
  5
B8
 10
-14.98134391
 20
88.05998103
 30
0.0
 40
2.5
  0
CIRCLE
  8
0
  6
CONTINUOUS
 62
       7
  5
B9
 10
-14.98134391
 20
88.05998103
 30
0.0
 40
3.0
  0
LINE
  8
0
  6
CONTINUOUS
 62
       2
  5
BA
 10
28.41865609
 20
91.5599809
 30
0.0
 11
28.41865609
 21
85.5599809
 31
0.0
  0
LINE
  8
0
  6
CONTINUOUS
 62
       7
  5
BB
 10
31.91865609
 20
81.05998103
 30
0.0
 11
31.91865609
 21
96.05998103
 31
0.0
  0
CIRCLE
  8
0
  6
CONTINUOUS
 62
       7
  5
BC
 10
28.41865609
 20
88.55998103
 30
0.0
 40
1.85
  0
LINE
  8
0
  6
CONTINUOUS
 62
       7
  5
BD
 10
31.91865609
 20
31.29337103
 30
0.0
 11
31.91865609
 21
7.29337103
 31
0.0
  0
LINE
  8
0
  6
CONTINUOUS
 62
       7
  5
BE
 10
-10.58134391
 20
96.05998103
 30
0.0
 11
-10.58134391
 21
81.05998103
 31
0.0
  0
LINE
  8
0
  6
CONTINUOUS
 62
       7
  5
BF
 10
14.91865609
 20
96.05998103
 30
0.0
 11
14.91865609
 21
81.05998103
 31
0.0
  0
LINE
  8
0
  6
CONTINUOUS
 62
       7
  5
C0
 10
-10.58134391
 20
31.29337103
 30
0.0
 11
-10.58134391
 21
7.29337103
 31
0.0
  0
LINE
  8
0
  6
CONTINUOUS
 62
       7
  5
C1
 10
0.10482037
 20
31.29337103
 30
0.0
 11
0.10482037
 21
28.29337103
 31
0.0
  0
LINE
  8
0
  6
CONTINUOUS
 62
       7
  5
C2
 10
3.7324918
 20
31.29337103
 30
0.0
 11
3.7324918
 21
28.29337103
 31
0.0
  0
LINE
  8
0
  6
CONTINUOUS
 62
       7
  5
C3
 10
14.91865609
 20
31.29337103
 30
0.0
 11
14.91865609
 21
7.29337103
 31
0.0
  0
LINE
  8
0
  6
CONTINUOUS
 62
       7
  5
C4
 10
57.11865566
 20
96.05998077
 30
0.0
 11
57.11865566
 21
81.05998103
 31
0.0
  0
LINE
  8
0
  6
CONTINUOUS
 62
       7
  5
C5
 10
58.11865564
 20
96.05998077
 30
0.0
 11
58.11865564
 21
81.05998103
 31
0.0
  0
LINE
  8
0
  6
CONTINUOUS
 62
       7
  5
C6
 10
60.11865561
 20
95.05998079
 30
0.0
 11
60.11865561
 21
94.87998079
 31
0.0
  0
LINE
  8
0
  6
CONTINUOUS
 62
       7
  5
C7
 10
58.11865564
 20
81.05998103
 30
0.0
 11
60.11865561
 21
82.05998101
 31
0.0
  0
LINE
  8
0
  6
CONTINUOUS
 62
       7
  5
C8
 10
58.11865564
 20
96.05998077
 30
0.0
 11
60.11865561
 21
95.05998079
 31
0.0
  0
LINE
  8
0
  6
CONTINUOUS
 62
       2
  5
C9
 10
63.11865556
 20
93.05998082
 30
0.0
 11
54.11865571
 21
93.05998082
 31
0.0
  0
LINE
  8
0
  6
CONTINUOUS
 62
       7
  5
CA
 10
58.71865563
 20
90.50998086
 30
0.0
 11
58.71865563
 21
95.60998078
 31
0.0
  0
LINE
  8
0
  6
CONTINUOUS
 62
       7
  5
CB
 10
58.71865563
 20
95.60998078
 30
0.0
 11
58.11865564
 21
95.60998078
 31
0.0
  0
LINE
  8
0
  6
CONTINUOUS
 62
       7
  5
CC
 10
59.40865562
 20
95.30998078
 30
0.0
 11
58.71865563
 21
95.30998078
 31
0.0
  0
LINE
  8
0
  6
CONTINUOUS
 62
       7
  5
CD
 10
60.11865561
 20
91.22998085
 30
0.0
 11
60.11865561
 21
82.05998101
 31
0.0
  0
LINE
  8
0
  6
CONTINUOUS
 62
       2
  5
CE
 10
63.11865556
 20
84.05998097
 30
0.0
 11
54.11865571
 21
84.05998097
 31
0.0
  0
LINE
  8
0
  6
CONTINUOUS
 62
       7
  5
CF
 10
58.71865563
 20
90.50998086
 30
0.0
 11
58.11865564
 21
90.50998086
 31
0.0
  0
LINE
  8
0
  6
CONTINUOUS
 62
       7
  5
D0
 10
59.40865562
 20
90.80998086
 30
0.0
 11
58.71865563
 21
90.80998086
 31
0.0
  0
LINE
  8
0
  6
CONTINUOUS
 62
       7
  5
D1
 10
60.11865561
 20
90.05998087
 30
0.0
 11
58.11865564
 21
90.05998087
 31
0.0
  0
LINE
  8
0
  6
CONTINUOUS
 62
       2
  5
D2
 10
52.91865573
 20
89.85998088
 30
0.0
 11
46.91865583
 21
89.85998088
 31
0.0
  0
LINE
  8
0
  6
CONTINUOUS
 62
       2
  5
D3
 10
52.91865573
 20
87.25998092
 30
0.0
 11
46.91865583
 21
87.25998092
 31
0.0
  0
LINE
  8
0
  6
CONTINUOUS
 62
       2
  5
D4
 10
49.91865578
 20
92.55998083
 30
0.0
 11
49.91865578
 21
84.55998097
 31
0.0
  0
ARC
  8
0
  6
CONTINUOUS
 62
       7
  5
D5
 10
54.41863844
 20
93.05498082
 30
0.0
 40
5.99861839
 50
343.78568864
 51
16.21431136
  0
ARC
  8
0
  6
CONTINUOUS
 62
       7
  5
D6
 10
59.41240708
 20
91.6100008
 30
0.0
 40
0.80002873
 50
269.73132977
 51
343.29078247
  0
ARC
  8
0
  6
CONTINUOUS
 62
       7
  5
D7
 10
59.41054087
 20
94.51136294
 30
0.0
 40
0.79862006
 50
15.88720841
 51
90.13525482
  0
ARC
  8
0
  6
CONTINUOUS
 62
       7
  5
D8
 10
54.41863844
 20
84.06498097
 30
0.0
 40
5.99861839
 50
343.78568864
 51
16.21431136
  0
ARC
  8
0
  6
CONTINUOUS
 62
       7
  5
D9
 10
59.40871072
 20
85.51900299
 30
0.0
 40
0.80102833
 50
16.01373853
 51
27.58908044
  0
ARC
  8
0
  6
CONTINUOUS
 62
       7
  5
DA
 10
59.41221362
 20
82.6095578
 30
0.0
 40
0.79727492
 50
332.38357861
 51
344.01360242
  0
INSERT
  8
0
  6
BYBLOCK
 62
       7
  5
DB
  2
MS_3
 10
49.91865578
 20
88.5599809
 30
0.0
 41
0.99999998
 42
0.99999998
 50
270.0
 43
0.99999998
  0
INSERT
  8
0
  6
BYBLOCK
 62
       7
  5
E8
  2
*X4
 10
0.0
 20
0.0
 30
0.0
  0
LINE
  8
0
  6
CONTINUOUS
 62
       7
  5
E9
 10
1.35437033
 20
84.12426678
 30
0.0
 11
3.48294177
 21
81.99569534
 31
0.0
  0
LINE
  8
0
  6
CONTINUOUS
 62
       7
  5
EA
 10
1.35437026
 20
81.99569534
 30
0.0
 11
3.48294171
 21
84.12426678
 31
0.0
  0
LINE
  8
0
  6
CONTINUOUS
 62
       7
  5
EB
 10
1.35437033
 20
92.99569534
 30
0.0
 11
3.48294177
 21
95.12426678
 31
0.0
  0
LINE
  8
0
  6
CONTINUOUS
 62
       7
  5
EC
 10
1.3543704
 20
95.12426678
 30
0.0
 11
3.48294184
 21
92.99569534
 31
0.0
  0
INSERT
  8
0
  6
BYBLOCK
 62
       7
  5
ED
  2
MS_3
 10
-43.58135263
 20
88.55998103
 30
0.0
 41
0.99999998
 42
0.99999998
 50
90.0
 43
0.99999998
  0
INSERT
  8
0
  6
BYBLOCK
 62
       7
  5
FA
  2
*X5
 10
0.0
 20
0.0
 30
0.0
  0
ARC
  8
0
  6
CONTINUOUS
 62
       7
  5
FB
 10
-53.1036019
 20
94.44611002
 30
0.0
 40
0.80165605
 50
147.71776092
 51
159.15213672
  0
ARC
  8
0
  6
CONTINUOUS
 62
       7
  5
FC
 10
-53.09880901
 20
91.66196276
 30
0.0
 40
0.80698818
 50
200.88576391
 51
212.24433845
  0
ARC
  8
0
  6
CONTINUOUS
 62
       7
  5
FD
 10
-48.08131805
 20
93.05283817
 30
0.0
 40
6.010598
 50
163.78344128
 51
196.21655872
  0
ARC
  8
0
  6
CONTINUOUS
 62
       7
  5
FE
 10
-53.07877754
 20
82.61273134
 30
0.0
 40
0.80989724
 50
197.12384644
 51
269.81844282
  0
ARC
  8
0
  6
CONTINUOUS
 62
       7
  5
FF
 10
-53.08555304
 20
85.50209192
 30
0.0
 40
0.80075731
 50
89.69882692
 51
163.35888381
  0
ARC
  8
0
  6
CONTINUOUS
 62
       7
  5
100
 10
-48.08131805
 20
84.05283817
 30
0.0
 40
6.010598
 50
163.78344127
 51
196.21655873
  0
LINE
  8
0
  6
CONTINUOUS
 62
       2
  5
101
 10
-43.58134391
 20
84.55998103
 30
0.0
 11
-43.58134391
 21
92.55998103
 31
0.0
  0
LINE
  8
0
  6
CONTINUOUS
 62
       2
  5
102
 10
-46.58134391
 20
89.85998103
 30
0.0
 11
-40.58134391
 21
89.85998103
 31
0.0
  0
LINE
  8
0
  6
CONTINUOUS
 62
       2
  5
103
 10
-46.58134391
 20
87.25998103
 30
0.0
 11
-40.58134391
 21
87.25998103
 31
0.0
  0
LINE
  8
0
  6
CONTINUOUS
 62
       7
  5
104
 10
-53.78134391
 20
87.05998103
 30
0.0
 11
-51.78134391
 21
87.05998103
 31
0.0
  0
LINE
  8
0
  6
CONTINUOUS
 62
       7
  5
105
 10
-53.08134391
 20
86.30283817
 30
0.0
 11
-52.38134391
 21
86.30283817
 31
0.0
  0
LINE
  8
0
  6
CONTINUOUS
 62
       7
  5
106
 10
-52.38134391
 20
86.60283817
 30
0.0
 11
-51.78134391
 21
86.60283817
 31
0.0
  0
LINE
  8
0
  6
CONTINUOUS
 62
       2
  5
107
 10
-56.09191181
 20
93.05998103
 30
0.0
 11
-47.78134391
 21
93.05998103
 31
0.0
  0
LINE
  8
0
  6
CONTINUOUS
 62
       7
  5
108
 10
-53.78134391
 20
85.87426674
 30
0.0
 11
-53.78134391
 21
95.05998103
 31
0.0
  0
LINE
  8
0
  6
CONTINUOUS
 62
       7
  5
109
 10
-53.08134391
 20
81.80283817
 30
0.0
 11
-52.38134391
 21
81.80283817
 31
0.0
  0
LINE
  8
0
  6
CONTINUOUS
 62
       7
  5
10A
 10
-52.38134391
 20
81.50283817
 30
0.0
 11
-51.78134391
 21
81.50283817
 31
0.0
  0
LINE
  8
0
  6
CONTINUOUS
 62
       7
  5
10B
 10
-52.38134391
 20
86.60283817
 30
0.0
 11
-52.38134391
 21
81.50283817
 31
0.0
  0
LINE
  8
0
  6
CONTINUOUS
 62
       2
  5
10C
 10
-56.09191181
 20
84.05998103
 30
0.0
 11
-47.78134391
 21
84.05998103
 31
0.0
  0
LINE
  8
0
  6
CONTINUOUS
 62
       7
  5
10D
 10
-51.78134391
 20
81.05998103
 30
0.0
 11
-53.78134391
 21
82.05998103
 31
0.0
  0
LINE
  8
0
  6
CONTINUOUS
 62
       7
  5
10E
 10
-51.78134391
 20
96.05998103
 30
0.0
 11
-53.78134391
 21
95.05998103
 31
0.0
  0
LINE
  8
0
  6
CONTINUOUS
 62
       7
  5
10F
 10
-53.78134391
 20
82.05998103
 30
0.0
 11
-53.78134391
 21
82.2314096
 31
0.0
  0
LINE
  8
0
  6
CONTINUOUS
 62
       7
  5
110
 10
-51.78134391
 20
81.05998103
 30
0.0
 11
-51.78134391
 21
96.05998103
 31
0.0
  0
LINE
  8
0
  6
CONTINUOUS
 62
       7
  5
111
 10
-50.78134391
 20
81.05998103
 30
0.0
 11
-50.78134391
 21
96.05998103
 31
0.0
  0
INSERT
  8
0
  6
BYBLOCK
 62
       7
  5
112
  2
MS_2
 10
-43.57420542
 20
31.28384867
 30
0.0
 41
0.99999998
 42
0.99999998
 50
90.0
 43
0.99999998
  0
INSERT
  8
0
  6
BYBLOCK
 62
       7
  5
118
  2
*X6
 10
0.0
 20
0.0
 30
0.0
  0
ARC
  8
0
  6
CONTINUOUS
 62
       7
  5
119
 10
-53.05436239
 20
11.7686245
 30
0.0
 40
0.80829185
 50
154.07993336
 51
165.95385359
  0
ARC
  8
0
  6
CONTINUOUS
 62
       7
  5
11A
 10
-53.0610615
 20
8.81568151
 30
0.0
 40
0.80120214
 50
193.99341984
 51
205.9727932
  0
ARC
  8
0
  6
CONTINUOUS
 62
       7
  5
11B
 10
-48.07416765
 20
10.29337103
 30
0.0
 40
6.00175378
 50
163.82989454
 51
196.17010546
  0
ARC
  8
0
  6
CONTINUOUS
 62
       7
  5
11C
 10
-53.06887023
 20
26.83458265
 30
0.0
 40
0.79845192
 50
195.44514013
 51
269.10486978
  0
ARC
  8
0
  6
CONTINUOUS
 62
       7
  5
11D
 10
-53.06924455
 20
29.73287508
 30
0.0
 40
0.8034442
 50
90.8628712
 51
163.22207835
  0
ARC
  8
0
  6
CONTINUOUS
 62
       7
  5
11E
 10
-48.07418946
 20
28.29337103
 30
0.0
 40
6.00173283
 50
163.82983655
 51
196.17016345
  0
LINE
  8
0
  6
CONTINUOUS
 62
       7
  5
11F
 10
-42.72420106
 20
37.27908531
 30
0.0
 11
-42.72420106
 21
33.29337103
 31
0.0
  0
LINE
  8
0
  6
CONTINUOUS
 62
       7
  5
120
 10
-44.42420106
 20
37.73622817
 30
0.0
 11
-44.42420106
 21
33.29337103
 31
0.0
  0
LINE
  8
0
  6
CONTINUOUS
 62
       2
  5
121
 10
-46.42420106
 20
38.27908531
 30
0.0
 11
-40.72420106
 21
36.75051388
 31
0.0
  0
LINE
  8
0
  6
CONTINUOUS
 62
       2
  5
122
 10
-46.42420106
 20
39.83622817
 30
0.0
 11
-40.72420106
 21
38.30765674
 31
0.0
  0
LINE
  8
0
  6
CONTINUOUS
 62
       7
  5
123
 10
-43.2670582
 20
53.29337103
 30
0.0
 11
-43.89562963
 21
53.29337103
 31
0.0
  0
LINE
  8
0
  6
CONTINUOUS
 62
       7
  5
124
 10
-42.72420106
 20
43.29337103
 30
0.0
 11
-44.42420106
 21
43.29337103
 31
0.0
  0
LINE
  8
0
  6
CONTINUOUS
 62
       7
  5
125
 10
-43.2670582
 20
53.29337103
 30
0.0
 11
-43.2670582
 21
43.29337103
 31
0.0
  0
LINE
  8
0
  6
CONTINUOUS
 62
       7
  5
126
 10
-43.89562963
 20
53.29337103
 30
0.0
 11
-43.89562963
 21
43.29337103
 31
0.0
  0
LINE
  8
0
  6
CONTINUOUS
 62
       7
  5
127
 10
-42.72420106
 20
43.29337103
 30
0.0
 11
-42.72420106
 21
38.83622817
 31
0.0
  0
LINE
  8
0
  6
CONTINUOUS
 62
       7
  5
128
 10
-44.42420106
 20
43.29337103
 30
0.0
 11
-44.42420106
 21
39.29337103
 31
0.0
  0
LINE
  8
0
  6
CONTINUOUS
 62
       2
  5
129
 10
-43.58134391
 20
55.29337103
 30
0.0
 11
-43.58134391
 21
28.29337103
 31
0.0
  0
LINE
  8
0
  6
CONTINUOUS
 62
       2
  5
12A
 10
-56.09191181
 20
10.29337103
 30
0.0
 11
-47.78134391
 21
10.29337103
 31
0.0
  0
LINE
  8
0
  6
CONTINUOUS
 62
       7
  5
12B
 10
-53.78134391
 20
30.12194246
 30
0.0
 11
-53.78134391
 21
30.29337103
 31
0.0
  0
LINE
  8
0
  6
CONTINUOUS
 62
       7
  5
12C
 10
-53.08134391
 20
26.03622817
 30
0.0
 11
-52.38134391
 21
26.03622817
 31
0.0
  0
LINE
  8
0
  6
CONTINUOUS
 62
       7
  5
12D
 10
-53.08134391
 20
30.53622817
 30
0.0
 11
-52.38134391
 21
30.53622817
 31
0.0
  0
LINE
  8
0
  6
CONTINUOUS
 62
       7
  5
12E
 10
-52.38134391
 20
25.73622817
 30
0.0
 11
-51.78134391
 21
25.73622817
 31
0.0
  0
LINE
  8
0
  6
CONTINUOUS
 62
       7
  5
12F
 10
-52.38134391
 20
30.83622817
 30
0.0
 11
-51.78134391
 21
30.83622817
 31
0.0
  0
LINE
  8
0
  6
CONTINUOUS
 62
       7
  5
130
 10
-52.38134391
 20
28.59337103
 30
0.0
 11
-51.78134391
 21
28.75051388
 31
0.0
  0
LINE
  8
0
  6
CONTINUOUS
 62
       7
  5
131
 10
-51.78134391
 20
27.99337103
 30
0.0
 11
-52.38134391
 21
27.83622817
 31
0.0
  0
LINE
  8
0
  6
CONTINUOUS
 62
       7
  5
132
 10
-52.38134391
 20
30.83622817
 30
0.0
 11
-52.38134391
 21
25.73622817
 31
0.0
  0
LINE
  8
0
  6
CONTINUOUS
 62
       2
  5
133
 10
-56.09191181
 20
28.29337103
 30
0.0
 11
-47.78134391
 21
28.29337103
 31
0.0
  0
LINE
  8
0
  6
CONTINUOUS
 62
       7
  5
134
 10
-53.78134391
 20
25.29337103
 30
0.0
 11
-51.78134391
 21
25.29337103
 31
0.0
  0
LINE
  8
0
  6
CONTINUOUS
 62
       7
  5
135
 10
-51.78134391
 20
31.29337103
 30
0.0
 11
-53.78134391
 21
30.29337103
 31
0.0
  0
LINE
  8
0
  6
CONTINUOUS
 62
       7
  5
136
 10
-51.78134391
 20
7.29337103
 30
0.0
 11
-53.78134391
 21
8.29337103
 31
0.0
  0
LINE
  8
0
  6
CONTINUOUS
 62
       7
  5
137
 10
-51.78134391
 20
7.29337103
 30
0.0
 11
-51.78134391
 21
31.29337103
 31
0.0
  0
LINE
  8
0
  6
CONTINUOUS
 62
       7
  5
138
 10
-53.78134391
 20
8.29337103
 30
0.0
 11
-53.78134391
 21
26.4647996
 31
0.0
  0
LINE
  8
0
  6
CONTINUOUS
 62
       7
  5
139
 10
-50.78134391
 20
7.29337103
 30
0.0
 11
-50.78134391
 21
31.29337103
 31
0.0
  0
INSERT
  8
0
  6
BYBLOCK
 62
       7
  5
13A
  2
MS_2
 10
49.92579023
 20
31.28384867
 30
0.0
 41
0.99999998
 42
-0.99999998
 50
90.0
 43
0.99999998
  0
INSERT
  8
0
  6
BYBLOCK
 62
       7
  5
140
  2
*X7
 10
0.0
 20
0.0
 30
0.0
  0
ARC
  8
0
  6
CONTINUOUS
 62
       7
  5
141
 10
59.41084626
 20
26.81114603
 30
0.0
 40
0.78800419
 50
333.92651169
 51
346.10727526
  0
ARC
  8
0
  6
CONTINUOUS
 62
       7
  5
142
 10
59.40404225
 20
29.77312184
 30
0.0
 40
0.79520359
 50
13.94806999
 51
26.01814306
  0
ARC
  8
0
  6
CONTINUOUS
 62
       7
  5
143
 10
54.42575246
 20
28.29337103
 30
0.0
 40
5.9880471
 50
343.79186236
 51
16.20813764
  0
ARC
  8
0
  6
CONTINUOUS
 62
       7
  5
144
 10
59.41170383
 20
11.73969501
 30
0.0
 40
0.7965635
 50
16.41512332
 51
89.49992713
  0
ARC
  8
0
  6
CONTINUOUS
 62
       7
  5
145
 10
59.41149909
 20
8.82770986
 30
0.0
 40
0.79151405
 50
270.51808458
 51
344.93190551
  0
ARC
  8
0
  6
CONTINUOUS
 62
       7
  5
146
 10
54.42577424
 20
10.29337103
 30
0.0
 40
5.98802618
 50
343.79180418
 51
16.20819582
  0
LINE
  8
0
  6
CONTINUOUS
 62
       7
  5
147
 10
49.07579894
 20
37.27908531
 30
0.0
 11
49.07579894
 21
33.29337103
 31
0.0
  0
LINE
  8
0
  6
CONTINUOUS
 62
       7
  5
148
 10
50.77579894
 20
37.73622817
 30
0.0
 11
50.77579894
 21
33.29337103
 31
0.0
  0
LINE
  8
0
  6
CONTINUOUS
 62
       2
  5
149
 10
52.77579894
 20
38.27908531
 30
0.0
 11
47.07579894
 21
36.75051388
 31
0.0
  0
LINE
  8
0
  6
CONTINUOUS
 62
       2
  5
14A
 10
52.77579894
 20
39.83622817
 30
0.0
 11
47.07579894
 21
38.30765674
 31
0.0
  0
LINE
  8
0
  6
CONTINUOUS
 62
       7
  5
14B
 10
49.60437037
 20
53.29337103
 30
0.0
 11
50.2329418
 21
53.29337103
 31
0.0
  0
LINE
  8
0
  6
CONTINUOUS
 62
       7
  5
14C
 10
49.07579894
 20
43.29337103
 30
0.0
 11
50.77579894
 21
43.29337103
 31
0.0
  0
LINE
  8
0
  6
CONTINUOUS
 62
       7
  5
14D
 10
49.60437037
 20
53.29337103
 30
0.0
 11
49.60437037
 21
43.29337103
 31
0.0
  0
LINE
  8
0
  6
CONTINUOUS
 62
       7
  5
14E
 10
50.2329418
 20
53.29337103
 30
0.0
 11
50.2329418
 21
43.29337103
 31
0.0
  0
LINE
  8
0
  6
CONTINUOUS
 62
       7
  5
14F
 10
49.07579894
 20
43.29337103
 30
0.0
 11
49.07579894
 21
38.83622817
 31
0.0
  0
LINE
  8
0
  6
CONTINUOUS
 62
       7
  5
150
 10
50.77579894
 20
43.29337103
 30
0.0
 11
50.77579894
 21
39.29337103
 31
0.0
  0
LINE
  8
0
  6
CONTINUOUS
 62
       2
  5
151
 10
49.91865609
 20
55.29337103
 30
0.0
 11
49.91865609
 21
28.29337103
 31
0.0
  0
LINE
  8
0
  6
CONTINUOUS
 62
       2
  5
152
 10
63.11865609
 20
28.29337103
 30
0.0
 11
54.11865609
 21
28.29337103
 31
0.0
  0
LINE
  8
0
  6
CONTINUOUS
 62
       7
  5
153
 10
60.11865609
 20
8.4647996
 30
0.0
 11
60.11865609
 21
8.29337103
 31
0.0
  0
LINE
  8
0
  6
CONTINUOUS
 62
       7
  5
154
 10
59.41865609
 20
12.53622817
 30
0.0
 11
58.71865609
 21
12.53622817
 31
0.0
  0
LINE
  8
0
  6
CONTINUOUS
 62
       7
  5
155
 10
59.41865609
 20
8.03622817
 30
0.0
 11
58.71865609
 21
8.03622817
 31
0.0
  0
LINE
  8
0
  6
CONTINUOUS
 62
       7
  5
156
 10
58.71865609
 20
12.83622817
 30
0.0
 11
58.11865609
 21
12.83622817
 31
0.0
  0
LINE
  8
0
  6
CONTINUOUS
 62
       7
  5
157
 10
58.71865609
 20
7.73622817
 30
0.0
 11
58.11865609
 21
7.73622817
 31
0.0
  0
LINE
  8
0
  6
CONTINUOUS
 62
       7
  5
158
 10
58.71865609
 20
9.99337103
 30
0.0
 11
58.11865609
 21
9.82194246
 31
0.0
  0
LINE
  8
0
  6
CONTINUOUS
 62
       7
  5
159
 10
58.11865609
 20
10.59337103
 30
0.0
 11
58.71865609
 21
10.75051388
 31
0.0
  0
LINE
  8
0
  6
CONTINUOUS
 62
       7
  5
15A
 10
58.71865609
 20
7.73622817
 30
0.0
 11
58.71865609
 21
12.83622817
 31
0.0
  0
LINE
  8
0
  6
CONTINUOUS
 62
       2
  5
15B
 10
63.11865609
 20
10.29337103
 30
0.0
 11
54.11865609
 21
10.29337103
 31
0.0
  0
LINE
  8
0
  6
CONTINUOUS
 62
       7
  5
15C
 10
60.11865609
 20
13.29337103
 30
0.0
 11
58.11865609
 21
13.29337103
 31
0.0
  0
LINE
  8
0
  6
CONTINUOUS
 62
       7
  5
15D
 10
58.11865609
 20
7.29337103
 30
0.0
 11
60.11865609
 21
8.29337103
 31
0.0
  0
LINE
  8
0
  6
CONTINUOUS
 62
       7
  5
15E
 10
58.11865609
 20
31.29337103
 30
0.0
 11
60.11865609
 21
30.29337103
 31
0.0
  0
LINE
  8
0
  6
CONTINUOUS
 62
       7
  5
15F
 10
58.11865609
 20
31.29337103
 30
0.0
 11
58.11865609
 21
7.29337103
 31
0.0
  0
LINE
  8
0
  6
CONTINUOUS
 62
       7
  5
160
 10
60.11865609
 20
30.29337103
 30
0.0
 11
60.11865609
 21
12.12194246
 31
0.0
  0
LINE
  8
0
  6
CONTINUOUS
 62
       7
  5
161
 10
57.11865609
 20
31.29337103
 30
0.0
 11
57.11865609
 21
7.29337103
 31
0.0
  0
ARC
  8
0
  6
CONTINUOUS
 62
       7
  5
162
 10
1.91865609
 20
26.18385534
 30
0.0
 40
5.00692866
 50
68.75510378
 51
111.24489622
  0
CIRCLE
  8
0
  6
CONTINUOUS
 62
       7
  5
163
 10
2.41864301
 20
94.05998974
 30
0.0
 40
2.24999973
  0
CIRCLE
  8
0
  6
CONTINUOUS
 62
       7
  5
164
 10
2.41864301
 20
83.05997231
 30
0.0
 40
2.24999973
  0
ARC
  8
0
  6
CONTINUOUS
 62
       7
  5
165
 10
2.41865609
 20
94.05998974
 30
0.0
 40
2.70029587
 50
132.21264346
 51
47.78735654
  0
ARC
  8
0
  6
CONTINUOUS
 62
       7
  5
166
 10
2.41865609
 20
83.05997231
 30
0.0
 40
2.70029587
 50
312.21264346
 51
227.78735654
  0
LINE
  8
0
  6
CONTINUOUS
 62
       2
  5
167
 10
2.41865609
 20
86.77426674
 30
0.0
 11
2.41865609
 21
79.4314096
 31
0.0
  0
LINE
  8
0
  6
CONTINUOUS
 62
       2
  5
168
 10
2.41865609
 20
97.04569531
 30
0.0
 11
2.41865609
 21
90.80283817
 31
0.0
  0
LINE
  8
0
  6
CONTINUOUS
 62
       2
  5
169
 10
64.09008466
 20
19.29337103
 30
0.0
 11
-56.62420106
 21
19.29337103
 31
0.0
  0
LINE
  8
0
  6
CONTINUOUS
 62
       7
  5
16A
 10
3.7329418
 20
28.79337103
 30
0.0
 11
0.10437037
 21
28.79337103
 31
0.0
  0
LINE
  8
0
  6
CONTINUOUS
 62
       7
  5
16B
 10
3.7329418
 20
28.29337103
 30
0.0
 11
0.10437037
 21
28.29337103
 31
0.0
  0
LINE
  8
0
  6
CONTINUOUS
 62
       7
  5
16C
 10
0.10437037
 20
28.29337103
 30
0.0
 11
0.10437037
 21
31.29337103
 31
0.0
  0
LINE
  8
0
  6
CONTINUOUS
 62
       7
  5
16D
 10
3.7329418
 20
28.29337103
 30
0.0
 11
3.7329418
 21
31.29337103
 31
0.0
  0
LINE
  8
0
  6
CONTINUOUS
 62
       2
  5
16E
 10
-1.5670582
 20
83.05998103
 30
0.0
 11
6.27579894
 21
83.05998103
 31
0.0
  0
LINE
  8
0
  6
CONTINUOUS
 62
       2
  5
16F
 10
-1.79562963
 20
94.05998103
 30
0.0
 11
6.27579894
 21
94.05998103
 31
0.0
  0
LINE
  8
0
  6
CONTINUOUS
 62
       2
  5
170
 10
-56.62420106
 20
88.5599809
 30
0.0
 11
64.09008466
 21
88.5599809
 31
0.0
  0
LINE
  8
0
  6
CONTINUOUS
 62
       2
  5
171
 10
-123.7015671
 20
0.19337103
 30
0.0
 11
-113.7015671
 21
0.19337103
 31
0.0
  0
LINE
  8
0
  6
CONTINUOUS
 62
       2
  5
172
 10
-116.01585281
 20
-3.80662897
 30
0.0
 11
-110.4015671
 21
-3.80662897
 31
0.0
  0
LINE
  8
0
  6
CONTINUOUS
 62
       2
  5
173
 10
-127.01585281
 20
4.19337103
 30
0.0
 11
-121.43013852
 21
4.19337103
 31
0.0
  0
LINE
  8
0
  6
CONTINUOUS
 62
       2
  5
174
 10
-113.2015671
 20
-0.90662897
 30
0.0
 11
-113.2015671
 21
-6.54948612
 31
0.0
  0
LINE
  8
0
  6
CONTINUOUS
 62
       2
  5
175
 10
-124.2015671
 20
6.89337103
 30
0.0
 11
-124.2015671
 21
1.25051388
 31
0.0
  0
LINE
  8
0
  6
CONTINUOUS
 62
       7
  5
176
 10
-126.2015671
 20
7.29337103
 30
0.0
 11
-126.2015671
 21
-6.90662897
 31
0.0
  0
LINE
  8
0
  6
CONTINUOUS
 62
       7
  5
177
 10
-111.2015671
 20
7.29337103
 30
0.0
 11
-111.2015671
 21
-6.90662897
 31
0.0
  0
CIRCLE
  8
0
  6
CONTINUOUS
 62
       7
  5
178
 10
-124.20155402
 20
4.18384431
 30
0.0
 40
1.99999946
  0
CIRCLE
  8
0
  6
CONTINUOUS
 62
       7
  5
179
 10
-113.20155838
 20
-3.81614261
 30
0.0
 40
1.99999946
  0
LINE
  8
0
  6
CONTINUOUS
 62
       7
  5
17A
 10
-126.2015671
 20
31.29337103
 30
0.0
 11
-121.7015671
 21
31.29337103
 31
0.0
  0
LINE
  8
0
  6
CONTINUOUS
 62
       7
  5
17B
 10
-117.2015671
 20
28.29337103
 30
0.0
 11
-117.2015671
 21
31.29337103
 31
0.0
  0
LINE
  8
0
  6
CONTINUOUS
 62
       7
  5
17C
 10
-120.2015671
 20
10.29337103
 30
0.0
 11
-120.2015671
 21
7.29337103
 31
0.0
  0
LINE
  8
0
  6
CONTINUOUS
 62
       7
  5
17D
 10
-123.2015671
 20
13.29337103
 30
0.0
 11
-126.2015671
 21
13.29337103
 31
0.0
  0
LINE
  8
0
  6
CONTINUOUS
 62
       7
  5
17E
 10
-114.2015671
 20
25.29337103
 30
0.0
 11
-111.2015671
 21
25.29337103
 31
0.0
  0
LINE
  8
0
  6
CONTINUOUS
 62
       7
  5
17F
 10
-120.2015671
 20
8.29337103
 30
0.0
 11
-112.2015671
 21
8.29337103
 31
0.0
  0
LINE
  8
0
  6
CONTINUOUS
 62
       7
  5
180
 10
-125.2015671
 20
30.29337103
 30
0.0
 11
-117.2015671
 21
30.29337103
 31
0.0
  0
LINE
  8
0
  6
CONTINUOUS
 62
       7
  5
181
 10
-125.2015671
 20
13.29337103
 30
0.0
 11
-125.2015671
 21
30.29337103
 31
0.0
  0
LINE
  8
0
  6
CONTINUOUS
 62
       7
  5
182
 10
-112.2015671
 20
8.29337103
 30
0.0
 11
-112.2015671
 21
25.29337103
 31
0.0
  0
LINE
  8
0
  6
CONTINUOUS
 62
       7
  5
183
 10
-111.95870995
 20
28.59337103
 30
0.0
 11
-111.65870995
 21
28.59337103
 31
0.0
  0
LINE
  8
0
  6
CONTINUOUS
 62
       7
  5
184
 10
-111.95870995
 20
27.99337103
 30
0.0
 11
-111.65870995
 21
27.99337103
 31
0.0
  0
LINE
  8
0
  6
CONTINUOUS
 62
       7
  5
185
 10
-111.68728138
 20
27.83622817
 30
0.0
 11
-111.98728138
 21
27.83622817
 31
0.0
  0
LINE
  8
0
  6
CONTINUOUS
 62
       7
  5
186
 10
-125.43013852
 20
9.99337103
 30
0.0
 11
-125.73013852
 21
9.99337103
 31
0.0
  0
LINE
  8
0
  6
CONTINUOUS
 62
       7
  5
187
 10
-125.43013852
 20
10.59337103
 30
0.0
 11
-125.73013852
 21
10.59337103
 31
0.0
  0
LINE
  8
0
  6
CONTINUOUS
 62
       7
  5
188
 10
-125.7015671
 20
10.75051388
 30
0.0
 11
-125.4015671
 21
10.75051388
 31
0.0
  0
LINE
  8
0
  6
CONTINUOUS
 62
       2
  5
189
 10
-118.2015671
 20
28.29337103
 30
0.0
 11
-110.2015671
 21
28.29337103
 31
0.0
  0
LINE
  8
0
  6
CONTINUOUS
 62
       2
  5
18A
 10
-127.2015671
 20
10.29337103
 30
0.0
 11
-119.2015671
 21
10.29337103
 31
0.0
  0
LINE
  8
0
  6
CONTINUOUS
 62
       2
  5
18B
 10
-123.2015671
 20
6.29337103
 30
0.0
 11
-123.2015671
 21
14.29337103
 31
0.0
  0
LINE
  8
0
  6
CONTINUOUS
 62
       2
  5
18C
 10
-114.2015671
 20
24.29337103
 30
0.0
 11
-114.2015671
 21
32.29337103
 31
0.0
  0
LINE
  8
0
  6
CONTINUOUS
 62
       7
  5
18D
 10
-126.2015671
 20
7.79337103
 30
0.0
 11
-126.2015671
 21
31.29337103
 31
0.0
  0
LINE
  8
0
  6
CONTINUOUS
 62
       7
  5
18E
 10
-126.2015671
 20
7.29337103
 30
0.0
 11
-111.2015671
 21
7.29337103
 31
0.0
  0
LINE
  8
0
  6
CONTINUOUS
 62
       7
  5
18F
 10
-111.2015671
 20
7.79337103
 30
0.0
 11
-111.2015671
 21
31.29337103
 31
0.0
  0
LINE
  8
0
  6
CONTINUOUS
 62
       2
  5
190
 10
-117.4015671
 20
55.29337103
 30
0.0
 11
-117.4015671
 21
28.29337103
 31
0.0
  0
LINE
  8
0
  6
CONTINUOUS
 62
       7
  5
191
 10
-118.24442424
 20
43.29337103
 30
0.0
 11
-118.24442424
 21
38.95051388
 31
0.0
  0
LINE
  8
0
  6
CONTINUOUS
 62
       7
  5
192
 10
-117.71585281
 20
53.29337103
 30
0.0
 11
-117.71585281
 21
43.29337103
 31
0.0
  0
LINE
  8
0
  6
CONTINUOUS
 62
       7
  5
193
 10
-117.07299567
 20
53.29337103
 30
0.0
 11
-117.07299567
 21
43.29337103
 31
0.0
  0
LINE
  8
0
  6
CONTINUOUS
 62
       7
  5
194
 10
-117.07299567
 20
53.29337103
 30
0.0
 11
-117.71585281
 21
53.29337103
 31
0.0
  0
LINE
  8
0
  6
CONTINUOUS
 62
       2
  5
195
 10
-120.0015671
 20
55.29337103
 30
0.0
 11
-120.0015671
 21
28.29337103
 31
0.0
  0
LINE
  8
0
  6
CONTINUOUS
 62
       7
  5
196
 10
-120.84442424
 20
43.29337103
 30
0.0
 11
-120.84442424
 21
39.63622817
 31
0.0
  0
LINE
  8
0
  6
CONTINUOUS
 62
       7
  5
197
 10
-119.14442424
 20
43.29337103
 30
0.0
 11
-119.14442424
 21
39.19337103
 31
0.0
  0
LINE
  8
0
  6
CONTINUOUS
 62
       7
  5
198
 10
-120.31585281
 20
53.29337103
 30
0.0
 11
-120.31585281
 21
43.29337103
 31
0.0
  0
LINE
  8
0
  6
CONTINUOUS
 62
       7
  5
199
 10
-119.67299567
 20
53.29337103
 30
0.0
 11
-119.67299567
 21
43.29337103
 31
0.0
  0
LINE
  8
0
  6
CONTINUOUS
 62
       7
  5
19A
 10
-119.67299567
 20
53.29337103
 30
0.0
 11
-120.31585281
 21
53.29337103
 31
0.0
  0
LINE
  8
0
  6
CONTINUOUS
 62
       2
  5
19B
 10
-122.84442424
 20
38.62194246
 30
0.0
 11
-114.54442424
 21
36.40765674
 31
0.0
  0
LINE
  8
0
  6
CONTINUOUS
 62
       2
  5
19C
 10
-122.84442424
 20
40.17908531
 30
0.0
 11
-114.54442424
 21
37.95051388
 31
0.0
  0
LINE
  8
0
  6
CONTINUOUS
 62
       7
  5
19D
 10
-120.84442424
 20
38.09337103
 30
0.0
 11
-120.84442424
 21
33.29337103
 31
0.0
  0
LINE
  8
0
  6
CONTINUOUS
 62
       7
  5
19E
 10
-119.14442424
 20
37.63622817
 30
0.0
 11
-119.14442424
 21
33.29337103
 31
0.0
  0
LINE
  8
0
  6
CONTINUOUS
 62
       7
  5
19F
 10
-118.24442424
 20
37.39337103
 30
0.0
 11
-118.24442424
 21
34.39284799
 31
0.0
  0
LINE
  8
0
  6
CONTINUOUS
 62
       7
  5
1A0
 10
-116.54442424
 20
36.93622817
 30
0.0
 11
-116.54442424
 21
33.29337103
 31
0.0
  0
LINE
  8
0
  6
CONTINUOUS
 62
       7
  5
1A1
 10
-115.7015671
 20
31.29337103
 30
0.0
 11
-111.2015671
 21
31.29337103
 31
0.0
  0
ARC
  8
0
  6
CONTINUOUS
 62
       7
  5
1A2
 10
-114.20631795
 20
28.28862018
 30
0.0
 40
2.99525292
 50
179.90912161
 51
270.09087839
  0
ARC
  8
0
  6
CONTINUOUS
 62
       7
  5
1A3
 10
-123.20632115
 20
10.28861697
 30
0.0
 40
3.00475781
 50
0.09065201
 51
89.90934799
  0
ARC
  8
0
  6
CONTINUOUS
 62
       7
  5
1A4
 10
-114.2015716
 20
28.29337103
 30
0.0
 40
2.56049709
 50
6.72850028
 51
353.27149972
  0
ARC
  8
0
  6
CONTINUOUS
 62
       7
  5
1A5
 10
-123.20154074
 20
10.29337103
 30
0.0
 40
2.54633202
 50
186.76610496
 51
173.23389504
  0
CIRCLE
  8
0
  6
CONTINUOUS
 62
       7
  5
1A6
 10
-114.20155402
 20
28.28384867
 30
0.0
 40
2.24999973
  0
CIRCLE
  8
0
  6
CONTINUOUS
 62
       7
  5
1A7
 10
-123.20155838
 20
10.28386175
 30
0.0
 40
2.24999973
  0
ARC
  8
0
  6
CONTINUOUS
 62
       7
  5
1A8
 10
-125.70629473
 20
7.78864339
 30
0.0
 40
0.49529493
 50
179.4530984
 51
270.5469016
  0
ARC
  8
0
  6
CONTINUOUS
 62
       7
  5
1A9
 10
-111.69682846
 20
7.78863239
 30
0.0
 40
0.49528403
 50
269.45181348
 51
0.54818652
  0
INSERT
  8
0
  6
BYBLOCK
 62
       7
  5
1AA
  2
MS_1
 10
-118.7015671
 20
31.28385739
 30
0.0
 41
0.99999998
 42
0.99999998
 50
90.0
 43
0.99999998
  0
INSERT
  8
0
  6
BYBLOCK
 62
       7
  5
1B0
  2
*X8
 10
0.0
 20
0.0
 30
0.0
  0
LINE
  8
0
  6
CONTINUOUS
 62
       7
  5
1B1
 10
-114.2623419
 20
-4.86740378
 30
0.0
 11
-112.13728134
 21
-2.74234322
 31
0.0
  0
LINE
  8
0
  6
CONTINUOUS
 62
       7
  5
1B2
 10
-112.14079229
 20
-4.86740378
 30
0.0
 11
-114.26585284
 21
-2.74234322
 31
0.0
  0
LINE
  8
0
  6
CONTINUOUS
 62
       7
  5
1B3
 10
-125.2623419
 20
3.13259622
 30
0.0
 11
-123.13728134
 21
5.25765678
 31
0.0
  0
LINE
  8
0
  6
CONTINUOUS
 62
       7
  5
1B4
 10
-123.14079229
 20
3.13259622
 30
0.0
 11
-125.26585285
 21
5.25765678
 31
0.0
  0
LINE
  8
0
  6
CONTINUOUS
 62
       7
  5
1B5
 10
-115.79730464
 20
26.69763352
 30
0.0
 11
-112.61533886
 21
29.87959929
 31
0.0
  0
LINE
  8
0
  6
CONTINUOUS
 62
       7
  5
1B6
 10
-115.11585281
 20
29.20765674
 30
0.0
 11
-113.27299567
 21
27.37194246
 31
0.0
  0
LINE
  8
0
  6
CONTINUOUS
 62
       7
  5
1B7
 10
-124.80086217
 20
8.69763352
 30
0.0
 11
-121.61889639
 21
11.87959929
 31
0.0
  0
LINE
  8
0
  6
CONTINUOUS
 62
       7
  5
1B8
 10
-124.11941034
 20
11.20765674
 30
0.0
 11
-122.2765532
 21
9.37194246
 31
0.0
  0
LINE
  8
0
  6
CONTINUOUS
 62
       2
  5
1B9
 10
1.91865609
 20
26.65051388
 30
0.0
 11
1.91865609
 21
32.79337103
 31
0.0
  0
LINE
  8
0
  6
CONTINUOUS
 62
       7
  5
1BA
 10
-51.78134391
 20
96.05998103
 30
0.0
 11
1.38785028
 21
96.05998103
 31
0.0
  0
LINE
  8
0
  6
CONTINUOUS
 62
       7
  5
1BB
 10
-51.78134391
 20
81.05998103
 30
0.0
 11
1.38785028
 21
81.05998103
 31
0.0
  0
LINE
  8
0
  6
CONTINUOUS
 62
       7
  5
1BC
 10
3.44943574
 20
96.05998103
 30
0.0
 11
58.11865564
 21
96.05998103
 31
0.0
  0
LINE
  8
0
  6
CONTINUOUS
 62
       7
  5
1BD
 10
3.44943574
 20
81.05998103
 30
0.0
 11
58.11865564
 21
81.05998103
 31
0.0
  0
LINE
  8
0
  6
CONTINUOUS
 62
       7
  5
1BE
 10
-51.78134391
 20
7.29337103
 30
0.0
 11
58.11865609
 21
7.29337103
 31
0.0
  0
LINE
  8
0
  6
CONTINUOUS
 62
       7
  5
1BF
 10
-51.78134391
 20
31.29337103
 30
0.0
 11
58.11865609
 21
31.29337103
 31
0.0
  0
LINE
  8
0
  6
CONTINUOUS
 62
       7
  5
1C0
 10
-120.84442424
 20
43.29337103
 30
0.0
 11
-119.14442424
 21
43.29337103
 31
0.0
  0
LINE
  8
0
  6
CONTINUOUS
 62
       7
  5
1C1
 10
-116.54442424
 20
43.29337103
 30
0.0
 11
-116.54442424
 21
38.48751905
 31
0.0
  0
LINE
  8
0
  6
CONTINUOUS
 62
       7
  5
1C2
 10
-118.24442424
 20
43.29337103
 30
0.0
 11
-116.54442424
 21
43.29337103
 31
0.0
  0
LINE
  8
0
  6
CONTINUOUS
 62
       7
  5
1C3
 10
31.93886349
 20
-5.80662897
 30
0.0
 11
31.93886349
 21
6.19337103
 31
0.0
  0
LINE
  8
0
  6
CONTINUOUS
 62
       7
  5
1C4
 10
-15.06113651
 20
-5.80662897
 30
0.0
 11
-15.06113651
 21
6.19337103
 31
0.0
  0
LINE
  8
0
  6
CONTINUOUS
 62
       7
  5
1C5
 10
-18.06113651
 20
-5.806629
 30
0.0
 11
31.93886349
 21
-5.806629
 31
0.0
  0
LINE
  8
0
  6
CONTINUOUS
 62
       7
  5
1C6
 10
-18.06113651
 20
6.19337103
 30
0.0
 11
31.93886349
 21
6.19337103
 31
0.0
  0
LINE
  8
0
  6
CONTINUOUS
 62
       2
  5
1C7
 10
1.91865609
 20
9.70023091
 30
0.0
 11
1.91865609
 21
6.75729358
 31
0.0
  0
LINE
  8
0
  6
CONTINUOUS
 62
       7
  5
1C8
 10
24.91865609
 20
7.29337103
 30
0.0
 11
24.91865609
 21
6.19337103
 31
0.0
  0
LINE
  8
0
  6
CONTINUOUS
 62
       7
  5
1C9
 10
-11.38134391
 20
7.29337103
 30
0.0
 11
-11.38134391
 21
6.19337103
 31
0.0
  0
LINE
  8
0
  6
CONTINUOUS
 62
       7
  5
1CA
 10
-111.2015671
 20
6.19337103
 30
0.0
 11
-126.2015671
 21
6.19337103
 31
0.0
  0
CIRCLE
  8
0
  6
CONTINUOUS
 62
       7
  5
1CB
 10
-118.7015671
 20
0.19337103
 30
0.0
 40
3.0
  0
CIRCLE
  8
0
  6
CONTINUOUS
 62
       7
  5
1CC
 10
-118.7015671
 20
0.19337103
 30
0.0
 40
2.5
  0
LINE
  8
0
  6
CONTINUOUS
 62
       7
  5
1CD
 10
-18.06113651
 20
-5.81614206
 30
0.0
 11
-18.06113651
 21
6.19337103
 31
0.0
  0
LINE
  8
0
  6
CONTINUOUS
 62
       7
  5
1CE
 10
-18.3939254
 20
-1.81614315
 30
0.0
 11
-18.06113651
 21
-1.81614315
 31
0.0
  0
LINE
  8
0
  6
CONTINUOUS
 62
       7
  5
1CF
 10
-18.3939254
 20
-5.81614206
 30
0.0
 11
-18.06113651
 21
-5.81614206
 31
0.0
  0
LINE
  8
0
  6
CONTINUOUS
 62
       2
  5
1D0
 10
-17.56842083
 20
-3.81614261
 30
0.0
 11
-20.15574439
 21
-3.81614261
 31
0.0
  0
POLYLINE
  8
0
  6
CONTINUOUS
 62
       7
  5
1D1
 66
       1
 10
0.0
 20
0.0
 30
0.0
  0
VERTEX
  8
0
  6
CONTINUOUS
 62
       7
  5
29E
 10
-19.34502984
 20
-2.50727369
 30
0.0
  0
VERTEX
  8
0
  6
CONTINUOUS
 62
       7
  5
29F
 10
-19.5045562
 20
-3.15404722
 30
0.0
  0
VERTEX
  8
0
  6
CONTINUOUS
 62
       7
  5
2A0
 10
-19.56113651
 20
-3.81614261
 30
0.0
  0
VERTEX
  8
0
  6
CONTINUOUS
 62
       7
  5
2A1
 10
-19.5045562
 20
-4.478238
 30
0.0
  0
VERTEX
  8
0
  6
CONTINUOUS
 62
       7
  5
2A2
 10
-19.34502984
 20
-5.12501152
 30
0.0
  0
SEQEND
  8
0
  6
CONTINUOUS
 62
       7
  5
2A3
  0
ARC
  8
0
  6
CONTINUOUS
 62
       7
  5
1D2
 10
-18.3939254
 20
-2.81614315
 30
0.0
 40
1.0
 50
90.0
 51
162.0088879
  0
ARC
  8
0
  6
CONTINUOUS
 62
       7
  5
1D3
 10
-18.3939254
 20
-4.81614206
 30
0.0
 40
1.0
 50
197.9911121
 51
270.0
  0
LINE
  8
0
  6
CONTINUOUS
 62
       7
  5
1D4
 10
-18.3939254
 20
6.19337048
 30
0.0
 11
-18.06113651
 21
6.19337048
 31
0.0
  0
LINE
  8
0
  6
CONTINUOUS
 62
       7
  5
1D5
 10
-18.3939254
 20
2.19337157
 30
0.0
 11
-18.06113651
 21
2.19337157
 31
0.0
  0
LINE
  8
0
  6
CONTINUOUS
 62
       2
  5
1D6
 10
-17.56842083
 20
4.19337103
 30
0.0
 11
-20.15574439
 21
4.19337103
 31
0.0
  0
ARC
  8
0
  6
CONTINUOUS
 62
       7
  5
1D7
 10
-18.3939254
 20
3.19337157
 30
0.0
 40
1.0
 50
197.9911121
 51
270.0
  0
ARC
  8
0
  6
CONTINUOUS
 62
       7
  5
1D8
 10
-18.3939254
 20
5.19337048
 30
0.0
 40
1.0
 50
90.0
 51
162.0088879
  0
POLYLINE
  8
0
  6
CONTINUOUS
 62
       7
  5
1D9
 66
       1
 10
0.0
 20
0.0
 30
0.0
  0
VERTEX
  8
0
  6
CONTINUOUS
 62
       7
  5
2A4
 10
-19.34502984
 20
5.50223994
 30
0.0
  0
VERTEX
  8
0
  6
CONTINUOUS
 62
       7
  5
2A5
 10
-19.5045562
 20
4.85546642
 30
0.0
  0
VERTEX
  8
0
  6
CONTINUOUS
 62
       7
  5
2A6
 10
-19.56113651
 20
4.19337103
 30
0.0
  0
VERTEX
  8
0
  6
CONTINUOUS
 62
       7
  5
2A7
 10
-19.5045562
 20
3.53127564
 30
0.0
  0
VERTEX
  8
0
  6
CONTINUOUS
 62
       7
  5
2A8
 10
-19.34502984
 20
2.88450211
 30
0.0
  0
SEQEND
  8
0
  6
CONTINUOUS
 62
       7
  5
2A9
  0
LINE
  8
0
  6
CONTINUOUS
 62
       7
  5
1DA
 10
15.41865609
 20
-5.806629
 30
0.0
 11
15.41865609
 21
-6.906629
 31
0.0
  0
LINE
  8
0
  6
CONTINUOUS
 62
       7
  5
1DB
 10
1.91865609
 20
-4.85381976
 30
0.0
 11
1.91865609
 21
-6.49631628
 31
0.0
  0
LINE
  8
0
  6
CONTINUOUS
 62
       7
  5
1DC
 10
-5.58134391
 20
-5.806629
 30
0.0
 11
-5.58134391
 21
-6.906629
 31
0.0
  0
LINE
  8
0
  6
CONTINUOUS
 62
       7
  5
1DD
 10
-126.2015671
 20
-5.80662897
 30
0.0
 11
-111.2015671
 21
-5.80662897
 31
0.0
  0
CIRCLE
  8
0
  6
CONTINUOUS
 62
       7
  5
1DE
 10
-118.7015671
 20
31.28385739
 30
0.0
 40
0.5
  0
LINE
  8
0
  6
CONTINUOUS
 62
       7
  5
1DF
 10
-121.4515671
 20
33.21687003
 30
0.0
 11
-121.4515671
 21
33.98385739
 31
0.0
  0
LINE
  8
0
  6
CONTINUOUS
 62
       7
  5
1E0
 10
-114.9515671
 20
31.28385739
 30
0.0
 11
-114.9515671
 21
33.98385739
 31
0.0
  0
LINE
  8
0
  6
CONTINUOUS
 62
       7
  5
1E1
 10
-120.7015671
 20
43.82803935
 30
0.0
 11
-120.31585281
 21
43.82803935
 31
0.0
  0
LINE
  8
0
  6
CONTINUOUS
 62
       7
  5
1E2
 10
-116.2015671
 20
44.32803935
 30
0.0
 11
-117.07299567
 21
44.32803935
 31
0.0
  0
LINE
  8
0
  6
CONTINUOUS
 62
       2
  5
1E3
 10
-119.2015671
 20
43.82803935
 30
0.0
 11
-119.2015671
 21
43.29337103
 31
0.0
  0
LINE
  8
0
  6
CONTINUOUS
 62
       2
  5
1E4
 10
-116.2015671
 20
35.62303935
 30
0.0
 11
-116.2015671
 21
36.84975165
 31
0.0
  0
LINE
  8
0
  6
CONTINUOUS
 62
       2
  5
1E5
 10
-116.7015671
 20
43.82803935
 30
0.0
 11
-116.7015671
 21
43.29337103
 31
0.0
  0
LINE
  8
0
  6
CONTINUOUS
 62
       2
  5
1E6
 10
-115.7015671
 20
35.62303935
 30
0.0
 11
-115.7015671
 21
36.71636095
 31
0.0
  0
LINE
  8
0
  6
CONTINUOUS
 62
       2
  5
1E7
 10
-116.2015671
 20
43.82803935
 30
0.0
 11
-116.2015671
 21
39.82803935
 31
0.0
  0
LINE
  8
0
  6
CONTINUOUS
 62
       7
  5
1E8
 10
-121.4515671
 20
33.98385739
 30
0.0
 11
-120.9515671
 21
34.48385739
 31
0.0
  0
LINE
  8
0
  6
CONTINUOUS
 62
       7
  5
1E9
 10
-115.4515671
 20
34.48385739
 30
0.0
 11
-116.54442424
 21
34.48385739
 31
0.0
  0
LINE
  8
0
  6
CONTINUOUS
 62
       7
  5
1EA
 10
-114.9515671
 20
33.98385739
 30
0.0
 11
-115.4515671
 21
34.48385739
 31
0.0
  0
LINE
  8
0
  6
CONTINUOUS
 62
       7
  5
1EB
 10
-115.7015671
 20
43.82803935
 30
0.0
 11
-115.7015671
 21
39.82803935
 31
0.0
  0
LINE
  8
0
  6
CONTINUOUS
 62
       7
  5
1EC
 10
-120.7015671
 20
43.82803935
 30
0.0
 11
-120.7015671
 21
43.29337103
 31
0.0
  0
LINE
  8
0
  6
CONTINUOUS
 62
       7
  5
1ED
 10
-121.2015671
 20
35.62303935
 30
0.0
 11
-121.2015671
 21
37.62303935
 31
0.0
  0
LINE
  8
0
  6
CONTINUOUS
 62
       7
  5
1EE
 10
-119.14442424
 20
39.32803935
 30
0.0
 11
-118.24442424
 21
39.32803935
 31
0.0
  0
LINE
  8
0
  6
CONTINUOUS
 62
       7
  5
1EF
 10
-115.7015671
 20
39.82803935
 30
0.0
 11
-116.2015671
 21
39.32803935
 31
0.0
  0
LINE
  8
0
  6
CONTINUOUS
 62
       7
  5
1F0
 10
-121.2015671
 20
37.62303935
 30
0.0
 11
-120.84442424
 21
37.98018221
 31
0.0
  0
LINE
  8
0
  6
CONTINUOUS
 62
       7
  5
1F1
 10
-121.2015671
 20
35.62303935
 30
0.0
 11
-120.84442424
 21
35.2658965
 31
0.0
  0
LINE
  8
0
  6
CONTINUOUS
 62
       7
  5
1F2
 10
-115.2015671
 20
35.62303935
 30
0.0
 11
-115.7015671
 21
35.12303935
 31
0.0
  0
LINE
  8
0
  6
CONTINUOUS
 62
       7
  5
1F3
 10
-115.2015671
 20
35.62303935
 30
0.0
 11
-115.2015671
 21
36.58297024
 31
0.0
  0
LINE
  8
0
  6
CONTINUOUS
 62
       7
  5
1F4
 10
-115.7015671
 20
35.12303935
 30
0.0
 11
-116.54442424
 21
35.12303935
 31
0.0
  0
LINE
  8
0
  6
CONTINUOUS
 62
       7
  5
1F5
 10
-115.7015671
 20
43.82803935
 30
0.0
 11
-116.2015671
 21
44.32803935
 31
0.0
  0
LINE
  8
0
  6
CONTINUOUS
 62
       7
  5
1F6
 10
-120.7015671
 20
43.82803935
 30
0.0
 11
-120.31585281
 21
44.21375364
 31
0.0
  0
LINE
  8
0
  6
CONTINUOUS
 62
       7
  5
1F7
 10
-119.14442424
 20
39.82803935
 30
0.0
 11
-118.24442424
 21
39.82803935
 31
0.0
  0
LINE
  8
0
  6
CONTINUOUS
 62
       7
  5
1F8
 10
-121.2015671
 20
35.62303935
 30
0.0
 11
-120.84442424
 21
35.62303935
 31
0.0
  0
LINE
  8
0
  6
CONTINUOUS
 62
       7
  5
1F9
 10
-121.4515671
 20
33.98385739
 30
0.0
 11
-120.84442424
 21
33.98385739
 31
0.0
  0
LINE
  8
0
  6
CONTINUOUS
 62
       7
  5
1FA
 10
-119.14442424
 20
33.98385739
 30
0.0
 11
-118.24442424
 21
33.98385739
 31
0.0
  0
LINE
  8
0
  6
CONTINUOUS
 62
       7
  5
1FB
 10
-120.84442424
 20
34.48385739
 30
0.0
 11
-120.9515671
 21
34.48385739
 31
0.0
  0
LINE
  8
0
  6
CONTINUOUS
 62
       7
  5
1FC
 10
-119.14442424
 20
35.62303935
 30
0.0
 11
-118.24442424
 21
35.62303935
 31
0.0
  0
LINE
  8
0
  6
CONTINUOUS
 62
       7
  5
1FD
 10
-116.54442424
 20
33.98385739
 30
0.0
 11
-114.9515671
 21
33.98385739
 31
0.0
  0
LINE
  8
0
  6
CONTINUOUS
 62
       7
  5
1FE
 10
-118.24442424
 20
34.48385739
 30
0.0
 11
-119.14442424
 21
34.48385739
 31
0.0
  0
LINE
  8
0
  6
CONTINUOUS
 62
       7
  5
1FF
 10
-118.24442424
 20
34.39284799
 30
0.0
 11
-118.24442424
 21
33.29337103
 31
0.0
  0
LINE
  8
0
  6
CONTINUOUS
 62
       7
  5
200
 10
-118.24442424
 20
35.12303935
 30
0.0
 11
-119.14442424
 21
35.12303935
 31
0.0
  0
LINE
  8
0
  6
CONTINUOUS
 62
       7
  5
201
 10
-116.54442424
 20
35.62303935
 30
0.0
 11
-115.2015671
 21
35.62303935
 31
0.0
  0
LINE
  8
0
  6
CONTINUOUS
 62
       7
  5
202
 10
-116.54442424
 20
39.82803935
 30
0.0
 11
-115.7015671
 21
39.82803935
 31
0.0
  0
LINE
  8
0
  6
CONTINUOUS
 62
       7
  5
203
 10
-116.54442424
 20
39.32803935
 30
0.0
 11
-116.2015671
 21
39.32803935
 31
0.0
  0
LINE
  8
0
  6
CONTINUOUS
 62
       7
  5
204
 10
-119.67299567
 20
43.82803935
 30
0.0
 11
-117.71585281
 21
43.82803935
 31
0.0
  0
LINE
  8
0
  6
CONTINUOUS
 62
       7
  5
205
 10
-117.07299567
 20
43.82803935
 30
0.0
 11
-115.7015671
 21
43.82803935
 31
0.0
  0
LINE
  8
0
  6
CONTINUOUS
 62
       7
  5
206
 10
-117.71585281
 20
44.32803935
 30
0.0
 11
-119.67299567
 21
44.32803935
 31
0.0
  0
CIRCLE
  8
0
  6
CONTINUOUS
 62
       7
  5
207
 10
-118.7015671
 20
-13.40662897
 30
0.0
 40
5.65
  0
ARC
  8
0
  6
CONTINUOUS
 62
       7
  5
208
 10
-118.7015671
 20
-13.40662897
 30
0.0
 40
5.15
 50
216.69043036
 51
23.30956964
  0
ARC
  8
0
  6
CONTINUOUS
 62
       7
  5
209
 10
-118.7015671
 20
-13.40662897
 30
0.0
 40
5.15
 50
36.69043036
 51
203.30956964
  0
LINE
  8
0
  6
CONTINUOUS
 62
       7
  5
20A
 10
-123.26694221
 20
-16.73526985
 30
0.0
 11
-113.53619198
 21
-11.11721858
 31
0.0
  0
LINE
  8
0
  6
CONTINUOUS
 62
       7
  5
20B
 10
-123.86694221
 20
-15.69603936
 30
0.0
 11
-114.13619198
 21
-10.0779881
 31
0.0
  0
LINE
  8
0
  6
CONTINUOUS
 62
       2
  5
20C
 10
-118.7015671
 20
-33.45152203
 30
0.0
 11
-118.7015671
 21
56.11576768
 31
0.0
  0
LINE
  8
0
  6
CONTINUOUS
 62
       2
  5
20D
 10
-124.9515671
 20
-13.40662897
 30
0.0
 11
-112.4515671
 21
-13.40662897
 31
0.0
  0
LINE
  8
0
  6
CONTINUOUS
 62
       7
  5
20E
 10
-14.58134384
 20
-30.906629
 30
0.0
 11
25.41865616
 21
-30.906629
 31
0.0
  0
LINE
  8
0
  6
CONTINUOUS
 62
       7
  5
20F
 10
-14.58134384
 20
-6.906629
 30
0.0
 11
25.41865616
 21
-6.906629
 31
0.0
  0
LINE
  8
0
  6
CONTINUOUS
 62
       7
  5
210
 10
-14.58134384
 20
-6.906629
 30
0.0
 11
-14.58134384
 21
-30.906629
 31
0.0
  0
LINE
  8
0
  6
CONTINUOUS
 62
       7
  5
211
 10
25.41865616
 20
-6.906629
 30
0.0
 11
25.41865616
 21
-30.906629
 31
0.0
  0
LINE
  8
0
  6
CONTINUOUS
 62
       7
  5
212
 10
-14.58134384
 20
71.5599809
 30
0.0
 11
25.41865616
 21
71.5599809
 31
0.0
  0
LINE
  8
0
  6
CONTINUOUS
 62
       7
  5
213
 10
-14.58134384
 20
97.5599809
 30
0.0
 11
25.41865616
 21
97.5599809
 31
0.0
  0
LINE
  8
0
  6
CONTINUOUS
 62
       7
  5
214
 10
25.41865616
 20
81.05998103
 30
0.0
 11
25.41865616
 21
71.5599809
 31
0.0
  0
LINE
  8
0
  6
CONTINUOUS
 62
       7
  5
215
 10
-14.58134384
 20
81.05998103
 30
0.0
 11
-14.58134384
 21
71.5599809
 31
0.0
  0
CIRCLE
  8
0
  6
CONTINUOUS
 62
       7
  5
216
 10
-8.58134384
 20
76.5599809
 30
0.0
 40
2.1
  0
LINE
  8
0
  6
CONTINUOUS
 62
       2
  5
217
 10
-12.08134384
 20
76.5599809
 30
0.0
 11
-5.08134384
 21
76.5599809
 31
0.0
  0
LINE
  8
0
  6
CONTINUOUS
 62
       2
  5
218
 10
-8.58134384
 20
73.0599809
 30
0.0
 11
-8.58134384
 21
80.0599809
 31
0.0
  0
CIRCLE
  8
0
  6
CONTINUOUS
 62
       7
  5
219
 10
9.41865616
 20
76.5599809
 30
0.0
 40
2.1
  0
LINE
  8
0
  6
CONTINUOUS
 62
       2
  5
21A
 10
5.91865616
 20
76.5599809
 30
0.0
 11
12.91865616
 21
76.5599809
 31
0.0
  0
LINE
  8
0
  6
CONTINUOUS
 62
       2
  5
21B
 10
9.41865616
 20
73.0599809
 30
0.0
 11
9.41865616
 21
80.0599809
 31
0.0
  0
LINE
  8
0
  6
CONTINUOUS
 62
       7
  5
21C
 10
-101.7015671
 20
-6.90662897
 30
0.0
 11
-101.7015671
 21
-30.90662897
 31
0.0
  0
LINE
  8
0
  6
CONTINUOUS
 62
       7
  5
21D
 10
-127.7015671
 20
-6.90662897
 30
0.0
 11
-127.7015671
 21
-30.90662897
 31
0.0
  0
LINE
  8
0
  6
CONTINUOUS
 62
       7
  5
21E
 10
-127.7015671
 20
-6.90662897
 30
0.0
 11
-101.7015671
 21
-6.90662897
 31
0.0
  0
LINE
  8
0
  6
CONTINUOUS
 62
       7
  5
21F
 10
-127.7015671
 20
-30.90662897
 30
0.0
 11
-101.7015671
 21
-30.90662897
 31
0.0
  0
CIRCLE
  8
0
  6
CONTINUOUS
 62
       7
  5
220
 10
-118.7015671
 20
-24.90662897
 30
0.0
 40
2.1
  0
CIRCLE
  8
0
  6
CONTINUOUS
 62
       2
  5
221
 10
-118.7015671
 20
-24.90662897
 30
0.0
 40
2.5
  0
LINE
  8
0
  6
CONTINUOUS
 62
       2
  5
222
 10
-122.2015671
 20
-24.90662897
 30
0.0
 11
-115.2015671
 21
-24.90662897
 31
0.0
  0
CIRCLE
  8
0
  6
CONTINUOUS
 62
       7
  5
223
 10
17.41865616
 20
-17.906629
 30
0.0
 40
4.15
  0
CIRCLE
  8
0
  6
CONTINUOUS
 62
       2
  5
224
 10
17.41865616
 20
-17.906629
 30
0.0
 40
5.0
  0
LINE
  8
0
  6
CONTINUOUS
 62
       2
  5
225
 10
10.91865616
 20
-17.906629
 30
0.0
 11
23.91865616
 21
-17.906629
 31
0.0
  0
LINE
  8
0
  6
CONTINUOUS
 62
       2
  5
226
 10
17.41865616
 20
-24.406629
 30
0.0
 11
17.41865616
 21
-11.406629
 31
0.0
  0
LINE
  8
0
  6
CONTINUOUS
 62
       7
  5
227
 10
25.41865616
 20
97.5599809
 30
0.0
 11
25.41865616
 21
96.05998103
 31
0.0
  0
LINE
  8
0
  6
CONTINUOUS
 62
       7
  5
228
 10
-14.58134384
 20
97.5599809
 30
0.0
 11
-14.58134384
 21
96.05998103
 31
0.0
  0
LINE
  8
0
  6
CONTINUOUS
 62
       7
  5
229
 10
126.57929408
 20
-30.90662897
 30
0.0
 11
100.57929408
 21
-30.90662897
 31
0.0
  0
LINE
  8
0
  6
CONTINUOUS
 62
       7
  5
22A
 10
126.57929408
 20
-6.90662897
 30
0.0
 11
100.57929408
 21
-6.90662897
 31
0.0
  0
LINE
  8
0
  6
CONTINUOUS
 62
       7
  5
22B
 10
126.57929408
 20
-6.90662897
 30
0.0
 11
126.57929408
 21
-30.90662897
 31
0.0
  0
LINE
  8
0
  6
CONTINUOUS
 62
       7
  5
22C
 10
100.57929408
 20
-6.90662897
 30
0.0
 11
100.57929408
 21
-30.90662897
 31
0.0
  0
LINE
  8
0
  6
CONTINUOUS
 62
       2
  5
22D
 10
117.57929408
 20
-33.45152203
 30
0.0
 11
117.57929408
 21
56.11576768
 31
0.0
  0
LINE
  8
0
  6
CONTINUOUS
 62
       7
  5
22E
 10
116.59357979
 20
44.32803935
 30
0.0
 11
118.55072265
 21
44.32803935
 31
0.0
  0
LINE
  8
0
  6
CONTINUOUS
 62
       7
  5
22F
 10
115.95072265
 20
43.82803935
 30
0.0
 11
114.57929408
 21
43.82803935
 31
0.0
  0
LINE
  8
0
  6
CONTINUOUS
 62
       7
  5
230
 10
118.55072265
 20
43.82803935
 30
0.0
 11
116.59357979
 21
43.82803935
 31
0.0
  0
LINE
  8
0
  6
CONTINUOUS
 62
       7
  5
231
 10
115.42215122
 20
39.32803935
 30
0.0
 11
115.07929408
 21
39.32803935
 31
0.0
  0
LINE
  8
0
  6
CONTINUOUS
 62
       7
  5
232
 10
115.42215122
 20
39.82803935
 30
0.0
 11
114.57929408
 21
39.82803935
 31
0.0
  0
LINE
  8
0
  6
CONTINUOUS
 62
       7
  5
233
 10
115.42215122
 20
35.62303935
 30
0.0
 11
114.07929408
 21
35.62303935
 31
0.0
  0
LINE
  8
0
  6
CONTINUOUS
 62
       7
  5
234
 10
117.12215122
 20
35.12303935
 30
0.0
 11
118.02215122
 21
35.12303935
 31
0.0
  0
LINE
  8
0
  6
CONTINUOUS
 62
       7
  5
235
 10
117.12215122
 20
34.39284799
 30
0.0
 11
117.12215122
 21
33.29337103
 31
0.0
  0
LINE
  8
0
  6
CONTINUOUS
 62
       7
  5
236
 10
117.12215122
 20
34.48385739
 30
0.0
 11
118.02215122
 21
34.48385739
 31
0.0
  0
LINE
  8
0
  6
CONTINUOUS
 62
       7
  5
237
 10
115.42215122
 20
33.98385739
 30
0.0
 11
113.82929408
 21
33.98385739
 31
0.0
  0
LINE
  8
0
  6
CONTINUOUS
 62
       7
  5
238
 10
118.02215122
 20
35.62303935
 30
0.0
 11
117.12215122
 21
35.62303935
 31
0.0
  0
LINE
  8
0
  6
CONTINUOUS
 62
       7
  5
239
 10
119.72215122
 20
34.48385739
 30
0.0
 11
119.82929408
 21
34.48385739
 31
0.0
  0
LINE
  8
0
  6
CONTINUOUS
 62
       7
  5
23A
 10
118.02215122
 20
33.98385739
 30
0.0
 11
117.12215122
 21
33.98385739
 31
0.0
  0
LINE
  8
0
  6
CONTINUOUS
 62
       7
  5
23B
 10
120.32929408
 20
33.98385739
 30
0.0
 11
119.72215122
 21
33.98385739
 31
0.0
  0
LINE
  8
0
  6
CONTINUOUS
 62
       7
  5
23C
 10
120.07929408
 20
35.62303935
 30
0.0
 11
119.72215122
 21
35.62303935
 31
0.0
  0
LINE
  8
0
  6
CONTINUOUS
 62
       7
  5
23D
 10
118.02215122
 20
39.82803935
 30
0.0
 11
117.12215122
 21
39.82803935
 31
0.0
  0
LINE
  8
0
  6
CONTINUOUS
 62
       7
  5
23E
 10
119.57929408
 20
43.82803935
 30
0.0
 11
119.19357979
 21
44.21375364
 31
0.0
  0
LINE
  8
0
  6
CONTINUOUS
 62
       7
  5
23F
 10
114.57929408
 20
43.82803935
 30
0.0
 11
115.07929408
 21
44.32803935
 31
0.0
  0
LINE
  8
0
  6
CONTINUOUS
 62
       7
  5
240
 10
114.57929408
 20
35.12303935
 30
0.0
 11
115.42215122
 21
35.12303935
 31
0.0
  0
LINE
  8
0
  6
CONTINUOUS
 62
       7
  5
241
 10
114.07929408
 20
35.62303935
 30
0.0
 11
114.07929408
 21
36.58297024
 31
0.0
  0
LINE
  8
0
  6
CONTINUOUS
 62
       7
  5
242
 10
114.07929408
 20
35.62303935
 30
0.0
 11
114.57929408
 21
35.12303935
 31
0.0
  0
LINE
  8
0
  6
CONTINUOUS
 62
       7
  5
243
 10
120.07929408
 20
35.62303935
 30
0.0
 11
119.72215122
 21
35.2658965
 31
0.0
  0
LINE
  8
0
  6
CONTINUOUS
 62
       7
  5
244
 10
120.07929408
 20
37.62303935
 30
0.0
 11
119.72215122
 21
37.98018221
 31
0.0
  0
LINE
  8
0
  6
CONTINUOUS
 62
       7
  5
245
 10
114.57929408
 20
39.82803935
 30
0.0
 11
115.07929408
 21
39.32803935
 31
0.0
  0
LINE
  8
0
  6
CONTINUOUS
 62
       7
  5
246
 10
118.02215122
 20
39.32803935
 30
0.0
 11
117.12215122
 21
39.32803935
 31
0.0
  0
LINE
  8
0
  6
CONTINUOUS
 62
       7
  5
247
 10
120.07929408
 20
35.62303935
 30
0.0
 11
120.07929408
 21
37.62303935
 31
0.0
  0
LINE
  8
0
  6
CONTINUOUS
 62
       7
  5
248
 10
119.57929408
 20
43.82803935
 30
0.0
 11
119.57929408
 21
43.29337103
 31
0.0
  0
LINE
  8
0
  6
CONTINUOUS
 62
       7
  5
249
 10
114.57929408
 20
43.82803935
 30
0.0
 11
114.57929408
 21
39.82803935
 31
0.0
  0
LINE
  8
0
  6
CONTINUOUS
 62
       7
  5
24A
 10
113.82929408
 20
33.98385739
 30
0.0
 11
114.32929408
 21
34.48385739
 31
0.0
  0
LINE
  8
0
  6
CONTINUOUS
 62
       7
  5
24B
 10
114.32929408
 20
34.48385739
 30
0.0
 11
115.42215122
 21
34.48385739
 31
0.0
  0
LINE
  8
0
  6
CONTINUOUS
 62
       7
  5
24C
 10
120.32929408
 20
33.98385739
 30
0.0
 11
119.82929408
 21
34.48385739
 31
0.0
  0
LINE
  8
0
  6
CONTINUOUS
 62
       2
  5
24D
 10
115.07929408
 20
43.82803935
 30
0.0
 11
115.07929408
 21
39.82803935
 31
0.0
  0
LINE
  8
0
  6
CONTINUOUS
 62
       2
  5
24E
 10
114.57929408
 20
35.62303935
 30
0.0
 11
114.57929408
 21
36.71636095
 31
0.0
  0
LINE
  8
0
  6
CONTINUOUS
 62
       2
  5
24F
 10
115.57929408
 20
43.82803935
 30
0.0
 11
115.57929408
 21
43.29337103
 31
0.0
  0
LINE
  8
0
  6
CONTINUOUS
 62
       2
  5
250
 10
115.07929408
 20
35.62303935
 30
0.0
 11
115.07929408
 21
36.84975165
 31
0.0
  0
LINE
  8
0
  6
CONTINUOUS
 62
       2
  5
251
 10
118.07929408
 20
43.82803935
 30
0.0
 11
118.07929408
 21
43.29337103
 31
0.0
  0
LINE
  8
0
  6
CONTINUOUS
 62
       7
  5
252
 10
115.07929408
 20
44.32803935
 30
0.0
 11
115.95072265
 21
44.32803935
 31
0.0
  0
LINE
  8
0
  6
CONTINUOUS
 62
       7
  5
253
 10
119.57929408
 20
43.82803935
 30
0.0
 11
119.19357979
 21
43.82803935
 31
0.0
  0
LINE
  8
0
  6
CONTINUOUS
 62
       7
  5
254
 10
113.82929408
 20
31.28385739
 30
0.0
 11
113.82929408
 21
33.98385739
 31
0.0
  0
LINE
  8
0
  6
CONTINUOUS
 62
       7
  5
255
 10
120.32929408
 20
33.21687003
 30
0.0
 11
120.32929408
 21
33.98385739
 31
0.0
  0
CIRCLE
  8
0
  6
CONTINUOUS
 62
       7
  5
256
 10
117.57929408
 20
31.28385739
 30
0.0
 40
0.5
  0
LINE
  8
0
  6
CONTINUOUS
 62
       7
  5
257
 10
125.07929408
 20
-5.80662897
 30
0.0
 11
110.07929408
 21
-5.80662897
 31
0.0
  0
LINE
  8
0
  6
CONTINUOUS
 62
       7
  5
258
 10
110.07929408
 20
6.19337103
 30
0.0
 11
125.07929408
 21
6.19337103
 31
0.0
  0
LINE
  8
0
  6
CONTINUOUS
 62
       7
  5
259
 10
117.12215122
 20
43.29337103
 30
0.0
 11
115.42215122
 21
43.29337103
 31
0.0
  0
LINE
  8
0
  6
CONTINUOUS
 62
       7
  5
25A
 10
115.42215122
 20
43.29337103
 30
0.0
 11
115.42215122
 21
38.48751905
 31
0.0
  0
LINE
  8
0
  6
CONTINUOUS
 62
       7
  5
25B
 10
119.72215122
 20
43.29337103
 30
0.0
 11
118.02215122
 21
43.29337103
 31
0.0
  0
LINE
  8
0
  6
CONTINUOUS
 62
       7
  5
25C
 10
112.16145083
 20
11.20765674
 30
0.0
 11
114.00430798
 21
9.37194246
 31
0.0
  0
LINE
  8
0
  6
CONTINUOUS
 62
       7
  5
25D
 10
111.479999
 20
8.69763352
 30
0.0
 11
114.66196478
 21
11.87959929
 31
0.0
  0
LINE
  8
0
  6
CONTINUOUS
 62
       7
  5
25E
 10
121.16500837
 20
29.20765674
 30
0.0
 11
123.00786551
 21
27.37194246
 31
0.0
  0
LINE
  8
0
  6
CONTINUOUS
 62
       7
  5
25F
 10
120.48355654
 20
26.69763352
 30
0.0
 11
123.66552231
 21
29.87959929
 31
0.0
  0
INSERT
  8
0
  6
BYBLOCK
 62
       7
  5
260
  2
MS_1
 10
117.57929408
 20
31.28385739
 30
0.0
 41
0.99999998
 42
-0.99999998
 50
90.0
 43
0.99999998
  0
INSERT
  8
0
  6
BYBLOCK
 62
       7
  5
266
  2
*X9
 10
0.0
 20
0.0
 30
0.0
  0
ARC
  8
0
  6
CONTINUOUS
 62
       7
  5
267
 10
110.57455544
 20
7.78863239
 30
0.0
 40
0.49528403
 50
179.45181348
 51
270.54818652
  0
ARC
  8
0
  6
CONTINUOUS
 62
       7
  5
268
 10
124.58402171
 20
7.78864339
 30
0.0
 40
0.49529493
 50
269.4530984
 51
0.5469016
  0
CIRCLE
  8
0
  6
CONTINUOUS
 62
       7
  5
269
 10
113.0793028
 20
10.28386175
 30
0.0
 40
2.24999973
  0
CIRCLE
  8
0
  6
CONTINUOUS
 62
       7
  5
26A
 10
122.07930716
 20
28.28384867
 30
0.0
 40
2.24999973
  0
ARC
  8
0
  6
CONTINUOUS
 62
       7
  5
26B
 10
113.07932043
 20
10.29337103
 30
0.0
 40
2.54633202
 50
186.76610496
 51
173.23389504
  0
ARC
  8
0
  6
CONTINUOUS
 62
       7
  5
26C
 10
122.07928957
 20
28.29337103
 30
0.0
 40
2.56049709
 50
6.72850028
 51
353.27149972
  0
ARC
  8
0
  6
CONTINUOUS
 62
       7
  5
26D
 10
113.07454003
 20
10.28861697
 30
0.0
 40
3.00475781
 50
0.09065201
 51
89.90934799
  0
ARC
  8
0
  6
CONTINUOUS
 62
       7
  5
26E
 10
122.07454323
 20
28.28862018
 30
0.0
 40
2.99525292
 50
179.90912161
 51
270.09087839
  0
LINE
  8
0
  6
CONTINUOUS
 62
       7
  5
26F
 10
114.57929408
 20
31.29337103
 30
0.0
 11
110.07929408
 21
31.29337103
 31
0.0
  0
LINE
  8
0
  6
CONTINUOUS
 62
       7
  5
270
 10
115.42215122
 20
36.93622817
 30
0.0
 11
115.42215122
 21
33.29337103
 31
0.0
  0
LINE
  8
0
  6
CONTINUOUS
 62
       7
  5
271
 10
117.12215122
 20
37.39337103
 30
0.0
 11
117.12215122
 21
34.39284799
 31
0.0
  0
LINE
  8
0
  6
CONTINUOUS
 62
       7
  5
272
 10
118.02215122
 20
37.63622817
 30
0.0
 11
118.02215122
 21
33.29337103
 31
0.0
  0
LINE
  8
0
  6
CONTINUOUS
 62
       7
  5
273
 10
119.72215122
 20
38.09337103
 30
0.0
 11
119.72215122
 21
33.29337103
 31
0.0
  0
LINE
  8
0
  6
CONTINUOUS
 62
       2
  5
274
 10
121.72215122
 20
40.17908531
 30
0.0
 11
113.42215122
 21
37.95051388
 31
0.0
  0
LINE
  8
0
  6
CONTINUOUS
 62
       2
  5
275
 10
121.72215122
 20
38.62194246
 30
0.0
 11
113.42215122
 21
36.40765674
 31
0.0
  0
LINE
  8
0
  6
CONTINUOUS
 62
       7
  5
276
 10
118.55072265
 20
53.29337103
 30
0.0
 11
119.19357979
 21
53.29337103
 31
0.0
  0
LINE
  8
0
  6
CONTINUOUS
 62
       7
  5
277
 10
118.55072265
 20
53.29337103
 30
0.0
 11
118.55072265
 21
43.29337103
 31
0.0
  0
LINE
  8
0
  6
CONTINUOUS
 62
       7
  5
278
 10
119.19357979
 20
53.29337103
 30
0.0
 11
119.19357979
 21
43.29337103
 31
0.0
  0
LINE
  8
0
  6
CONTINUOUS
 62
       7
  5
279
 10
118.02215122
 20
43.29337103
 30
0.0
 11
118.02215122
 21
39.19337103
 31
0.0
  0
LINE
  8
0
  6
CONTINUOUS
 62
       7
  5
27A
 10
119.72215122
 20
43.29337103
 30
0.0
 11
119.72215122
 21
39.63622817
 31
0.0
  0
LINE
  8
0
  6
CONTINUOUS
 62
       2
  5
27B
 10
118.87929408
 20
55.29337103
 30
0.0
 11
118.87929408
 21
28.29337103
 31
0.0
  0
LINE
  8
0
  6
CONTINUOUS
 62
       7
  5
27C
 10
115.95072265
 20
53.29337103
 30
0.0
 11
116.59357979
 21
53.29337103
 31
0.0
  0
LINE
  8
0
  6
CONTINUOUS
 62
       7
  5
27D
 10
115.95072265
 20
53.29337103
 30
0.0
 11
115.95072265
 21
43.29337103
 31
0.0
  0
LINE
  8
0
  6
CONTINUOUS
 62
       7
  5
27E
 10
116.59357979
 20
53.29337103
 30
0.0
 11
116.59357979
 21
43.29337103
 31
0.0
  0
LINE
  8
0
  6
CONTINUOUS
 62
       7
  5
27F
 10
117.12215122
 20
43.29337103
 30
0.0
 11
117.12215122
 21
38.95051388
 31
0.0
  0
LINE
  8
0
  6
CONTINUOUS
 62
       2
  5
280
 10
116.27929408
 20
55.29337103
 30
0.0
 11
116.27929408
 21
28.29337103
 31
0.0
  0
LINE
  8
0
  6
CONTINUOUS
 62
       7
  5
281
 10
110.07929408
 20
7.79337103
 30
0.0
 11
110.07929408
 21
31.29337103
 31
0.0
  0
LINE
  8
0
  6
CONTINUOUS
 62
       7
  5
282
 10
125.07929408
 20
7.29337103
 30
0.0
 11
110.07929408
 21
7.29337103
 31
0.0
  0
LINE
  8
0
  6
CONTINUOUS
 62
       7
  5
283
 10
125.07929408
 20
7.79337103
 30
0.0
 11
125.07929408
 21
31.29337103
 31
0.0
  0
LINE
  8
0
  6
CONTINUOUS
 62
       2
  5
284
 10
122.07929408
 20
24.29337103
 30
0.0
 11
122.07929408
 21
32.29337103
 31
0.0
  0
LINE
  8
0
  6
CONTINUOUS
 62
       2
  5
285
 10
113.07929408
 20
6.29337103
 30
0.0
 11
113.07929408
 21
14.29337103
 31
0.0
  0
LINE
  8
0
  6
CONTINUOUS
 62
       2
  5
286
 10
109.07929408
 20
10.29337103
 30
0.0
 11
117.07929408
 21
10.29337103
 31
0.0
  0
LINE
  8
0
  6
CONTINUOUS
 62
       2
  5
287
 10
118.07929408
 20
28.29337103
 30
0.0
 11
126.07929408
 21
28.29337103
 31
0.0
  0
LINE
  8
0
  6
CONTINUOUS
 62
       7
  5
288
 10
110.57929408
 20
10.75051388
 30
0.0
 11
110.87929408
 21
10.75051388
 31
0.0
  0
LINE
  8
0
  6
CONTINUOUS
 62
       7
  5
289
 10
110.85072265
 20
10.59337103
 30
0.0
 11
110.55072265
 21
10.59337103
 31
0.0
  0
LINE
  8
0
  6
CONTINUOUS
 62
       7
  5
28A
 10
110.85072265
 20
9.99337103
 30
0.0
 11
110.55072265
 21
9.99337103
 31
0.0
  0
LINE
  8
0
  6
CONTINUOUS
 62
       7
  5
28B
 10
124.59357979
 20
27.83622817
 30
0.0
 11
124.29357979
 21
27.83622817
 31
0.0
  0
LINE
  8
0
  6
CONTINUOUS
 62
       7
  5
28C
 10
124.32215122
 20
27.99337103
 30
0.0
 11
124.62215122
 21
27.99337103
 31
0.0
  0
LINE
  8
0
  6
CONTINUOUS
 62
       7
  5
28D
 10
124.32215122
 20
28.59337103
 30
0.0
 11
124.62215122
 21
28.59337103
 31
0.0
  0
LINE
  8
0
  6
CONTINUOUS
 62
       7
  5
28E
 10
111.07929408
 20
13.29337103
 30
0.0
 11
111.07929408
 21
30.29337103
 31
0.0
  0
LINE
  8
0
  6
CONTINUOUS
 62
       7
  5
28F
 10
124.07929408
 20
8.29337103
 30
0.0
 11
124.07929408
 21
25.29337103
 31
0.0
  0
LINE
  8
0
  6
CONTINUOUS
 62
       7
  5
290
 10
119.07929408
 20
30.29337103
 30
0.0
 11
111.07929408
 21
30.29337103
 31
0.0
  0
LINE
  8
0
  6
CONTINUOUS
 62
       7
  5
291
 10
124.07929408
 20
8.29337103
 30
0.0
 11
116.07929408
 21
8.29337103
 31
0.0
  0
LINE
  8
0
  6
CONTINUOUS
 62
       7
  5
292
 10
122.07929408
 20
25.29337103
 30
0.0
 11
125.07929408
 21
25.29337103
 31
0.0
  0
LINE
  8
0
  6
CONTINUOUS
 62
       7
  5
293
 10
113.07929408
 20
13.29337103
 30
0.0
 11
110.07929408
 21
13.29337103
 31
0.0
  0
LINE
  8
0
  6
CONTINUOUS
 62
       7
  5
294
 10
116.07929408
 20
10.29337103
 30
0.0
 11
116.07929408
 21
7.29337103
 31
0.0
  0
LINE
  8
0
  6
CONTINUOUS
 62
       7
  5
295
 10
119.07929408
 20
28.29337103
 30
0.0
 11
119.07929408
 21
31.29337103
 31
0.0
  0
LINE
  8
0
  6
CONTINUOUS
 62
       7
  5
296
 10
125.07929408
 20
31.29337103
 30
0.0
 11
120.57929408
 21
31.29337103
 31
0.0
  0
LINE
  8
0
  6
CONTINUOUS
 62
       7
  5
297
 10
110.07929408
 20
7.29337103
 30
0.0
 11
110.07929408
 21
-6.90662897
 31
0.0
  0
LINE
  8
0
  6
CONTINUOUS
 62
       7
  5
298
 10
125.07929408
 20
7.29337103
 30
0.0
 11
125.07929408
 21
-6.90662897
 31
0.0
  0
LINE
  8
0
  6
CONTINUOUS
 62
       7
  5
299
 10
-194.25
 20
132.6000061
 30
0.0
 11
194.80000305
 21
132.6000061
 31
0.0
  0
LINE
  8
0
  6
CONTINUOUS
 62
       7
  5
29A
 10
194.80000305
 20
132.6000061
 30
0.0
 11
194.80000305
 21
-133.5
 31
0.0
  0
LINE
  8
0
  6
CONTINUOUS
 62
       7
  5
29B
 10
-194.25
 20
132.6000061
 30
0.0
 11
-194.25
 21
-133.5
 31
0.0
  0
LINE
  8
0
  6
CONTINUOUS
 62
       7
  5
29C
 10
-194.25
 20
-133.5
 30
0.0
 11
194.80000305
 21
-133.5
 31
0.0
  0
ENDSEC
  0
EOF
