  0
SECTION
  2
HEADER
  9
$ACADVER
  1
AC1012
  9
$DWGCODEPAGE
  3
dos932
  9
$INSBASE
 10
0.0
 20
0.0
 30
0.0
  9
$EXTMIN
 10
-138.399994
 20
-94.800003
 30
0.0
  9
$EXTMAX
 10
138.350006
 20
94.5
 30
0.0
  9
$LIMMIN
 10
-138.399994
 20
-94.800003
  9
$LIMMAX
 10
138.350006
 20
94.5
  9
$ORTHOMODE
 70
     0
  9
$REGENMODE
 70
     1
  9
$FILLMODE
 70
     1
  9
$QTEXTMODE
 70
     0
  9
$MIRRTEXT
 70
     1
  9
$DRAGMODE
 70
     2
  9
$LTSCALE
 40
1.0
  9
$OSMODE
 70
     0
  9
$ATTMODE
 70
     1
  9
$TEXTSIZE
 40
3.2
  9
$TRACEWID
 40
0.05
  9
$TEXTSTYLE
  7
MX_NOTE_STANDARD
  9
$CLAYER
  8
0
  9
$CELTYPE
  6
CONTINUOUS
  9
$CECOLOR
 62
   256
  9
$CELTSCALE
 40
1.0
  9
$DELOBJ
 70
     1
  9
$DISPSILH
 70
     0
  9
$DIMSCALE
 40
1.0
  9
$DIMASZ
 40
2.5
  9
$DIMEXO
 40
1.5
  9
$DIMDLI
 40
3.75
  9
$DIMRND
 40
0.0
  9
$DIMDLE
 40
0.0
  9
$DIMEXE
 40
1.5
  9
$DIMTP
 40
0.0
  9
$DIMTM
 40
0.0
  9
$DIMTXT
 40
3.2
  9
$DIMCEN
 40
2.5
  9
$DIMTSZ
 40
0.0
  9
$DIMTOL
 70
     0
  9
$DIMLIM
 70
     0
  9
$DIMTIH
 70
     0
  9
$DIMTOH
 70
     0
  9
$DIMSE1
 70
     0
  9
$DIMSE2
 70
     0
  9
$DIMTAD
 70
     1
  9
$DIMZIN
 70
     8
  9
$DIMBLK
  1

  9
$DIMASO
 70
     1
  9
$DIMSHO
 70
     1
  9
$DIMPOST
  1

  9
$DIMAPOST
  1

  9
$DIMALT
 70
     0
  9
$DIMALTD
 70
     4
  9
$DIMALTF
 40
0.0394
  9
$DIMLFAC
 40
1.0
  9
$DIMTOFL
 70
     1
  9
$DIMTVP
 40
0.0
  9
$DIMTIX
 70
     0
  9
$DIMSOXD
 70
     0
  9
$DIMSAH
 70
     0
  9
$DIMBLK1
  1

  9
$DIMBLK2
  1

  9
$DIMSTYLE
  2
MXDIMSTYLE
  9
$DIMCLRD
 70
     0
  9
$DIMCLRE
 70
     0
  9
$DIMCLRT
 70
     0
  9
$DIMTFAC
 40
1.0
  9
$DIMGAP
 40
1.0
  9
$DIMJUST
 70
     0
  9
$DIMSD1
 70
     0
  9
$DIMSD2
 70
     0
  9
$DIMTOLJ
 70
     1
  9
$DIMTZIN
 70
     0
  9
$DIMALTZ
 70
     0
  9
$DIMALTTZ
 70
     0
  9
$DIMFIT
 70
     3
  9
$DIMUPT
 70
     1
  9
$DIMUNIT
 70
     2
  9
$DIMDEC
 70
     4
  9
$DIMTDEC
 70
     4
  9
$DIMALTU
 70
     8
  9
$DIMALTTD
 70
     4
  9
$DIMTXSTY
  7
MX_NOTE_STANDARD
  9
$DIMAUNIT
 70
     0
  9
$LUNITS
 70
     2
  9
$LUPREC
 70
     4
  9
$SKETCHINC
 40
0.1
  9
$FILLETRAD
 40
0.0
  9
$AUNITS
 70
     0
  9
$AUPREC
 70
     0
  9
$MENU
  1
acad
  9
$ELEVATION
 40
0.0
  9
$PELEVATION
 40
0.0
  9
$THICKNESS
 40
0.0
  9
$LIMCHECK
 70
     0
  9
$BLIPMODE
 70
     1
  9
$CHAMFERA
 40
0.0
  9
$CHAMFERB
 40
0.0
  9
$CHAMFERC
 40
0.0
  9
$CHAMFERD
 40
0.0
  9
$SKPOLY
 70
     0
  9
$TDCREATE
 40
2452209.493298611
  9
$TDUPDATE
 40
2452209.493298611
  9
$TDINDWG
 40
0.0000000000
  9
$TDUSRTIMER
 40
0.0000000000
  9
$USRTIMER
 70
     1
  9
$ANGBASE
 50
0.0
  9
$ANGDIR
 70
     0
  9
$PDMODE
 70
     0
  9
$PDSIZE
 40
0.0
  9
$PLINEWID
 40
0.0
  9
$COORDS
 70
     1
  9
$SPLFRAME
 70
     0
  9
$SPLINETYPE
 70
     6
  9
$SPLINESEGS
 70
     8
  9
$ATTDIA
 70
     0
  9
$ATTREQ
 70
     1
  9
$HANDLING
 70
     1
  9
$HANDSEED
  5
368
  9
$SURFTAB1
 70
     6
  9
$SURFTAB2
 70
     6
  9
$SURFTYPE
 70
     6
  9
$SURFU
 70
     6
  9
$SURFV
 70
     6
  9
$UCSNAME
  2

  9
$UCSORG
 10
0.0
 20
0.0
 30
0.0
  9
$UCSXDIR
 10
1.0
 20
0.0
 30
0.0
  9
$UCSYDIR
 10
0.0
 20
1.0
 30
0.0
  9
$PUCSNAME
  2

  9
$PUCSORG
 10
0.0
 20
0.0
 30
0.0
  9
$PUCSXDIR
 10
1.0
 20
0.0
 30
0.0
  9
$PUCSYDIR
 10
0.0
 20
1.0
 30
0.0
  9
$USERI1
 70
     0
  9
$USERI2
 70
     0
  9
$USERI3
 70
     0
  9
$USERI4
 70
     0
  9
$USERI5
 70
     0
  9
$USERR1
 40
0.0
  9
$USERR2
 40
0.0
  9
$USERR3
 40
0.0
  9
$USERR4
 40
0.0
  9
$USERR5
 40
0.0
  9
$WORLDVIEW
 70
     1
  9
$SHADEDGE
 70
     3
  9
$SHADEDIF
 70
    70
  9
$TILEMODE
 70
     1
  9
$MAXACTVP
 70
    16
  9
$PINSBASE
 10
0.0
 20
0.0
 30
0.0
  9
$PLIMCHECK
 70
     0
  9
$PEXTMIN
 10
1.000000E+20
 20
1.000000E+20
 30
1.000000E+20
  9
$PEXTMAX
 10
-1.000000E+20
 20
-1.000000E+20
 30
-1.000000E+20
  9
$PLIMMIN
 10
0.0
 20
0.0
  9
$PLIMMAX
 10
12.0
 20
9.0
  9
$UNITMODE
 70
     0
  9
$VISRETAIN
 70
     0
  9
$PLINEGEN
 70
     1
  9
$PSLTSCALE
 70
     0
  9
$TREEDEPTH
 70
  3020
  9
$PICKSTYLE
 70
     1
  9
$CMLSTYLE
  2
STANDARD
  9
$CMLJUST
 70
     0
  9
$CMLSCALE
 40
1.0
  9
$SAVEIMAGES
 70
     0
  0
ENDSEC
  0
SECTION
  2
CLASSES
  0
CLASS
  1
LWPOLYLINE
  2
AcDbPolyline
  3
"AutoCAD"
 90
        0
280
     0
281
     1
  0
CLASS
  1
IMAGE
  2
AcDbRasterImage
  3
ISM
 90
      127
280
     0
281
     1
  0
CLASS
  1
OLE2FRAME
  2
AcDbOle2Frame
  3
""
 90
        0
280
     0
281
     1
  0
CLASS
  1
HATCH
  2
AcDbHatch
  3
"ACAD_SEDONA"
 90
        0
280
     0
281
     1
  0
CLASS
  1
DICTIONARYVAR
  2
AcDbDictionaryVar
  3
"AutoCAD"
 90
        0
280
     0
281
     0
  0
CLASS
  1
RASTERVARIABLES
  2
AcDbRasterVariables
  3
ISM
 90
        0
280
     0
281
     0
  0
CLASS
  1
IMAGEDEF
  2
AcDbRasterImageDef
  3
ISM
 90
        0
280
     0
281
     0
  0
CLASS
  1
IMAGEDEF_REACTOR
  2
AcDbRasterImageDefReactor
  3
ISM
 90
        1
280
     0
281
     0
  0
CLASS
  1
IDBUFFER
  2
AcDbIdBuffer
  3
"Acad"
 90
        0
280
     0
281
     0
  0
CLASS
  1
SPATIAL_FILTER
  2
AcDbSpatialFilter
  3
"Acad"
 90
        0
280
     0
281
     0
  0
CLASS
  1
XRECORD
  2
AcDbXrecord
  3
"<Built In>"
 90
        0
280
     0
281
     0
  0
CLASS
  1
SORTENTSTABLE
  2
AcDbSortentsTable
  3
"AutoCAD"
 90
        0
280
     0
281
     0
  0
CLASS
  1
LAYER_INDEX
  2
AcDbLayerIndex
  3
"Acad"
 90
        0
280
     0
281
     0
  0
CLASS
  1
SPATIAL_INDEX
  2
AcDbSpatialIndex
  3
"Acad"
 90
        0
280
     0
281
     0
  0
CLASS
  1
OBJECT_PTR
  2
CAseDLPNTableRecord
  3
"ASE-LPNTableRecord"
 90
        1
280
     0
281
     0
  0
CLASS
  1
LAYOUT
  2
AcDbLayout
  3
"AutoCAD 2000"
 90
        1
280
     0
281
     0
  0
CLASS
  1
PLOTSETTINGS
  2
AcDbPlotSettings
  3
"AutoCAD 2000"
 90
        1
280
     0
281
     0
  0
CLASS
  1
ACDBDICTIONARYWDFLT
  2
AcDbDictionaryWithDefault
  3
"AutoCAD 2000"
 90
        1
280
     0
281
     0
  0
CLASS
  1
ACDBPLACEHOLDER
  2
AcDbPlaceHolder
  3
"AutoCAD 2000"
 90
        1
280
     0
281
     0
  0
CLASS
  1
VBA_PROJECT
  2
AcDbVbaProject
  3
"acadvba"
 90
        1
280
     0
281
     0
  0
CLASS
  1
WIPEOUT
  2
AcDbWipeout
  3
WipeOut|AutoCAD Express Tool|expresstools@autodesk.com
 90
      127
280
     0
281
     1
  0
CLASS
  1
WIPEOUTVARIABLES
  2
AcDbWipeoutVariables
  3
WipeOut|AutoCAD Express Tool|expresstools@autodesk.com
 90
        0
280
     0
281
     0
  0
CLASS
  1
RTEXT
  2
RText
  3
RText|AutoCAD Express Tool|expresstools@autodesk.com
 90
        0
280
     0
281
     1
  0
CLASS
  1
ARCALIGNEDTEXT
  2
AcDbArcAlignedText
  3
ATEXT|AutoCAD Express Tool|expresstools@autodesk.com
 90
        0
280
     0
281
     1
  0
ENDSEC
  0
SECTION
  2
TABLES
  0
TABLE
  2
VPORT
  5
7
100
AcDbSymbolTable
 70
     2
  0
VPORT
  5
367
100
AcDbSymbolTableRecord
100
AcDbViewportTableRecord
  2
*ACTIVE
 70
     0
 10
0.0
 20
0.0
 11
1.0
 21
1.0
 12
29.718553
 22
-0.150002
 13
0.0
 23
0.0
 14
1.0
 24
1.0
 15
0.0
 25
0.0
 16
0.0
 26
0.0
 36
1.0
 17
0.0
 27
0.0
 37
0.0
 40
189.300003
 41
1.776213
 42
50.0
 43
0.0
 44
0.0
 50
0.0
 51
0.0
 71
     0
 72
   100
 73
     1
 74
     1
 75
     0
 76
     0
 77
     0
 78
     0
  0
ENDTAB
  0
TABLE
  2
LTYPE
  5
4
100
AcDbSymbolTable
 70
     4
  0
LTYPE
  5
11
100
AcDbSymbolTableRecord
100
AcDbLinetypeTableRecord
  2
BYBLOCK
 70
    64
  3

 72
    65
 73
     0
 40
0.0
  0
LTYPE
  5
12
100
AcDbSymbolTableRecord
100
AcDbLinetypeTableRecord
  2
BYLAYER
 70
    64
  3

 72
    65
 73
     0
 40
0.0
  0
LTYPE
  5
13
100
AcDbSymbolTableRecord
100
AcDbLinetypeTableRecord
  2
CONTINUOUS
 70
    64
  3
Solid line
 72
    65
 73
     0
 40
0.0
  0
LTYPE
  5
27
100
AcDbSymbolTableRecord
100
AcDbLinetypeTableRecord
  2
PHANTOM
 70
    64
  3
Phantom ______  __  __  ______  __  __  ______
 72
    65
 73
     6
 40
63.5
 49
31.75
 74
     0
 49
-6.35
 74
     0
 49
6.35
 74
     0
 49
-6.35
 74
     0
 49
6.35
 74
     0
 49
-6.35
 74
     0
  0
LTYPE
  5
41
100
AcDbSymbolTableRecord
100
AcDbLinetypeTableRecord
  2
CENTER
 70
    64
  3
Center ____ _ ____ _ ____ _ ____ _ ____ _ ____
 72
    65
 73
     4
 40
50.8
 49
31.75
 74
     0
 49
-6.35
 74
     0
 49
6.35
 74
     0
 49
-6.35
 74
     0
  0
LTYPE
  5
F9
100
AcDbSymbolTableRecord
100
AcDbLinetypeTableRecord
  2
DASHED
 70
    64
  3
Dashed __ __ __ __ __ __ __ __ __ __ __ __ __ _
 72
    65
 73
     2
 40
19.05
 49
12.7
 74
     0
 49
-6.35
 74
     0
  0
ENDTAB
  0
TABLE
  2
LAYER
  5
2
100
AcDbSymbolTable
 70
     2
  0
LAYER
  5
14
100
AcDbSymbolTableRecord
100
AcDbLayerTableRecord
  2
0
 70
     0
 62
     7
  6
CONTINUOUS
  0
LAYER
  5
1D
100
AcDbSymbolTableRecord
100
AcDbLayerTableRecord
  2
DEFPOINTS
 70
     0
 62
     7
  6
CONTINUOUS
  0
ENDTAB
  0
TABLE
  2
STYLE
  5
3
100
AcDbSymbolTable
 70
     2
  0
STYLE
  5
17
100
AcDbSymbolTableRecord
100
AcDbTextStyleTableRecord
  2
MX_NOTE_STANDARD
 70
     0
 40
3.2
 41
1.0
 50
0.0
 71
     0
 42
3.2
  3
txt.shx
  4
extfont.shx
  0
STYLE
  5
364
100
AcDbSymbolTableRecord
100
AcDbTextStyleTableRecord
  2
STANDARD
 70
     0
 40
0.0
 41
1.0
 50
0.0
 71
     0
 42
0.0
  3

  4

  0
ENDTAB
  0
TABLE
  2
VIEW
  5
5
100
AcDbSymbolTable
 70
     0
  0
ENDTAB
  0
TABLE
  2
UCS
  5
6
100
AcDbSymbolTable
 70
     0
  0
ENDTAB
  0
TABLE
  2
APPID
  5
8
100
AcDbSymbolTable
 70
     1
  0
APPID
  5
16
100
AcDbSymbolTableRecord
100
AcDbRegAppTableRecord
  2
ACAD
 70
     0
  0
ENDTAB
  0
TABLE
  2
DIMSTYLE
  5
9
100
AcDbSymbolTable
 70
     1
  0
DIMSTYLE
105
18
100
AcDbSymbolTableRecord
100
AcDbDimStyleTableRecord
  2
MXDIMSTYLE
 70
     0
  3

  4

  5

  6

  7

 40
1.0
 41
2.5
 42
1.5
 43
3.75
 44
1.5
 45
0.0
 46
0.0
 47
0.0
 48
0.0
140
3.2
141
2.5
142
0.0
143
0.0394
144
1.0
145
0.0
146
1.0
147
1.0
 71
     0
 72
     0
 73
     0
 74
     0
 75
     0
 76
     0
 77
     1
 78
     8
170
     0
171
     4
172
     1
173
     0
174
     0
175
     0
176
     0
177
     0
178
     0
270
     2
271
     4
272
     4
273
     8
274
     4
340
17
275
     0
280
     0
281
     0
282
     0
283
     1
284
     0
285
     0
286
     0
287
     3
288
     1
  0
ENDTAB
  0
TABLE
  2
BLOCK_RECORD
  5
1
100
AcDbSymbolTable
 70
    15
  0
BLOCK_RECORD
  5
A
100
AcDbSymbolTableRecord
100
AcDbBlockTableRecord
  2
*MODEL_SPACE
  0
BLOCK_RECORD
  5
B
100
AcDbSymbolTableRecord
100
AcDbBlockTableRecord
  2
*PAPER_SPACE
  0
BLOCK_RECORD
  5
1E
100
AcDbSymbolTableRecord
100
AcDbBlockTableRecord
  2
MS_1
  0
BLOCK_RECORD
  5
1F
100
AcDbSymbolTableRecord
100
AcDbBlockTableRecord
  2
MS_2
  0
BLOCK_RECORD
  5
20
100
AcDbSymbolTableRecord
100
AcDbBlockTableRecord
  2
MS_3
  0
BLOCK_RECORD
  5
21
100
AcDbSymbolTableRecord
100
AcDbBlockTableRecord
  2
MS_4
  0
BLOCK_RECORD
  5
22
100
AcDbSymbolTableRecord
100
AcDbBlockTableRecord
  2
MS_5
  0
BLOCK_RECORD
  5
23
100
AcDbSymbolTableRecord
100
AcDbBlockTableRecord
  2
MS_6
  0
BLOCK_RECORD
  5
24
100
AcDbSymbolTableRecord
100
AcDbBlockTableRecord
  2
MS_7
  0
BLOCK_RECORD
  5
25
100
AcDbSymbolTableRecord
100
AcDbBlockTableRecord
  2
MS_8
  0
BLOCK_RECORD
  5
8F
100
AcDbSymbolTableRecord
100
AcDbBlockTableRecord
  2
*X8
  0
BLOCK_RECORD
  5
129
100
AcDbSymbolTableRecord
100
AcDbBlockTableRecord
  2
*X9
  0
BLOCK_RECORD
  5
179
100
AcDbSymbolTableRecord
100
AcDbBlockTableRecord
  2
*X10
  0
BLOCK_RECORD
  5
1B5
100
AcDbSymbolTableRecord
100
AcDbBlockTableRecord
  2
*X11
  0
BLOCK_RECORD
  5
272
100
AcDbSymbolTableRecord
100
AcDbBlockTableRecord
  2
*X12
  0
BLOCK_RECORD
  5
2E5
100
AcDbSymbolTableRecord
100
AcDbBlockTableRecord
  2
*X13
  0
BLOCK_RECORD
  5
322
100
AcDbSymbolTableRecord
100
AcDbBlockTableRecord
  2
_OPEN30
  0
ENDTAB
  0
ENDSEC
  0
SECTION
  2
BLOCKS
  0
BLOCK
  5
D
100
AcDbEntity
  8
0
100
AcDbBlockBegin
  2
*MODEL_SPACE
 70
     0
 10
0.0
 20
0.0
 30
0.0
  3
*MODEL_SPACE
  1

  0
ENDBLK
  5
E
100
AcDbEntity
  8
0
100
AcDbBlockEnd
  0
BLOCK
  5
F
100
AcDbEntity
 67
     1
  8
0
100
AcDbBlockBegin
  2
*PAPER_SPACE
 70
     0
 10
0.0
 20
0.0
 30
0.0
  3
*PAPER_SPACE
  1

  0
ENDBLK
  5
10
100
AcDbEntity
 67
     1
  8
0
100
AcDbBlockEnd
  0
BLOCK
  5
26
100
AcDbEntity
  8
0
100
AcDbBlockBegin
  2
MS_1
 70
     0
 10
0.0
 20
0.0
 30
0.0
  3
MS_1
  1

  0
LINE
  5
28
100
AcDbEntity
  8
0
  6
PHANTOM
 62
     3
100
AcDbLine
 10
24.864881
 20
3.061022
 30
0.0
 11
14.812124
 21
3.061022
 31
0.0
  0
LINE
  5
29
100
AcDbEntity
  8
0
  6
PHANTOM
 62
     3
100
AcDbLine
 10
24.864881
 20
30.0
 30
0.0
 11
24.864881
 21
3.061022
 31
0.0
  0
LINE
  5
2A
100
AcDbEntity
  8
0
  6
PHANTOM
 62
     3
100
AcDbLine
 10
14.812124
 20
3.061022
 30
0.0
 11
14.812124
 21
-30.0
 31
0.0
  0
LINE
  5
2B
100
AcDbEntity
  8
0
  6
CONTINUOUS
 62
     4
100
AcDbLine
 10
33.0
 20
-7.819491
 30
0.0
 11
42.638269
 21
-7.819491
 31
0.0
  0
LINE
  5
2C
100
AcDbEntity
  8
0
  6
CONTINUOUS
 62
     4
100
AcDbLine
 10
33.0
 20
-5.119491
 30
0.0
 11
43.361731
 21
-5.119491
 31
0.0
  0
LINE
  5
2D
100
AcDbEntity
  8
0
  6
CONTINUOUS
 62
     4
100
AcDbLine
 10
31.5
 20
5.119491
 30
0.0
 11
42.638269
 21
5.119491
 31
0.0
  0
LINE
  5
2E
100
AcDbEntity
  8
0
  6
CONTINUOUS
 62
     4
100
AcDbLine
 10
22.5
 20
7.819491
 30
0.0
 11
43.361731
 21
7.819491
 31
0.0
  0
LINE
  5
2F
100
AcDbEntity
  8
0
  6
CONTINUOUS
 62
     4
100
AcDbLine
 10
7.0
 20
9.085786
 30
0.0
 11
7.0
 21
6.17335
 31
0.0
  0
LINE
  5
30
100
AcDbEntity
  8
0
  6
CONTINUOUS
 62
     4
100
AcDbLine
 10
22.5
 20
9.085786
 30
0.0
 11
22.5
 21
6.769689
 31
0.0
  0
LINE
  5
31
100
AcDbEntity
  8
0
  6
CONTINUOUS
 62
     4
100
AcDbLine
 10
33.0
 20
-4.086649
 30
0.0
 11
33.0
 21
-9.085786
 31
0.0
  0
LINE
  5
32
100
AcDbEntity
  8
0
  6
CONTINUOUS
 62
     4
100
AcDbLine
 10
17.5
 20
-6.893755
 30
0.0
 11
17.5
 21
-9.085786
 31
0.0
  0
LINE
  5
33
100
AcDbEntity
  8
0
  6
CONTINUOUS
 62
     4
100
AcDbLine
 10
31.5
 20
-4.086649
 30
0.0
 11
33.0
 21
-4.086649
 31
0.0
  0
LINE
  5
34
100
AcDbEntity
  8
0
  6
CONTINUOUS
 62
     4
100
AcDbLine
 10
31.5
 20
-5.833095
 30
0.0
 11
33.0
 21
-5.833095
 31
0.0
  0
ELLIPSE
  5
35
100
AcDbEntity
  8
0
  6
CONTINUOUS
 62
     4
100
AcDbEllipse
 10
9.0
 20
8.025126
 30
0.0
 11
-1.250000002649999
 21
0.0000000000000002
 31
0.0
210
0.0
220
0.0
230
1.0
 40
0.707107
 41
-0.0000000000000018
 42
6.283185307179598
  0
LINE
  5
36
100
AcDbEntity
  8
0
  6
CONTINUOUS
 62
     4
100
AcDbLine
 10
9.25
 20
8.891152
 30
0.0
 11
9.25
 21
7.159101
 31
0.0
  0
LINE
  5
37
100
AcDbEntity
  8
0
  6
CONTINUOUS
 62
     4
100
AcDbLine
 10
8.75
 20
8.891152
 30
0.0
 11
8.75
 21
7.159101
 31
0.0
  0
ELLIPSE
  5
38
100
AcDbEntity
  8
0
  6
CONTINUOUS
 62
     4
100
AcDbEllipse
 10
19.5
 20
-8.025126
 30
0.0
 11
-1.250000002649999
 21
0.0000000000000002
 31
0.0
210
0.0
220
0.0
230
1.0
 40
0.707107
 41
-0.0000000000000018
 42
6.283185307179598
  0
LINE
  5
39
100
AcDbEntity
  8
0
  6
CONTINUOUS
 62
     4
100
AcDbLine
 10
19.75
 20
-8.891152
 30
0.0
 11
19.75
 21
-7.159101
 31
0.0
  0
LINE
  5
3A
100
AcDbEntity
  8
0
  6
CONTINUOUS
 62
     4
100
AcDbLine
 10
19.25
 20
-8.891152
 30
0.0
 11
19.25
 21
-7.159101
 31
0.0
  0
LINE
  5
3B
100
AcDbEntity
  8
0
  6
CONTINUOUS
 62
   200
100
AcDbLine
 10
42.304333
 20
3.873226
 30
0.0
 11
43.713302
 21
9.13157
 31
0.0
  0
LINE
  5
3C
100
AcDbEntity
  8
0
  6
CONTINUOUS
 62
   200
100
AcDbLine
 10
42.304333
 20
-9.065757
 30
0.0
 11
43.713302
 21
-3.807413
 31
0.0
  0
LINE
  5
3D
100
AcDbEntity
  8
0
  6
CONTINUOUS
 62
     4
100
AcDbLine
 10
7.0
 20
9.085786
 30
0.0
 11
22.5
 21
9.085786
 31
0.0
  0
LINE
  5
3E
100
AcDbEntity
  8
0
  6
CONTINUOUS
 62
     4
100
AcDbLine
 10
7.0
 20
6.964466
 30
0.0
 11
22.5
 21
6.964466
 31
0.0
  0
LINE
  5
3F
100
AcDbEntity
  8
0
  6
CONTINUOUS
 62
     4
100
AcDbLine
 10
17.5
 20
-9.085786
 30
0.0
 11
33.0
 21
-9.085786
 31
0.0
  0
LINE
  5
40
100
AcDbEntity
  8
0
  6
CONTINUOUS
 62
     4
100
AcDbLine
 10
17.5
 20
-6.964466
 30
0.0
 11
33.0
 21
-6.964466
 31
0.0
  0
LINE
  5
42
100
AcDbEntity
  8
0
  6
CENTER
 62
     2
100
AcDbLine
 10
-9.222819
 20
0.0
 30
0.0
 11
32.640571
 21
0.0
 31
0.0
  0
LINE
  5
43
100
AcDbEntity
  8
0
  6
CONTINUOUS
 62
     7
100
AcDbLine
 10
0.0
 20
10.5
 30
0.0
 11
31.5
 21
10.5
 31
0.0
  0
LINE
  5
44
100
AcDbEntity
  8
0
  6
CONTINUOUS
 62
     7
100
AcDbLine
 10
0.0
 20
10.5
 30
0.0
 11
0.0
 21
-10.5
 31
0.0
  0
LINE
  5
45
100
AcDbEntity
  8
0
  6
CONTINUOUS
 62
     7
100
AcDbLine
 10
31.5
 20
10.5
 30
0.0
 11
31.5
 21
7.819491
 31
0.0
  0
LINE
  5
46
100
AcDbEntity
  8
0
  6
CENTER
 62
     2
100
AcDbLine
 10
1.6
 20
7.5
 30
0.0
 11
8.4
 21
7.5
 31
0.0
  0
LINE
  5
47
100
AcDbEntity
  8
0
  6
CENTER
 62
     2
100
AcDbLine
 10
5.0
 20
10.9
 30
0.0
 11
5.0
 21
4.1
 31
0.0
  0
CIRCLE
  5
48
100
AcDbEntity
  8
0
  6
CONTINUOUS
 62
     7
100
AcDbCircle
 10
5.0
 20
7.5
 30
0.0
 40
1.35
  0
ARC
  5
49
100
AcDbEntity
  8
0
  6
CONTINUOUS
 62
     7
100
AcDbCircle
 10
5.0
 20
7.5
 30
0.0
 40
2.4
100
AcDbArc
 50
33.55731
 51
342.284168
  0
LINE
  5
4A
100
AcDbEntity
  8
0
  6
CONTINUOUS
 62
     7
100
AcDbLine
 10
-8.0
 20
-1.2
 30
0.0
 11
-8.0
 21
1.2
 31
0.0
  0
LINE
  5
4B
100
AcDbEntity
  8
0
  6
CONTINUOUS
 62
     7
100
AcDbLine
 10
-1.0
 20
-1.5
 30
0.0
 11
-1.0
 21
1.5
 31
0.0
  0
LINE
  5
4C
100
AcDbEntity
  8
0
  6
CONTINUOUS
 62
     7
100
AcDbLine
 10
-7.7
 20
-1.5
 30
0.0
 11
-7.7
 21
1.5
 31
0.0
  0
LINE
  5
4D
100
AcDbEntity
  8
0
  6
CONTINUOUS
 62
     2
100
AcDbLine
 10
-1.0
 20
1.2
 30
0.0
 11
-0.480385
 21
1.5
 31
0.0
  0
LINE
  5
4E
100
AcDbEntity
  8
0
  6
CONTINUOUS
 62
     7
100
AcDbLine
 10
-7.7
 20
1.5
 30
0.0
 11
-8.0
 21
1.2
 31
0.0
  0
LINE
  5
4F
100
AcDbEntity
  8
0
  6
CONTINUOUS
 62
     2
100
AcDbLine
 10
-8.0
 20
1.2
 30
0.0
 11
-5.6
 21
1.2
 31
0.0
  0
LINE
  5
50
100
AcDbEntity
  8
0
  6
CONTINUOUS
 62
     7
100
AcDbLine
 10
-7.7
 20
-1.5
 30
0.0
 11
-8.0
 21
-1.2
 31
0.0
  0
LINE
  5
51
100
AcDbEntity
  8
0
  6
CONTINUOUS
 62
     2
100
AcDbLine
 10
-8.0
 20
-1.2
 30
0.0
 11
-5.6
 21
-1.2
 31
0.0
  0
LINE
  5
52
100
AcDbEntity
  8
0
  6
CONTINUOUS
 62
     2
100
AcDbLine
 10
-1.0
 20
-1.2
 30
0.0
 11
-0.480385
 21
-1.5
 31
0.0
  0
LINE
  5
53
100
AcDbEntity
  8
0
  6
CONTINUOUS
 62
     7
100
AcDbLine
 10
0.0
 20
-10.5
 30
0.0
 11
31.5
 21
-10.5
 31
0.0
  0
LINE
  5
54
100
AcDbEntity
  8
0
  6
CENTER
 62
     2
100
AcDbLine
 10
5.0
 20
-10.9
 30
0.0
 11
5.0
 21
-4.1
 31
0.0
  0
CIRCLE
  5
55
100
AcDbEntity
  8
0
  6
CONTINUOUS
 62
     7
100
AcDbCircle
 10
5.0
 20
-7.5
 30
0.0
 40
2.4
  0
CIRCLE
  5
56
100
AcDbEntity
  8
0
  6
CONTINUOUS
 62
     7
100
AcDbCircle
 10
5.0
 20
-7.5
 30
0.0
 40
1.35
  0
LINE
  5
57
100
AcDbEntity
  8
0
  6
CENTER
 62
     2
100
AcDbLine
 10
1.6
 20
-7.5
 30
0.0
 11
8.4
 21
-7.5
 31
0.0
  0
LINE
  5
58
100
AcDbEntity
  8
0
  6
CONTINUOUS
 62
     7
100
AcDbLine
 10
-7.7
 20
1.5
 30
0.0
 11
-5.6
 21
1.5
 31
0.0
  0
LINE
  5
59
100
AcDbEntity
  8
0
  6
CONTINUOUS
 62
     7
100
AcDbLine
 10
-7.7
 20
-1.5
 30
0.0
 11
-5.6
 21
-1.5
 31
0.0
  0
LINE
  5
5A
100
AcDbEntity
  8
0
  6
CONTINUOUS
 62
     7
100
AcDbLine
 10
0.0
 20
8.802944
 30
0.0
 11
2.984476
 21
8.802944
 31
0.0
  0
LINE
  5
5B
100
AcDbEntity
  8
0
  6
CONTINUOUS
 62
     7
100
AcDbLine
 10
0.0
 20
6.769689
 30
0.0
 11
2.713814
 21
6.769689
 31
0.0
  0
LINE
  5
5C
100
AcDbEntity
  8
0
  6
CONTINUOUS
 62
     7
100
AcDbLine
 10
0.0
 20
5.5
 30
0.0
 11
3.67335
 21
5.5
 31
0.0
  0
LINE
  5
5D
100
AcDbEntity
  8
0
  6
CONTINUOUS
 62
     7
100
AcDbLine
 10
22.5
 20
8.802944
 30
0.0
 11
31.5
 21
8.802944
 31
0.0
  0
LINE
  5
5E
100
AcDbEntity
  8
0
  6
CONTINUOUS
 62
     7
100
AcDbLine
 10
7.286186
 20
6.769689
 30
0.0
 11
31.5
 21
6.769689
 31
0.0
  0
LINE
  5
5F
100
AcDbEntity
  8
0
  6
CONTINUOUS
 62
     7
100
AcDbLine
 10
6.32665
 20
5.5
 30
0.0
 11
31.5
 21
5.5
 31
0.0
  0
LINE
  5
60
100
AcDbEntity
  8
0
  6
CONTINUOUS
 62
     7
100
AcDbLine
 10
7.015524
 20
-8.802944
 30
0.0
 11
17.5
 21
-8.802944
 31
0.0
  0
LINE
  5
61
100
AcDbEntity
  8
0
  6
CONTINUOUS
 62
     7
100
AcDbLine
 10
7.286186
 20
-6.769689
 30
0.0
 11
31.5
 21
-6.769689
 31
0.0
  0
LINE
  5
62
100
AcDbEntity
  8
0
  6
CONTINUOUS
 62
     7
100
AcDbLine
 10
6.32665
 20
-5.5
 30
0.0
 11
31.5
 21
-5.5
 31
0.0
  0
LINE
  5
63
100
AcDbEntity
  8
0
  6
CONTINUOUS
 62
     7
100
AcDbLine
 10
0.0
 20
-8.802944
 30
0.0
 11
2.984476
 21
-8.802944
 31
0.0
  0
LINE
  5
64
100
AcDbEntity
  8
0
  6
CONTINUOUS
 62
     7
100
AcDbLine
 10
0.0
 20
-6.769689
 30
0.0
 11
2.713814
 21
-6.769689
 31
0.0
  0
LINE
  5
65
100
AcDbEntity
  8
0
  6
CONTINUOUS
 62
     7
100
AcDbLine
 10
0.0
 20
-5.5
 30
0.0
 11
3.67335
 21
-5.5
 31
0.0
  0
LINE
  5
66
100
AcDbEntity
  8
0
  6
CENTER
 62
     2
100
AcDbLine
 10
10.0
 20
1.954778
 30
0.0
 11
10.0
 21
-1.945826
 31
0.0
  0
CIRCLE
  5
67
100
AcDbEntity
  8
0
  6
CONTINUOUS
 62
     2
100
AcDbCircle
 10
10.0
 20
0.0
 30
0.0
 40
1.5
  0
CIRCLE
  5
68
100
AcDbEntity
  8
0
  6
CONTINUOUS
 62
     7
100
AcDbCircle
 10
10.0
 20
0.0
 30
0.0
 40
1.2
  0
LINE
  5
69
100
AcDbEntity
  8
0
  6
CENTER
 62
     2
100
AcDbLine
 10
28.5
 20
1.954778
 30
0.0
 11
28.5
 21
-1.976096
 31
0.0
  0
CIRCLE
  5
6A
100
AcDbEntity
  8
0
  6
CONTINUOUS
 62
     2
100
AcDbCircle
 10
28.5
 20
0.0
 30
0.0
 40
1.5
  0
CIRCLE
  5
6B
100
AcDbEntity
  8
0
  6
CONTINUOUS
 62
     7
100
AcDbCircle
 10
28.5
 20
0.0
 30
0.0
 40
1.2
  0
LINE
  5
6C
100
AcDbEntity
  8
0
  6
CONTINUOUS
 62
     2
100
AcDbLine
 10
-2.0
 20
1.2
 30
0.0
 11
-1.0
 21
1.2
 31
0.0
  0
LINE
  5
6D
100
AcDbEntity
  8
0
  6
CONTINUOUS
 62
     7
100
AcDbLine
 10
-2.0
 20
1.5
 30
0.0
 11
0.0
 21
1.5
 31
0.0
  0
LINE
  5
6E
100
AcDbEntity
  8
0
  6
CONTINUOUS
 62
     2
100
AcDbLine
 10
-2.0
 20
-1.2
 30
0.0
 11
-1.0
 21
-1.2
 31
0.0
  0
LINE
  5
6F
100
AcDbEntity
  8
0
  6
CONTINUOUS
 62
     7
100
AcDbLine
 10
-2.0
 20
-1.5
 30
0.0
 11
0.0
 21
-1.5
 31
0.0
  0
SPLINE
  5
70
100
AcDbEntity
  8
0
  6
CONTINUOUS
 62
     7
100
AcDbSpline
210
0.0
220
0.0
230
-1.0
 70
     8
 71
     3
 72
    11
 73
     7
 74
     5
 42
0.0000001
 43
0.0000001
 44
0.000001
 12
-0.5262037598477772
 22
0.8503585144643775
 32
0.0
 13
0.5262037751704171
 23
0.8503585049826932
 33
0.0
 40
0.0
 40
0.0
 40
0.0
 40
0.0
 40
0.4199190360514369
 40
0.8387827523114896
 40
1.257646392588131
 40
1.677565351539459
 40
1.677565351539459
 40
1.677565351539459
 40
1.677565351539459
 10
-5.354379881916926
 20
-3.175426523880929
 30
0.0
 10
-5.428034207117566
 20
-3.056399281316925
 30
0.0
 10
-5.549463462412203
 20
-2.801468334416915
 30
0.0
 10
-5.625236484014743
 20
-2.381569901485894
 30
0.0
 10
-5.549463435826266
 20
-1.961671502534928
 30
0.0
 10
-5.428034193649217
 20
-1.706740607354795
 30
0.0
 10
-5.354379879827277
 20
-1.587713387972215
 30
0.0
 11
-5.354379881916926
 21
-3.175426523880929
 31
0.0
 11
-5.531848436729169
 21
-2.794852077955796
 31
0.0
 11
-5.599999999999993
 21
-2.3815698774887
 31
0.0
 11
-5.531848416228579
 21
-1.968287757411811
 31
0.0
 11
-5.354379879827277
 21
-1.587713387972215
 31
0.0
  0
SPLINE
  5
71
100
AcDbEntity
  8
0
  6
CONTINUOUS
 62
     7
100
AcDbSpline
210
0.0
220
0.0
230
1.0
 70
     8
 71
     3
 72
    11
 73
     7
 74
     5
 42
0.0000001
 43
0.0000001
 44
0.000001
 12
0.526203759847777
 22
0.8503585144643775
 32
0.0
 13
-0.526203775170417
 23
0.8503585049826934
 33
0.0
 40
0.0
 40
0.0
 40
0.0
 40
0.0
 40
0.4199190360514369
 40
0.8387827523114898
 40
1.257646392588131
 40
1.677565351539459
 40
1.677565351539459
 40
1.677565351539459
 40
1.677565351539459
 10
-2.245620118083067
 20
-3.175426523880929
 30
0.0
 10
-2.171965792882427
 20
-3.056399281316925
 30
0.0
 10
-2.050536537587791
 20
-2.801468334416916
 30
0.0
 10
-1.974763515985249
 20
-2.381569901485893
 30
0.0
 10
-2.050536564173728
 20
-1.961671502534929
 30
0.0
 10
-2.171965806350776
 20
-1.706740607354795
 30
0.0
 10
-2.245620120172716
 20
-1.587713387972215
 30
0.0
 11
-2.245620118083067
 21
-3.175426523880929
 31
0.0
 11
-2.068151563270824
 21
-2.794852077955796
 31
0.0
 11
-2.0
 21
-2.3815698774887
 31
0.0
 11
-2.068151583771415
 21
-1.968287757411811
 31
0.0
 11
-2.245620120172716
 21
-1.587713387972215
 31
0.0
  0
SPLINE
  5
72
100
AcDbEntity
  8
0
  6
CONTINUOUS
 62
     7
100
AcDbSpline
210
0.0
220
0.0
230
-1.0
 70
     8
 71
     3
 72
    11
 73
     7
 74
     5
 42
0.0000001
 43
0.0000001
 44
0.000001
 12
-0.5262037598477772
 22
0.8503585144643775
 32
0.0
 13
0.5262037751704171
 23
0.8503585049826932
 33
0.0
 40
0.0
 40
0.0
 40
0.0
 40
0.0
 40
0.4199190360514369
 40
0.8387827523114896
 40
1.257646392588131
 40
1.677565351539459
 40
1.677565351539459
 40
1.677565351539459
 40
1.677565351539459
 10
-3.554379881916929
 20
-3.175426523880929
 30
0.0
 10
-3.628034207117569
 20
-3.056399281316925
 30
0.0
 10
-3.749463462412205
 20
-2.801468334416916
 30
0.0
 10
-3.825236484014745
 20
-2.381569901485893
 30
0.0
 10
-3.74946343582627
 20
-1.961671502534928
 30
0.0
 10
-3.62803419364922
 20
-1.706740607354795
 30
0.0
 10
-3.55437987982728
 20
-1.587713387972215
 30
0.0
 11
-3.554379881916929
 21
-3.175426523880929
 31
0.0
 11
-3.731848436729172
 21
-2.794852077955796
 31
0.0
 11
-3.799999999999996
 21
-2.3815698774887
 31
0.0
 11
-3.731848416228582
 21
-1.968287757411811
 31
0.0
 11
-3.55437987982728
 21
-1.587713387972215
 31
0.0
  0
SPLINE
  5
73
100
AcDbEntity
  8
0
  6
CONTINUOUS
 62
     7
100
AcDbSpline
210
0.0
220
0.0
230
1.0
 70
     8
 71
     3
 72
    11
 73
     7
 74
     5
 42
0.0000001
 43
0.0000001
 44
0.000001
 12
0.526203759847777
 22
0.8503585144643775
 32
0.0
 13
-0.526203775170417
 23
0.8503585049826934
 33
0.0
 40
0.0
 40
0.0
 40
0.0
 40
0.0
 40
0.4199190360514368
 40
0.8387827523114898
 40
1.257646392588131
 40
1.677565351539459
 40
1.677565351539459
 40
1.677565351539459
 40
1.677565351539459
 10
-4.045620118083064
 20
-3.175426523880929
 30
0.0
 10
-3.971965792882424
 20
-3.056399281316925
 30
0.0
 10
-3.850536537587789
 20
-2.801468334416916
 30
0.0
 10
-3.774763515985246
 20
-2.381569901485894
 30
0.0
 10
-3.850536564173724
 20
-1.961671502534928
 30
0.0
 10
-3.971965806350774
 20
-1.706740607354795
 30
0.0
 10
-4.045620120172713
 20
-1.587713387972215
 30
0.0
 11
-4.045620118083064
 21
-3.175426523880929
 31
0.0
 11
-3.868151563270822
 21
-2.794852077955796
 31
0.0
 11
-3.799999999999996
 21
-2.3815698774887
 31
0.0
 11
-3.868151583771412
 21
-1.968287757411811
 31
0.0
 11
-4.045620120172713
 21
-1.587713387972215
 31
0.0
  0
SPLINE
  5
74
100
AcDbEntity
  8
0
  6
CONTINUOUS
 62
     7
100
AcDbSpline
210
0.0
220
0.0
230
-1.0
 70
     8
 71
     3
 72
    11
 73
     7
 74
     5
 42
0.0000001
 43
0.0000001
 44
0.000001
 12
-0.2955767328958228
 22
-0.955319001679874
 32
0.0
 13
0.2955767328958229
 23
-0.955319001679874
 33
0.0
 40
0.0
 40
0.0
 40
0.0
 40
0.0
 40
0.8048260150852982
 40
1.611101640492014
 40
2.417377265898731
 40
3.222203280984029
 40
3.222203280984029
 40
3.222203280984029
 40
3.222203280984029
 10
-5.354379879827277
 20
1.587713387972215
 30
0.0
 10
-5.433675827856769
 20
1.331424859553122
 30
0.0
 10
-5.556410033283398
 20
0.806400998682297
 30
0.0
 10
-5.621814593687046
 20
0.0
 30
0.0
 10
-5.556410033283401
 20
-0.8064009986822972
 30
0.0
 10
-5.433675827856769
 20
-1.331424859553122
 30
0.0
 10
-5.354379879827277
 20
-1.587713387972215
 30
0.0
 11
-5.354379879827277
 21
1.587713387972215
 31
0.0
 11
-5.53654913138466
 21
0.803775075127956
 31
0.0
 11
-5.599999999999993
 21
0.0
 31
0.0
 11
-5.53654913138466
 21
-0.803775075127956
 31
0.0
 11
-5.354379879827277
 21
-1.587713387972215
 31
0.0
  0
SPLINE
  5
75
100
AcDbEntity
  8
0
  6
CONTINUOUS
 62
     7
100
AcDbSpline
210
0.0
220
0.0
230
1.0
 70
     8
 71
     3
 72
    11
 73
     7
 74
     5
 42
0.0000001
 43
0.0000001
 44
0.000001
 12
0.2955767328958229
 22
-0.955319001679874
 32
0.0
 13
-0.2955767328958228
 23
-0.955319001679874
 33
0.0
 40
0.0
 40
0.0
 40
0.0
 40
0.0
 40
0.8048260150852984
 40
1.611101640492014
 40
2.417377265898731
 40
3.222203280984029
 40
3.222203280984029
 40
3.222203280984029
 40
3.222203280984029
 10
-2.245620120172716
 20
1.587713387972215
 30
0.0
 10
-2.166324172143224
 20
1.331424859553122
 30
0.0
 10
-2.043589966716592
 20
0.8064009986822973
 30
0.0
 10
-1.978185406312946
 20
-0.0000000000000001
 30
0.0
 10
-2.043589966716591
 20
-0.806400998682297
 30
0.0
 10
-2.166324172143224
 20
-1.331424859553122
 30
0.0
 10
-2.245620120172716
 20
-1.587713387972215
 30
0.0
 11
-2.245620120172716
 21
1.587713387972215
 31
0.0
 11
-2.063450868615333
 21
0.803775075127956
 31
0.0
 11
-2.0
 21
0.0
 31
0.0
 11
-2.063450868615333
 21
-0.803775075127956
 31
0.0
 11
-2.245620120172716
 21
-1.587713387972215
 31
0.0
  0
SPLINE
  5
76
100
AcDbEntity
  8
0
  6
CONTINUOUS
 62
     7
100
AcDbSpline
210
0.0
220
0.0
230
1.0
 70
     8
 71
     3
 72
    11
 73
     7
 74
     5
 42
0.0000001
 43
0.0000001
 44
0.000001
 12
0.2955767328958229
 22
-0.955319001679874
 32
0.0
 13
-0.2955767328958228
 23
-0.955319001679874
 33
0.0
 40
0.0
 40
0.0
 40
0.0
 40
0.0
 40
0.8048260150852984
 40
1.611101640492014
 40
2.417377265898731
 40
3.222203280984029
 40
3.222203280984029
 40
3.222203280984029
 40
3.222203280984029
 10
-4.045620120172713
 20
1.587713387972215
 30
0.0
 10
-3.966324172143221
 20
1.331424859553122
 30
0.0
 10
-3.843589966716589
 20
0.8064009986822975
 30
0.0
 10
-3.778185406312942
 20
0.0
 30
0.0
 10
-3.843589966716587
 20
-0.8064009986822972
 30
0.0
 10
-3.966324172143221
 20
-1.331424859553122
 30
0.0
 10
-4.045620120172713
 20
-1.587713387972215
 30
0.0
 11
-4.045620120172713
 21
1.587713387972215
 31
0.0
 11
-3.863450868615329
 21
0.803775075127956
 31
0.0
 11
-3.799999999999996
 21
0.0
 31
0.0
 11
-3.863450868615329
 21
-0.803775075127956
 31
0.0
 11
-4.045620120172713
 21
-1.587713387972215
 31
0.0
  0
SPLINE
  5
77
100
AcDbEntity
  8
0
  6
CONTINUOUS
 62
     7
100
AcDbSpline
210
0.0
220
0.0
230
-1.0
 70
     8
 71
     3
 72
    11
 73
     7
 74
     5
 42
0.0000001
 43
0.0000001
 44
0.000001
 12
-0.2955767328958228
 22
-0.955319001679874
 32
0.0
 13
0.2955767328958229
 23
-0.955319001679874
 33
0.0
 40
0.0
 40
0.0
 40
0.0
 40
0.0
 40
0.8048260150852984
 40
1.611101640492014
 40
2.417377265898731
 40
3.222203280984029
 40
3.222203280984029
 40
3.222203280984029
 40
3.222203280984029
 10
-3.55437987982728
 20
1.587713387972215
 30
0.0
 10
-3.633675827856772
 20
1.331424859553122
 30
0.0
 10
-3.756410033283405
 20
0.8064009986822973
 30
0.0
 10
-3.821814593687049
 20
-0.0000000000000001
 30
0.0
 10
-3.756410033283404
 20
-0.806400998682297
 30
0.0
 10
-3.633675827856772
 20
-1.331424859553122
 30
0.0
 10
-3.55437987982728
 20
-1.587713387972215
 30
0.0
 11
-3.55437987982728
 21
1.587713387972215
 31
0.0
 11
-3.736549131384664
 21
0.803775075127956
 31
0.0
 11
-3.799999999999996
 21
0.0
 31
0.0
 11
-3.736549131384664
 21
-0.803775075127956
 31
0.0
 11
-3.55437987982728
 21
-1.587713387972215
 31
0.0
  0
SPLINE
  5
78
100
AcDbEntity
  8
0
  6
CONTINUOUS
 62
     7
100
AcDbSpline
210
0.0
220
0.0
230
1.0
 70
     8
 71
     3
 72
    11
 73
     7
 74
     5
 42
0.0000001
 43
0.0000001
 44
0.000001
 12
0.526203759847777
 22
-0.8503585144643775
 32
0.0
 13
-0.526203775170417
 23
-0.8503585049826934
 33
0.0
 40
0.0
 40
0.0
 40
0.0
 40
0.0
 40
0.4199190360514368
 40
0.8387827523114898
 40
1.257646392588131
 40
1.677565351539459
 40
1.677565351539459
 40
1.677565351539459
 40
1.677565351539459
 10
-4.045620118083064
 20
3.175426523880929
 30
0.0
 10
-3.971965792882424
 20
3.056399281316925
 30
0.0
 10
-3.850536537587789
 20
2.801468334416916
 30
0.0
 10
-3.774763515985246
 20
2.381569901485894
 30
0.0
 10
-3.850536564173724
 20
1.961671502534928
 30
0.0
 10
-3.971965806350774
 20
1.706740607354795
 30
0.0
 10
-4.045620120172713
 20
1.587713387972215
 30
0.0
 11
-4.045620118083064
 21
3.175426523880929
 31
0.0
 11
-3.868151563270822
 21
2.794852077955796
 31
0.0
 11
-3.799999999999996
 21
2.3815698774887
 31
0.0
 11
-3.868151583771412
 21
1.968287757411811
 31
0.0
 11
-4.045620120172713
 21
1.587713387972215
 31
0.0
  0
SPLINE
  5
79
100
AcDbEntity
  8
0
  6
CONTINUOUS
 62
     7
100
AcDbSpline
210
0.0
220
0.0
230
-1.0
 70
     8
 71
     3
 72
    11
 73
     7
 74
     5
 42
0.0000001
 43
0.0000001
 44
0.000001
 12
-0.5262037598477772
 22
-0.8503585144643775
 32
0.0
 13
0.5262037751704171
 23
-0.8503585049826932
 33
0.0
 40
0.0
 40
0.0
 40
0.0
 40
0.0
 40
0.4199190360514369
 40
0.8387827523114896
 40
1.257646392588131
 40
1.677565351539459
 40
1.677565351539459
 40
1.677565351539459
 40
1.677565351539459
 10
-5.354379881916926
 20
3.175426523880929
 30
0.0
 10
-5.428034207117566
 20
3.056399281316925
 30
0.0
 10
-5.549463462412203
 20
2.801468334416915
 30
0.0
 10
-5.625236484014743
 20
2.381569901485894
 30
0.0
 10
-5.549463435826266
 20
1.961671502534928
 30
0.0
 10
-5.428034193649217
 20
1.706740607354795
 30
0.0
 10
-5.354379879827277
 20
1.587713387972215
 30
0.0
 11
-5.354379881916926
 21
3.175426523880929
 31
0.0
 11
-5.531848436729169
 21
2.794852077955796
 31
0.0
 11
-5.599999999999993
 21
2.3815698774887
 31
0.0
 11
-5.531848416228579
 21
1.968287757411811
 31
0.0
 11
-5.354379879827277
 21
1.587713387972215
 31
0.0
  0
SPLINE
  5
7A
100
AcDbEntity
  8
0
  6
CONTINUOUS
 62
     7
100
AcDbSpline
210
0.0
220
0.0
230
1.0
 70
     8
 71
     3
 72
    11
 73
     7
 74
     5
 42
0.0000001
 43
0.0000001
 44
0.000001
 12
0.526203759847777
 22
-0.8503585144643775
 32
0.0
 13
-0.526203775170417
 23
-0.8503585049826934
 33
0.0
 40
0.0
 40
0.0
 40
0.0
 40
0.0
 40
0.4199190360514369
 40
0.8387827523114898
 40
1.257646392588131
 40
1.677565351539459
 40
1.677565351539459
 40
1.677565351539459
 40
1.677565351539459
 10
-2.245620118083067
 20
3.175426523880929
 30
0.0
 10
-2.171965792882427
 20
3.056399281316925
 30
0.0
 10
-2.050536537587791
 20
2.801468334416916
 30
0.0
 10
-1.974763515985249
 20
2.381569901485893
 30
0.0
 10
-2.050536564173728
 20
1.961671502534929
 30
0.0
 10
-2.171965806350776
 20
1.706740607354795
 30
0.0
 10
-2.245620120172716
 20
1.587713387972215
 30
0.0
 11
-2.245620118083067
 21
3.175426523880929
 31
0.0
 11
-2.068151563270824
 21
2.794852077955796
 31
0.0
 11
-2.0
 21
2.3815698774887
 31
0.0
 11
-2.068151583771415
 21
1.968287757411811
 31
0.0
 11
-2.245620120172716
 21
1.587713387972215
 31
0.0
  0
SPLINE
  5
7B
100
AcDbEntity
  8
0
  6
CONTINUOUS
 62
     7
100
AcDbSpline
210
0.0
220
0.0
230
-1.0
 70
     8
 71
     3
 72
    11
 73
     7
 74
     5
 42
0.0000001
 43
0.0000001
 44
0.000001
 12
-0.5262037598477772
 22
-0.8503585144643775
 32
0.0
 13
0.5262037751704171
 23
-0.8503585049826932
 33
0.0
 40
0.0
 40
0.0
 40
0.0
 40
0.0
 40
0.4199190360514369
 40
0.8387827523114896
 40
1.257646392588131
 40
1.677565351539459
 40
1.677565351539459
 40
1.677565351539459
 40
1.677565351539459
 10
-3.554379881916929
 20
3.175426523880929
 30
0.0
 10
-3.628034207117569
 20
3.056399281316925
 30
0.0
 10
-3.749463462412205
 20
2.801468334416916
 30
0.0
 10
-3.825236484014745
 20
2.381569901485893
 30
0.0
 10
-3.74946343582627
 20
1.961671502534928
 30
0.0
 10
-3.62803419364922
 20
1.706740607354795
 30
0.0
 10
-3.55437987982728
 20
1.587713387972215
 30
0.0
 11
-3.554379881916929
 21
3.175426523880929
 31
0.0
 11
-3.731848436729172
 21
2.794852077955796
 31
0.0
 11
-3.799999999999996
 21
2.3815698774887
 31
0.0
 11
-3.731848416228582
 21
1.968287757411811
 31
0.0
 11
-3.55437987982728
 21
1.587713387972215
 31
0.0
  0
LINE
  5
7C
100
AcDbEntity
  8
0
  6
CONTINUOUS
 62
     7
100
AcDbLine
 10
-2.0
 20
-2.75
 30
0.0
 11
-2.24562
 21
-3.175427
 31
0.0
  0
LINE
  5
7D
100
AcDbEntity
  8
0
  6
CONTINUOUS
 62
     7
100
AcDbLine
 10
-5.6
 20
-2.75
 30
0.0
 11
-5.35438
 21
-3.175427
 31
0.0
  0
LINE
  5
7E
100
AcDbEntity
  8
0
  6
CONTINUOUS
 62
     7
100
AcDbLine
 10
-3.8
 20
-2.75
 30
0.0
 11
-3.55438
 21
-3.175427
 31
0.0
  0
LINE
  5
7F
100
AcDbEntity
  8
0
  6
CONTINUOUS
 62
     7
100
AcDbLine
 10
-3.8
 20
-2.75
 30
0.0
 11
-4.04562
 21
-3.175427
 31
0.0
  0
LINE
  5
80
100
AcDbEntity
  8
0
  6
CONTINUOUS
 62
     7
100
AcDbLine
 10
-4.04562
 20
-3.175427
 30
0.0
 11
-5.35438
 21
-3.175427
 31
0.0
  0
LINE
  5
81
100
AcDbEntity
  8
0
  6
CONTINUOUS
 62
     7
100
AcDbLine
 10
-4.04562
 20
-1.587713
 30
0.0
 11
-5.35438
 21
-1.587713
 31
0.0
  0
LINE
  5
82
100
AcDbEntity
  8
0
  6
CONTINUOUS
 62
     7
100
AcDbLine
 10
-3.55438
 20
-1.587713
 30
0.0
 11
-2.24562
 21
-1.587713
 31
0.0
  0
LINE
  5
83
100
AcDbEntity
  8
0
  6
CONTINUOUS
 62
     7
100
AcDbLine
 10
-3.55438
 20
-3.175427
 30
0.0
 11
-2.24562
 21
-3.175427
 31
0.0
  0
LINE
  5
84
100
AcDbEntity
  8
0
  6
CONTINUOUS
 62
     7
100
AcDbLine
 10
-4.04562
 20
1.587713
 30
0.0
 11
-5.35438
 21
1.587713
 31
0.0
  0
LINE
  5
85
100
AcDbEntity
  8
0
  6
CONTINUOUS
 62
     7
100
AcDbLine
 10
-3.55438
 20
1.587713
 30
0.0
 11
-2.24562
 21
1.587713
 31
0.0
  0
LINE
  5
86
100
AcDbEntity
  8
0
  6
CONTINUOUS
 62
     7
100
AcDbLine
 10
-3.55438
 20
3.175427
 30
0.0
 11
-2.24562
 21
3.175427
 31
0.0
  0
LINE
  5
87
100
AcDbEntity
  8
0
  6
CONTINUOUS
 62
     7
100
AcDbLine
 10
-3.8
 20
2.75
 30
0.0
 11
-3.55438
 21
3.175427
 31
0.0
  0
LINE
  5
88
100
AcDbEntity
  8
0
  6
CONTINUOUS
 62
     7
100
AcDbLine
 10
-2.0
 20
2.75
 30
0.0
 11
-2.24562
 21
3.175427
 31
0.0
  0
LINE
  5
89
100
AcDbEntity
  8
0
  6
CONTINUOUS
 62
     7
100
AcDbLine
 10
-5.6
 20
2.75
 30
0.0
 11
-5.35438
 21
3.175427
 31
0.0
  0
LINE
  5
8A
100
AcDbEntity
  8
0
  6
CONTINUOUS
 62
     7
100
AcDbLine
 10
-3.8
 20
2.75
 30
0.0
 11
-4.04562
 21
3.175427
 31
0.0
  0
LINE
  5
8B
100
AcDbEntity
  8
0
  6
CONTINUOUS
 62
     7
100
AcDbLine
 10
-4.04562
 20
3.175427
 30
0.0
 11
-5.35438
 21
3.175427
 31
0.0
  0
LINE
  5
8C
100
AcDbEntity
  8
0
  6
CONTINUOUS
 62
     7
100
AcDbLine
 10
-5.6
 20
-2.75
 30
0.0
 11
-5.6
 21
2.75
 31
0.0
  0
LINE
  5
8D
100
AcDbEntity
  8
0
  6
CONTINUOUS
 62
     7
100
AcDbLine
 10
-2.0
 20
-2.75
 30
0.0
 11
-2.0
 21
2.75
 31
0.0
  0
LINE
  5
8E
100
AcDbEntity
  8
0
  6
CONTINUOUS
 62
     7
100
AcDbLine
 10
-3.8
 20
-2.75
 30
0.0
 11
-3.8
 21
2.75
 31
0.0
  0
INSERT
  5
98
100
AcDbEntity
  8
0
  6
CONTINUOUS
 62
     7
100
AcDbBlockReference
  2
*X8
 10
0.0
 20
0.0
 30
0.0
  0
LINE
  5
99
100
AcDbEntity
  8
0
  6
CONTINUOUS
 62
     7
100
AcDbLine
 10
31.5
 20
-9.085786
 30
0.0
 11
31.5
 21
-10.5
 31
0.0
  0
LINE
  5
9A
100
AcDbEntity
  8
0
  6
CONTINUOUS
 62
     7
100
AcDbLine
 10
31.5
 20
6.769689
 30
0.0
 11
31.5
 21
-6.769689
 31
0.0
  0
ENDBLK
  5
9B
100
AcDbEntity
  8
0
100
AcDbBlockEnd
  0
BLOCK
  5
9C
100
AcDbEntity
  8
0
100
AcDbBlockBegin
  2
MS_2
 70
     0
 10
0.0
 20
0.0
 30
0.0
  3
MS_2
  1

  0
LINE
  5
9D
100
AcDbEntity
  8
0
  6
CONTINUOUS
 62
   200
100
AcDbLine
 10
10.380878
 20
5.446207
 30
0.0
 11
9.321228
 21
4.386557
 31
0.0
  0
LINE
  5
9E
100
AcDbEntity
  8
0
  6
CONTINUOUS
 62
     4
100
AcDbLine
 10
12.216326
 20
5.869461
 30
0.0
 11
11.12132
 21
4.774455
 31
0.0
  0
LINE
  5
9F
100
AcDbEntity
  8
0
  6
CONTINUOUS
 62
     4
100
AcDbLine
 10
10.52129
 20
5.305796
 30
0.0
 11
9.602051
 21
4.386557
 31
0.0
  0
LINE
  5
A0
100
AcDbEntity
  8
0
  6
CONTINUOUS
 62
     4
100
AcDbLine
 10
8.894944
 20
4.386557
 30
0.0
 11
9.602051
 21
4.386557
 31
0.0
  0
ARC
  5
A1
100
AcDbEntity
  8
0
  6
CONTINUOUS
 62
     4
100
AcDbCircle
 10
9.670741
 20
6.223951
 30
0.0
 40
2.050663
100
AcDbArc
 50
225.058431
 51
315.021424
  0
LINE
  5
A2
100
AcDbEntity
  8
0
  6
CONTINUOUS
 62
     4
100
AcDbLine
 10
12.216326
 20
5.869461
 30
0.0
 11
12.218346
 21
6.647278
 31
0.0
  0
LINE
  5
A3
100
AcDbEntity
  8
0
  6
CONTINUOUS
 62
   200
100
AcDbLine
 10
8.895954
 20
6.931131
 30
0.0
 11
7.834284
 21
5.869461
 31
0.0
  0
LINE
  5
A4
100
AcDbEntity
  8
0
  6
CONTINUOUS
 62
     4
100
AcDbLine
 10
9.317188
 20
8.768599
 30
0.0
 11
8.222182
 21
7.673593
 31
0.0
  0
LINE
  5
A5
100
AcDbEntity
  8
0
  6
CONTINUOUS
 62
     4
100
AcDbLine
 10
8.753523
 20
7.073563
 30
0.0
 11
7.834284
 21
6.154324
 31
0.0
  0
LINE
  5
A6
100
AcDbEntity
  8
0
  6
CONTINUOUS
 62
     4
100
AcDbLine
 10
7.834284
 20
6.154324
 30
0.0
 11
7.834284
 21
5.447217
 31
0.0
  0
ARC
  5
A7
100
AcDbEntity
  8
0
  6
CONTINUOUS
 62
     4
100
AcDbCircle
 10
9.673603
 20
6.223014
 30
0.0
 40
2.052024
100
AcDbArc
 50
135.016616
 51
224.983384
  0
LINE
  5
A8
100
AcDbEntity
  8
0
  6
CONTINUOUS
 62
     4
100
AcDbLine
 10
9.602051
 20
4.386557
 30
0.0
 11
7.834284
 21
6.154324
 31
0.0
  0
LINE
  5
A9
100
AcDbEntity
  8
0
  6
CONTINUOUS
 62
     4
100
AcDbLine
 10
11.086975
 20
4.74011
 30
0.0
 11
8.187837
 21
7.639248
 31
0.0
  0
LINE
  5
AA
100
AcDbEntity
  8
0
  6
CONTINUOUS
 62
     4
100
AcDbLine
 10
8.894944
 20
4.386557
 30
0.0
 11
7.834284
 21
5.447217
 31
0.0
  0
LINE
  5
AB
100
AcDbEntity
  8
0
  6
CONTINUOUS
 62
     4
100
AcDbLine
 10
12.535534
 20
6.964466
 30
0.0
 11
10.414214
 21
9.085786
 31
0.0
  0
LINE
  5
AC
100
AcDbEntity
  8
0
  6
CONTINUOUS
 62
     4
100
AcDbLine
 10
10.414214
 20
9.085786
 30
0.0
 11
10.097026
 21
8.768599
 31
0.0
  0
LINE
  5
AD
100
AcDbEntity
  8
0
  6
CENTER
 62
   200
100
AcDbLine
 10
12.493371
 20
9.043624
 30
0.0
 11
7.579933
 21
4.130186
 31
0.0
  0
LINE
  5
AE
100
AcDbEntity
  8
0
  6
CONTINUOUS
 62
     4
100
AcDbLine
 10
11.65064
 20
5.303775
 30
0.0
 11
8.751502
 21
8.202913
 31
0.0
  0
LINE
  5
AF
100
AcDbEntity
  8
0
  6
CONTINUOUS
 62
     4
100
AcDbLine
 10
9.317188
 20
8.768599
 30
0.0
 11
10.097026
 21
8.768599
 31
0.0
  0
LINE
  5
B0
100
AcDbEntity
  8
0
  6
CONTINUOUS
 62
     4
100
AcDbLine
 10
12.535534
 20
6.964466
 30
0.0
 11
12.218346
 21
6.647278
 31
0.0
  0
ARC
  5
B1
100
AcDbEntity
  8
0
  6
CONTINUOUS
 62
     4
100
AcDbCircle
 10
9.670741
 20
-6.223951
 30
0.0
 40
2.050663
100
AcDbArc
 50
44.978576
 51
134.941569
  0
ARC
  5
B2
100
AcDbEntity
  8
0
  6
CONTINUOUS
 62
     4
100
AcDbCircle
 10
9.673603
 20
-6.223014
 30
0.0
 40
2.052024
100
AcDbArc
 50
135.016616
 51
224.983384
  0
LINE
  5
B3
100
AcDbEntity
  8
0
  6
CONTINUOUS
 62
     4
100
AcDbLine
 10
11.086975
 20
-4.74011
 30
0.0
 11
8.187837
 21
-7.639248
 31
0.0
  0
LINE
  5
B4
100
AcDbEntity
  8
0
  6
CENTER
 62
   200
100
AcDbLine
 10
12.493371
 20
-9.043624
 30
0.0
 11
7.579933
 21
-4.130186
 31
0.0
  0
LINE
  5
B5
100
AcDbEntity
  8
0
  6
CONTINUOUS
 62
     4
100
AcDbLine
 10
11.65064
 20
-5.303775
 30
0.0
 11
8.751502
 21
-8.202913
 31
0.0
  0
LINE
  5
B6
100
AcDbEntity
  8
0
  6
CONTINUOUS
 62
     4
100
AcDbLine
 10
8.894944
 20
-4.386557
 30
0.0
 11
7.834284
 21
-5.447217
 31
0.0
  0
LINE
  5
B7
100
AcDbEntity
  8
0
  6
CONTINUOUS
 62
     4
100
AcDbLine
 10
9.602051
 20
-4.386557
 30
0.0
 11
7.834284
 21
-6.154324
 31
0.0
  0
LINE
  5
B8
100
AcDbEntity
  8
0
  6
CONTINUOUS
 62
     4
100
AcDbLine
 10
7.834284
 20
-6.154324
 30
0.0
 11
7.834284
 21
-5.447217
 31
0.0
  0
LINE
  5
B9
100
AcDbEntity
  8
0
  6
CONTINUOUS
 62
     4
100
AcDbLine
 10
8.753523
 20
-7.073563
 30
0.0
 11
7.834284
 21
-6.154324
 31
0.0
  0
LINE
  5
BA
100
AcDbEntity
  8
0
  6
CONTINUOUS
 62
   200
100
AcDbLine
 10
8.895954
 20
-6.931131
 30
0.0
 11
7.834284
 21
-5.869461
 31
0.0
  0
LINE
  5
BB
100
AcDbEntity
  8
0
  6
CONTINUOUS
 62
     4
100
AcDbLine
 10
8.894944
 20
-4.386557
 30
0.0
 11
9.602051
 21
-4.386557
 31
0.0
  0
LINE
  5
BC
100
AcDbEntity
  8
0
  6
CONTINUOUS
 62
     4
100
AcDbLine
 10
10.52129
 20
-5.305796
 30
0.0
 11
9.602051
 21
-4.386557
 31
0.0
  0
LINE
  5
BD
100
AcDbEntity
  8
0
  6
CONTINUOUS
 62
   200
100
AcDbLine
 10
10.380878
 20
-5.446207
 30
0.0
 11
9.321228
 21
-4.386557
 31
0.0
  0
LINE
  5
BE
100
AcDbEntity
  8
0
  6
CONTINUOUS
 62
     4
100
AcDbLine
 10
9.317188
 20
-8.768599
 30
0.0
 11
8.222182
 21
-7.673593
 31
0.0
  0
LINE
  5
BF
100
AcDbEntity
  8
0
  6
CONTINUOUS
 62
     4
100
AcDbLine
 10
12.535534
 20
-6.964466
 30
0.0
 11
12.218346
 21
-6.647278
 31
0.0
  0
LINE
  5
C0
100
AcDbEntity
  8
0
  6
CONTINUOUS
 62
     4
100
AcDbLine
 10
9.317188
 20
-8.768599
 30
0.0
 11
10.097026
 21
-8.768599
 31
0.0
  0
LINE
  5
C1
100
AcDbEntity
  8
0
  6
CONTINUOUS
 62
     4
100
AcDbLine
 10
10.414214
 20
-9.085786
 30
0.0
 11
10.097026
 21
-8.768599
 31
0.0
  0
LINE
  5
C2
100
AcDbEntity
  8
0
  6
CONTINUOUS
 62
     4
100
AcDbLine
 10
12.535534
 20
-6.964466
 30
0.0
 11
10.414214
 21
-9.085786
 31
0.0
  0
LINE
  5
C3
100
AcDbEntity
  8
0
  6
CONTINUOUS
 62
     4
100
AcDbLine
 10
12.216326
 20
-5.869461
 30
0.0
 11
12.218346
 21
-6.647278
 31
0.0
  0
LINE
  5
C4
100
AcDbEntity
  8
0
  6
CONTINUOUS
 62
     4
100
AcDbLine
 10
12.216326
 20
-5.869461
 30
0.0
 11
11.12132
 21
-4.774455
 31
0.0
  0
LINE
  5
C5
100
AcDbEntity
  8
0
  6
CONTINUOUS
 62
     7
100
AcDbLine
 10
12.818377
 20
-6.681623
 30
0.0
 11
14.0
 21
-5.5
 31
0.0
  0
LINE
  5
C6
100
AcDbEntity
  8
0
  6
CONTINUOUS
 62
     7
100
AcDbLine
 10
12.394112
 20
-6.681623
 30
0.0
 11
12.252691
 21
-6.540202
 31
0.0
  0
LINE
  5
C7
100
AcDbEntity
  8
0
  6
CONTINUOUS
 62
     7
100
AcDbLine
 10
12.252691
 20
-6.540202
 30
0.0
 11
12.252691
 21
-5.833095
 31
0.0
  0
LINE
  5
C8
100
AcDbEntity
  8
0
  6
CONTINUOUS
 62
     7
100
AcDbLine
 10
10.131371
 20
-8.944365
 30
0.0
 11
9.989949
 21
-8.802944
 31
0.0
  0
ARC
  5
C9
100
AcDbEntity
  8
0
  6
CONTINUOUS
 62
     7
100
AcDbCircle
 10
9.91825
 20
-9.156497
 30
0.0
 40
0.3007
100
AcDbArc
 50
315.133262
 51
44.866738
  0
LINE
  5
CA
100
AcDbEntity
  8
0
  6
CONTINUOUS
 62
     7
100
AcDbLine
 10
9.282843
 20
-8.802944
 30
0.0
 11
9.989949
 21
-8.802944
 31
0.0
  0
LINE
  5
CB
100
AcDbEntity
  8
0
  6
CONTINUOUS
 62
     7
100
AcDbLine
 10
10.164214
 20
-9.335786
 30
0.0
 11
9.0
 21
-10.5
 31
0.0
  0
LINE
  5
CC
100
AcDbEntity
  8
0
  6
CONTINUOUS
 62
     7
100
AcDbLine
 10
9.282843
 20
-8.802944
 30
0.0
 11
8.151472
 21
-7.671573
 31
0.0
  0
LINE
  5
CD
100
AcDbEntity
  8
0
  6
CENTER
 62
     2
100
AcDbLine
 10
2.5
 20
-7.5
 30
0.0
 11
7.5
 21
-7.5
 31
0.0
  0
LINE
  5
CE
100
AcDbEntity
  8
0
  6
CONTINUOUS
 62
     7
100
AcDbLine
 10
0.4
 20
-10.5
 30
0.0
 11
9.0
 21
-10.5
 31
0.0
  0
ARC
  5
CF
100
AcDbEntity
  8
0
  6
CONTINUOUS
 62
     7
100
AcDbCircle
 10
9.636396
 20
-6.186649
 30
0.0
 40
2.1
100
AcDbArc
 50
45.0
 51
225.0
  0
LINE
  5
D0
100
AcDbEntity
  8
0
  6
CONTINUOUS
 62
     7
100
AcDbLine
 10
12.252691
 20
-5.833095
 30
0.0
 11
11.12132
 21
-4.701724
 31
0.0
  0
ARC
  5
D1
100
AcDbEntity
  8
0
  6
CONTINUOUS
 62
     7
100
AcDbCircle
 10
12.606245
 20
-6.470165
 30
0.0
 40
0.299524
100
AcDbArc
 50
224.908941
 51
315.091059
  0
LINE
  5
D2
100
AcDbEntity
  8
0
  6
CENTER
 62
     2
100
AcDbLine
 10
5.0
 20
-10.0
 30
0.0
 11
5.0
 21
10.0
 31
0.0
  0
LINE
  5
D3
100
AcDbEntity
  8
0
  6
CONTINUOUS
 62
     7
100
AcDbLine
 10
0.0
 20
10.1
 30
0.0
 11
0.0
 21
-10.1
 31
0.0
  0
LINE
  5
D4
100
AcDbEntity
  8
0
  6
CENTER
 62
     2
100
AcDbLine
 10
-1.017519
 20
0.0
 30
0.0
 11
14.757204
 21
0.0
 31
0.0
  0
LINE
  5
D5
100
AcDbEntity
  8
0
  6
CONTINUOUS
 62
     7
100
AcDbLine
 10
0.4
 20
10.5
 30
0.0
 11
9.0
 21
10.5
 31
0.0
  0
LINE
  5
D6
100
AcDbEntity
  8
0
  6
CONTINUOUS
 62
     7
100
AcDbLine
 10
14.0
 20
5.5
 30
0.0
 11
14.0
 21
-5.5
 31
0.0
  0
LINE
  5
D7
100
AcDbEntity
  8
0
  6
CONTINUOUS
 62
     7
100
AcDbLine
 10
9.282843
 20
8.802944
 30
0.0
 11
8.151472
 21
7.671573
 31
0.0
  0
LINE
  5
D8
100
AcDbEntity
  8
0
  6
CONTINUOUS
 62
     7
100
AcDbLine
 10
10.164214
 20
9.335786
 30
0.0
 11
9.0
 21
10.5
 31
0.0
  0
LINE
  5
D9
100
AcDbEntity
  8
0
  6
CONTINUOUS
 62
     7
100
AcDbLine
 10
9.282843
 20
8.802944
 30
0.0
 11
9.989949
 21
8.802944
 31
0.0
  0
ARC
  5
DA
100
AcDbEntity
  8
0
  6
CONTINUOUS
 62
     7
100
AcDbCircle
 10
9.91825
 20
9.156497
 30
0.0
 40
0.3007
100
AcDbArc
 50
315.133262
 51
44.866738
  0
LINE
  5
DB
100
AcDbEntity
  8
0
  6
CONTINUOUS
 62
     7
100
AcDbLine
 10
10.131371
 20
8.944365
 30
0.0
 11
9.989949
 21
8.802944
 31
0.0
  0
ARC
  5
DC
100
AcDbEntity
  8
0
  6
CONTINUOUS
 62
     7
100
AcDbCircle
 10
9.636396
 20
6.186649
 30
0.0
 40
2.1
100
AcDbArc
 50
135.0
 51
315.0
  0
LINE
  5
DD
100
AcDbEntity
  8
0
  6
CONTINUOUS
 62
     7
100
AcDbLine
 10
12.252691
 20
5.833095
 30
0.0
 11
11.12132
 21
4.701724
 31
0.0
  0
LINE
  5
DE
100
AcDbEntity
  8
0
  6
CONTINUOUS
 62
     7
100
AcDbLine
 10
12.252691
 20
6.540202
 30
0.0
 11
12.252691
 21
5.833095
 31
0.0
  0
ARC
  5
DF
100
AcDbEntity
  8
0
  6
CONTINUOUS
 62
     7
100
AcDbCircle
 10
12.606245
 20
6.470165
 30
0.0
 40
0.299524
100
AcDbArc
 50
44.908941
 51
135.091059
  0
LINE
  5
E0
100
AcDbEntity
  8
0
  6
CONTINUOUS
 62
     7
100
AcDbLine
 10
12.394112
 20
6.681623
 30
0.0
 11
12.252691
 21
6.540202
 31
0.0
  0
LINE
  5
E1
100
AcDbEntity
  8
0
  6
CONTINUOUS
 62
     7
100
AcDbLine
 10
12.818377
 20
6.681623
 30
0.0
 11
14.0
 21
5.5
 31
0.0
  0
CIRCLE
  5
E2
100
AcDbEntity
  8
0
  6
CONTINUOUS
 62
     7
100
AcDbCircle
 10
5.0
 20
0.0
 30
0.0
 40
4.15
  0
CIRCLE
  5
E3
100
AcDbEntity
  8
0
  6
CONTINUOUS
 62
     7
100
AcDbCircle
 10
5.0
 20
0.0
 30
0.0
 40
4.35
  0
CIRCLE
  5
E4
100
AcDbEntity
  8
0
  6
CONTINUOUS
 62
     7
100
AcDbCircle
 10
5.0
 20
0.0
 30
0.0
 40
1.5
  0
CIRCLE
  5
E5
100
AcDbEntity
  8
0
  6
CONTINUOUS
 62
     2
100
AcDbCircle
 10
5.0
 20
0.0
 30
0.0
 40
1.2
  0
CIRCLE
  5
E6
100
AcDbEntity
  8
0
  6
CONTINUOUS
 62
     7
100
AcDbCircle
 10
5.0
 20
0.0
 30
0.0
 40
2.75
  0
LINE
  5
E7
100
AcDbEntity
  8
0
  6
CONTINUOUS
 62
     7
100
AcDbLine
 10
2.25
 20
1.587713
 30
0.0
 11
5.0
 21
3.175427
 31
0.0
  0
LINE
  5
E8
100
AcDbEntity
  8
0
  6
CONTINUOUS
 62
     7
100
AcDbLine
 10
2.25
 20
-1.587713
 30
0.0
 11
2.25
 21
1.587713
 31
0.0
  0
LINE
  5
E9
100
AcDbEntity
  8
0
  6
CONTINUOUS
 62
     7
100
AcDbLine
 10
5.0
 20
-3.175427
 30
0.0
 11
2.25
 21
-1.587713
 31
0.0
  0
LINE
  5
EA
100
AcDbEntity
  8
0
  6
CONTINUOUS
 62
     7
100
AcDbLine
 10
7.75
 20
-1.587713
 30
0.0
 11
5.0
 21
-3.175427
 31
0.0
  0
LINE
  5
EB
100
AcDbEntity
  8
0
  6
CONTINUOUS
 62
     7
100
AcDbLine
 10
7.75
 20
1.587713
 30
0.0
 11
7.75
 21
-1.587713
 31
0.0
  0
LINE
  5
EC
100
AcDbEntity
  8
0
  6
CONTINUOUS
 62
     7
100
AcDbLine
 10
5.0
 20
3.175427
 30
0.0
 11
7.75
 21
1.587713
 31
0.0
  0
CIRCLE
  5
ED
100
AcDbEntity
  8
0
  6
CONTINUOUS
 62
     2
100
AcDbCircle
 10
5.0
 20
-7.5
 30
0.0
 40
1.5
  0
CIRCLE
  5
EE
100
AcDbEntity
  8
0
  6
CONTINUOUS
 62
     7
100
AcDbCircle
 10
5.0
 20
-7.5
 30
0.0
 40
1.1
  0
LINE
  5
EF
100
AcDbEntity
  8
0
  6
CENTER
 62
     2
100
AcDbLine
 10
2.5
 20
7.5
 30
0.0
 11
7.5
 21
7.5
 31
0.0
  0
CIRCLE
  5
F0
100
AcDbEntity
  8
0
  6
CONTINUOUS
 62
     2
100
AcDbCircle
 10
5.0
 20
7.5
 30
0.0
 40
1.5
  0
CIRCLE
  5
F1
100
AcDbEntity
  8
0
  6
CONTINUOUS
 62
     7
100
AcDbCircle
 10
5.0
 20
7.5
 30
0.0
 40
1.1
  0
ARC
  5
F2
100
AcDbEntity
  8
0
  6
CONTINUOUS
 62
     7
100
AcDbCircle
 10
0.4
 20
10.1
 30
0.0
 40
0.4
100
AcDbArc
 50
90.0
 51
180.0
  0
ARC
  5
F3
100
AcDbEntity
  8
0
  6
CONTINUOUS
 62
     7
100
AcDbCircle
 10
0.4
 20
-10.1
 30
0.0
 40
0.4
100
AcDbArc
 50
180.0
 51
270.0
  0
LINE
  5
F4
100
AcDbEntity
  8
0
  6
CENTER
 62
     2
100
AcDbLine
 10
1.5
 20
7.5
 30
0.0
 11
-1.5
 21
7.5
 31
0.0
  0
LINE
  5
F5
100
AcDbEntity
  8
0
  6
CENTER
 62
     2
100
AcDbLine
 10
1.5
 20
-7.5
 30
0.0
 11
-1.5
 21
-7.5
 31
0.0
  0
ENDBLK
  5
F6
100
AcDbEntity
  8
0
100
AcDbBlockEnd
  0
BLOCK
  5
F7
100
AcDbEntity
  8
0
100
AcDbBlockBegin
  2
MS_3
 70
     0
 10
0.0
 20
0.0
 30
0.0
  3
MS_3
  1

  0
LINE
  5
F8
100
AcDbEntity
  8
0
  6
PHANTOM
 62
     3
100
AcDbLine
 10
24.864881
 20
19.0
 30
0.0
 11
24.864881
 21
-5.0
 31
0.0
  0
CIRCLE
  5
FA
100
AcDbEntity
  8
0
  6
DASHED
 62
     7
100
AcDbCircle
 10
28.5
 20
9.0
 30
0.0
 40
1.2
  0
CIRCLE
  5
FB
100
AcDbEntity
  8
0
  6
DASHED
 62
     2
100
AcDbCircle
 10
28.5
 20
9.0
 30
0.0
 40
1.5
  0
LINE
  5
FC
100
AcDbEntity
  8
0
  6
CENTER
 62
     2
100
AcDbLine
 10
28.5
 20
7.045222
 30
0.0
 11
28.5
 21
10.976096
 31
0.0
  0
CIRCLE
  5
FD
100
AcDbEntity
  8
0
  6
DASHED
 62
     7
100
AcDbCircle
 10
10.0
 20
9.0
 30
0.0
 40
1.2
  0
CIRCLE
  5
FE
100
AcDbEntity
  8
0
  6
DASHED
 62
     2
100
AcDbCircle
 10
10.0
 20
9.0
 30
0.0
 40
1.5
  0
LINE
  5
FF
100
AcDbEntity
  8
0
  6
CENTER
 62
     2
100
AcDbLine
 10
10.0
 20
7.045222
 30
0.0
 11
10.0
 21
11.021494
 31
0.0
  0
LINE
  5
100
100
AcDbEntity
  8
0
  6
CONTINUOUS
 62
     7
100
AcDbLine
 10
0.0
 20
5.0
 30
0.0
 11
31.5
 21
5.0
 31
0.0
  0
LINE
  5
101
100
AcDbEntity
  8
0
  6
CONTINUOUS
 62
     7
100
AcDbLine
 10
0.0
 20
3.78105
 30
0.0
 11
31.5
 21
3.78105
 31
0.0
  0
LINE
  5
102
100
AcDbEntity
  8
0
  6
CONTINUOUS
 62
     7
100
AcDbLine
 10
0.0
 20
1.747309
 30
0.0
 11
7.0
 21
1.747309
 31
0.0
  0
LINE
  5
103
100
AcDbEntity
  8
0
  6
CONTINUOUS
 62
     7
100
AcDbLine
 10
0.0
 20
1.393755
 30
0.0
 11
31.5
 21
1.393755
 31
0.0
  0
LINE
  5
104
100
AcDbEntity
  8
0
  6
CONTINUOUS
 62
     7
100
AcDbLine
 10
0.0
 20
0.0
 30
0.0
 11
31.5
 21
0.0
 31
0.0
  0
LINE
  5
105
100
AcDbEntity
  8
0
  6
CONTINUOUS
 62
     7
100
AcDbLine
 10
-7.7
 20
10.5
 30
0.0
 11
-5.6
 21
10.5
 31
0.0
  0
LINE
  5
106
100
AcDbEntity
  8
0
  6
CONTINUOUS
 62
     7
100
AcDbLine
 10
0.0
 20
14.0
 30
0.0
 11
31.5
 21
14.0
 31
0.0
  0
LINE
  5
107
100
AcDbEntity
  8
0
  6
CONTINUOUS
 62
     7
100
AcDbLine
 10
-7.7
 20
10.5
 30
0.0
 11
-8.0
 21
10.2
 31
0.0
  0
LINE
  5
108
100
AcDbEntity
  8
0
  6
CONTINUOUS
 62
     2
100
AcDbLine
 10
-1.0
 20
10.2
 30
0.0
 11
-0.480385
 21
10.5
 31
0.0
  0
LINE
  5
109
100
AcDbEntity
  8
0
  6
CONTINUOUS
 62
     2
100
AcDbLine
 10
-8.0
 20
10.2
 30
0.0
 11
-5.6
 21
10.2
 31
0.0
  0
LINE
  5
10A
100
AcDbEntity
  8
0
  6
CONTINUOUS
 62
     2
100
AcDbLine
 10
-8.0
 20
7.8
 30
0.0
 11
-5.6
 21
7.8
 31
0.0
  0
LINE
  5
10B
100
AcDbEntity
  8
0
  6
CONTINUOUS
 62
     7
100
AcDbLine
 10
-7.7
 20
7.5
 30
0.0
 11
-8.0
 21
7.8
 31
0.0
  0
LINE
  5
10C
100
AcDbEntity
  8
0
  6
CONTINUOUS
 62
     2
100
AcDbLine
 10
-1.0
 20
7.8
 30
0.0
 11
-0.480385
 21
7.5
 31
0.0
  0
LINE
  5
10D
100
AcDbEntity
  8
0
  6
CONTINUOUS
 62
     7
100
AcDbLine
 10
-7.7
 20
10.5
 30
0.0
 11
-7.7
 21
7.5
 31
0.0
  0
LINE
  5
10E
100
AcDbEntity
  8
0
  6
CONTINUOUS
 62
     7
100
AcDbLine
 10
-1.0
 20
10.5
 30
0.0
 11
-1.0
 21
7.5
 31
0.0
  0
LINE
  5
10F
100
AcDbEntity
  8
0
  6
CONTINUOUS
 62
     7
100
AcDbLine
 10
-8.0
 20
10.2
 30
0.0
 11
-8.0
 21
7.8
 31
0.0
  0
LINE
  5
110
100
AcDbEntity
  8
0
  6
CONTINUOUS
 62
     7
100
AcDbLine
 10
-7.7
 20
7.5
 30
0.0
 11
-5.6
 21
7.5
 31
0.0
  0
LINE
  5
111
100
AcDbEntity
  8
0
  6
CONTINUOUS
 62
     7
100
AcDbLine
 10
0.0
 20
0.0
 30
0.0
 11
0.0
 21
14.0
 31
0.0
  0
LINE
  5
112
100
AcDbEntity
  8
0
  6
CONTINUOUS
 62
     7
100
AcDbLine
 10
31.5
 20
0.0
 30
0.0
 11
31.5
 21
2.830761
 31
0.0
  0
LINE
  5
113
100
AcDbEntity
  8
0
  6
CENTER
 62
     2
100
AcDbLine
 10
-8.815969
 20
9.0
 30
0.0
 11
32.355882
 21
9.0
 31
0.0
  0
LINE
  5
114
100
AcDbEntity
  8
0
  6
CONTINUOUS
 62
     7
100
AcDbLine
 10
-2.0
 20
10.5
 30
0.0
 11
0.0
 21
10.5
 31
0.0
  0
LINE
  5
115
100
AcDbEntity
  8
0
  6
CONTINUOUS
 62
     2
100
AcDbLine
 10
-2.0
 20
10.2
 30
0.0
 11
-1.0
 21
10.2
 31
0.0
  0
LINE
  5
116
100
AcDbEntity
  8
0
  6
CONTINUOUS
 62
     2
100
AcDbLine
 10
-2.0
 20
7.8
 30
0.0
 11
-1.0
 21
7.8
 31
0.0
  0
LINE
  5
117
100
AcDbEntity
  8
0
  6
CONTINUOUS
 62
     7
100
AcDbLine
 10
-2.0
 20
7.5
 30
0.0
 11
0.0
 21
7.5
 31
0.0
  0
SPLINE
  5
118
100
AcDbEntity
  8
0
  6
CONTINUOUS
 62
     7
100
AcDbSpline
210
0.0
220
0.0
230
1.0
 70
     8
 71
     3
 72
    11
 73
     7
 74
     5
 42
0.0000001
 43
0.0000001
 44
0.000001
 12
0.3364389337625613
 22
0.9417052850274924
 32
0.0
 13
-0.3364389335092214
 23
0.941705285118002
 33
0.0
 40
0.0
 40
0.0
 40
0.0
 40
0.0
 40
0.7002580873188246
 40
1.401875446833951
 40
2.103492815739584
 40
2.803750912448022
 40
2.803750912448022
 40
2.803750912448022
 40
2.803750912448022
 10
-2.245620120172716
 20
6.250000018878012
 30
0.0
 10
-2.167088758753997
 20
6.469812266115139
 30
0.0
 10
-2.044432109860099
 20
6.923163422113876
 30
0.0
 10
-1.977762404680381
 20
7.625000003077488
 30
0.0
 10
-2.044432107801047
 20
8.326836587507854
 30
0.0
 10
-2.167088757760122
 20
8.780187749794329
 30
0.0
 10
-2.245620120172716
 20
9.0
 30
0.0
 11
-2.245620120172716
 21
6.250000018878012
 31
0.0
 11
-2.064069268589764
 21
6.92631405624891
 31
0.0
 11
-2.0
 21
7.625
 31
0.0
 11
-2.064069267039858
 21
8.323685953323121
 31
0.0
 11
-2.245620120172716
 21
9.0
 31
0.0
  0
SPLINE
  5
119
100
AcDbEntity
  8
0
  6
CONTINUOUS
 62
     7
100
AcDbSpline
210
0.0
220
0.0
230
-1.0
 70
     8
 71
     3
 72
    11
 73
     7
 74
     5
 42
0.0000001
 43
0.0000001
 44
0.000001
 12
-0.3364389337625614
 22
0.9417052850274924
 32
0.0
 13
0.3364389335092213
 23
0.941705285118002
 33
0.0
 40
0.0
 40
0.0
 40
0.0
 40
0.0
 40
0.7002580873188247
 40
1.401875446833951
 40
2.103492815739584
 40
2.803750912448022
 40
2.803750912448022
 40
2.803750912448022
 40
2.803750912448022
 10
-3.55437987982728
 20
6.250000018878012
 30
0.0
 10
-3.632911241245999
 20
6.469812266115139
 30
0.0
 10
-3.755567890139898
 20
6.923163422113876
 30
0.0
 10
-3.822237595319616
 20
7.625000003077487
 30
0.0
 10
-3.755567892198949
 20
8.326836587507855
 30
0.0
 10
-3.632911242239874
 20
8.780187749794329
 30
0.0
 10
-3.55437987982728
 20
9.0
 30
0.0
 11
-3.55437987982728
 21
6.250000018878012
 31
0.0
 11
-3.735930731410233
 21
6.92631405624891
 31
0.0
 11
-3.799999999999996
 21
7.625
 31
0.0
 11
-3.735930732960138
 21
8.323685953323121
 31
0.0
 11
-3.55437987982728
 21
9.0
 31
0.0
  0
SPLINE
  5
11A
100
AcDbEntity
  8
0
  6
CONTINUOUS
 62
     7
100
AcDbSpline
210
0.0
220
0.0
230
1.0
 70
     8
 71
     3
 72
    11
 73
     7
 74
     5
 42
0.0000001
 43
0.0000001
 44
0.000001
 12
0.3364389337625613
 22
0.9417052850274924
 32
0.0
 13
-0.3364389335092214
 23
0.941705285118002
 33
0.0
 40
0.0
 40
0.0
 40
0.0
 40
0.0
 40
0.7002580873188247
 40
1.401875446833951
 40
2.103492815739584
 40
2.803750912448022
 40
2.803750912448022
 40
2.803750912448022
 40
2.803750912448022
 10
-4.045620120172713
 20
6.250000018878012
 30
0.0
 10
-3.967088758753995
 20
6.469812266115139
 30
0.0
 10
-3.844432109860096
 20
6.923163422113878
 30
0.0
 10
-3.777762404680377
 20
7.625000003077485
 30
0.0
 10
-3.844432107801045
 20
8.326836587507854
 30
0.0
 10
-3.967088757760119
 20
8.780187749794329
 30
0.0
 10
-4.045620120172713
 20
9.0
 30
0.0
 11
-4.045620120172713
 21
6.250000018878012
 31
0.0
 11
-3.86406926858976
 21
6.92631405624891
 31
0.0
 11
-3.799999999999996
 21
7.625
 31
0.0
 11
-3.864069267039856
 21
8.323685953323121
 31
0.0
 11
-4.045620120172713
 21
9.0
 31
0.0
  0
SPLINE
  5
11B
100
AcDbEntity
  8
0
  6
CONTINUOUS
 62
     7
100
AcDbSpline
210
0.0
220
0.0
230
-1.0
 70
     8
 71
     3
 72
    11
 73
     7
 74
     5
 42
0.0000001
 43
0.0000001
 44
0.000001
 12
-0.3364389337625614
 22
0.9417052850274924
 32
0.0
 13
0.3364389335092213
 23
0.941705285118002
 33
0.0
 40
0.0
 40
0.0
 40
0.0
 40
0.0
 40
0.7002580873188249
 40
1.401875446833951
 40
2.103492815739584
 40
2.803750912448022
 40
2.803750912448022
 40
2.803750912448022
 40
2.803750912448022
 10
-5.354379879827277
 20
6.250000018878012
 30
0.0
 10
-5.432911241245996
 20
6.469812266115139
 30
0.0
 10
-5.555567890139898
 20
6.923163422113876
 30
0.0
 10
-5.622237595319612
 20
7.625000003077487
 30
0.0
 10
-5.555567892198946
 20
8.326836587507852
 30
0.0
 10
-5.432911242239872
 20
8.780187749794329
 30
0.0
 10
-5.354379879827277
 20
9.0
 30
0.0
 11
-5.354379879827277
 21
6.250000018878012
 31
0.0
 11
-5.535930731410231
 21
6.92631405624891
 31
0.0
 11
-5.599999999999993
 21
7.625
 31
0.0
 11
-5.535930732960135
 21
8.323685953323121
 31
0.0
 11
-5.354379879827277
 21
9.0
 31
0.0
  0
SPLINE
  5
11C
100
AcDbEntity
  8
0
  6
CONTINUOUS
 62
     7
100
AcDbSpline
210
0.0
220
0.0
230
1.0
 70
     8
 71
     3
 72
    11
 73
     7
 74
     5
 42
0.0000001
 43
0.0000001
 44
0.000001
 12
0.3364389337625613
 22
-0.9417052850274924
 32
0.0
 13
-0.3364389335092214
 23
-0.941705285118002
 33
0.0
 40
0.0
 40
0.0
 40
0.0
 40
0.0
 40
0.7002580873188231
 40
1.401875446833952
 40
2.103492815739584
 40
2.803750912448023
 40
2.803750912448023
 40
2.803750912448023
 40
2.803750912448023
 10
-4.045620120172713
 20
11.74999998112198
 30
0.0
 10
-3.967088758753995
 20
11.53018773388486
 30
0.0
 10
-3.844432109860095
 20
11.07683657788612
 30
0.0
 10
-3.777762404680377
 20
10.37499999692251
 30
0.0
 10
-3.844432107801045
 20
9.673163412492144
 30
0.0
 10
-3.967088757760119
 20
9.21981225020567
 30
0.0
 10
-4.045620120172713
 20
9.0
 30
0.0
 11
-4.045620120172713
 21
11.74999998112198
 31
0.0
 11
-3.86406926858976
 21
11.07368594375109
 31
0.0
 11
-3.799999999999996
 21
10.375
 31
0.0
 11
-3.864069267039856
 21
9.67631404667688
 31
0.0
 11
-4.045620120172713
 21
9.0
 31
0.0
  0
SPLINE
  5
11D
100
AcDbEntity
  8
0
  6
CONTINUOUS
 62
     7
100
AcDbSpline
210
0.0
220
0.0
230
-1.0
 70
     8
 71
     3
 72
    11
 73
     7
 74
     5
 42
0.0000001
 43
0.0000001
 44
0.000001
 12
-0.3364389337625614
 22
-0.9417052850274924
 32
0.0
 13
0.3364389335092213
 23
-0.941705285118002
 33
0.0
 40
0.0
 40
0.0
 40
0.0
 40
0.0
 40
0.7002580873188232
 40
1.401875446833952
 40
2.103492815739583
 40
2.803750912448023
 40
2.803750912448023
 40
2.803750912448023
 40
2.803750912448023
 10
-5.354379879827277
 20
11.74999998112198
 30
0.0
 10
-5.432911241245996
 20
11.53018773388486
 30
0.0
 10
-5.555567890139897
 20
11.07683657788612
 30
0.0
 10
-5.62223759531961
 20
10.37499999692251
 30
0.0
 10
-5.555567892198946
 20
9.673163412492145
 30
0.0
 10
-5.432911242239872
 20
9.21981225020567
 30
0.0
 10
-5.354379879827277
 20
9.0
 30
0.0
 11
-5.354379879827277
 21
11.74999998112198
 31
0.0
 11
-5.535930731410231
 21
11.07368594375109
 31
0.0
 11
-5.599999999999993
 21
10.375
 31
0.0
 11
-5.535930732960135
 21
9.67631404667688
 31
0.0
 11
-5.354379879827277
 21
9.0
 31
0.0
  0
SPLINE
  5
11E
100
AcDbEntity
  8
0
  6
CONTINUOUS
 62
     7
100
AcDbSpline
210
0.0
220
0.0
230
1.0
 70
     8
 71
     3
 72
    11
 73
     7
 74
     5
 42
0.0000001
 43
0.0000001
 44
0.000001
 12
0.3364389337625613
 22
-0.9417052850274924
 32
0.0
 13
-0.3364389335092214
 23
-0.941705285118002
 33
0.0
 40
0.0
 40
0.0
 40
0.0
 40
0.0
 40
0.700258087318823
 40
1.401875446833952
 40
2.103492815739583
 40
2.803750912448023
 40
2.803750912448023
 40
2.803750912448023
 40
2.803750912448023
 10
-2.245620120172716
 20
11.74999998112198
 30
0.0
 10
-2.167088758753998
 20
11.53018773388486
 30
0.0
 10
-2.044432109860098
 20
11.07683657788612
 30
0.0
 10
-1.977762404680381
 20
10.37499999692251
 30
0.0
 10
-2.044432107801048
 20
9.673163412492147
 30
0.0
 10
-2.167088757760121
 20
9.21981225020567
 30
0.0
 10
-2.245620120172716
 20
9.0
 30
0.0
 11
-2.245620120172716
 21
11.74999998112198
 31
0.0
 11
-2.064069268589764
 21
11.07368594375109
 31
0.0
 11
-2.0
 21
10.375
 31
0.0
 11
-2.064069267039858
 21
9.67631404667688
 31
0.0
 11
-2.245620120172716
 21
9.0
 31
0.0
  0
SPLINE
  5
11F
100
AcDbEntity
  8
0
  6
CONTINUOUS
 62
     7
100
AcDbSpline
210
0.0
220
0.0
230
-1.0
 70
     8
 71
     3
 72
    11
 73
     7
 74
     5
 42
0.0000001
 43
0.0000001
 44
0.000001
 12
-0.3364389337625614
 22
-0.9417052850274924
 32
0.0
 13
0.3364389335092213
 23
-0.941705285118002
 33
0.0
 40
0.0
 40
0.0
 40
0.0
 40
0.0
 40
0.7002580873188231
 40
1.401875446833952
 40
2.103492815739583
 40
2.803750912448023
 40
2.803750912448023
 40
2.803750912448023
 40
2.803750912448023
 10
-3.55437987982728
 20
11.74999998112198
 30
0.0
 10
-3.632911241245998
 20
11.53018773388486
 30
0.0
 10
-3.755567890139899
 20
11.07683657788612
 30
0.0
 10
-3.822237595319613
 20
10.37499999692251
 30
0.0
 10
-3.755567892198949
 20
9.673163412492145
 30
0.0
 10
-3.632911242239875
 20
9.21981225020567
 30
0.0
 10
-3.55437987982728
 20
9.0
 30
0.0
 11
-3.55437987982728
 21
11.74999998112198
 31
0.0
 11
-3.735930731410233
 21
11.07368594375109
 31
0.0
 11
-3.799999999999996
 21
10.375
 31
0.0
 11
-3.735930732960138
 21
9.67631404667688
 31
0.0
 11
-3.55437987982728
 21
9.0
 31
0.0
  0
LINE
  5
120
100
AcDbEntity
  8
0
  6
CONTINUOUS
 62
     7
100
AcDbLine
 10
-4.04562
 20
9.0
 30
0.0
 11
-5.35438
 21
9.0
 31
0.0
  0
LINE
  5
121
100
AcDbEntity
  8
0
  6
CONTINUOUS
 62
     7
100
AcDbLine
 10
-3.8
 20
6.25
 30
0.0
 11
-5.6
 21
6.25
 31
0.0
  0
LINE
  5
122
100
AcDbEntity
  8
0
  6
CONTINUOUS
 62
     7
100
AcDbLine
 10
-3.8
 20
6.25
 30
0.0
 11
-2.0
 21
6.25
 31
0.0
  0
LINE
  5
123
100
AcDbEntity
  8
0
  6
CONTINUOUS
 62
     7
100
AcDbLine
 10
-3.55438
 20
9.0
 30
0.0
 11
-2.24562
 21
9.0
 31
0.0
  0
LINE
  5
124
100
AcDbEntity
  8
0
  6
CONTINUOUS
 62
     7
100
AcDbLine
 10
-3.8
 20
11.75
 30
0.0
 11
-2.0
 21
11.75
 31
0.0
  0
LINE
  5
125
100
AcDbEntity
  8
0
  6
CONTINUOUS
 62
     7
100
AcDbLine
 10
-3.8
 20
11.75
 30
0.0
 11
-5.6
 21
11.75
 31
0.0
  0
LINE
  5
126
100
AcDbEntity
  8
0
  6
CONTINUOUS
 62
     7
100
AcDbLine
 10
-3.8
 20
6.25
 30
0.0
 11
-3.8
 21
11.75
 31
0.0
  0
LINE
  5
127
100
AcDbEntity
  8
0
  6
CONTINUOUS
 62
     7
100
AcDbLine
 10
-5.6
 20
6.25
 30
0.0
 11
-5.6
 21
11.75
 31
0.0
  0
LINE
  5
128
100
AcDbEntity
  8
0
  6
CONTINUOUS
 62
     7
100
AcDbLine
 10
-2.0
 20
6.25
 30
0.0
 11
-2.0
 21
11.75
 31
0.0
  0
INSERT
  5
130
100
AcDbEntity
  8
0
  6
CONTINUOUS
 62
     7
100
AcDbBlockReference
  2
*X9
 10
0.0
 20
0.0
 30
0.0
  0
LINE
  5
131
100
AcDbEntity
  8
0
  6
CONTINUOUS
 62
     4
100
AcDbLine
 10
22.5
 20
2.830761
 30
0.0
 11
42.638269
 21
2.830761
 31
0.0
  0
LINE
  5
132
100
AcDbEntity
  8
0
  6
CONTINUOUS
 62
   200
100
AcDbLine
 10
42.277538
 20
1.484496
 30
0.0
 11
43.686507
 21
6.742839
 31
0.0
  0
LINE
  5
133
100
AcDbEntity
  8
0
  6
CONTINUOUS
 62
     4
100
AcDbLine
 10
31.5
 20
5.330761
 30
0.0
 11
43.308142
 21
5.330761
 31
0.0
  0
LINE
  5
134
100
AcDbEntity
  8
0
  6
CONTINUOUS
 62
     4
100
AcDbLine
 10
22.5
 20
3.585786
 30
0.0
 11
7.0
 21
3.585786
 31
0.0
  0
LINE
  5
135
100
AcDbEntity
  8
0
  6
CONTINUOUS
 62
     4
100
AcDbLine
 10
22.5
 20
3.78105
 30
0.0
 11
22.5
 21
1.464466
 31
0.0
  0
LINE
  5
136
100
AcDbEntity
  8
0
  6
CONTINUOUS
 62
     4
100
AcDbLine
 10
22.5
 20
1.464466
 30
0.0
 11
7.0
 21
1.464466
 31
0.0
  0
LINE
  5
137
100
AcDbEntity
  8
0
  6
CONTINUOUS
 62
     4
100
AcDbLine
 10
8.75
 20
1.659101
 30
0.0
 11
8.75
 21
3.391152
 31
0.0
  0
LINE
  5
138
100
AcDbEntity
  8
0
  6
CONTINUOUS
 62
     4
100
AcDbLine
 10
9.25
 20
1.659101
 30
0.0
 11
9.25
 21
3.391152
 31
0.0
  0
ELLIPSE
  5
139
100
AcDbEntity
  8
0
  6
CONTINUOUS
 62
     4
100
AcDbEllipse
 10
9.0
 20
2.525126
 30
0.0
 11
-1.250000002649999
 21
0.0000000000000002
 31
0.0
210
0.0
220
0.0
230
1.0
 40
0.707107
 41
-0.0000000000000008
 42
6.283185307179599
  0
LINE
  5
13A
100
AcDbEntity
  8
0
  6
CONTINUOUS
 62
     4
100
AcDbLine
 10
7.0
 20
3.78105
 30
0.0
 11
7.0
 21
1.464466
 31
0.0
  0
LINE
  5
13B
100
AcDbEntity
  8
0
  6
CONTINUOUS
 62
     7
100
AcDbLine
 10
22.5
 20
1.747309
 30
0.0
 11
31.5
 21
1.747309
 31
0.0
  0
LINE
  5
13C
100
AcDbEntity
  8
0
  6
CONTINUOUS
 62
     7
100
AcDbLine
 10
31.5
 20
3.78105
 30
0.0
 11
31.5
 21
14.0
 31
0.0
  0
LINE
  5
13D
100
AcDbEntity
  8
0
  6
CENTER
 62
     2
100
AcDbLine
 10
5.0
 20
12.5
 30
0.0
 11
5.0
 21
15.5
 31
0.0
  0
ENDBLK
  5
13E
100
AcDbEntity
  8
0
100
AcDbBlockEnd
  0
BLOCK
  5
13F
100
AcDbEntity
  8
0
100
AcDbBlockBegin
  2
MS_4
 70
     0
 10
0.0
 20
0.0
 30
0.0
  3
MS_4
  1

  0
LINE
  5
140
100
AcDbEntity
  8
0
  6
PHANTOM
 62
     3
100
AcDbLine
 10
14.812124
 20
19.0
 30
0.0
 11
14.812124
 21
-5.183843
 31
0.0
  0
LINE
  5
141
100
AcDbEntity
  8
0
  6
CONTINUOUS
 62
     4
100
AcDbLine
 10
33.0
 20
11.169239
 30
0.0
 11
43.308142
 21
11.169239
 31
0.0
  0
LINE
  5
142
100
AcDbEntity
  8
0
  6
CONTINUOUS
 62
   200
100
AcDbLine
 10
42.277538
 20
7.322973
 30
0.0
 11
43.686507
 21
12.581317
 31
0.0
  0
LINE
  5
143
100
AcDbEntity
  8
0
  6
CONTINUOUS
 62
     4
100
AcDbLine
 10
19.25
 20
12.340899
 30
0.0
 11
19.25
 21
10.608848
 31
0.0
  0
LINE
  5
144
100
AcDbEntity
  8
0
  6
CONTINUOUS
 62
     4
100
AcDbLine
 10
19.75
 20
12.340899
 30
0.0
 11
19.75
 21
10.608848
 31
0.0
  0
ELLIPSE
  5
145
100
AcDbEntity
  8
0
  6
CONTINUOUS
 62
     4
100
AcDbEllipse
 10
19.5
 20
11.474874
 30
0.0
 11
-1.250000002649999
 21
0.0000000000000002
 31
0.0
210
0.0
220
0.0
230
1.0
 40
0.707107
 41
-0.0000000000000018
 42
6.283185307179598
  0
LINE
  5
146
100
AcDbEntity
  8
0
  6
CONTINUOUS
 62
     4
100
AcDbLine
 10
17.5
 20
10.21895
 30
0.0
 11
17.5
 21
12.535534
 31
0.0
  0
LINE
  5
147
100
AcDbEntity
  8
0
  6
CONTINUOUS
 62
     4
100
AcDbLine
 10
33.0
 20
8.669239
 30
0.0
 11
42.638269
 21
8.669239
 31
0.0
  0
LINE
  5
148
100
AcDbEntity
  8
0
  6
CONTINUOUS
 62
     4
100
AcDbLine
 10
33.0
 20
10.414214
 30
0.0
 11
17.5
 21
10.414214
 31
0.0
  0
LINE
  5
149
100
AcDbEntity
  8
0
  6
CONTINUOUS
 62
     4
100
AcDbLine
 10
33.0
 20
12.535534
 30
0.0
 11
17.5
 21
12.535534
 31
0.0
  0
LINE
  5
14A
100
AcDbEntity
  8
0
  6
CENTER
 62
     2
100
AcDbLine
 10
-9.095598
 20
5.0
 30
0.0
 11
32.355882
 21
5.0
 31
0.0
  0
LINE
  5
14B
100
AcDbEntity
  8
0
  6
CONTINUOUS
 62
     7
100
AcDbLine
 10
31.5
 20
14.0
 30
0.0
 11
31.5
 21
12.535534
 31
0.0
  0
LINE
  5
14C
100
AcDbEntity
  8
0
  6
CONTINUOUS
 62
     7
100
AcDbLine
 10
0.0
 20
14.0
 30
0.0
 11
0.0
 21
0.0
 31
0.0
  0
LINE
  5
14D
100
AcDbEntity
  8
0
  6
CONTINUOUS
 62
     7
100
AcDbLine
 10
-7.7
 20
6.5
 30
0.0
 11
-5.6
 21
6.5
 31
0.0
  0
LINE
  5
14E
100
AcDbEntity
  8
0
  6
CONTINUOUS
 62
     7
100
AcDbLine
 10
-8.0
 20
3.8
 30
0.0
 11
-8.0
 21
6.2
 31
0.0
  0
LINE
  5
14F
100
AcDbEntity
  8
0
  6
CONTINUOUS
 62
     7
100
AcDbLine
 10
-1.0
 20
3.5
 30
0.0
 11
-1.0
 21
6.5
 31
0.0
  0
LINE
  5
150
100
AcDbEntity
  8
0
  6
CONTINUOUS
 62
     7
100
AcDbLine
 10
-7.7
 20
3.5
 30
0.0
 11
-7.7
 21
6.5
 31
0.0
  0
LINE
  5
151
100
AcDbEntity
  8
0
  6
CONTINUOUS
 62
     2
100
AcDbLine
 10
-1.0
 20
6.2
 30
0.0
 11
-0.480385
 21
6.5
 31
0.0
  0
LINE
  5
152
100
AcDbEntity
  8
0
  6
CONTINUOUS
 62
     7
100
AcDbLine
 10
-7.7
 20
6.5
 30
0.0
 11
-8.0
 21
6.2
 31
0.0
  0
LINE
  5
153
100
AcDbEntity
  8
0
  6
CONTINUOUS
 62
     2
100
AcDbLine
 10
-8.0
 20
6.2
 30
0.0
 11
-5.6
 21
6.2
 31
0.0
  0
LINE
  5
154
100
AcDbEntity
  8
0
  6
CONTINUOUS
 62
     2
100
AcDbLine
 10
-8.0
 20
3.8
 30
0.0
 11
-5.6
 21
3.8
 31
0.0
  0
LINE
  5
155
100
AcDbEntity
  8
0
  6
CONTINUOUS
 62
     2
100
AcDbLine
 10
-1.0
 20
3.8
 30
0.0
 11
-0.480385
 21
3.5
 31
0.0
  0
LINE
  5
156
100
AcDbEntity
  8
0
  6
CONTINUOUS
 62
     7
100
AcDbLine
 10
-7.7
 20
3.5
 30
0.0
 11
-8.0
 21
3.8
 31
0.0
  0
LINE
  5
157
100
AcDbEntity
  8
0
  6
CONTINUOUS
 62
     7
100
AcDbLine
 10
0.0
 20
0.0
 30
0.0
 11
31.5
 21
0.0
 31
0.0
  0
LINE
  5
158
100
AcDbEntity
  8
0
  6
CONTINUOUS
 62
     7
100
AcDbLine
 10
-7.7
 20
3.5
 30
0.0
 11
-5.6
 21
3.5
 31
0.0
  0
LINE
  5
159
100
AcDbEntity
  8
0
  6
CONTINUOUS
 62
     7
100
AcDbLine
 10
0.0
 20
14.0
 30
0.0
 11
31.5
 21
14.0
 31
0.0
  0
LINE
  5
15A
100
AcDbEntity
  8
0
  6
CONTINUOUS
 62
     7
100
AcDbLine
 10
0.0
 20
12.606245
 30
0.0
 11
31.5
 21
12.606245
 31
0.0
  0
LINE
  5
15B
100
AcDbEntity
  8
0
  6
CONTINUOUS
 62
     7
100
AcDbLine
 10
0.0
 20
12.252691
 30
0.0
 11
17.5
 21
12.252691
 31
0.0
  0
LINE
  5
15C
100
AcDbEntity
  8
0
  6
CONTINUOUS
 62
     7
100
AcDbLine
 10
0.0
 20
10.21895
 30
0.0
 11
31.5
 21
10.21895
 31
0.0
  0
LINE
  5
15D
100
AcDbEntity
  8
0
  6
CONTINUOUS
 62
     7
100
AcDbLine
 10
0.0
 20
9.0
 30
0.0
 11
31.5
 21
9.0
 31
0.0
  0
LINE
  5
15E
100
AcDbEntity
  8
0
  6
CENTER
 62
     2
100
AcDbLine
 10
10.0
 20
6.954778
 30
0.0
 11
10.0
 21
2.966523
 31
0.0
  0
CIRCLE
  5
15F
100
AcDbEntity
  8
0
  6
DASHED
 62
     2
100
AcDbCircle
 10
10.0
 20
5.0
 30
0.0
 40
1.5
  0
CIRCLE
  5
160
100
AcDbEntity
  8
0
  6
DASHED
 62
     7
100
AcDbCircle
 10
10.0
 20
5.0
 30
0.0
 40
1.2
  0
LINE
  5
161
100
AcDbEntity
  8
0
  6
CENTER
 62
     2
100
AcDbLine
 10
28.5
 20
6.954778
 30
0.0
 11
28.5
 21
3.023904
 31
0.0
  0
CIRCLE
  5
162
100
AcDbEntity
  8
0
  6
DASHED
 62
     2
100
AcDbCircle
 10
28.5
 20
5.0
 30
0.0
 40
1.5
  0
CIRCLE
  5
163
100
AcDbEntity
  8
0
  6
DASHED
 62
     7
100
AcDbCircle
 10
28.5
 20
5.0
 30
0.0
 40
1.2
  0
LINE
  5
164
100
AcDbEntity
  8
0
  6
CONTINUOUS
 62
     7
100
AcDbLine
 10
-2.0
 20
6.5
 30
0.0
 11
0.0
 21
6.5
 31
0.0
  0
LINE
  5
165
100
AcDbEntity
  8
0
  6
CONTINUOUS
 62
     2
100
AcDbLine
 10
-2.0
 20
6.2
 30
0.0
 11
-1.0
 21
6.2
 31
0.0
  0
LINE
  5
166
100
AcDbEntity
  8
0
  6
CONTINUOUS
 62
     2
100
AcDbLine
 10
-2.0
 20
3.8
 30
0.0
 11
-1.0
 21
3.8
 31
0.0
  0
LINE
  5
167
100
AcDbEntity
  8
0
  6
CONTINUOUS
 62
     7
100
AcDbLine
 10
-2.0
 20
3.5
 30
0.0
 11
0.0
 21
3.5
 31
0.0
  0
SPLINE
  5
168
100
AcDbEntity
  8
0
  6
CONTINUOUS
 62
     7
100
AcDbSpline
210
0.0
220
0.0
230
1.0
 70
     8
 71
     3
 72
    11
 73
     7
 74
     5
 42
0.0000001
 43
0.0000001
 44
0.000001
 12
0.3364389337625613
 22
0.9417052850274924
 32
0.0
 13
-0.3364389335092214
 23
0.941705285118002
 33
0.0
 40
0.0
 40
0.0
 40
0.0
 40
0.0
 40
0.7002580873188259
 40
1.401875446833952
 40
2.103492815739585
 40
2.803750912448023
 40
2.803750912448023
 40
2.803750912448023
 40
2.803750912448023
 10
-2.245620120172716
 20
2.250000018878011
 30
0.0
 10
-2.167088758753997
 20
2.469812266115138
 30
0.0
 10
-2.044432109860099
 20
2.923163422113876
 30
0.0
 10
-1.977762404680381
 20
3.625000003077487
 30
0.0
 10
-2.044432107801047
 20
4.326836587507854
 30
0.0
 10
-2.167088757760122
 20
4.78018774979433
 30
0.0
 10
-2.245620120172716
 20
5.0
 30
0.0
 11
-2.245620120172716
 21
2.250000018878011
 31
0.0
 11
-2.064069268589764
 21
2.92631405624891
 31
0.0
 11
-2.0
 21
3.625
 31
0.0
 11
-2.064069267039858
 21
4.323685953323121
 31
0.0
 11
-2.245620120172716
 21
5.0
 31
0.0
  0
SPLINE
  5
169
100
AcDbEntity
  8
0
  6
CONTINUOUS
 62
     7
100
AcDbSpline
210
0.0
220
0.0
230
-1.0
 70
     8
 71
     3
 72
    11
 73
     7
 74
     5
 42
0.0000001
 43
0.0000001
 44
0.000001
 12
-0.3364389337625614
 22
0.9417052850274924
 32
0.0
 13
0.3364389335092213
 23
0.941705285118002
 33
0.0
 40
0.0
 40
0.0
 40
0.0
 40
0.0
 40
0.700258087318826
 40
1.401875446833952
 40
2.103492815739585
 40
2.803750912448023
 40
2.803750912448023
 40
2.803750912448023
 40
2.803750912448023
 10
-3.55437987982728
 20
2.250000018878011
 30
0.0
 10
-3.632911241245999
 20
2.469812266115138
 30
0.0
 10
-3.755567890139898
 20
2.923163422113876
 30
0.0
 10
-3.822237595319613
 20
3.625000003077485
 30
0.0
 10
-3.75556789219895
 20
4.326836587507854
 30
0.0
 10
-3.632911242239874
 20
4.78018774979433
 30
0.0
 10
-3.55437987982728
 20
5.0
 30
0.0
 11
-3.55437987982728
 21
2.250000018878011
 31
0.0
 11
-3.735930731410233
 21
2.92631405624891
 31
0.0
 11
-3.799999999999996
 21
3.625
 31
0.0
 11
-3.735930732960138
 21
4.323685953323121
 31
0.0
 11
-3.55437987982728
 21
5.0
 31
0.0
  0
SPLINE
  5
16A
100
AcDbEntity
  8
0
  6
CONTINUOUS
 62
     7
100
AcDbSpline
210
0.0
220
0.0
230
1.0
 70
     8
 71
     3
 72
    11
 73
     7
 74
     5
 42
0.0000001
 43
0.0000001
 44
0.000001
 12
0.3364389337625613
 22
0.9417052850274924
 32
0.0
 13
-0.3364389335092214
 23
0.941705285118002
 33
0.0
 40
0.0
 40
0.0
 40
0.0
 40
0.0
 40
0.700258087318826
 40
1.401875446833952
 40
2.103492815739585
 40
2.803750912448023
 40
2.803750912448023
 40
2.803750912448023
 40
2.803750912448023
 10
-4.045620120172713
 20
2.250000018878011
 30
0.0
 10
-3.967088758753995
 20
2.469812266115138
 30
0.0
 10
-3.844432109860096
 20
2.923163422113876
 30
0.0
 10
-3.777762404680378
 20
3.625000003077487
 30
0.0
 10
-3.844432107801045
 20
4.326836587507854
 30
0.0
 10
-3.967088757760119
 20
4.78018774979433
 30
0.0
 10
-4.045620120172713
 20
5.0
 30
0.0
 11
-4.045620120172713
 21
2.250000018878011
 31
0.0
 11
-3.86406926858976
 21
2.92631405624891
 31
0.0
 11
-3.799999999999996
 21
3.625
 31
0.0
 11
-3.864069267039856
 21
4.323685953323121
 31
0.0
 11
-4.045620120172713
 21
5.0
 31
0.0
  0
SPLINE
  5
16B
100
AcDbEntity
  8
0
  6
CONTINUOUS
 62
     7
100
AcDbSpline
210
0.0
220
0.0
230
-1.0
 70
     8
 71
     3
 72
    11
 73
     7
 74
     5
 42
0.0000001
 43
0.0000001
 44
0.000001
 12
-0.3364389337625614
 22
0.9417052850274924
 32
0.0
 13
0.3364389335092213
 23
0.941705285118002
 33
0.0
 40
0.0
 40
0.0
 40
0.0
 40
0.0
 40
0.7002580873188263
 40
1.401875446833952
 40
2.103492815739585
 40
2.803750912448023
 40
2.803750912448023
 40
2.803750912448023
 40
2.803750912448023
 10
-5.354379879827277
 20
2.250000018878011
 30
0.0
 10
-5.432911241245996
 20
2.469812266115138
 30
0.0
 10
-5.555567890139897
 20
2.923163422113876
 30
0.0
 10
-5.62223759531961
 20
3.625000003077485
 30
0.0
 10
-5.555567892198946
 20
4.326836587507854
 30
0.0
 10
-5.432911242239872
 20
4.78018774979433
 30
0.0
 10
-5.354379879827277
 20
5.0
 30
0.0
 11
-5.354379879827277
 21
2.250000018878011
 31
0.0
 11
-5.535930731410231
 21
2.92631405624891
 31
0.0
 11
-5.599999999999993
 21
3.625
 31
0.0
 11
-5.535930732960135
 21
4.323685953323121
 31
0.0
 11
-5.354379879827277
 21
5.0
 31
0.0
  0
SPLINE
  5
16C
100
AcDbEntity
  8
0
  6
CONTINUOUS
 62
     7
100
AcDbSpline
210
0.0
220
0.0
230
1.0
 70
     8
 71
     3
 72
    11
 73
     7
 74
     5
 42
0.0000001
 43
0.0000001
 44
0.000001
 12
0.3364389337625613
 22
-0.9417052850274924
 32
0.0
 13
-0.3364389335092214
 23
-0.941705285118002
 33
0.0
 40
0.0
 40
0.0
 40
0.0
 40
0.0
 40
0.7002580873188247
 40
1.401875446833951
 40
2.103492815739584
 40
2.803750912448022
 40
2.803750912448022
 40
2.803750912448022
 40
2.803750912448022
 10
-4.045620120172713
 20
7.749999981121987
 30
0.0
 10
-3.967088758753995
 20
7.53018773388486
 30
0.0
 10
-3.844432109860096
 20
7.076836577886123
 30
0.0
 10
-3.777762404680377
 20
6.374999996922512
 30
0.0
 10
-3.844432107801045
 20
5.673163412492145
 30
0.0
 10
-3.967088757760119
 20
5.219812250205669
 30
0.0
 10
-4.045620120172713
 20
5.0
 30
0.0
 11
-4.045620120172713
 21
7.749999981121987
 31
0.0
 11
-3.86406926858976
 21
7.073685943751089
 31
0.0
 11
-3.799999999999996
 21
6.375
 31
0.0
 11
-3.864069267039856
 21
5.676314046676878
 31
0.0
 11
-4.045620120172713
 21
5.0
 31
0.0
  0
SPLINE
  5
16D
100
AcDbEntity
  8
0
  6
CONTINUOUS
 62
     7
100
AcDbSpline
210
0.0
220
0.0
230
-1.0
 70
     8
 71
     3
 72
    11
 73
     7
 74
     5
 42
0.0000001
 43
0.0000001
 44
0.000001
 12
-0.3364389337625614
 22
-0.9417052850274924
 32
0.0
 13
0.3364389335092213
 23
-0.941705285118002
 33
0.0
 40
0.0
 40
0.0
 40
0.0
 40
0.0
 40
0.7002580873188249
 40
1.401875446833951
 40
2.103492815739584
 40
2.803750912448022
 40
2.803750912448022
 40
2.803750912448022
 40
2.803750912448022
 10
-5.354379879827277
 20
7.749999981121987
 30
0.0
 10
-5.432911241245996
 20
7.53018773388486
 30
0.0
 10
-5.555567890139898
 20
7.076836577886123
 30
0.0
 10
-5.622237595319612
 20
6.374999996922515
 30
0.0
 10
-5.555567892198946
 20
5.673163412492145
 30
0.0
 10
-5.432911242239872
 20
5.219812250205669
 30
0.0
 10
-5.354379879827277
 20
5.0
 30
0.0
 11
-5.354379879827277
 21
7.749999981121987
 31
0.0
 11
-5.535930731410231
 21
7.073685943751089
 31
0.0
 11
-5.599999999999993
 21
6.375
 31
0.0
 11
-5.535930732960135
 21
5.676314046676878
 31
0.0
 11
-5.354379879827277
 21
5.0
 31
0.0
  0
SPLINE
  5
16E
100
AcDbEntity
  8
0
  6
CONTINUOUS
 62
     7
100
AcDbSpline
210
0.0
220
0.0
230
1.0
 70
     8
 71
     3
 72
    11
 73
     7
 74
     5
 42
0.0000001
 43
0.0000001
 44
0.000001
 12
0.3364389337625613
 22
-0.9417052850274924
 32
0.0
 13
-0.3364389335092214
 23
-0.941705285118002
 33
0.0
 40
0.0
 40
0.0
 40
0.0
 40
0.0
 40
0.7002580873188246
 40
1.401875446833951
 40
2.103492815739584
 40
2.803750912448022
 40
2.803750912448022
 40
2.803750912448022
 40
2.803750912448022
 10
-2.245620120172716
 20
7.749999981121987
 30
0.0
 10
-2.167088758753997
 20
7.53018773388486
 30
0.0
 10
-2.044432109860099
 20
7.076836577886121
 30
0.0
 10
-1.977762404680381
 20
6.374999996922515
 30
0.0
 10
-2.044432107801047
 20
5.673163412492145
 30
0.0
 10
-2.167088757760122
 20
5.219812250205669
 30
0.0
 10
-2.245620120172716
 20
5.0
 30
0.0
 11
-2.245620120172716
 21
7.749999981121987
 31
0.0
 11
-2.064069268589764
 21
7.073685943751089
 31
0.0
 11
-2.0
 21
6.375
 31
0.0
 11
-2.064069267039858
 21
5.676314046676878
 31
0.0
 11
-2.245620120172716
 21
5.0
 31
0.0
  0
SPLINE
  5
16F
100
AcDbEntity
  8
0
  6
CONTINUOUS
 62
     7
100
AcDbSpline
210
0.0
220
0.0
230
-1.0
 70
     8
 71
     3
 72
    11
 73
     7
 74
     5
 42
0.0000001
 43
0.0000001
 44
0.000001
 12
-0.3364389337625614
 22
-0.9417052850274924
 32
0.0
 13
0.3364389335092213
 23
-0.941705285118002
 33
0.0
 40
0.0
 40
0.0
 40
0.0
 40
0.0
 40
0.7002580873188247
 40
1.401875446833951
 40
2.103492815739584
 40
2.803750912448022
 40
2.803750912448022
 40
2.803750912448022
 40
2.803750912448022
 10
-3.55437987982728
 20
7.749999981121987
 30
0.0
 10
-3.632911241245999
 20
7.53018773388486
 30
0.0
 10
-3.755567890139898
 20
7.076836577886123
 30
0.0
 10
-3.822237595319616
 20
6.374999996922515
 30
0.0
 10
-3.755567892198949
 20
5.673163412492146
 30
0.0
 10
-3.632911242239874
 20
5.219812250205669
 30
0.0
 10
-3.55437987982728
 20
5.0
 30
0.0
 11
-3.55437987982728
 21
7.749999981121987
 31
0.0
 11
-3.735930731410233
 21
7.073685943751089
 31
0.0
 11
-3.799999999999996
 21
6.375
 31
0.0
 11
-3.735930732960138
 21
5.676314046676878
 31
0.0
 11
-3.55437987982728
 21
5.0
 31
0.0
  0
LINE
  5
170
100
AcDbEntity
  8
0
  6
CONTINUOUS
 62
     7
100
AcDbLine
 10
-4.04562
 20
5.0
 30
0.0
 11
-5.35438
 21
5.0
 31
0.0
  0
LINE
  5
171
100
AcDbEntity
  8
0
  6
CONTINUOUS
 62
     7
100
AcDbLine
 10
-3.8
 20
2.25
 30
0.0
 11
-5.6
 21
2.25
 31
0.0
  0
LINE
  5
172
100
AcDbEntity
  8
0
  6
CONTINUOUS
 62
     7
100
AcDbLine
 10
-3.8
 20
2.25
 30
0.0
 11
-2.0
 21
2.25
 31
0.0
  0
LINE
  5
173
100
AcDbEntity
  8
0
  6
CONTINUOUS
 62
     7
100
AcDbLine
 10
-3.55438
 20
5.0
 30
0.0
 11
-2.24562
 21
5.0
 31
0.0
  0
LINE
  5
174
100
AcDbEntity
  8
0
  6
CONTINUOUS
 62
     7
100
AcDbLine
 10
-3.8
 20
7.75
 30
0.0
 11
-2.0
 21
7.75
 31
0.0
  0
LINE
  5
175
100
AcDbEntity
  8
0
  6
CONTINUOUS
 62
     7
100
AcDbLine
 10
-3.8
 20
7.75
 30
0.0
 11
-5.6
 21
7.75
 31
0.0
  0
LINE
  5
176
100
AcDbEntity
  8
0
  6
CONTINUOUS
 62
     7
100
AcDbLine
 10
-3.8
 20
2.25
 30
0.0
 11
-3.8
 21
7.75
 31
0.0
  0
LINE
  5
177
100
AcDbEntity
  8
0
  6
CONTINUOUS
 62
     7
100
AcDbLine
 10
-5.6
 20
2.25
 30
0.0
 11
-5.6
 21
7.75
 31
0.0
  0
LINE
  5
178
100
AcDbEntity
  8
0
  6
CONTINUOUS
 62
     7
100
AcDbLine
 10
-2.0
 20
2.25
 30
0.0
 11
-2.0
 21
7.75
 31
0.0
  0
INSERT
  5
180
100
AcDbEntity
  8
0
  6
CONTINUOUS
 62
     7
100
AcDbBlockReference
  2
*X10
 10
0.0
 20
0.0
 30
0.0
  0
LINE
  5
181
100
AcDbEntity
  8
0
  6
CONTINUOUS
 62
     7
100
AcDbLine
 10
31.5
 20
10.21895
 30
0.0
 11
31.5
 21
0.0
 31
0.0
  0
LINE
  5
182
100
AcDbEntity
  8
0
  6
CONTINUOUS
 62
     4
100
AcDbLine
 10
31.5
 20
7.536396
 30
0.0
 11
33.0
 21
7.536396
 31
0.0
  0
LINE
  5
183
100
AcDbEntity
  8
0
  6
CONTINUOUS
 62
     4
100
AcDbLine
 10
33.0
 20
7.536396
 30
0.0
 11
33.0
 21
12.535534
 31
0.0
  0
LINE
  5
184
100
AcDbEntity
  8
0
  6
CONTINUOUS
 62
     4
100
AcDbLine
 10
31.5
 20
9.282843
 30
0.0
 11
33.0
 21
9.282843
 31
0.0
  0
LINE
  5
185
100
AcDbEntity
  8
0
  6
CENTER
 62
     2
100
AcDbLine
 10
5.0
 20
1.5
 30
0.0
 11
5.0
 21
-1.5
 31
0.0
  0
ENDBLK
  5
186
100
AcDbEntity
  8
0
100
AcDbBlockEnd
  0
BLOCK
  5
187
100
AcDbEntity
  8
0
100
AcDbBlockBegin
  2
MS_5
 70
     0
 10
0.0
 20
0.0
 30
0.0
  3
MS_5
  1

  0
LINE
  5
188
100
AcDbEntity
  8
0
  6
PHANTOM
 62
     3
100
AcDbLine
 10
13.212124
 20
3.061022
 30
0.0
 11
13.212124
 21
-15.115186
 31
0.0
  0
LINE
  5
189
100
AcDbEntity
  8
0
  6
PHANTOM
 62
     3
100
AcDbLine
 10
24.864881
 20
3.061022
 30
0.0
 11
13.212124
 21
3.061022
 31
0.0
  0
LINE
  5
18A
100
AcDbEntity
  8
0
  6
PHANTOM
 62
     3
100
AcDbLine
 10
24.864881
 20
15.692837
 30
0.0
 11
24.864881
 21
3.061022
 31
0.0
  0
LINE
  5
18B
100
AcDbEntity
  8
0
  6
CONTINUOUS
 62
     4
100
AcDbLine
 10
8.75
 20
8.891152
 30
0.0
 11
8.75
 21
7.159101
 31
0.0
  0
LINE
  5
18C
100
AcDbEntity
  8
0
  6
CONTINUOUS
 62
     4
100
AcDbLine
 10
9.25
 20
8.891152
 30
0.0
 11
9.25
 21
7.159101
 31
0.0
  0
ELLIPSE
  5
18D
100
AcDbEntity
  8
0
  6
CONTINUOUS
 62
     4
100
AcDbEllipse
 10
9.0
 20
8.025126
 30
0.0
 11
-1.250000002649999
 21
0.0000000000000002
 31
0.0
210
0.0
220
0.0
230
1.0
 40
0.707107
 41
-0.0000000000000018
 42
6.283185307179598
  0
LINE
  5
18E
100
AcDbEntity
  8
0
  6
CONTINUOUS
 62
     4
100
AcDbLine
 10
7.0
 20
9.085786
 30
0.0
 11
7.0
 21
6.17335
 31
0.0
  0
LINE
  5
18F
100
AcDbEntity
  8
0
  6
CONTINUOUS
 62
     4
100
AcDbLine
 10
22.0
 20
6.769689
 30
0.0
 11
22.0
 21
12.939518
 31
0.0
  0
LINE
  5
190
100
AcDbEntity
  8
0
  6
CONTINUOUS
 62
     4
100
AcDbLine
 10
19.5
 20
10.040381
 30
0.0
 11
19.5
 21
10.747487
 31
0.0
  0
LINE
  5
191
100
AcDbEntity
  8
0
  6
CONTINUOUS
 62
     4
100
AcDbLine
 10
21.6
 20
11.489949
 30
0.0
 11
21.6
 21
12.197056
 31
0.0
  0
ELLIPSE
  5
192
100
AcDbEntity
  8
0
  6
CONTINUOUS
 62
     4
100
AcDbEllipse
 10
19.5
 20
12.197056
 30
0.0
 11
2.100000004451994
 21
0.0
 31
0.0
210
0.0
220
0.0
230
1.0
 40
0.690271
 41
2.269021238230781
 42
7.155756722538612
  0
LINE
  5
193
100
AcDbEntity
  8
0
  6
CONTINUOUS
 62
     4
100
AcDbLine
 10
19.5
 20
10.040381
 30
0.0
 11
22.0
 21
10.040381
 31
0.0
  0
LINE
  5
194
100
AcDbEntity
  8
0
  6
CONTINUOUS
 62
     4
100
AcDbLine
 10
21.303625
 20
12.939518
 30
0.0
 11
22.0
 21
12.939518
 31
0.0
  0
LINE
  5
195
100
AcDbEntity
  8
0
  6
CONTINUOUS
 62
     4
100
AcDbLine
 10
17.4
 20
12.197056
 30
0.0
 11
17.4
 21
8.025126
 31
0.0
  0
ELLIPSE
  5
196
100
AcDbEntity
  8
0
  6
CONTINUOUS
 62
     4
100
AcDbEllipse
 10
19.5
 20
11.489949
 30
0.0
 11
2.099999988453868
 21
0.0
 31
0.0
210
0.0
220
0.0
230
1.0
 40
0.690271
 41
-1.570796326794896
 42
0.0
  0
LINE
  5
197
100
AcDbEntity
  8
0
  6
CONTINUOUS
 62
     4
100
AcDbLine
 10
18.030306
 20
7.636217
 30
0.0
 11
22.0
 21
7.636217
 31
0.0
  0
LINE
  5
198
100
AcDbEntity
  8
0
  6
CONTINUOUS
 62
     4
100
AcDbLine
 10
18.030306
 20
6.964466
 30
0.0
 11
18.030306
 21
7.636217
 31
0.0
  0
ELLIPSE
  5
199
100
AcDbEntity
  8
0
  6
CONTINUOUS
 62
     4
100
AcDbEllipse
 10
19.5
 20
8.025126
 30
0.0
 11
-2.10000002421665
 21
0.0000000000000003
 31
0.0
210
0.0
220
0.0
230
1.0
 40
0.690271
 41
0.0000000000000002
 42
0.7956029495296795
  0
LINE
  5
19A
100
AcDbEntity
  8
0
  6
CONTINUOUS
 62
     4
100
AcDbLine
 10
20.85
 20
12.197056
 30
0.0
 11
20.85
 21
15.197056
 31
0.0
  0
LINE
  5
19B
100
AcDbEntity
  8
0
  6
CONTINUOUS
 62
     4
100
AcDbLine
 10
18.15
 20
12.197056
 30
0.0
 11
18.15
 21
15.197056
 31
0.0
  0
ELLIPSE
  5
19C
100
AcDbEntity
  8
0
  6
CONTINUOUS
 62
     4
100
AcDbEllipse
 10
19.5
 20
12.197056
 30
0.0
 11
1.350000002862001
 21
0.0
 31
0.0
210
0.0
220
0.0
230
1.0
 40
0.713093
 41
3.141592653589793
 42
6.2831853071796
  0
ELLIPSE
  5
19D
100
AcDbEntity
  8
0
  6
CONTINUOUS
 62
     4
100
AcDbEllipse
 10
19.5
 20
15.197056
 30
0.0
 11
1.350000002862001
 21
0.0
 31
0.0
210
0.0
220
0.0
230
1.0
 40
0.713093
 41
-0.0000000000000018
 42
6.283185307179598
  0
LINE
  5
19E
100
AcDbEntity
  8
0
  6
CONTINUOUS
 62
     4
100
AcDbLine
 10
14.5
 20
-6.769689
 30
0.0
 11
14.5
 21
-12.939518
 31
0.0
  0
LINE
  5
19F
100
AcDbEntity
  8
0
  6
CONTINUOUS
 62
     4
100
AcDbLine
 10
17.0
 20
-10.040381
 30
0.0
 11
17.0
 21
-10.747487
 31
0.0
  0
LINE
  5
1A0
100
AcDbEntity
  8
0
  6
CONTINUOUS
 62
     4
100
AcDbLine
 10
19.1
 20
-12.197056
 30
0.0
 11
19.1
 21
-8.025126
 31
0.0
  0
ELLIPSE
  5
1A1
100
AcDbEntity
  8
0
  6
CONTINUOUS
 62
     4
100
AcDbEllipse
 10
17.0
 20
-11.489949
 30
0.0
 11
-2.099999988453868
 21
0.0000000000000003
 31
0.0
210
0.0
220
0.0
230
1.0
 40
0.690271
 41
-1.570796326794896
 42
0.0000000000000002
  0
ELLIPSE
  5
1A2
100
AcDbEntity
  8
0
  6
CONTINUOUS
 62
     4
100
AcDbEllipse
 10
17.0
 20
-15.197056
 30
0.0
 11
-1.350000002862001
 21
0.0000000000000002
 31
0.0
210
0.0
220
0.0
230
1.0
 40
0.713093
 41
-0.0000000000000016
 42
6.283185307179598
  0
ELLIPSE
  5
1A3
100
AcDbEntity
  8
0
  6
CONTINUOUS
 62
     4
100
AcDbEllipse
 10
17.0
 20
-12.197056
 30
0.0
 11
-1.350000002862001
 21
0.0000000000000002
 31
0.0
210
0.0
220
0.0
230
1.0
 40
0.713093
 41
-3.141592653589793
 42
0.0000000000000002
  0
LINE
  5
1A4
100
AcDbEntity
  8
0
  6
CONTINUOUS
 62
     4
100
AcDbLine
 10
18.35
 20
-12.197056
 30
0.0
 11
18.35
 21
-15.197056
 31
0.0
  0
LINE
  5
1A5
100
AcDbEntity
  8
0
  6
CONTINUOUS
 62
     4
100
AcDbLine
 10
15.65
 20
-12.197056
 30
0.0
 11
15.65
 21
-15.197056
 31
0.0
  0
LINE
  5
1A6
100
AcDbEntity
  8
0
  6
CONTINUOUS
 62
     4
100
AcDbLine
 10
15.196375
 20
-12.939518
 30
0.0
 11
14.5
 21
-12.939518
 31
0.0
  0
ELLIPSE
  5
1A7
100
AcDbEntity
  8
0
  6
CONTINUOUS
 62
     4
100
AcDbEllipse
 10
17.0
 20
-12.197056
 30
0.0
 11
-2.100000004451994
 21
0.0000000000000003
 31
0.0
210
0.0
220
0.0
230
1.0
 40
0.690271
 41
2.269021238230781
 42
7.155756722538612
  0
LINE
  5
1A8
100
AcDbEntity
  8
0
  6
CONTINUOUS
 62
     4
100
AcDbLine
 10
14.9
 20
-11.489949
 30
0.0
 11
14.9
 21
-12.197056
 31
0.0
  0
LINE
  5
1A9
100
AcDbEntity
  8
0
  6
CONTINUOUS
 62
     4
100
AcDbLine
 10
17.0
 20
-10.040381
 30
0.0
 11
14.5
 21
-10.040381
 31
0.0
  0
LINE
  5
1AA
100
AcDbEntity
  8
0
  6
CONTINUOUS
 62
     4
100
AcDbLine
 10
18.469694
 20
-7.636217
 30
0.0
 11
14.5
 21
-7.636217
 31
0.0
  0
LINE
  5
1AB
100
AcDbEntity
  8
0
  6
CONTINUOUS
 62
     4
100
AcDbLine
 10
18.469694
 20
-6.964466
 30
0.0
 11
18.469694
 21
-7.636217
 31
0.0
  0
ELLIPSE
  5
1AC
100
AcDbEntity
  8
0
  6
CONTINUOUS
 62
     4
100
AcDbEllipse
 10
17.0
 20
-8.025126
 30
0.0
 11
2.10000002421665
 21
0.0
 31
0.0
210
0.0
220
0.0
230
1.0
 40
0.690271
 41
0.0
 42
0.7956029495296793
  0
LINE
  5
1AD
100
AcDbEntity
  8
0
  6
CONTINUOUS
 62
     4
100
AcDbLine
 10
27.75
 20
-8.891152
 30
0.0
 11
27.75
 21
-7.159101
 31
0.0
  0
LINE
  5
1AE
100
AcDbEntity
  8
0
  6
CONTINUOUS
 62
     4
100
AcDbLine
 10
27.25
 20
-8.891152
 30
0.0
 11
27.25
 21
-7.159101
 31
0.0
  0
ELLIPSE
  5
1AF
100
AcDbEntity
  8
0
  6
CONTINUOUS
 62
     4
100
AcDbEllipse
 10
27.5
 20
-8.025126
 30
0.0
 11
1.250000002649999
 21
0.0
 31
0.0
210
0.0
220
0.0
230
1.0
 40
0.707107
 41
-0.000000000000002
 42
6.283185307179598
  0
LINE
  5
1B0
100
AcDbEntity
  8
0
  6
CONTINUOUS
 62
     4
100
AcDbLine
 10
29.5
 20
-9.085786
 30
0.0
 11
29.5
 21
-6.769689
 31
0.0
  0
LINE
  5
1B1
100
AcDbEntity
  8
0
  6
CONTINUOUS
 62
     4
100
AcDbLine
 10
7.0
 20
9.085786
 30
0.0
 11
17.4
 21
9.085786
 31
0.0
  0
LINE
  5
1B2
100
AcDbEntity
  8
0
  6
CONTINUOUS
 62
     4
100
AcDbLine
 10
7.0
 20
6.964466
 30
0.0
 11
22.0
 21
6.964466
 31
0.0
  0
LINE
  5
1B3
100
AcDbEntity
  8
0
  6
CONTINUOUS
 62
     4
100
AcDbLine
 10
19.1
 20
-9.085786
 30
0.0
 11
29.5
 21
-9.085786
 31
0.0
  0
LINE
  5
1B4
100
AcDbEntity
  8
0
  6
CONTINUOUS
 62
     4
100
AcDbLine
 10
14.5
 20
-6.964466
 30
0.0
 11
29.5
 21
-6.964466
 31
0.0
  0
INSERT
  5
1BE
100
AcDbEntity
  8
0
  6
CONTINUOUS
 62
     7
100
AcDbBlockReference
  2
*X11
 10
0.0
 20
0.0
 30
0.0
  0
LINE
  5
1BF
100
AcDbEntity
  8
0
  6
CONTINUOUS
 62
     7
100
AcDbLine
 10
-3.8
 20
-2.75
 30
0.0
 11
-3.8
 21
2.75
 31
0.0
  0
LINE
  5
1C0
100
AcDbEntity
  8
0
  6
CONTINUOUS
 62
     7
100
AcDbLine
 10
-2.0
 20
-2.75
 30
0.0
 11
-2.0
 21
2.75
 31
0.0
  0
LINE
  5
1C1
100
AcDbEntity
  8
0
  6
CONTINUOUS
 62
     7
100
AcDbLine
 10
-5.6
 20
-2.75
 30
0.0
 11
-5.6
 21
2.75
 31
0.0
  0
LINE
  5
1C2
100
AcDbEntity
  8
0
  6
CONTINUOUS
 62
     7
100
AcDbLine
 10
-4.04562
 20
3.175427
 30
0.0
 11
-5.35438
 21
3.175427
 31
0.0
  0
LINE
  5
1C3
100
AcDbEntity
  8
0
  6
CONTINUOUS
 62
     7
100
AcDbLine
 10
-3.8
 20
2.75
 30
0.0
 11
-4.04562
 21
3.175427
 31
0.0
  0
LINE
  5
1C4
100
AcDbEntity
  8
0
  6
CONTINUOUS
 62
     7
100
AcDbLine
 10
-5.6
 20
2.75
 30
0.0
 11
-5.35438
 21
3.175427
 31
0.0
  0
LINE
  5
1C5
100
AcDbEntity
  8
0
  6
CONTINUOUS
 62
     7
100
AcDbLine
 10
-2.0
 20
2.75
 30
0.0
 11
-2.24562
 21
3.175427
 31
0.0
  0
LINE
  5
1C6
100
AcDbEntity
  8
0
  6
CONTINUOUS
 62
     7
100
AcDbLine
 10
-3.8
 20
2.75
 30
0.0
 11
-3.55438
 21
3.175427
 31
0.0
  0
LINE
  5
1C7
100
AcDbEntity
  8
0
  6
CONTINUOUS
 62
     7
100
AcDbLine
 10
-3.55438
 20
3.175427
 30
0.0
 11
-2.24562
 21
3.175427
 31
0.0
  0
LINE
  5
1C8
100
AcDbEntity
  8
0
  6
CONTINUOUS
 62
     7
100
AcDbLine
 10
-3.55438
 20
1.587713
 30
0.0
 11
-2.24562
 21
1.587713
 31
0.0
  0
LINE
  5
1C9
100
AcDbEntity
  8
0
  6
CONTINUOUS
 62
     7
100
AcDbLine
 10
-4.04562
 20
1.587713
 30
0.0
 11
-5.35438
 21
1.587713
 31
0.0
  0
LINE
  5
1CA
100
AcDbEntity
  8
0
  6
CONTINUOUS
 62
     7
100
AcDbLine
 10
-3.55438
 20
-3.175427
 30
0.0
 11
-2.24562
 21
-3.175427
 31
0.0
  0
LINE
  5
1CB
100
AcDbEntity
  8
0
  6
CONTINUOUS
 62
     7
100
AcDbLine
 10
-3.55438
 20
-1.587713
 30
0.0
 11
-2.24562
 21
-1.587713
 31
0.0
  0
LINE
  5
1CC
100
AcDbEntity
  8
0
  6
CONTINUOUS
 62
     7
100
AcDbLine
 10
-4.04562
 20
-1.587713
 30
0.0
 11
-5.35438
 21
-1.587713
 31
0.0
  0
LINE
  5
1CD
100
AcDbEntity
  8
0
  6
CONTINUOUS
 62
     7
100
AcDbLine
 10
-4.04562
 20
-3.175427
 30
0.0
 11
-5.35438
 21
-3.175427
 31
0.0
  0
LINE
  5
1CE
100
AcDbEntity
  8
0
  6
CONTINUOUS
 62
     7
100
AcDbLine
 10
-3.8
 20
-2.75
 30
0.0
 11
-4.04562
 21
-3.175427
 31
0.0
  0
LINE
  5
1CF
100
AcDbEntity
  8
0
  6
CONTINUOUS
 62
     7
100
AcDbLine
 10
-3.8
 20
-2.75
 30
0.0
 11
-3.55438
 21
-3.175427
 31
0.0
  0
LINE
  5
1D0
100
AcDbEntity
  8
0
  6
CONTINUOUS
 62
     7
100
AcDbLine
 10
-5.6
 20
-2.75
 30
0.0
 11
-5.35438
 21
-3.175427
 31
0.0
  0
LINE
  5
1D1
100
AcDbEntity
  8
0
  6
CONTINUOUS
 62
     7
100
AcDbLine
 10
-2.0
 20
-2.75
 30
0.0
 11
-2.24562
 21
-3.175427
 31
0.0
  0
SPLINE
  5
1D2
100
AcDbEntity
  8
0
  6
CONTINUOUS
 62
     7
100
AcDbSpline
210
0.0
220
0.0
230
-1.0
 70
     8
 71
     3
 72
    11
 73
     7
 74
     5
 42
0.0000001
 43
0.0000001
 44
0.000001
 12
-0.5262037598477772
 22
-0.8503585144643775
 32
0.0
 13
0.5262037751704171
 23
-0.8503585049826932
 33
0.0
 40
0.0
 40
0.0
 40
0.0
 40
0.0
 40
0.4199190360514369
 40
0.8387827523114896
 40
1.257646392588131
 40
1.677565351539459
 40
1.677565351539459
 40
1.677565351539459
 40
1.677565351539459
 10
-3.554379881916929
 20
3.175426523880929
 30
0.0
 10
-3.628034207117569
 20
3.056399281316925
 30
0.0
 10
-3.749463462412205
 20
2.801468334416916
 30
0.0
 10
-3.825236484014745
 20
2.381569901485893
 30
0.0
 10
-3.74946343582627
 20
1.961671502534928
 30
0.0
 10
-3.62803419364922
 20
1.706740607354795
 30
0.0
 10
-3.55437987982728
 20
1.587713387972215
 30
0.0
 11
-3.554379881916929
 21
3.175426523880929
 31
0.0
 11
-3.731848436729172
 21
2.794852077955796
 31
0.0
 11
-3.799999999999996
 21
2.3815698774887
 31
0.0
 11
-3.731848416228582
 21
1.968287757411811
 31
0.0
 11
-3.55437987982728
 21
1.587713387972215
 31
0.0
  0
SPLINE
  5
1D3
100
AcDbEntity
  8
0
  6
CONTINUOUS
 62
     7
100
AcDbSpline
210
0.0
220
0.0
230
1.0
 70
     8
 71
     3
 72
    11
 73
     7
 74
     5
 42
0.0000001
 43
0.0000001
 44
0.000001
 12
0.526203759847777
 22
-0.8503585144643775
 32
0.0
 13
-0.526203775170417
 23
-0.8503585049826934
 33
0.0
 40
0.0
 40
0.0
 40
0.0
 40
0.0
 40
0.4199190360514369
 40
0.8387827523114898
 40
1.257646392588131
 40
1.677565351539459
 40
1.677565351539459
 40
1.677565351539459
 40
1.677565351539459
 10
-2.245620118083067
 20
3.175426523880929
 30
0.0
 10
-2.171965792882427
 20
3.056399281316925
 30
0.0
 10
-2.050536537587791
 20
2.801468334416916
 30
0.0
 10
-1.974763515985249
 20
2.381569901485893
 30
0.0
 10
-2.050536564173728
 20
1.961671502534929
 30
0.0
 10
-2.171965806350776
 20
1.706740607354795
 30
0.0
 10
-2.245620120172716
 20
1.587713387972215
 30
0.0
 11
-2.245620118083067
 21
3.175426523880929
 31
0.0
 11
-2.068151563270824
 21
2.794852077955796
 31
0.0
 11
-2.0
 21
2.3815698774887
 31
0.0
 11
-2.068151583771415
 21
1.968287757411811
 31
0.0
 11
-2.245620120172716
 21
1.587713387972215
 31
0.0
  0
SPLINE
  5
1D4
100
AcDbEntity
  8
0
  6
CONTINUOUS
 62
     7
100
AcDbSpline
210
0.0
220
0.0
230
-1.0
 70
     8
 71
     3
 72
    11
 73
     7
 74
     5
 42
0.0000001
 43
0.0000001
 44
0.000001
 12
-0.5262037598477772
 22
-0.8503585144643775
 32
0.0
 13
0.5262037751704171
 23
-0.8503585049826932
 33
0.0
 40
0.0
 40
0.0
 40
0.0
 40
0.0
 40
0.4199190360514369
 40
0.8387827523114896
 40
1.257646392588131
 40
1.677565351539459
 40
1.677565351539459
 40
1.677565351539459
 40
1.677565351539459
 10
-5.354379881916926
 20
3.175426523880929
 30
0.0
 10
-5.428034207117566
 20
3.056399281316925
 30
0.0
 10
-5.549463462412203
 20
2.801468334416915
 30
0.0
 10
-5.625236484014743
 20
2.381569901485894
 30
0.0
 10
-5.549463435826266
 20
1.961671502534928
 30
0.0
 10
-5.428034193649217
 20
1.706740607354795
 30
0.0
 10
-5.354379879827277
 20
1.587713387972215
 30
0.0
 11
-5.354379881916926
 21
3.175426523880929
 31
0.0
 11
-5.531848436729169
 21
2.794852077955796
 31
0.0
 11
-5.599999999999993
 21
2.3815698774887
 31
0.0
 11
-5.531848416228579
 21
1.968287757411811
 31
0.0
 11
-5.354379879827277
 21
1.587713387972215
 31
0.0
  0
SPLINE
  5
1D5
100
AcDbEntity
  8
0
  6
CONTINUOUS
 62
     7
100
AcDbSpline
210
0.0
220
0.0
230
1.0
 70
     8
 71
     3
 72
    11
 73
     7
 74
     5
 42
0.0000001
 43
0.0000001
 44
0.000001
 12
0.526203759847777
 22
-0.8503585144643775
 32
0.0
 13
-0.526203775170417
 23
-0.8503585049826934
 33
0.0
 40
0.0
 40
0.0
 40
0.0
 40
0.0
 40
0.4199190360514368
 40
0.8387827523114898
 40
1.257646392588131
 40
1.677565351539459
 40
1.677565351539459
 40
1.677565351539459
 40
1.677565351539459
 10
-4.045620118083064
 20
3.175426523880929
 30
0.0
 10
-3.971965792882424
 20
3.056399281316925
 30
0.0
 10
-3.850536537587789
 20
2.801468334416916
 30
0.0
 10
-3.774763515985246
 20
2.381569901485894
 30
0.0
 10
-3.850536564173724
 20
1.961671502534928
 30
0.0
 10
-3.971965806350774
 20
1.706740607354795
 30
0.0
 10
-4.045620120172713
 20
1.587713387972215
 30
0.0
 11
-4.045620118083064
 21
3.175426523880929
 31
0.0
 11
-3.868151563270822
 21
2.794852077955796
 31
0.0
 11
-3.799999999999996
 21
2.3815698774887
 31
0.0
 11
-3.868151583771412
 21
1.968287757411811
 31
0.0
 11
-4.045620120172713
 21
1.587713387972215
 31
0.0
  0
SPLINE
  5
1D6
100
AcDbEntity
  8
0
  6
CONTINUOUS
 62
     7
100
AcDbSpline
210
0.0
220
0.0
230
-1.0
 70
     8
 71
     3
 72
    11
 73
     7
 74
     5
 42
0.0000001
 43
0.0000001
 44
0.000001
 12
-0.2955767328958228
 22
-0.955319001679874
 32
0.0
 13
0.2955767328958229
 23
-0.955319001679874
 33
0.0
 40
0.0
 40
0.0
 40
0.0
 40
0.0
 40
0.8048260150852984
 40
1.611101640492014
 40
2.417377265898731
 40
3.222203280984029
 40
3.222203280984029
 40
3.222203280984029
 40
3.222203280984029
 10
-3.55437987982728
 20
1.587713387972215
 30
0.0
 10
-3.633675827856772
 20
1.331424859553122
 30
0.0
 10
-3.756410033283405
 20
0.8064009986822973
 30
0.0
 10
-3.821814593687049
 20
-0.0000000000000001
 30
0.0
 10
-3.756410033283404
 20
-0.806400998682297
 30
0.0
 10
-3.633675827856772
 20
-1.331424859553122
 30
0.0
 10
-3.55437987982728
 20
-1.587713387972215
 30
0.0
 11
-3.55437987982728
 21
1.587713387972215
 31
0.0
 11
-3.736549131384664
 21
0.803775075127956
 31
0.0
 11
-3.799999999999996
 21
0.0
 31
0.0
 11
-3.736549131384664
 21
-0.803775075127956
 31
0.0
 11
-3.55437987982728
 21
-1.587713387972215
 31
0.0
  0
SPLINE
  5
1D7
100
AcDbEntity
  8
0
  6
CONTINUOUS
 62
     7
100
AcDbSpline
210
0.0
220
0.0
230
1.0
 70
     8
 71
     3
 72
    11
 73
     7
 74
     5
 42
0.0000001
 43
0.0000001
 44
0.000001
 12
0.2955767328958229
 22
-0.955319001679874
 32
0.0
 13
-0.2955767328958228
 23
-0.955319001679874
 33
0.0
 40
0.0
 40
0.0
 40
0.0
 40
0.0
 40
0.8048260150852984
 40
1.611101640492014
 40
2.417377265898731
 40
3.222203280984029
 40
3.222203280984029
 40
3.222203280984029
 40
3.222203280984029
 10
-4.045620120172713
 20
1.587713387972215
 30
0.0
 10
-3.966324172143221
 20
1.331424859553122
 30
0.0
 10
-3.843589966716589
 20
0.8064009986822975
 30
0.0
 10
-3.778185406312942
 20
0.0
 30
0.0
 10
-3.843589966716587
 20
-0.8064009986822972
 30
0.0
 10
-3.966324172143221
 20
-1.331424859553122
 30
0.0
 10
-4.045620120172713
 20
-1.587713387972215
 30
0.0
 11
-4.045620120172713
 21
1.587713387972215
 31
0.0
 11
-3.863450868615329
 21
0.803775075127956
 31
0.0
 11
-3.799999999999996
 21
0.0
 31
0.0
 11
-3.863450868615329
 21
-0.803775075127956
 31
0.0
 11
-4.045620120172713
 21
-1.587713387972215
 31
0.0
  0
SPLINE
  5
1D8
100
AcDbEntity
  8
0
  6
CONTINUOUS
 62
     7
100
AcDbSpline
210
0.0
220
0.0
230
1.0
 70
     8
 71
     3
 72
    11
 73
     7
 74
     5
 42
0.0000001
 43
0.0000001
 44
0.000001
 12
0.2955767328958229
 22
-0.955319001679874
 32
0.0
 13
-0.2955767328958228
 23
-0.955319001679874
 33
0.0
 40
0.0
 40
0.0
 40
0.0
 40
0.0
 40
0.8048260150852984
 40
1.611101640492014
 40
2.417377265898731
 40
3.222203280984029
 40
3.222203280984029
 40
3.222203280984029
 40
3.222203280984029
 10
-2.245620120172716
 20
1.587713387972215
 30
0.0
 10
-2.166324172143224
 20
1.331424859553122
 30
0.0
 10
-2.043589966716592
 20
0.8064009986822973
 30
0.0
 10
-1.978185406312946
 20
-0.0000000000000001
 30
0.0
 10
-2.043589966716591
 20
-0.806400998682297
 30
0.0
 10
-2.166324172143224
 20
-1.331424859553122
 30
0.0
 10
-2.245620120172716
 20
-1.587713387972215
 30
0.0
 11
-2.245620120172716
 21
1.587713387972215
 31
0.0
 11
-2.063450868615333
 21
0.803775075127956
 31
0.0
 11
-2.0
 21
0.0
 31
0.0
 11
-2.063450868615333
 21
-0.803775075127956
 31
0.0
 11
-2.245620120172716
 21
-1.587713387972215
 31
0.0
  0
SPLINE
  5
1D9
100
AcDbEntity
  8
0
  6
CONTINUOUS
 62
     7
100
AcDbSpline
210
0.0
220
0.0
230
-1.0
 70
     8
 71
     3
 72
    11
 73
     7
 74
     5
 42
0.0000001
 43
0.0000001
 44
0.000001
 12
-0.2955767328958228
 22
-0.955319001679874
 32
0.0
 13
0.2955767328958229
 23
-0.955319001679874
 33
0.0
 40
0.0
 40
0.0
 40
0.0
 40
0.0
 40
0.8048260150852982
 40
1.611101640492014
 40
2.417377265898731
 40
3.222203280984029
 40
3.222203280984029
 40
3.222203280984029
 40
3.222203280984029
 10
-5.354379879827277
 20
1.587713387972215
 30
0.0
 10
-5.433675827856769
 20
1.331424859553122
 30
0.0
 10
-5.556410033283398
 20
0.806400998682297
 30
0.0
 10
-5.621814593687046
 20
0.0
 30
0.0
 10
-5.556410033283401
 20
-0.8064009986822972
 30
0.0
 10
-5.433675827856769
 20
-1.331424859553122
 30
0.0
 10
-5.354379879827277
 20
-1.587713387972215
 30
0.0
 11
-5.354379879827277
 21
1.587713387972215
 31
0.0
 11
-5.53654913138466
 21
0.803775075127956
 31
0.0
 11
-5.599999999999993
 21
0.0
 31
0.0
 11
-5.53654913138466
 21
-0.803775075127956
 31
0.0
 11
-5.354379879827277
 21
-1.587713387972215
 31
0.0
  0
SPLINE
  5
1DA
100
AcDbEntity
  8
0
  6
CONTINUOUS
 62
     7
100
AcDbSpline
210
0.0
220
0.0
230
1.0
 70
     8
 71
     3
 72
    11
 73
     7
 74
     5
 42
0.0000001
 43
0.0000001
 44
0.000001
 12
0.526203759847777
 22
0.8503585144643775
 32
0.0
 13
-0.526203775170417
 23
0.8503585049826934
 33
0.0
 40
0.0
 40
0.0
 40
0.0
 40
0.0
 40
0.4199190360514368
 40
0.8387827523114898
 40
1.257646392588131
 40
1.677565351539459
 40
1.677565351539459
 40
1.677565351539459
 40
1.677565351539459
 10
-4.045620118083064
 20
-3.175426523880929
 30
0.0
 10
-3.971965792882424
 20
-3.056399281316925
 30
0.0
 10
-3.850536537587789
 20
-2.801468334416916
 30
0.0
 10
-3.774763515985246
 20
-2.381569901485894
 30
0.0
 10
-3.850536564173724
 20
-1.961671502534928
 30
0.0
 10
-3.971965806350774
 20
-1.706740607354795
 30
0.0
 10
-4.045620120172713
 20
-1.587713387972215
 30
0.0
 11
-4.045620118083064
 21
-3.175426523880929
 31
0.0
 11
-3.868151563270822
 21
-2.794852077955796
 31
0.0
 11
-3.799999999999996
 21
-2.3815698774887
 31
0.0
 11
-3.868151583771412
 21
-1.968287757411811
 31
0.0
 11
-4.045620120172713
 21
-1.587713387972215
 31
0.0
  0
SPLINE
  5
1DB
100
AcDbEntity
  8
0
  6
CONTINUOUS
 62
     7
100
AcDbSpline
210
0.0
220
0.0
230
-1.0
 70
     8
 71
     3
 72
    11
 73
     7
 74
     5
 42
0.0000001
 43
0.0000001
 44
0.000001
 12
-0.5262037598477772
 22
0.8503585144643775
 32
0.0
 13
0.5262037751704171
 23
0.8503585049826932
 33
0.0
 40
0.0
 40
0.0
 40
0.0
 40
0.0
 40
0.4199190360514369
 40
0.8387827523114896
 40
1.257646392588131
 40
1.677565351539459
 40
1.677565351539459
 40
1.677565351539459
 40
1.677565351539459
 10
-3.554379881916929
 20
-3.175426523880929
 30
0.0
 10
-3.628034207117569
 20
-3.056399281316925
 30
0.0
 10
-3.749463462412205
 20
-2.801468334416916
 30
0.0
 10
-3.825236484014745
 20
-2.381569901485893
 30
0.0
 10
-3.74946343582627
 20
-1.961671502534928
 30
0.0
 10
-3.62803419364922
 20
-1.706740607354795
 30
0.0
 10
-3.55437987982728
 20
-1.587713387972215
 30
0.0
 11
-3.554379881916929
 21
-3.175426523880929
 31
0.0
 11
-3.731848436729172
 21
-2.794852077955796
 31
0.0
 11
-3.799999999999996
 21
-2.3815698774887
 31
0.0
 11
-3.731848416228582
 21
-1.968287757411811
 31
0.0
 11
-3.55437987982728
 21
-1.587713387972215
 31
0.0
  0
SPLINE
  5
1DC
100
AcDbEntity
  8
0
  6
CONTINUOUS
 62
     7
100
AcDbSpline
210
0.0
220
0.0
230
1.0
 70
     8
 71
     3
 72
    11
 73
     7
 74
     5
 42
0.0000001
 43
0.0000001
 44
0.000001
 12
0.526203759847777
 22
0.8503585144643775
 32
0.0
 13
-0.526203775170417
 23
0.8503585049826934
 33
0.0
 40
0.0
 40
0.0
 40
0.0
 40
0.0
 40
0.4199190360514369
 40
0.8387827523114898
 40
1.257646392588131
 40
1.677565351539459
 40
1.677565351539459
 40
1.677565351539459
 40
1.677565351539459
 10
-2.245620118083067
 20
-3.175426523880929
 30
0.0
 10
-2.171965792882427
 20
-3.056399281316925
 30
0.0
 10
-2.050536537587791
 20
-2.801468334416916
 30
0.0
 10
-1.974763515985249
 20
-2.381569901485893
 30
0.0
 10
-2.050536564173728
 20
-1.961671502534929
 30
0.0
 10
-2.171965806350776
 20
-1.706740607354795
 30
0.0
 10
-2.245620120172716
 20
-1.587713387972215
 30
0.0
 11
-2.245620118083067
 21
-3.175426523880929
 31
0.0
 11
-2.068151563270824
 21
-2.794852077955796
 31
0.0
 11
-2.0
 21
-2.3815698774887
 31
0.0
 11
-2.068151583771415
 21
-1.968287757411811
 31
0.0
 11
-2.245620120172716
 21
-1.587713387972215
 31
0.0
  0
SPLINE
  5
1DD
100
AcDbEntity
  8
0
  6
CONTINUOUS
 62
     7
100
AcDbSpline
210
0.0
220
0.0
230
-1.0
 70
     8
 71
     3
 72
    11
 73
     7
 74
     5
 42
0.0000001
 43
0.0000001
 44
0.000001
 12
-0.5262037598477772
 22
0.8503585144643775
 32
0.0
 13
0.5262037751704171
 23
0.8503585049826932
 33
0.0
 40
0.0
 40
0.0
 40
0.0
 40
0.0
 40
0.4199190360514369
 40
0.8387827523114896
 40
1.257646392588131
 40
1.677565351539459
 40
1.677565351539459
 40
1.677565351539459
 40
1.677565351539459
 10
-5.354379881916926
 20
-3.175426523880929
 30
0.0
 10
-5.428034207117566
 20
-3.056399281316925
 30
0.0
 10
-5.549463462412203
 20
-2.801468334416915
 30
0.0
 10
-5.625236484014743
 20
-2.381569901485894
 30
0.0
 10
-5.549463435826266
 20
-1.961671502534928
 30
0.0
 10
-5.428034193649217
 20
-1.706740607354795
 30
0.0
 10
-5.354379879827277
 20
-1.587713387972215
 30
0.0
 11
-5.354379881916926
 21
-3.175426523880929
 31
0.0
 11
-5.531848436729169
 21
-2.794852077955796
 31
0.0
 11
-5.599999999999993
 21
-2.3815698774887
 31
0.0
 11
-5.531848416228579
 21
-1.968287757411811
 31
0.0
 11
-5.354379879827277
 21
-1.587713387972215
 31
0.0
  0
LINE
  5
1DE
100
AcDbEntity
  8
0
  6
CONTINUOUS
 62
     7
100
AcDbLine
 10
-2.0
 20
-1.5
 30
0.0
 11
0.0
 21
-1.5
 31
0.0
  0
LINE
  5
1DF
100
AcDbEntity
  8
0
  6
CONTINUOUS
 62
     2
100
AcDbLine
 10
-2.0
 20
-1.2
 30
0.0
 11
-1.0
 21
-1.2
 31
0.0
  0
LINE
  5
1E0
100
AcDbEntity
  8
0
  6
CONTINUOUS
 62
     7
100
AcDbLine
 10
-2.0
 20
1.5
 30
0.0
 11
0.0
 21
1.5
 31
0.0
  0
LINE
  5
1E1
100
AcDbEntity
  8
0
  6
CONTINUOUS
 62
     2
100
AcDbLine
 10
-2.0
 20
1.2
 30
0.0
 11
-1.0
 21
1.2
 31
0.0
  0
CIRCLE
  5
1E2
100
AcDbEntity
  8
0
  6
CONTINUOUS
 62
     7
100
AcDbCircle
 10
28.5
 20
0.0
 30
0.0
 40
1.2
  0
CIRCLE
  5
1E3
100
AcDbEntity
  8
0
  6
CONTINUOUS
 62
     2
100
AcDbCircle
 10
28.5
 20
0.0
 30
0.0
 40
1.5
  0
LINE
  5
1E4
100
AcDbEntity
  8
0
  6
CENTER
 62
     2
100
AcDbLine
 10
28.5
 20
1.954778
 30
0.0
 11
28.5
 21
-1.976096
 31
0.0
  0
CIRCLE
  5
1E5
100
AcDbEntity
  8
0
  6
CONTINUOUS
 62
     7
100
AcDbCircle
 10
10.0
 20
0.0
 30
0.0
 40
1.2
  0
CIRCLE
  5
1E6
100
AcDbEntity
  8
0
  6
CONTINUOUS
 62
     2
100
AcDbCircle
 10
10.0
 20
0.0
 30
0.0
 40
1.5
  0
LINE
  5
1E7
100
AcDbEntity
  8
0
  6
CENTER
 62
     2
100
AcDbLine
 10
10.0
 20
1.954778
 30
0.0
 11
10.0
 21
-1.945826
 31
0.0
  0
LINE
  5
1E8
100
AcDbEntity
  8
0
  6
CONTINUOUS
 62
     7
100
AcDbLine
 10
0.0
 20
-5.5
 30
0.0
 11
3.67335
 21
-5.5
 31
0.0
  0
LINE
  5
1E9
100
AcDbEntity
  8
0
  6
CONTINUOUS
 62
     7
100
AcDbLine
 10
0.0
 20
-6.769689
 30
0.0
 11
2.713814
 21
-6.769689
 31
0.0
  0
LINE
  5
1EA
100
AcDbEntity
  8
0
  6
CONTINUOUS
 62
     7
100
AcDbLine
 10
0.0
 20
-8.802944
 30
0.0
 11
2.984476
 21
-8.802944
 31
0.0
  0
LINE
  5
1EB
100
AcDbEntity
  8
0
  6
CONTINUOUS
 62
     7
100
AcDbLine
 10
6.32665
 20
-5.5
 30
0.0
 11
31.5
 21
-5.5
 31
0.0
  0
LINE
  5
1EC
100
AcDbEntity
  8
0
  6
CONTINUOUS
 62
     7
100
AcDbLine
 10
7.286186
 20
-6.769689
 30
0.0
 11
31.5
 21
-6.769689
 31
0.0
  0
LINE
  5
1ED
100
AcDbEntity
  8
0
  6
CONTINUOUS
 62
     7
100
AcDbLine
 10
29.5
 20
-8.802944
 30
0.0
 11
31.5
 21
-8.802944
 31
0.0
  0
LINE
  5
1EE
100
AcDbEntity
  8
0
  6
CONTINUOUS
 62
     7
100
AcDbLine
 10
6.32665
 20
5.5
 30
0.0
 11
31.5
 21
5.5
 31
0.0
  0
LINE
  5
1EF
100
AcDbEntity
  8
0
  6
CONTINUOUS
 62
     7
100
AcDbLine
 10
7.286186
 20
6.769689
 30
0.0
 11
31.5
 21
6.769689
 31
0.0
  0
LINE
  5
1F0
100
AcDbEntity
  8
0
  6
CONTINUOUS
 62
     7
100
AcDbLine
 10
22.0
 20
8.802944
 30
0.0
 11
31.5
 21
8.802944
 31
0.0
  0
LINE
  5
1F1
100
AcDbEntity
  8
0
  6
CONTINUOUS
 62
     7
100
AcDbLine
 10
0.0
 20
5.5
 30
0.0
 11
3.67335
 21
5.5
 31
0.0
  0
LINE
  5
1F2
100
AcDbEntity
  8
0
  6
CONTINUOUS
 62
     7
100
AcDbLine
 10
0.0
 20
6.769689
 30
0.0
 11
2.713814
 21
6.769689
 31
0.0
  0
LINE
  5
1F3
100
AcDbEntity
  8
0
  6
CONTINUOUS
 62
     7
100
AcDbLine
 10
0.0
 20
8.802944
 30
0.0
 11
2.984476
 21
8.802944
 31
0.0
  0
LINE
  5
1F4
100
AcDbEntity
  8
0
  6
CONTINUOUS
 62
     7
100
AcDbLine
 10
-7.7
 20
-1.5
 30
0.0
 11
-5.6
 21
-1.5
 31
0.0
  0
LINE
  5
1F5
100
AcDbEntity
  8
0
  6
CONTINUOUS
 62
     7
100
AcDbLine
 10
-7.7
 20
1.5
 30
0.0
 11
-5.6
 21
1.5
 31
0.0
  0
LINE
  5
1F6
100
AcDbEntity
  8
0
  6
CENTER
 62
     2
100
AcDbLine
 10
1.6
 20
-7.5
 30
0.0
 11
8.4
 21
-7.5
 31
0.0
  0
CIRCLE
  5
1F7
100
AcDbEntity
  8
0
  6
CONTINUOUS
 62
     7
100
AcDbCircle
 10
5.0
 20
-7.5
 30
0.0
 40
1.35
  0
CIRCLE
  5
1F8
100
AcDbEntity
  8
0
  6
CONTINUOUS
 62
     7
100
AcDbCircle
 10
5.0
 20
-7.5
 30
0.0
 40
2.4
  0
LINE
  5
1F9
100
AcDbEntity
  8
0
  6
CENTER
 62
     2
100
AcDbLine
 10
5.0
 20
-10.9
 30
0.0
 11
5.0
 21
-4.1
 31
0.0
  0
LINE
  5
1FA
100
AcDbEntity
  8
0
  6
CONTINUOUS
 62
     7
100
AcDbLine
 10
0.0
 20
-10.5
 30
0.0
 11
14.5
 21
-10.5
 31
0.0
  0
LINE
  5
1FB
100
AcDbEntity
  8
0
  6
CONTINUOUS
 62
     2
100
AcDbLine
 10
-1.0
 20
-1.2
 30
0.0
 11
-0.480385
 21
-1.5
 31
0.0
  0
LINE
  5
1FC
100
AcDbEntity
  8
0
  6
CONTINUOUS
 62
     2
100
AcDbLine
 10
-8.0
 20
-1.2
 30
0.0
 11
-5.6
 21
-1.2
 31
0.0
  0
LINE
  5
1FD
100
AcDbEntity
  8
0
  6
CONTINUOUS
 62
     7
100
AcDbLine
 10
-7.7
 20
-1.5
 30
0.0
 11
-8.0
 21
-1.2
 31
0.0
  0
LINE
  5
1FE
100
AcDbEntity
  8
0
  6
CONTINUOUS
 62
     2
100
AcDbLine
 10
-8.0
 20
1.2
 30
0.0
 11
-5.6
 21
1.2
 31
0.0
  0
LINE
  5
1FF
100
AcDbEntity
  8
0
  6
CONTINUOUS
 62
     7
100
AcDbLine
 10
-7.7
 20
1.5
 30
0.0
 11
-8.0
 21
1.2
 31
0.0
  0
LINE
  5
200
100
AcDbEntity
  8
0
  6
CONTINUOUS
 62
     2
100
AcDbLine
 10
-1.0
 20
1.2
 30
0.0
 11
-0.480385
 21
1.5
 31
0.0
  0
LINE
  5
201
100
AcDbEntity
  8
0
  6
CONTINUOUS
 62
     7
100
AcDbLine
 10
-7.7
 20
-1.5
 30
0.0
 11
-7.7
 21
1.5
 31
0.0
  0
LINE
  5
202
100
AcDbEntity
  8
0
  6
CONTINUOUS
 62
     7
100
AcDbLine
 10
-1.0
 20
-1.5
 30
0.0
 11
-1.0
 21
1.5
 31
0.0
  0
LINE
  5
203
100
AcDbEntity
  8
0
  6
CONTINUOUS
 62
     7
100
AcDbLine
 10
-8.0
 20
-1.2
 30
0.0
 11
-8.0
 21
1.2
 31
0.0
  0
ARC
  5
204
100
AcDbEntity
  8
0
  6
CONTINUOUS
 62
     7
100
AcDbCircle
 10
5.0
 20
7.5
 30
0.0
 40
2.4
100
AcDbArc
 50
33.55731
 51
342.284168
  0
CIRCLE
  5
205
100
AcDbEntity
  8
0
  6
CONTINUOUS
 62
     7
100
AcDbCircle
 10
5.0
 20
7.5
 30
0.0
 40
1.35
  0
LINE
  5
206
100
AcDbEntity
  8
0
  6
CENTER
 62
     2
100
AcDbLine
 10
5.0
 20
10.9
 30
0.0
 11
5.0
 21
4.1
 31
0.0
  0
LINE
  5
207
100
AcDbEntity
  8
0
  6
CENTER
 62
     2
100
AcDbLine
 10
1.6
 20
7.5
 30
0.0
 11
8.4
 21
7.5
 31
0.0
  0
LINE
  5
208
100
AcDbEntity
  8
0
  6
CONTINUOUS
 62
     7
100
AcDbLine
 10
31.5
 20
10.5
 30
0.0
 11
31.5
 21
-10.5
 31
0.0
  0
LINE
  5
209
100
AcDbEntity
  8
0
  6
CONTINUOUS
 62
     7
100
AcDbLine
 10
0.0
 20
10.5
 30
0.0
 11
0.0
 21
-10.5
 31
0.0
  0
LINE
  5
20A
100
AcDbEntity
  8
0
  6
CONTINUOUS
 62
     7
100
AcDbLine
 10
0.0
 20
10.5
 30
0.0
 11
17.4
 21
10.5
 31
0.0
  0
LINE
  5
20B
100
AcDbEntity
  8
0
  6
CENTER
 62
     2
100
AcDbLine
 10
-9.222819
 20
0.0
 30
0.0
 11
32.640571
 21
0.0
 31
0.0
  0
LINE
  5
20C
100
AcDbEntity
  8
0
  6
CONTINUOUS
 62
     7
100
AcDbLine
 10
22.0
 20
10.5
 30
0.0
 11
31.5
 21
10.5
 31
0.0
  0
LINE
  5
20D
100
AcDbEntity
  8
0
  6
CONTINUOUS
 62
     7
100
AcDbLine
 10
19.1
 20
-10.5
 30
0.0
 11
31.5
 21
-10.5
 31
0.0
  0
LINE
  5
20E
100
AcDbEntity
  8
0
  6
CONTINUOUS
 62
     7
100
AcDbLine
 10
7.015524
 20
-8.802944
 30
0.0
 11
14.5
 21
-8.802944
 31
0.0
  0
ENDBLK
  5
20F
100
AcDbEntity
  8
0
100
AcDbBlockEnd
  0
BLOCK
  5
210
100
AcDbEntity
  8
0
100
AcDbBlockBegin
  2
MS_6
 70
     0
 10
0.0
 20
0.0
 30
0.0
  3
MS_6
  1

  0
LINE
  5
211
100
AcDbEntity
  8
0
  6
CONTINUOUS
 62
     4
100
AcDbLine
 10
14.700291
 20
-13.143569
 30
0.0
 11
17.072137
 21
-15.515416
 31
0.0
  0
LINE
  5
212
100
AcDbEntity
  8
0
  6
CONTINUOUS
 62
     4
100
AcDbLine
 10
16.609479
 20
-11.234381
 30
0.0
 11
18.705468
 21
-13.33037
 31
0.0
  0
LINE
  5
213
100
AcDbEntity
  8
0
  6
PHANTOM
 62
   200
100
AcDbLine
 10
19.341236
 20
-12.274807
 30
0.0
 11
16.325651
 21
-16.581509
 31
0.0
  0
LINE
  5
214
100
AcDbEntity
  8
0
  6
CONTINUOUS
 62
     4
100
AcDbLine
 10
17.096373
 20
-10.747487
 30
0.0
 11
14.197235
 21
-13.646625
 31
0.0
  0
LINE
  5
215
100
AcDbEntity
  8
0
  6
CONTINUOUS
 62
     4
100
AcDbLine
 10
13.985103
 20
-7.636217
 30
0.0
 11
13.207285
 21
-7.636217
 31
0.0
  0
LINE
  5
216
100
AcDbEntity
  8
0
  6
CONTINUOUS
 62
     4
100
AcDbLine
 10
11.085965
 20
-9.757538
 30
0.0
 11
11.085965
 21
-10.535355
 31
0.0
  0
LINE
  5
217
100
AcDbEntity
  8
0
  6
CONTINUOUS
 62
     4
100
AcDbLine
 10
17.096373
 20
-10.747487
 30
0.0
 11
13.985103
 21
-7.636217
 31
0.0
  0
LINE
  5
218
100
AcDbEntity
  8
0
  6
CONTINUOUS
 62
     4
100
AcDbLine
 10
14.197235
 20
-13.646625
 30
0.0
 11
11.085965
 21
-10.535355
 31
0.0
  0
LINE
  5
219
100
AcDbEntity
  8
0
  6
CONTINUOUS
 62
     4
100
AcDbLine
 10
12.216326
 20
-5.869461
 30
0.0
 11
12.218346
 21
-6.647278
 31
0.0
  0
LINE
  5
21A
100
AcDbEntity
  8
0
  6
CONTINUOUS
 62
     4
100
AcDbLine
 10
13.207285
 20
-7.636217
 30
0.0
 11
12.218346
 21
-6.647278
 31
0.0
  0
LINE
  5
21B
100
AcDbEntity
  8
0
  6
CONTINUOUS
 62
     4
100
AcDbLine
 10
11.085965
 20
-9.757538
 30
0.0
 11
10.097026
 21
-8.768599
 31
0.0
  0
LINE
  5
21C
100
AcDbEntity
  8
0
  6
CONTINUOUS
 62
     4
100
AcDbLine
 10
9.317188
 20
-8.768599
 30
0.0
 11
10.097026
 21
-8.768599
 31
0.0
  0
LINE
  5
21D
100
AcDbEntity
  8
0
  6
CONTINUOUS
 62
     4
100
AcDbLine
 10
9.317188
 20
-8.768599
 30
0.0
 11
8.222182
 21
-7.673593
 31
0.0
  0
ARC
  5
21E
100
AcDbEntity
  8
0
  6
CONTINUOUS
 62
     4
100
AcDbCircle
 10
9.670741
 20
-6.223951
 30
0.0
 40
2.050663
100
AcDbArc
 50
44.978576
 51
134.941569
  0
ARC
  5
21F
100
AcDbEntity
  8
0
  6
CONTINUOUS
 62
     4
100
AcDbCircle
 10
9.673603
 20
-6.223014
 30
0.0
 40
2.052024
100
AcDbArc
 50
135.016616
 51
224.983384
  0
LINE
  5
220
100
AcDbEntity
  8
0
  6
CENTER
 62
   200
100
AcDbLine
 10
18.883331
 20
-15.433583
 30
0.0
 11
7.579933
 21
-4.130186
 31
0.0
  0
LINE
  5
221
100
AcDbEntity
  8
0
  6
CONTINUOUS
 62
     4
100
AcDbLine
 10
16.389266
 20
-10.040381
 30
0.0
 11
13.490128
 21
-12.939518
 31
0.0
  0
LINE
  5
222
100
AcDbEntity
  8
0
  6
CONTINUOUS
 62
     4
100
AcDbLine
 10
13.207285
 20
7.636217
 30
0.0
 11
12.218346
 21
6.647278
 31
0.0
  0
LINE
  5
223
100
AcDbEntity
  8
0
  6
CONTINUOUS
 62
     4
100
AcDbLine
 10
9.317188
 20
8.768599
 30
0.0
 11
10.097026
 21
8.768599
 31
0.0
  0
LINE
  5
224
100
AcDbEntity
  8
0
  6
CONTINUOUS
 62
     4
100
AcDbLine
 10
11.65064
 20
5.303775
 30
0.0
 11
8.751502
 21
8.202913
 31
0.0
  0
LINE
  5
225
100
AcDbEntity
  8
0
  6
CENTER
 62
   200
100
AcDbLine
 10
18.883331
 20
15.433583
 30
0.0
 11
7.579933
 21
4.130186
 31
0.0
  0
LINE
  5
226
100
AcDbEntity
  8
0
  6
CONTINUOUS
 62
     4
100
AcDbLine
 10
11.085965
 20
9.757538
 30
0.0
 11
10.097026
 21
8.768599
 31
0.0
  0
LINE
  5
227
100
AcDbEntity
  8
0
  6
CONTINUOUS
 62
     4
100
AcDbLine
 10
12.535534
 20
6.964466
 30
0.0
 11
10.414214
 21
9.085786
 31
0.0
  0
LINE
  5
228
100
AcDbEntity
  8
0
  6
CONTINUOUS
 62
     4
100
AcDbLine
 10
14.197235
 20
13.646625
 30
0.0
 11
11.085965
 21
10.535355
 31
0.0
  0
LINE
  5
229
100
AcDbEntity
  8
0
  6
CONTINUOUS
 62
     4
100
AcDbLine
 10
17.096373
 20
10.747487
 30
0.0
 11
13.985103
 21
7.636217
 31
0.0
  0
LINE
  5
22A
100
AcDbEntity
  8
0
  6
CONTINUOUS
 62
     4
100
AcDbLine
 10
11.085965
 20
9.757538
 30
0.0
 11
11.085965
 21
10.535355
 31
0.0
  0
LINE
  5
22B
100
AcDbEntity
  8
0
  6
CONTINUOUS
 62
     4
100
AcDbLine
 10
13.985103
 20
7.636217
 30
0.0
 11
13.207285
 21
7.636217
 31
0.0
  0
LINE
  5
22C
100
AcDbEntity
  8
0
  6
CONTINUOUS
 62
     4
100
AcDbLine
 10
17.096373
 20
10.747487
 30
0.0
 11
14.197235
 21
13.646625
 31
0.0
  0
LINE
  5
22D
100
AcDbEntity
  8
0
  6
PHANTOM
 62
   200
100
AcDbLine
 10
19.341236
 20
12.274807
 30
0.0
 11
16.325651
 21
16.581509
 31
0.0
  0
LINE
  5
22E
100
AcDbEntity
  8
0
  6
CONTINUOUS
 62
     4
100
AcDbLine
 10
16.609479
 20
11.234381
 30
0.0
 11
18.705468
 21
13.33037
 31
0.0
  0
LINE
  5
22F
100
AcDbEntity
  8
0
  6
CONTINUOUS
 62
     4
100
AcDbLine
 10
14.700291
 20
13.143569
 30
0.0
 11
17.072137
 21
15.515416
 31
0.0
  0
LINE
  5
230
100
AcDbEntity
  8
0
  6
CONTINUOUS
 62
     4
100
AcDbLine
 10
8.894944
 20
4.386557
 30
0.0
 11
7.834284
 21
5.447217
 31
0.0
  0
LINE
  5
231
100
AcDbEntity
  8
0
  6
CONTINUOUS
 62
     4
100
AcDbLine
 10
11.086581
 20
4.740504
 30
0.0
 11
8.187837
 21
7.639248
 31
0.0
  0
LINE
  5
232
100
AcDbEntity
  8
0
  6
CONTINUOUS
 62
     4
100
AcDbLine
 10
9.602051
 20
4.386557
 30
0.0
 11
7.834284
 21
6.154324
 31
0.0
  0
ARC
  5
233
100
AcDbEntity
  8
0
  6
CONTINUOUS
 62
     4
100
AcDbCircle
 10
9.673603
 20
6.223014
 30
0.0
 40
2.052024
100
AcDbArc
 50
135.016616
 51
224.983384
  0
LINE
  5
234
100
AcDbEntity
  8
0
  6
CONTINUOUS
 62
     4
100
AcDbLine
 10
7.834284
 20
6.154324
 30
0.0
 11
7.834284
 21
5.447217
 31
0.0
  0
LINE
  5
235
100
AcDbEntity
  8
0
  6
CONTINUOUS
 62
     4
100
AcDbLine
 10
8.753523
 20
7.073563
 30
0.0
 11
7.834284
 21
6.154324
 31
0.0
  0
LINE
  5
236
100
AcDbEntity
  8
0
  6
CONTINUOUS
 62
     4
100
AcDbLine
 10
9.317188
 20
8.768599
 30
0.0
 11
8.222182
 21
7.673593
 31
0.0
  0
LINE
  5
237
100
AcDbEntity
  8
0
  6
CONTINUOUS
 62
   200
100
AcDbLine
 10
8.895954
 20
6.931131
 30
0.0
 11
7.834284
 21
5.869461
 31
0.0
  0
LINE
  5
238
100
AcDbEntity
  8
0
  6
CONTINUOUS
 62
     4
100
AcDbLine
 10
12.216326
 20
5.869461
 30
0.0
 11
12.218346
 21
6.647278
 31
0.0
  0
ARC
  5
239
100
AcDbEntity
  8
0
  6
CONTINUOUS
 62
     4
100
AcDbCircle
 10
9.670741
 20
6.223951
 30
0.0
 40
2.050663
100
AcDbArc
 50
225.058431
 51
315.021424
  0
LINE
  5
23A
100
AcDbEntity
  8
0
  6
CONTINUOUS
 62
     4
100
AcDbLine
 10
8.894944
 20
4.386557
 30
0.0
 11
9.602051
 21
4.386557
 31
0.0
  0
LINE
  5
23B
100
AcDbEntity
  8
0
  6
CONTINUOUS
 62
     4
100
AcDbLine
 10
10.52129
 20
5.305796
 30
0.0
 11
9.602051
 21
4.386557
 31
0.0
  0
LINE
  5
23C
100
AcDbEntity
  8
0
  6
CONTINUOUS
 62
     4
100
AcDbLine
 10
12.216326
 20
5.869461
 30
0.0
 11
11.12132
 21
4.774455
 31
0.0
  0
LINE
  5
23D
100
AcDbEntity
  8
0
  6
CONTINUOUS
 62
   200
100
AcDbLine
 10
10.380878
 20
5.446207
 30
0.0
 11
9.321228
 21
4.386557
 31
0.0
  0
LINE
  5
23E
100
AcDbEntity
  8
0
  6
CONTINUOUS
 62
     4
100
AcDbLine
 10
12.218346
 20
-5.86744
 30
0.0
 11
11.123341
 21
-4.772435
 31
0.0
  0
ARC
  5
23F
100
AcDbEntity
  8
0
  6
CONTINUOUS
 62
     7
100
AcDbCircle
 10
0.4
 20
-10.1
 30
0.0
 40
0.4
100
AcDbArc
 50
180.0
 51
270.0
  0
ARC
  5
240
100
AcDbEntity
  8
0
  6
CONTINUOUS
 62
     7
100
AcDbCircle
 10
0.4
 20
10.1
 30
0.0
 40
0.4
100
AcDbArc
 50
90.0
 51
180.0
  0
CIRCLE
  5
241
100
AcDbEntity
  8
0
  6
CONTINUOUS
 62
     7
100
AcDbCircle
 10
5.0
 20
7.5
 30
0.0
 40
1.1
  0
CIRCLE
  5
242
100
AcDbEntity
  8
0
  6
CONTINUOUS
 62
     2
100
AcDbCircle
 10
5.0
 20
7.5
 30
0.0
 40
1.5
  0
LINE
  5
243
100
AcDbEntity
  8
0
  6
CENTER
 62
     2
100
AcDbLine
 10
2.5
 20
7.5
 30
0.0
 11
7.5
 21
7.5
 31
0.0
  0
CIRCLE
  5
244
100
AcDbEntity
  8
0
  6
CONTINUOUS
 62
     7
100
AcDbCircle
 10
5.0
 20
-7.5
 30
0.0
 40
1.1
  0
CIRCLE
  5
245
100
AcDbEntity
  8
0
  6
CONTINUOUS
 62
     2
100
AcDbCircle
 10
5.0
 20
-7.5
 30
0.0
 40
1.5
  0
LINE
  5
246
100
AcDbEntity
  8
0
  6
CONTINUOUS
 62
     7
100
AcDbLine
 10
5.0
 20
3.175427
 30
0.0
 11
7.75
 21
1.587713
 31
0.0
  0
LINE
  5
247
100
AcDbEntity
  8
0
  6
CONTINUOUS
 62
     7
100
AcDbLine
 10
7.75
 20
1.587713
 30
0.0
 11
7.75
 21
-1.587713
 31
0.0
  0
LINE
  5
248
100
AcDbEntity
  8
0
  6
CONTINUOUS
 62
     7
100
AcDbLine
 10
7.75
 20
-1.587713
 30
0.0
 11
5.0
 21
-3.175427
 31
0.0
  0
LINE
  5
249
100
AcDbEntity
  8
0
  6
CONTINUOUS
 62
     7
100
AcDbLine
 10
5.0
 20
-3.175427
 30
0.0
 11
2.25
 21
-1.587713
 31
0.0
  0
LINE
  5
24A
100
AcDbEntity
  8
0
  6
CONTINUOUS
 62
     7
100
AcDbLine
 10
2.25
 20
-1.587713
 30
0.0
 11
2.25
 21
1.587713
 31
0.0
  0
LINE
  5
24B
100
AcDbEntity
  8
0
  6
CONTINUOUS
 62
     7
100
AcDbLine
 10
2.25
 20
1.587713
 30
0.0
 11
5.0
 21
3.175427
 31
0.0
  0
CIRCLE
  5
24C
100
AcDbEntity
  8
0
  6
CONTINUOUS
 62
     7
100
AcDbCircle
 10
5.0
 20
0.0
 30
0.0
 40
2.75
  0
CIRCLE
  5
24D
100
AcDbEntity
  8
0
  6
CONTINUOUS
 62
     2
100
AcDbCircle
 10
5.0
 20
0.0
 30
0.0
 40
1.2
  0
CIRCLE
  5
24E
100
AcDbEntity
  8
0
  6
CONTINUOUS
 62
     7
100
AcDbCircle
 10
5.0
 20
0.0
 30
0.0
 40
1.5
  0
CIRCLE
  5
24F
100
AcDbEntity
  8
0
  6
CONTINUOUS
 62
     7
100
AcDbCircle
 10
5.0
 20
0.0
 30
0.0
 40
4.35
  0
CIRCLE
  5
250
100
AcDbEntity
  8
0
  6
CONTINUOUS
 62
     7
100
AcDbCircle
 10
5.0
 20
0.0
 30
0.0
 40
4.15
  0
LINE
  5
251
100
AcDbEntity
  8
0
  6
CONTINUOUS
 62
     7
100
AcDbLine
 10
12.818377
 20
6.681623
 30
0.0
 11
14.0
 21
5.5
 31
0.0
  0
LINE
  5
252
100
AcDbEntity
  8
0
  6
CONTINUOUS
 62
     7
100
AcDbLine
 10
12.394112
 20
6.681623
 30
0.0
 11
12.252691
 21
6.540202
 31
0.0
  0
ARC
  5
253
100
AcDbEntity
  8
0
  6
CONTINUOUS
 62
     7
100
AcDbCircle
 10
12.606245
 20
6.470165
 30
0.0
 40
0.299524
100
AcDbArc
 50
44.908941
 51
135.091059
  0
LINE
  5
254
100
AcDbEntity
  8
0
  6
CONTINUOUS
 62
     7
100
AcDbLine
 10
12.252691
 20
6.540202
 30
0.0
 11
12.252691
 21
5.833095
 31
0.0
  0
LINE
  5
255
100
AcDbEntity
  8
0
  6
CONTINUOUS
 62
     7
100
AcDbLine
 10
12.252691
 20
5.833095
 30
0.0
 11
11.12132
 21
4.701724
 31
0.0
  0
ARC
  5
256
100
AcDbEntity
  8
0
  6
CONTINUOUS
 62
     7
100
AcDbCircle
 10
9.636396
 20
6.186649
 30
0.0
 40
2.1
100
AcDbArc
 50
135.0
 51
315.0
  0
LINE
  5
257
100
AcDbEntity
  8
0
  6
CONTINUOUS
 62
     7
100
AcDbLine
 10
10.131371
 20
8.944365
 30
0.0
 11
9.989949
 21
8.802944
 31
0.0
  0
ARC
  5
258
100
AcDbEntity
  8
0
  6
CONTINUOUS
 62
     7
100
AcDbCircle
 10
9.91825
 20
9.156497
 30
0.0
 40
0.3007
100
AcDbArc
 50
315.133262
 51
44.866738
  0
LINE
  5
259
100
AcDbEntity
  8
0
  6
CONTINUOUS
 62
     7
100
AcDbLine
 10
9.282843
 20
8.802944
 30
0.0
 11
9.989949
 21
8.802944
 31
0.0
  0
LINE
  5
25A
100
AcDbEntity
  8
0
  6
CONTINUOUS
 62
     7
100
AcDbLine
 10
10.164214
 20
9.335786
 30
0.0
 11
9.0
 21
10.5
 31
0.0
  0
LINE
  5
25B
100
AcDbEntity
  8
0
  6
CONTINUOUS
 62
     7
100
AcDbLine
 10
9.282843
 20
8.802944
 30
0.0
 11
8.151472
 21
7.671573
 31
0.0
  0
LINE
  5
25C
100
AcDbEntity
  8
0
  6
CONTINUOUS
 62
     7
100
AcDbLine
 10
14.0
 20
5.5
 30
0.0
 11
14.0
 21
-5.5
 31
0.0
  0
LINE
  5
25D
100
AcDbEntity
  8
0
  6
CONTINUOUS
 62
     7
100
AcDbLine
 10
0.4
 20
10.5
 30
0.0
 11
9.0
 21
10.5
 31
0.0
  0
LINE
  5
25E
100
AcDbEntity
  8
0
  6
CENTER
 62
     2
100
AcDbLine
 10
-1.017519
 20
0.0
 30
0.0
 11
14.757204
 21
0.0
 31
0.0
  0
LINE
  5
25F
100
AcDbEntity
  8
0
  6
CONTINUOUS
 62
     7
100
AcDbLine
 10
0.0
 20
10.1
 30
0.0
 11
0.0
 21
-10.1
 31
0.0
  0
LINE
  5
260
100
AcDbEntity
  8
0
  6
CENTER
 62
     2
100
AcDbLine
 10
5.0
 20
-10.0
 30
0.0
 11
5.0
 21
10.0
 31
0.0
  0
ARC
  5
261
100
AcDbEntity
  8
0
  6
CONTINUOUS
 62
     7
100
AcDbCircle
 10
12.606245
 20
-6.470165
 30
0.0
 40
0.299524
100
AcDbArc
 50
224.908941
 51
315.091059
  0
LINE
  5
262
100
AcDbEntity
  8
0
  6
CONTINUOUS
 62
     7
100
AcDbLine
 10
12.252691
 20
-5.833095
 30
0.0
 11
11.12132
 21
-4.701724
 31
0.0
  0
ARC
  5
263
100
AcDbEntity
  8
0
  6
CONTINUOUS
 62
     7
100
AcDbCircle
 10
9.636396
 20
-6.186649
 30
0.0
 40
2.1
100
AcDbArc
 50
45.0
 51
225.0
  0
LINE
  5
264
100
AcDbEntity
  8
0
  6
CONTINUOUS
 62
     7
100
AcDbLine
 10
0.4
 20
-10.5
 30
0.0
 11
9.0
 21
-10.5
 31
0.0
  0
LINE
  5
265
100
AcDbEntity
  8
0
  6
CENTER
 62
     2
100
AcDbLine
 10
2.5
 20
-7.5
 30
0.0
 11
7.5
 21
-7.5
 31
0.0
  0
LINE
  5
266
100
AcDbEntity
  8
0
  6
CONTINUOUS
 62
     7
100
AcDbLine
 10
9.282843
 20
-8.802944
 30
0.0
 11
8.151472
 21
-7.671573
 31
0.0
  0
LINE
  5
267
100
AcDbEntity
  8
0
  6
CONTINUOUS
 62
     7
100
AcDbLine
 10
10.164214
 20
-9.335786
 30
0.0
 11
9.0
 21
-10.5
 31
0.0
  0
LINE
  5
268
100
AcDbEntity
  8
0
  6
CONTINUOUS
 62
     7
100
AcDbLine
 10
9.282843
 20
-8.802944
 30
0.0
 11
9.989949
 21
-8.802944
 31
0.0
  0
ARC
  5
269
100
AcDbEntity
  8
0
  6
CONTINUOUS
 62
     7
100
AcDbCircle
 10
9.91825
 20
-9.156497
 30
0.0
 40
0.3007
100
AcDbArc
 50
315.133262
 51
44.866738
  0
LINE
  5
26A
100
AcDbEntity
  8
0
  6
CONTINUOUS
 62
     7
100
AcDbLine
 10
10.131371
 20
-8.944365
 30
0.0
 11
9.989949
 21
-8.802944
 31
0.0
  0
LINE
  5
26B
100
AcDbEntity
  8
0
  6
CONTINUOUS
 62
     7
100
AcDbLine
 10
12.252691
 20
-6.540202
 30
0.0
 11
12.252691
 21
-5.833095
 31
0.0
  0
LINE
  5
26C
100
AcDbEntity
  8
0
  6
CONTINUOUS
 62
     7
100
AcDbLine
 10
12.394112
 20
-6.681623
 30
0.0
 11
12.252691
 21
-6.540202
 31
0.0
  0
LINE
  5
26D
100
AcDbEntity
  8
0
  6
CONTINUOUS
 62
     7
100
AcDbLine
 10
12.818377
 20
-6.681623
 30
0.0
 11
14.0
 21
-5.5
 31
0.0
  0
LINE
  5
26E
100
AcDbEntity
  8
0
  6
CENTER
 62
     2
100
AcDbLine
 10
1.5
 20
-7.5
 30
0.0
 11
-1.5
 21
-7.5
 31
0.0
  0
LINE
  5
26F
100
AcDbEntity
  8
0
  6
CENTER
 62
     2
100
AcDbLine
 10
1.5
 20
7.5
 30
0.0
 11
-1.5
 21
7.5
 31
0.0
  0
ENDBLK
  5
270
100
AcDbEntity
  8
0
100
AcDbBlockEnd
  0
BLOCK
  5
271
100
AcDbEntity
  8
0
100
AcDbBlockBegin
  2
MS_7
 70
     0
 10
0.0
 20
0.0
 30
0.0
  3
MS_7
  1

  0
INSERT
  5
279
100
AcDbEntity
  8
0
  6
CONTINUOUS
 62
     7
100
AcDbBlockReference
  2
*X12
 10
0.0
 20
0.0
 30
0.0
  0
LINE
  5
27A
100
AcDbEntity
  8
0
  6
CONTINUOUS
 62
     7
100
AcDbLine
 10
-2.0
 20
6.25
 30
0.0
 11
-2.0
 21
11.75
 31
0.0
  0
LINE
  5
27B
100
AcDbEntity
  8
0
  6
CONTINUOUS
 62
     7
100
AcDbLine
 10
-5.6
 20
6.25
 30
0.0
 11
-5.6
 21
11.75
 31
0.0
  0
LINE
  5
27C
100
AcDbEntity
  8
0
  6
CONTINUOUS
 62
     7
100
AcDbLine
 10
-3.8
 20
6.25
 30
0.0
 11
-3.8
 21
11.75
 31
0.0
  0
LINE
  5
27D
100
AcDbEntity
  8
0
  6
CONTINUOUS
 62
     7
100
AcDbLine
 10
-3.8
 20
11.75
 30
0.0
 11
-5.6
 21
11.75
 31
0.0
  0
LINE
  5
27E
100
AcDbEntity
  8
0
  6
CONTINUOUS
 62
     7
100
AcDbLine
 10
-3.8
 20
11.75
 30
0.0
 11
-2.0
 21
11.75
 31
0.0
  0
LINE
  5
27F
100
AcDbEntity
  8
0
  6
CONTINUOUS
 62
     7
100
AcDbLine
 10
-3.55438
 20
9.0
 30
0.0
 11
-2.24562
 21
9.0
 31
0.0
  0
LINE
  5
280
100
AcDbEntity
  8
0
  6
CONTINUOUS
 62
     7
100
AcDbLine
 10
-3.8
 20
6.25
 30
0.0
 11
-2.0
 21
6.25
 31
0.0
  0
LINE
  5
281
100
AcDbEntity
  8
0
  6
CONTINUOUS
 62
     7
100
AcDbLine
 10
-3.8
 20
6.25
 30
0.0
 11
-5.6
 21
6.25
 31
0.0
  0
LINE
  5
282
100
AcDbEntity
  8
0
  6
CONTINUOUS
 62
     7
100
AcDbLine
 10
-4.04562
 20
9.0
 30
0.0
 11
-5.35438
 21
9.0
 31
0.0
  0
SPLINE
  5
283
100
AcDbEntity
  8
0
  6
CONTINUOUS
 62
     7
100
AcDbSpline
210
0.0
220
0.0
230
-1.0
 70
     8
 71
     3
 72
    11
 73
     7
 74
     5
 42
0.0000001
 43
0.0000001
 44
0.000001
 12
-0.3364389337625614
 22
-0.9417052850274924
 32
0.0
 13
0.3364389335092213
 23
-0.941705285118002
 33
0.0
 40
0.0
 40
0.0
 40
0.0
 40
0.0
 40
0.7002580873188231
 40
1.401875446833952
 40
2.103492815739583
 40
2.803750912448023
 40
2.803750912448023
 40
2.803750912448023
 40
2.803750912448023
 10
-3.55437987982728
 20
11.74999998112198
 30
0.0
 10
-3.632911241245998
 20
11.53018773388486
 30
0.0
 10
-3.755567890139899
 20
11.07683657788612
 30
0.0
 10
-3.822237595319613
 20
10.37499999692251
 30
0.0
 10
-3.755567892198949
 20
9.673163412492145
 30
0.0
 10
-3.632911242239875
 20
9.21981225020567
 30
0.0
 10
-3.55437987982728
 20
9.0
 30
0.0
 11
-3.55437987982728
 21
11.74999998112198
 31
0.0
 11
-3.735930731410233
 21
11.07368594375109
 31
0.0
 11
-3.799999999999996
 21
10.375
 31
0.0
 11
-3.735930732960138
 21
9.67631404667688
 31
0.0
 11
-3.55437987982728
 21
9.0
 31
0.0
  0
SPLINE
  5
284
100
AcDbEntity
  8
0
  6
CONTINUOUS
 62
     7
100
AcDbSpline
210
0.0
220
0.0
230
1.0
 70
     8
 71
     3
 72
    11
 73
     7
 74
     5
 42
0.0000001
 43
0.0000001
 44
0.000001
 12
0.3364389337625613
 22
-0.9417052850274924
 32
0.0
 13
-0.3364389335092214
 23
-0.941705285118002
 33
0.0
 40
0.0
 40
0.0
 40
0.0
 40
0.0
 40
0.700258087318823
 40
1.401875446833952
 40
2.103492815739583
 40
2.803750912448023
 40
2.803750912448023
 40
2.803750912448023
 40
2.803750912448023
 10
-2.245620120172716
 20
11.74999998112198
 30
0.0
 10
-2.167088758753998
 20
11.53018773388486
 30
0.0
 10
-2.044432109860098
 20
11.07683657788612
 30
0.0
 10
-1.977762404680381
 20
10.37499999692251
 30
0.0
 10
-2.044432107801048
 20
9.673163412492147
 30
0.0
 10
-2.167088757760121
 20
9.21981225020567
 30
0.0
 10
-2.245620120172716
 20
9.0
 30
0.0
 11
-2.245620120172716
 21
11.74999998112198
 31
0.0
 11
-2.064069268589764
 21
11.07368594375109
 31
0.0
 11
-2.0
 21
10.375
 31
0.0
 11
-2.064069267039858
 21
9.67631404667688
 31
0.0
 11
-2.245620120172716
 21
9.0
 31
0.0
  0
SPLINE
  5
285
100
AcDbEntity
  8
0
  6
CONTINUOUS
 62
     7
100
AcDbSpline
210
0.0
220
0.0
230
-1.0
 70
     8
 71
     3
 72
    11
 73
     7
 74
     5
 42
0.0000001
 43
0.0000001
 44
0.000001
 12
-0.3364389337625614
 22
-0.9417052850274924
 32
0.0
 13
0.3364389335092213
 23
-0.941705285118002
 33
0.0
 40
0.0
 40
0.0
 40
0.0
 40
0.0
 40
0.7002580873188232
 40
1.401875446833952
 40
2.103492815739583
 40
2.803750912448023
 40
2.803750912448023
 40
2.803750912448023
 40
2.803750912448023
 10
-5.354379879827277
 20
11.74999998112198
 30
0.0
 10
-5.432911241245996
 20
11.53018773388486
 30
0.0
 10
-5.555567890139897
 20
11.07683657788612
 30
0.0
 10
-5.62223759531961
 20
10.37499999692251
 30
0.0
 10
-5.555567892198946
 20
9.673163412492145
 30
0.0
 10
-5.432911242239872
 20
9.21981225020567
 30
0.0
 10
-5.354379879827277
 20
9.0
 30
0.0
 11
-5.354379879827277
 21
11.74999998112198
 31
0.0
 11
-5.535930731410231
 21
11.07368594375109
 31
0.0
 11
-5.599999999999993
 21
10.375
 31
0.0
 11
-5.535930732960135
 21
9.67631404667688
 31
0.0
 11
-5.354379879827277
 21
9.0
 31
0.0
  0
SPLINE
  5
286
100
AcDbEntity
  8
0
  6
CONTINUOUS
 62
     7
100
AcDbSpline
210
0.0
220
0.0
230
1.0
 70
     8
 71
     3
 72
    11
 73
     7
 74
     5
 42
0.0000001
 43
0.0000001
 44
0.000001
 12
0.3364389337625613
 22
-0.9417052850274924
 32
0.0
 13
-0.3364389335092214
 23
-0.941705285118002
 33
0.0
 40
0.0
 40
0.0
 40
0.0
 40
0.0
 40
0.7002580873188231
 40
1.401875446833952
 40
2.103492815739584
 40
2.803750912448023
 40
2.803750912448023
 40
2.803750912448023
 40
2.803750912448023
 10
-4.045620120172713
 20
11.74999998112198
 30
0.0
 10
-3.967088758753995
 20
11.53018773388486
 30
0.0
 10
-3.844432109860095
 20
11.07683657788612
 30
0.0
 10
-3.777762404680377
 20
10.37499999692251
 30
0.0
 10
-3.844432107801045
 20
9.673163412492144
 30
0.0
 10
-3.967088757760119
 20
9.21981225020567
 30
0.0
 10
-4.045620120172713
 20
9.0
 30
0.0
 11
-4.045620120172713
 21
11.74999998112198
 31
0.0
 11
-3.86406926858976
 21
11.07368594375109
 31
0.0
 11
-3.799999999999996
 21
10.375
 31
0.0
 11
-3.864069267039856
 21
9.67631404667688
 31
0.0
 11
-4.045620120172713
 21
9.0
 31
0.0
  0
SPLINE
  5
287
100
AcDbEntity
  8
0
  6
CONTINUOUS
 62
     7
100
AcDbSpline
210
0.0
220
0.0
230
-1.0
 70
     8
 71
     3
 72
    11
 73
     7
 74
     5
 42
0.0000001
 43
0.0000001
 44
0.000001
 12
-0.3364389337625614
 22
0.9417052850274924
 32
0.0
 13
0.3364389335092213
 23
0.941705285118002
 33
0.0
 40
0.0
 40
0.0
 40
0.0
 40
0.0
 40
0.7002580873188249
 40
1.401875446833951
 40
2.103492815739584
 40
2.803750912448022
 40
2.803750912448022
 40
2.803750912448022
 40
2.803750912448022
 10
-5.354379879827277
 20
6.250000018878012
 30
0.0
 10
-5.432911241245996
 20
6.469812266115139
 30
0.0
 10
-5.555567890139898
 20
6.923163422113876
 30
0.0
 10
-5.622237595319612
 20
7.625000003077487
 30
0.0
 10
-5.555567892198946
 20
8.326836587507852
 30
0.0
 10
-5.432911242239872
 20
8.780187749794329
 30
0.0
 10
-5.354379879827277
 20
9.0
 30
0.0
 11
-5.354379879827277
 21
6.250000018878012
 31
0.0
 11
-5.535930731410231
 21
6.92631405624891
 31
0.0
 11
-5.599999999999993
 21
7.625
 31
0.0
 11
-5.535930732960135
 21
8.323685953323121
 31
0.0
 11
-5.354379879827277
 21
9.0
 31
0.0
  0
SPLINE
  5
288
100
AcDbEntity
  8
0
  6
CONTINUOUS
 62
     7
100
AcDbSpline
210
0.0
220
0.0
230
1.0
 70
     8
 71
     3
 72
    11
 73
     7
 74
     5
 42
0.0000001
 43
0.0000001
 44
0.000001
 12
0.3364389337625613
 22
0.9417052850274924
 32
0.0
 13
-0.3364389335092214
 23
0.941705285118002
 33
0.0
 40
0.0
 40
0.0
 40
0.0
 40
0.0
 40
0.7002580873188247
 40
1.401875446833951
 40
2.103492815739584
 40
2.803750912448022
 40
2.803750912448022
 40
2.803750912448022
 40
2.803750912448022
 10
-4.045620120172713
 20
6.250000018878012
 30
0.0
 10
-3.967088758753995
 20
6.469812266115139
 30
0.0
 10
-3.844432109860096
 20
6.923163422113878
 30
0.0
 10
-3.777762404680377
 20
7.625000003077485
 30
0.0
 10
-3.844432107801045
 20
8.326836587507854
 30
0.0
 10
-3.967088757760119
 20
8.780187749794329
 30
0.0
 10
-4.045620120172713
 20
9.0
 30
0.0
 11
-4.045620120172713
 21
6.250000018878012
 31
0.0
 11
-3.86406926858976
 21
6.92631405624891
 31
0.0
 11
-3.799999999999996
 21
7.625
 31
0.0
 11
-3.864069267039856
 21
8.323685953323121
 31
0.0
 11
-4.045620120172713
 21
9.0
 31
0.0
  0
SPLINE
  5
289
100
AcDbEntity
  8
0
  6
CONTINUOUS
 62
     7
100
AcDbSpline
210
0.0
220
0.0
230
-1.0
 70
     8
 71
     3
 72
    11
 73
     7
 74
     5
 42
0.0000001
 43
0.0000001
 44
0.000001
 12
-0.3364389337625614
 22
0.9417052850274924
 32
0.0
 13
0.3364389335092213
 23
0.941705285118002
 33
0.0
 40
0.0
 40
0.0
 40
0.0
 40
0.0
 40
0.7002580873188247
 40
1.401875446833951
 40
2.103492815739584
 40
2.803750912448022
 40
2.803750912448022
 40
2.803750912448022
 40
2.803750912448022
 10
-3.55437987982728
 20
6.250000018878012
 30
0.0
 10
-3.632911241245999
 20
6.469812266115139
 30
0.0
 10
-3.755567890139898
 20
6.923163422113876
 30
0.0
 10
-3.822237595319616
 20
7.625000003077487
 30
0.0
 10
-3.755567892198949
 20
8.326836587507855
 30
0.0
 10
-3.632911242239874
 20
8.780187749794329
 30
0.0
 10
-3.55437987982728
 20
9.0
 30
0.0
 11
-3.55437987982728
 21
6.250000018878012
 31
0.0
 11
-3.735930731410233
 21
6.92631405624891
 31
0.0
 11
-3.799999999999996
 21
7.625
 31
0.0
 11
-3.735930732960138
 21
8.323685953323121
 31
0.0
 11
-3.55437987982728
 21
9.0
 31
0.0
  0
SPLINE
  5
28A
100
AcDbEntity
  8
0
  6
CONTINUOUS
 62
     7
100
AcDbSpline
210
0.0
220
0.0
230
1.0
 70
     8
 71
     3
 72
    11
 73
     7
 74
     5
 42
0.0000001
 43
0.0000001
 44
0.000001
 12
0.3364389337625613
 22
0.9417052850274924
 32
0.0
 13
-0.3364389335092214
 23
0.941705285118002
 33
0.0
 40
0.0
 40
0.0
 40
0.0
 40
0.0
 40
0.7002580873188246
 40
1.401875446833951
 40
2.103492815739584
 40
2.803750912448022
 40
2.803750912448022
 40
2.803750912448022
 40
2.803750912448022
 10
-2.245620120172716
 20
6.250000018878012
 30
0.0
 10
-2.167088758753997
 20
6.469812266115139
 30
0.0
 10
-2.044432109860099
 20
6.923163422113876
 30
0.0
 10
-1.977762404680381
 20
7.625000003077488
 30
0.0
 10
-2.044432107801047
 20
8.326836587507854
 30
0.0
 10
-2.167088757760122
 20
8.780187749794329
 30
0.0
 10
-2.245620120172716
 20
9.0
 30
0.0
 11
-2.245620120172716
 21
6.250000018878012
 31
0.0
 11
-2.064069268589764
 21
6.92631405624891
 31
0.0
 11
-2.0
 21
7.625
 31
0.0
 11
-2.064069267039858
 21
8.323685953323121
 31
0.0
 11
-2.245620120172716
 21
9.0
 31
0.0
  0
LINE
  5
28B
100
AcDbEntity
  8
0
  6
CONTINUOUS
 62
     7
100
AcDbLine
 10
-2.0
 20
7.5
 30
0.0
 11
0.0
 21
7.5
 31
0.0
  0
LINE
  5
28C
100
AcDbEntity
  8
0
  6
CONTINUOUS
 62
     2
100
AcDbLine
 10
-2.0
 20
7.8
 30
0.0
 11
-1.0
 21
7.8
 31
0.0
  0
LINE
  5
28D
100
AcDbEntity
  8
0
  6
CONTINUOUS
 62
     2
100
AcDbLine
 10
-2.0
 20
10.2
 30
0.0
 11
-1.0
 21
10.2
 31
0.0
  0
LINE
  5
28E
100
AcDbEntity
  8
0
  6
CONTINUOUS
 62
     7
100
AcDbLine
 10
-2.0
 20
10.5
 30
0.0
 11
0.0
 21
10.5
 31
0.0
  0
LINE
  5
28F
100
AcDbEntity
  8
0
  6
CENTER
 62
     2
100
AcDbLine
 10
-8.815969
 20
9.0
 30
0.0
 11
32.355882
 21
9.0
 31
0.0
  0
LINE
  5
290
100
AcDbEntity
  8
0
  6
CONTINUOUS
 62
     7
100
AcDbLine
 10
31.5
 20
0.0
 30
0.0
 11
31.5
 21
14.0
 31
0.0
  0
LINE
  5
291
100
AcDbEntity
  8
0
  6
CONTINUOUS
 62
     7
100
AcDbLine
 10
0.0
 20
0.0
 30
0.0
 11
0.0
 21
14.0
 31
0.0
  0
LINE
  5
292
100
AcDbEntity
  8
0
  6
CONTINUOUS
 62
     7
100
AcDbLine
 10
-7.7
 20
7.5
 30
0.0
 11
-5.6
 21
7.5
 31
0.0
  0
LINE
  5
293
100
AcDbEntity
  8
0
  6
CONTINUOUS
 62
     7
100
AcDbLine
 10
-8.0
 20
10.2
 30
0.0
 11
-8.0
 21
7.8
 31
0.0
  0
LINE
  5
294
100
AcDbEntity
  8
0
  6
CONTINUOUS
 62
     7
100
AcDbLine
 10
-1.0
 20
10.5
 30
0.0
 11
-1.0
 21
7.5
 31
0.0
  0
LINE
  5
295
100
AcDbEntity
  8
0
  6
CONTINUOUS
 62
     7
100
AcDbLine
 10
-7.7
 20
10.5
 30
0.0
 11
-7.7
 21
7.5
 31
0.0
  0
LINE
  5
296
100
AcDbEntity
  8
0
  6
CONTINUOUS
 62
     2
100
AcDbLine
 10
-1.0
 20
7.8
 30
0.0
 11
-0.480385
 21
7.5
 31
0.0
  0
LINE
  5
297
100
AcDbEntity
  8
0
  6
CONTINUOUS
 62
     7
100
AcDbLine
 10
-7.7
 20
7.5
 30
0.0
 11
-8.0
 21
7.8
 31
0.0
  0
LINE
  5
298
100
AcDbEntity
  8
0
  6
CONTINUOUS
 62
     2
100
AcDbLine
 10
-8.0
 20
7.8
 30
0.0
 11
-5.6
 21
7.8
 31
0.0
  0
LINE
  5
299
100
AcDbEntity
  8
0
  6
CONTINUOUS
 62
     2
100
AcDbLine
 10
-8.0
 20
10.2
 30
0.0
 11
-5.6
 21
10.2
 31
0.0
  0
LINE
  5
29A
100
AcDbEntity
  8
0
  6
CONTINUOUS
 62
     2
100
AcDbLine
 10
-1.0
 20
10.2
 30
0.0
 11
-0.480385
 21
10.5
 31
0.0
  0
LINE
  5
29B
100
AcDbEntity
  8
0
  6
CONTINUOUS
 62
     7
100
AcDbLine
 10
-7.7
 20
10.5
 30
0.0
 11
-8.0
 21
10.2
 31
0.0
  0
LINE
  5
29C
100
AcDbEntity
  8
0
  6
CONTINUOUS
 62
     7
100
AcDbLine
 10
0.0
 20
14.0
 30
0.0
 11
31.5
 21
14.0
 31
0.0
  0
LINE
  5
29D
100
AcDbEntity
  8
0
  6
CONTINUOUS
 62
     7
100
AcDbLine
 10
-7.7
 20
10.5
 30
0.0
 11
-5.6
 21
10.5
 31
0.0
  0
LINE
  5
29E
100
AcDbEntity
  8
0
  6
CONTINUOUS
 62
     7
100
AcDbLine
 10
0.0
 20
0.0
 30
0.0
 11
17.9
 21
0.0
 31
0.0
  0
LINE
  5
29F
100
AcDbEntity
  8
0
  6
CONTINUOUS
 62
     7
100
AcDbLine
 10
0.0
 20
1.393755
 30
0.0
 11
17.9
 21
1.393755
 31
0.0
  0
LINE
  5
2A0
100
AcDbEntity
  8
0
  6
CONTINUOUS
 62
     7
100
AcDbLine
 10
0.0
 20
1.747309
 30
0.0
 11
7.5
 21
1.747309
 31
0.0
  0
LINE
  5
2A1
100
AcDbEntity
  8
0
  6
CONTINUOUS
 62
     7
100
AcDbLine
 10
0.0
 20
3.78105
 30
0.0
 11
31.5
 21
3.78105
 31
0.0
  0
LINE
  5
2A2
100
AcDbEntity
  8
0
  6
CONTINUOUS
 62
     7
100
AcDbLine
 10
0.0
 20
5.0
 30
0.0
 11
31.5
 21
5.0
 31
0.0
  0
LINE
  5
2A3
100
AcDbEntity
  8
0
  6
CENTER
 62
     2
100
AcDbLine
 10
10.0
 20
7.045222
 30
0.0
 11
10.0
 21
11.021494
 31
0.0
  0
CIRCLE
  5
2A4
100
AcDbEntity
  8
0
  6
DASHED
 62
     2
100
AcDbCircle
 10
10.0
 20
9.0
 30
0.0
 40
1.5
  0
CIRCLE
  5
2A5
100
AcDbEntity
  8
0
  6
DASHED
 62
     7
100
AcDbCircle
 10
10.0
 20
9.0
 30
0.0
 40
1.2
  0
LINE
  5
2A6
100
AcDbEntity
  8
0
  6
CENTER
 62
     2
100
AcDbLine
 10
28.5
 20
7.045222
 30
0.0
 11
28.5
 21
10.976096
 31
0.0
  0
CIRCLE
  5
2A7
100
AcDbEntity
  8
0
  6
DASHED
 62
     2
100
AcDbCircle
 10
28.5
 20
9.0
 30
0.0
 40
1.5
  0
CIRCLE
  5
2A8
100
AcDbEntity
  8
0
  6
DASHED
 62
     7
100
AcDbCircle
 10
28.5
 20
9.0
 30
0.0
 40
1.2
  0
LINE
  5
2A9
100
AcDbEntity
  8
0
  6
CONTINUOUS
 62
     4
100
AcDbLine
 10
15.0
 20
-2.389266
 30
0.0
 11
15.0
 21
0.0
 31
0.0
  0
ELLIPSE
  5
2AA
100
AcDbEntity
  8
0
  6
CONTINUOUS
 62
     4
100
AcDbEllipse
 10
17.5
 20
-1.646804
 30
0.0
 11
-2.100000004451994
 21
0.0000000000000003
 31
0.0
210
0.0
220
0.0
230
1.0
 40
0.690271
 41
0.5377386764774591
 42
2.150312383315583
  0
ELLIPSE
  5
2AB
100
AcDbEntity
  8
0
  6
CONTINUOUS
 62
     4
100
AcDbEllipse
 10
17.5
 20
-4.646804
 30
0.0
 11
-1.350000002862001
 21
0.0000000000000002
 31
0.0
210
0.0
220
0.0
230
1.0
 40
0.713093
 41
0.0000000000000002
 42
2.75427610288357
  0
LINE
  5
2AC
100
AcDbEntity
  8
0
  6
CONTINUOUS
 62
     4
100
AcDbLine
 10
16.15
 20
-2.757153
 30
0.0
 11
16.15
 21
-4.646804
 31
0.0
  0
LINE
  5
2AD
100
AcDbEntity
  8
0
  6
CONTINUOUS
 62
     4
100
AcDbLine
 10
17.5
 20
-2.389266
 30
0.0
 11
17.5
 21
-3.096373
 31
0.0
  0
LINE
  5
2AE
100
AcDbEntity
  8
0
  6
CONTINUOUS
 62
     4
100
AcDbLine
 10
17.5
 20
-2.389266
 30
0.0
 11
15.0
 21
-2.389266
 31
0.0
  0
LINE
  5
2AF
100
AcDbEntity
  8
0
  6
CONTINUOUS
 62
     4
100
AcDbLine
 10
17.9
 20
-1.646804
 30
0.0
 11
17.9
 21
2.525126
 31
0.0
  0
ELLIPSE
  5
2B0
100
AcDbEntity
  8
0
  6
CONTINUOUS
 62
     4
100
AcDbEllipse
 10
20.0
 20
-1.646804
 30
0.0
 11
2.100000004451994
 21
0.0
 31
0.0
210
0.0
220
0.0
230
1.0
 40
0.690271
 41
-0.872571415359012
 42
4.014164068948819
  0
LINE
  5
2B1
100
AcDbEntity
  8
0
  6
CONTINUOUS
 62
     4
100
AcDbLine
 10
20.0
 20
0.509872
 30
0.0
 11
20.0
 21
-0.197235
 31
0.0
  0
LINE
  5
2B2
100
AcDbEntity
  8
0
  6
CONTINUOUS
 62
     4
100
AcDbLine
 10
21.35
 20
-1.646804
 30
0.0
 11
21.35
 21
-4.646804
 31
0.0
  0
LINE
  5
2B3
100
AcDbEntity
  8
0
  6
CONTINUOUS
 62
     4
100
AcDbLine
 10
18.65
 20
-1.646804
 30
0.0
 11
18.65
 21
-4.646804
 31
0.0
  0
ELLIPSE
  5
2B4
100
AcDbEntity
  8
0
  6
CONTINUOUS
 62
     4
100
AcDbEllipse
 10
20.0
 20
-1.646804
 30
0.0
 11
1.350000002862001
 21
0.0
 31
0.0
210
0.0
220
0.0
230
1.0
 40
0.713093
 41
0.0
 42
3.141592653589792
  0
ELLIPSE
  5
2B5
100
AcDbEntity
  8
0
  6
CONTINUOUS
 62
     4
100
AcDbEllipse
 10
20.0
 20
-4.646804
 30
0.0
 11
1.350000002862001
 21
0.0
 31
0.0
210
0.0
220
0.0
230
1.0
 40
0.713093
 41
-0.0000000000000009
 42
6.283185307179599
  0
LINE
  5
2B6
100
AcDbEntity
  8
0
  6
CONTINUOUS
 62
     4
100
AcDbLine
 10
22.5
 20
3.78105
 30
0.0
 11
22.5
 21
-2.389266
 31
0.0
  0
LINE
  5
2B7
100
AcDbEntity
  8
0
  6
CONTINUOUS
 62
     4
100
AcDbLine
 10
21.803625
 20
-2.389266
 30
0.0
 11
22.5
 21
-2.389266
 31
0.0
  0
LINE
  5
2B8
100
AcDbEntity
  8
0
  6
CONTINUOUS
 62
     4
100
AcDbLine
 10
22.1
 20
-0.939697
 30
0.0
 11
22.1
 21
-1.646804
 31
0.0
  0
ELLIPSE
  5
2B9
100
AcDbEntity
  8
0
  6
CONTINUOUS
 62
     4
100
AcDbEllipse
 10
20.0
 20
-0.939697
 30
0.0
 11
2.099999988453868
 21
0.0
 31
0.0
210
0.0
220
0.0
230
1.0
 40
0.690271
 41
0.0
 42
1.570796326794896
  0
LINE
  5
2BA
100
AcDbEntity
  8
0
  6
CONTINUOUS
 62
     4
100
AcDbLine
 10
20.0
 20
0.509872
 30
0.0
 11
22.5
 21
0.509872
 31
0.0
  0
ELLIPSE
  5
2BB
100
AcDbEntity
  8
0
  6
CONTINUOUS
 62
     4
100
AcDbEllipse
 10
20.0
 20
2.525126
 30
0.0
 11
-2.10000002421665
 21
0.0000000000000003
 31
0.0
210
0.0
220
0.0
230
1.0
 40
0.690271
 41
-0.7956029495296793
 42
-0.0000000000000004
  0
LINE
  5
2BC
100
AcDbEntity
  8
0
  6
CONTINUOUS
 62
     4
100
AcDbLine
 10
18.530306
 20
2.914035
 30
0.0
 11
22.5
 21
2.914035
 31
0.0
  0
LINE
  5
2BD
100
AcDbEntity
  8
0
  6
CONTINUOUS
 62
     4
100
AcDbLine
 10
7.5
 20
3.585786
 30
0.0
 11
22.5
 21
3.585786
 31
0.0
  0
LINE
  5
2BE
100
AcDbEntity
  8
0
  6
CONTINUOUS
 62
     4
100
AcDbLine
 10
18.530306
 20
3.585786
 30
0.0
 11
18.530306
 21
2.914035
 31
0.0
  0
LINE
  5
2BF
100
AcDbEntity
  8
0
  6
CONTINUOUS
 62
     4
100
AcDbLine
 10
7.5
 20
1.464466
 30
0.0
 11
17.9
 21
1.464466
 31
0.0
  0
LINE
  5
2C0
100
AcDbEntity
  8
0
  6
CONTINUOUS
 62
     4
100
AcDbLine
 10
7.5
 20
1.464466
 30
0.0
 11
7.5
 21
3.78105
 31
0.0
  0
LINE
  5
2C1
100
AcDbEntity
  8
0
  6
CONTINUOUS
 62
     4
100
AcDbLine
 10
9.25
 20
1.659101
 30
0.0
 11
9.25
 21
3.391152
 31
0.0
  0
LINE
  5
2C2
100
AcDbEntity
  8
0
  6
CONTINUOUS
 62
     4
100
AcDbLine
 10
9.75
 20
1.659101
 30
0.0
 11
9.75
 21
3.391152
 31
0.0
  0
ELLIPSE
  5
2C3
100
AcDbEntity
  8
0
  6
CONTINUOUS
 62
     4
100
AcDbEllipse
 10
9.5
 20
2.525126
 30
0.0
 11
-1.250000002649999
 21
0.0000000000000002
 31
0.0
210
0.0
220
0.0
230
1.0
 40
0.707107
 41
-0.0000000000000008
 42
6.283185307179599
  0
LINE
  5
2C4
100
AcDbEntity
  8
0
  6
CONTINUOUS
 62
     7
100
AcDbLine
 10
22.5
 20
0.0
 30
0.0
 11
31.5
 21
0.0
 31
0.0
  0
LINE
  5
2C5
100
AcDbEntity
  8
0
  6
CONTINUOUS
 62
     7
100
AcDbLine
 10
22.5
 20
1.393755
 30
0.0
 11
31.5
 21
1.393755
 31
0.0
  0
LINE
  5
2C6
100
AcDbEntity
  8
0
  6
CONTINUOUS
 62
     7
100
AcDbLine
 10
22.5
 20
1.747309
 30
0.0
 11
31.5
 21
1.747309
 31
0.0
  0
LINE
  5
2C7
100
AcDbEntity
  8
0
  6
CENTER
 62
     2
100
AcDbLine
 10
5.0
 20
12.5
 30
0.0
 11
5.0
 21
15.5
 31
0.0
  0
ENDBLK
  5
2C8
100
AcDbEntity
  8
0
100
AcDbBlockEnd
  0
BLOCK
  5
2C9
100
AcDbEntity
  8
0
100
AcDbBlockBegin
  2
MS_8
 70
     0
 10
0.0
 20
0.0
 30
0.0
  3
MS_8
  1

  0
LINE
  5
2CA
100
AcDbEntity
  8
0
  6
CONTINUOUS
 62
     4
100
AcDbLine
 10
29.5
 20
12.535534
 30
0.0
 11
29.5
 21
10.21895
 31
0.0
  0
LINE
  5
2CB
100
AcDbEntity
  8
0
  6
CONTINUOUS
 62
     4
100
AcDbLine
 10
27.75
 20
12.340899
 30
0.0
 11
27.75
 21
10.608848
 31
0.0
  0
LINE
  5
2CC
100
AcDbEntity
  8
0
  6
CONTINUOUS
 62
     4
100
AcDbLine
 10
27.25
 20
12.340899
 30
0.0
 11
27.25
 21
10.608848
 31
0.0
  0
ELLIPSE
  5
2CD
100
AcDbEntity
  8
0
  6
CONTINUOUS
 62
     4
100
AcDbEllipse
 10
27.5
 20
11.474874
 30
0.0
 11
1.250000002649999
 21
0.0
 31
0.0
210
0.0
220
0.0
230
1.0
 40
0.707107
 41
-0.000000000000002
 42
6.283185307179598
  0
LINE
  5
2CE
100
AcDbEntity
  8
0
  6
CONTINUOUS
 62
     4
100
AcDbLine
 10
14.5
 20
10.21895
 30
0.0
 11
14.5
 21
16.389266
 31
0.0
  0
LINE
  5
2CF
100
AcDbEntity
  8
0
  6
CONTINUOUS
 62
     4
100
AcDbLine
 10
19.1
 20
15.646804
 30
0.0
 11
19.1
 21
11.474874
 31
0.0
  0
LINE
  5
2D0
100
AcDbEntity
  8
0
  6
CONTINUOUS
 62
     4
100
AcDbLine
 10
18.469694
 20
10.414214
 30
0.0
 11
18.469694
 21
11.085965
 31
0.0
  0
ELLIPSE
  5
2D1
100
AcDbEntity
  8
0
  6
CONTINUOUS
 62
     4
100
AcDbEllipse
 10
17.0
 20
11.474874
 30
0.0
 11
2.10000002421665
 21
0.0
 31
0.0
210
0.0
220
0.0
230
1.0
 40
0.690271
 41
-0.7956029495296793
 42
0.0
  0
LINE
  5
2D2
100
AcDbEntity
  8
0
  6
CONTINUOUS
 62
     4
100
AcDbLine
 10
18.469694
 20
11.085965
 30
0.0
 11
14.5
 21
11.085965
 31
0.0
  0
ELLIPSE
  5
2D3
100
AcDbEntity
  8
0
  6
CONTINUOUS
 62
     4
100
AcDbEllipse
 10
17.0
 20
15.646804
 30
0.0
 11
-2.100000004451994
 21
0.0000000000000003
 31
0.0
210
0.0
220
0.0
230
1.0
 40
0.690271
 41
-0.8725714153590114
 42
4.014164068948819
  0
ELLIPSE
  5
2D4
100
AcDbEntity
  8
0
  6
CONTINUOUS
 62
     4
100
AcDbEllipse
 10
17.0
 20
14.939697
 30
0.0
 11
-2.099999988453868
 21
0.0000000000000003
 31
0.0
210
0.0
220
0.0
230
1.0
 40
0.690271
 41
0.0000000000000002
 42
1.570796326794896
  0
ELLIPSE
  5
2D5
100
AcDbEntity
  8
0
  6
CONTINUOUS
 62
     4
100
AcDbEllipse
 10
17.0
 20
18.646804
 30
0.0
 11
-1.350000002862001
 21
0.0000000000000002
 31
0.0
210
0.0
220
0.0
230
1.0
 40
0.713093
 41
0.0000000000000002
 42
6.2831853071796
  0
ELLIPSE
  5
2D6
100
AcDbEntity
  8
0
  6
CONTINUOUS
 62
     4
100
AcDbEllipse
 10
17.0
 20
15.646804
 30
0.0
 11
-1.350000002862001
 21
0.0000000000000002
 31
0.0
210
0.0
220
0.0
230
1.0
 40
0.713093
 41
0.0000000000000002
 42
3.141592653589807
  0
LINE
  5
2D7
100
AcDbEntity
  8
0
  6
CONTINUOUS
 62
     4
100
AcDbLine
 10
18.35
 20
15.646804
 30
0.0
 11
18.35
 21
18.646804
 31
0.0
  0
LINE
  5
2D8
100
AcDbEntity
  8
0
  6
CONTINUOUS
 62
     4
100
AcDbLine
 10
15.65
 20
15.646804
 30
0.0
 11
15.65
 21
18.646804
 31
0.0
  0
LINE
  5
2D9
100
AcDbEntity
  8
0
  6
CONTINUOUS
 62
     4
100
AcDbLine
 10
15.196375
 20
16.389266
 30
0.0
 11
14.5
 21
16.389266
 31
0.0
  0
LINE
  5
2DA
100
AcDbEntity
  8
0
  6
CONTINUOUS
 62
     4
100
AcDbLine
 10
14.9
 20
14.939697
 30
0.0
 11
14.9
 21
15.646804
 31
0.0
  0
LINE
  5
2DB
100
AcDbEntity
  8
0
  6
CONTINUOUS
 62
     4
100
AcDbLine
 10
17.0
 20
13.490128
 30
0.0
 11
14.5
 21
13.490128
 31
0.0
  0
LINE
  5
2DC
100
AcDbEntity
  8
0
  6
CONTINUOUS
 62
     4
100
AcDbLine
 10
17.0
 20
13.490128
 30
0.0
 11
17.0
 21
14.197235
 31
0.0
  0
LINE
  5
2DD
100
AcDbEntity
  8
0
  6
CONTINUOUS
 62
     4
100
AcDbLine
 10
29.5
 20
10.414214
 30
0.0
 11
14.5
 21
10.414214
 31
0.0
  0
LINE
  5
2DE
100
AcDbEntity
  8
0
  6
CONTINUOUS
 62
     4
100
AcDbLine
 10
29.5
 20
12.535534
 30
0.0
 11
19.1
 21
12.535534
 31
0.0
  0
LINE
  5
2DF
100
AcDbEntity
  8
0
  6
CONTINUOUS
 62
     4
100
AcDbLine
 10
19.5
 20
16.389266
 30
0.0
 11
22.0
 21
16.389266
 31
0.0
  0
LINE
  5
2E0
100
AcDbEntity
  8
0
  6
CONTINUOUS
 62
     4
100
AcDbLine
 10
19.5
 20
16.389266
 30
0.0
 11
19.5
 21
17.096373
 31
0.0
  0
LINE
  5
2E1
100
AcDbEntity
  8
0
  6
CONTINUOUS
 62
     4
100
AcDbLine
 10
20.85
 20
16.757153
 30
0.0
 11
20.85
 21
18.646804
 31
0.0
  0
ELLIPSE
  5
2E2
100
AcDbEntity
  8
0
  6
CONTINUOUS
 62
     4
100
AcDbEllipse
 10
19.5
 20
18.646804
 30
0.0
 11
1.350000002862001
 21
0.0
 31
0.0
210
0.0
220
0.0
230
1.0
 40
0.713093
 41
0.0
 42
2.75427610288357
  0
ELLIPSE
  5
2E3
100
AcDbEntity
  8
0
  6
CONTINUOUS
 62
     4
100
AcDbEllipse
 10
19.5
 20
15.646804
 30
0.0
 11
2.100000004451994
 21
0.0
 31
0.0
210
0.0
220
0.0
230
1.0
 40
0.690271
 41
0.5377386764774582
 42
2.150312383315584
  0
LINE
  5
2E4
100
AcDbEntity
  8
0
  6
CONTINUOUS
 62
     4
100
AcDbLine
 10
22.0
 20
16.389266
 30
0.0
 11
22.0
 21
14.0
 31
0.0
  0
INSERT
  5
2EC
100
AcDbEntity
  8
0
  6
CONTINUOUS
 62
     7
100
AcDbBlockReference
  2
*X13
 10
0.0
 20
0.0
 30
0.0
  0
LINE
  5
2ED
100
AcDbEntity
  8
0
  6
CONTINUOUS
 62
     7
100
AcDbLine
 10
-2.0
 20
2.25
 30
0.0
 11
-2.0
 21
7.75
 31
0.0
  0
LINE
  5
2EE
100
AcDbEntity
  8
0
  6
CONTINUOUS
 62
     7
100
AcDbLine
 10
-5.6
 20
2.25
 30
0.0
 11
-5.6
 21
7.75
 31
0.0
  0
LINE
  5
2EF
100
AcDbEntity
  8
0
  6
CONTINUOUS
 62
     7
100
AcDbLine
 10
-3.8
 20
2.25
 30
0.0
 11
-3.8
 21
7.75
 31
0.0
  0
LINE
  5
2F0
100
AcDbEntity
  8
0
  6
CONTINUOUS
 62
     7
100
AcDbLine
 10
-3.8
 20
7.75
 30
0.0
 11
-5.6
 21
7.75
 31
0.0
  0
LINE
  5
2F1
100
AcDbEntity
  8
0
  6
CONTINUOUS
 62
     7
100
AcDbLine
 10
-3.8
 20
7.75
 30
0.0
 11
-2.0
 21
7.75
 31
0.0
  0
LINE
  5
2F2
100
AcDbEntity
  8
0
  6
CONTINUOUS
 62
     7
100
AcDbLine
 10
-3.55438
 20
5.0
 30
0.0
 11
-2.24562
 21
5.0
 31
0.0
  0
LINE
  5
2F3
100
AcDbEntity
  8
0
  6
CONTINUOUS
 62
     7
100
AcDbLine
 10
-3.8
 20
2.25
 30
0.0
 11
-2.0
 21
2.25
 31
0.0
  0
LINE
  5
2F4
100
AcDbEntity
  8
0
  6
CONTINUOUS
 62
     7
100
AcDbLine
 10
-3.8
 20
2.25
 30
0.0
 11
-5.6
 21
2.25
 31
0.0
  0
LINE
  5
2F5
100
AcDbEntity
  8
0
  6
CONTINUOUS
 62
     7
100
AcDbLine
 10
-4.04562
 20
5.0
 30
0.0
 11
-5.35438
 21
5.0
 31
0.0
  0
SPLINE
  5
2F6
100
AcDbEntity
  8
0
  6
CONTINUOUS
 62
     7
100
AcDbSpline
210
0.0
220
0.0
230
-1.0
 70
     8
 71
     3
 72
    11
 73
     7
 74
     5
 42
0.0000001
 43
0.0000001
 44
0.000001
 12
-0.3364389337625614
 22
-0.9417052850274924
 32
0.0
 13
0.3364389335092213
 23
-0.941705285118002
 33
0.0
 40
0.0
 40
0.0
 40
0.0
 40
0.0
 40
0.7002580873188247
 40
1.401875446833951
 40
2.103492815739584
 40
2.803750912448022
 40
2.803750912448022
 40
2.803750912448022
 40
2.803750912448022
 10
-3.55437987982728
 20
7.749999981121987
 30
0.0
 10
-3.632911241245999
 20
7.53018773388486
 30
0.0
 10
-3.755567890139898
 20
7.076836577886123
 30
0.0
 10
-3.822237595319616
 20
6.374999996922515
 30
0.0
 10
-3.755567892198949
 20
5.673163412492146
 30
0.0
 10
-3.632911242239874
 20
5.219812250205669
 30
0.0
 10
-3.55437987982728
 20
5.0
 30
0.0
 11
-3.55437987982728
 21
7.749999981121987
 31
0.0
 11
-3.735930731410233
 21
7.073685943751089
 31
0.0
 11
-3.799999999999996
 21
6.375
 31
0.0
 11
-3.735930732960138
 21
5.676314046676878
 31
0.0
 11
-3.55437987982728
 21
5.0
 31
0.0
  0
SPLINE
  5
2F7
100
AcDbEntity
  8
0
  6
CONTINUOUS
 62
     7
100
AcDbSpline
210
0.0
220
0.0
230
1.0
 70
     8
 71
     3
 72
    11
 73
     7
 74
     5
 42
0.0000001
 43
0.0000001
 44
0.000001
 12
0.3364389337625613
 22
-0.9417052850274924
 32
0.0
 13
-0.3364389335092214
 23
-0.941705285118002
 33
0.0
 40
0.0
 40
0.0
 40
0.0
 40
0.0
 40
0.7002580873188246
 40
1.401875446833951
 40
2.103492815739584
 40
2.803750912448022
 40
2.803750912448022
 40
2.803750912448022
 40
2.803750912448022
 10
-2.245620120172716
 20
7.749999981121987
 30
0.0
 10
-2.167088758753997
 20
7.53018773388486
 30
0.0
 10
-2.044432109860099
 20
7.076836577886121
 30
0.0
 10
-1.977762404680381
 20
6.374999996922515
 30
0.0
 10
-2.044432107801047
 20
5.673163412492145
 30
0.0
 10
-2.167088757760122
 20
5.219812250205669
 30
0.0
 10
-2.245620120172716
 20
5.0
 30
0.0
 11
-2.245620120172716
 21
7.749999981121987
 31
0.0
 11
-2.064069268589764
 21
7.073685943751089
 31
0.0
 11
-2.0
 21
6.375
 31
0.0
 11
-2.064069267039858
 21
5.676314046676878
 31
0.0
 11
-2.245620120172716
 21
5.0
 31
0.0
  0
SPLINE
  5
2F8
100
AcDbEntity
  8
0
  6
CONTINUOUS
 62
     7
100
AcDbSpline
210
0.0
220
0.0
230
-1.0
 70
     8
 71
     3
 72
    11
 73
     7
 74
     5
 42
0.0000001
 43
0.0000001
 44
0.000001
 12
-0.3364389337625614
 22
-0.9417052850274924
 32
0.0
 13
0.3364389335092213
 23
-0.941705285118002
 33
0.0
 40
0.0
 40
0.0
 40
0.0
 40
0.0
 40
0.7002580873188249
 40
1.401875446833951
 40
2.103492815739584
 40
2.803750912448022
 40
2.803750912448022
 40
2.803750912448022
 40
2.803750912448022
 10
-5.354379879827277
 20
7.749999981121987
 30
0.0
 10
-5.432911241245996
 20
7.53018773388486
 30
0.0
 10
-5.555567890139898
 20
7.076836577886123
 30
0.0
 10
-5.622237595319612
 20
6.374999996922515
 30
0.0
 10
-5.555567892198946
 20
5.673163412492145
 30
0.0
 10
-5.432911242239872
 20
5.219812250205669
 30
0.0
 10
-5.354379879827277
 20
5.0
 30
0.0
 11
-5.354379879827277
 21
7.749999981121987
 31
0.0
 11
-5.535930731410231
 21
7.073685943751089
 31
0.0
 11
-5.599999999999993
 21
6.375
 31
0.0
 11
-5.535930732960135
 21
5.676314046676878
 31
0.0
 11
-5.354379879827277
 21
5.0
 31
0.0
  0
SPLINE
  5
2F9
100
AcDbEntity
  8
0
  6
CONTINUOUS
 62
     7
100
AcDbSpline
210
0.0
220
0.0
230
1.0
 70
     8
 71
     3
 72
    11
 73
     7
 74
     5
 42
0.0000001
 43
0.0000001
 44
0.000001
 12
0.3364389337625613
 22
-0.9417052850274924
 32
0.0
 13
-0.3364389335092214
 23
-0.941705285118002
 33
0.0
 40
0.0
 40
0.0
 40
0.0
 40
0.0
 40
0.7002580873188247
 40
1.401875446833951
 40
2.103492815739584
 40
2.803750912448022
 40
2.803750912448022
 40
2.803750912448022
 40
2.803750912448022
 10
-4.045620120172713
 20
7.749999981121987
 30
0.0
 10
-3.967088758753995
 20
7.53018773388486
 30
0.0
 10
-3.844432109860096
 20
7.076836577886123
 30
0.0
 10
-3.777762404680377
 20
6.374999996922512
 30
0.0
 10
-3.844432107801045
 20
5.673163412492145
 30
0.0
 10
-3.967088757760119
 20
5.219812250205669
 30
0.0
 10
-4.045620120172713
 20
5.0
 30
0.0
 11
-4.045620120172713
 21
7.749999981121987
 31
0.0
 11
-3.86406926858976
 21
7.073685943751089
 31
0.0
 11
-3.799999999999996
 21
6.375
 31
0.0
 11
-3.864069267039856
 21
5.676314046676878
 31
0.0
 11
-4.045620120172713
 21
5.0
 31
0.0
  0
SPLINE
  5
2FA
100
AcDbEntity
  8
0
  6
CONTINUOUS
 62
     7
100
AcDbSpline
210
0.0
220
0.0
230
-1.0
 70
     8
 71
     3
 72
    11
 73
     7
 74
     5
 42
0.0000001
 43
0.0000001
 44
0.000001
 12
-0.3364389337625614
 22
0.9417052850274924
 32
0.0
 13
0.3364389335092213
 23
0.941705285118002
 33
0.0
 40
0.0
 40
0.0
 40
0.0
 40
0.0
 40
0.7002580873188263
 40
1.401875446833952
 40
2.103492815739585
 40
2.803750912448023
 40
2.803750912448023
 40
2.803750912448023
 40
2.803750912448023
 10
-5.354379879827277
 20
2.250000018878011
 30
0.0
 10
-5.432911241245996
 20
2.469812266115138
 30
0.0
 10
-5.555567890139897
 20
2.923163422113876
 30
0.0
 10
-5.62223759531961
 20
3.625000003077485
 30
0.0
 10
-5.555567892198946
 20
4.326836587507854
 30
0.0
 10
-5.432911242239872
 20
4.78018774979433
 30
0.0
 10
-5.354379879827277
 20
5.0
 30
0.0
 11
-5.354379879827277
 21
2.250000018878011
 31
0.0
 11
-5.535930731410231
 21
2.92631405624891
 31
0.0
 11
-5.599999999999993
 21
3.625
 31
0.0
 11
-5.535930732960135
 21
4.323685953323121
 31
0.0
 11
-5.354379879827277
 21
5.0
 31
0.0
  0
SPLINE
  5
2FB
100
AcDbEntity
  8
0
  6
CONTINUOUS
 62
     7
100
AcDbSpline
210
0.0
220
0.0
230
1.0
 70
     8
 71
     3
 72
    11
 73
     7
 74
     5
 42
0.0000001
 43
0.0000001
 44
0.000001
 12
0.3364389337625613
 22
0.9417052850274924
 32
0.0
 13
-0.3364389335092214
 23
0.941705285118002
 33
0.0
 40
0.0
 40
0.0
 40
0.0
 40
0.0
 40
0.700258087318826
 40
1.401875446833952
 40
2.103492815739585
 40
2.803750912448023
 40
2.803750912448023
 40
2.803750912448023
 40
2.803750912448023
 10
-4.045620120172713
 20
2.250000018878011
 30
0.0
 10
-3.967088758753995
 20
2.469812266115138
 30
0.0
 10
-3.844432109860096
 20
2.923163422113876
 30
0.0
 10
-3.777762404680378
 20
3.625000003077487
 30
0.0
 10
-3.844432107801045
 20
4.326836587507854
 30
0.0
 10
-3.967088757760119
 20
4.78018774979433
 30
0.0
 10
-4.045620120172713
 20
5.0
 30
0.0
 11
-4.045620120172713
 21
2.250000018878011
 31
0.0
 11
-3.86406926858976
 21
2.92631405624891
 31
0.0
 11
-3.799999999999996
 21
3.625
 31
0.0
 11
-3.864069267039856
 21
4.323685953323121
 31
0.0
 11
-4.045620120172713
 21
5.0
 31
0.0
  0
SPLINE
  5
2FC
100
AcDbEntity
  8
0
  6
CONTINUOUS
 62
     7
100
AcDbSpline
210
0.0
220
0.0
230
-1.0
 70
     8
 71
     3
 72
    11
 73
     7
 74
     5
 42
0.0000001
 43
0.0000001
 44
0.000001
 12
-0.3364389337625614
 22
0.9417052850274924
 32
0.0
 13
0.3364389335092213
 23
0.941705285118002
 33
0.0
 40
0.0
 40
0.0
 40
0.0
 40
0.0
 40
0.700258087318826
 40
1.401875446833952
 40
2.103492815739585
 40
2.803750912448023
 40
2.803750912448023
 40
2.803750912448023
 40
2.803750912448023
 10
-3.55437987982728
 20
2.250000018878011
 30
0.0
 10
-3.632911241245999
 20
2.469812266115138
 30
0.0
 10
-3.755567890139898
 20
2.923163422113876
 30
0.0
 10
-3.822237595319613
 20
3.625000003077485
 30
0.0
 10
-3.75556789219895
 20
4.326836587507854
 30
0.0
 10
-3.632911242239874
 20
4.78018774979433
 30
0.0
 10
-3.55437987982728
 20
5.0
 30
0.0
 11
-3.55437987982728
 21
2.250000018878011
 31
0.0
 11
-3.735930731410233
 21
2.92631405624891
 31
0.0
 11
-3.799999999999996
 21
3.625
 31
0.0
 11
-3.735930732960138
 21
4.323685953323121
 31
0.0
 11
-3.55437987982728
 21
5.0
 31
0.0
  0
SPLINE
  5
2FD
100
AcDbEntity
  8
0
  6
CONTINUOUS
 62
     7
100
AcDbSpline
210
0.0
220
0.0
230
1.0
 70
     8
 71
     3
 72
    11
 73
     7
 74
     5
 42
0.0000001
 43
0.0000001
 44
0.000001
 12
0.3364389337625613
 22
0.9417052850274924
 32
0.0
 13
-0.3364389335092214
 23
0.941705285118002
 33
0.0
 40
0.0
 40
0.0
 40
0.0
 40
0.0
 40
0.7002580873188259
 40
1.401875446833952
 40
2.103492815739585
 40
2.803750912448023
 40
2.803750912448023
 40
2.803750912448023
 40
2.803750912448023
 10
-2.245620120172716
 20
2.250000018878011
 30
0.0
 10
-2.167088758753997
 20
2.469812266115138
 30
0.0
 10
-2.044432109860099
 20
2.923163422113876
 30
0.0
 10
-1.977762404680381
 20
3.625000003077487
 30
0.0
 10
-2.044432107801047
 20
4.326836587507854
 30
0.0
 10
-2.167088757760122
 20
4.78018774979433
 30
0.0
 10
-2.245620120172716
 20
5.0
 30
0.0
 11
-2.245620120172716
 21
2.250000018878011
 31
0.0
 11
-2.064069268589764
 21
2.92631405624891
 31
0.0
 11
-2.0
 21
3.625
 31
0.0
 11
-2.064069267039858
 21
4.323685953323121
 31
0.0
 11
-2.245620120172716
 21
5.0
 31
0.0
  0
LINE
  5
2FE
100
AcDbEntity
  8
0
  6
CONTINUOUS
 62
     7
100
AcDbLine
 10
-2.0
 20
3.5
 30
0.0
 11
0.0
 21
3.5
 31
0.0
  0
LINE
  5
2FF
100
AcDbEntity
  8
0
  6
CONTINUOUS
 62
     2
100
AcDbLine
 10
-2.0
 20
3.8
 30
0.0
 11
-1.0
 21
3.8
 31
0.0
  0
LINE
  5
300
100
AcDbEntity
  8
0
  6
CONTINUOUS
 62
     2
100
AcDbLine
 10
-2.0
 20
6.2
 30
0.0
 11
-1.0
 21
6.2
 31
0.0
  0
LINE
  5
301
100
AcDbEntity
  8
0
  6
CONTINUOUS
 62
     7
100
AcDbLine
 10
-2.0
 20
6.5
 30
0.0
 11
0.0
 21
6.5
 31
0.0
  0
CIRCLE
  5
302
100
AcDbEntity
  8
0
  6
DASHED
 62
     7
100
AcDbCircle
 10
28.5
 20
5.0
 30
0.0
 40
1.2
  0
CIRCLE
  5
303
100
AcDbEntity
  8
0
  6
DASHED
 62
     2
100
AcDbCircle
 10
28.5
 20
5.0
 30
0.0
 40
1.5
  0
LINE
  5
304
100
AcDbEntity
  8
0
  6
CENTER
 62
     2
100
AcDbLine
 10
28.5
 20
6.954778
 30
0.0
 11
28.5
 21
3.023904
 31
0.0
  0
CIRCLE
  5
305
100
AcDbEntity
  8
0
  6
DASHED
 62
     7
100
AcDbCircle
 10
10.0
 20
5.0
 30
0.0
 40
1.2
  0
CIRCLE
  5
306
100
AcDbEntity
  8
0
  6
DASHED
 62
     2
100
AcDbCircle
 10
10.0
 20
5.0
 30
0.0
 40
1.5
  0
LINE
  5
307
100
AcDbEntity
  8
0
  6
CENTER
 62
     2
100
AcDbLine
 10
10.0
 20
6.954778
 30
0.0
 11
10.0
 21
2.966523
 31
0.0
  0
LINE
  5
308
100
AcDbEntity
  8
0
  6
CONTINUOUS
 62
     7
100
AcDbLine
 10
0.0
 20
9.0
 30
0.0
 11
31.5
 21
9.0
 31
0.0
  0
LINE
  5
309
100
AcDbEntity
  8
0
  6
CONTINUOUS
 62
     7
100
AcDbLine
 10
0.0
 20
10.21895
 30
0.0
 11
31.5
 21
10.21895
 31
0.0
  0
LINE
  5
30A
100
AcDbEntity
  8
0
  6
CONTINUOUS
 62
     7
100
AcDbLine
 10
0.0
 20
12.252691
 30
0.0
 11
14.5
 21
12.252691
 31
0.0
  0
LINE
  5
30B
100
AcDbEntity
  8
0
  6
CONTINUOUS
 62
     7
100
AcDbLine
 10
0.0
 20
12.606245
 30
0.0
 11
14.5
 21
12.606245
 31
0.0
  0
LINE
  5
30C
100
AcDbEntity
  8
0
  6
CONTINUOUS
 62
     7
100
AcDbLine
 10
0.0
 20
14.0
 30
0.0
 11
14.5
 21
14.0
 31
0.0
  0
LINE
  5
30D
100
AcDbEntity
  8
0
  6
CONTINUOUS
 62
     7
100
AcDbLine
 10
-7.7
 20
3.5
 30
0.0
 11
-5.6
 21
3.5
 31
0.0
  0
LINE
  5
30E
100
AcDbEntity
  8
0
  6
CONTINUOUS
 62
     7
100
AcDbLine
 10
0.0
 20
0.0
 30
0.0
 11
31.5
 21
0.0
 31
0.0
  0
LINE
  5
30F
100
AcDbEntity
  8
0
  6
CONTINUOUS
 62
     7
100
AcDbLine
 10
-7.7
 20
3.5
 30
0.0
 11
-8.0
 21
3.8
 31
0.0
  0
LINE
  5
310
100
AcDbEntity
  8
0
  6
CONTINUOUS
 62
     2
100
AcDbLine
 10
-1.0
 20
3.8
 30
0.0
 11
-0.480385
 21
3.5
 31
0.0
  0
LINE
  5
311
100
AcDbEntity
  8
0
  6
CONTINUOUS
 62
     2
100
AcDbLine
 10
-8.0
 20
3.8
 30
0.0
 11
-5.6
 21
3.8
 31
0.0
  0
LINE
  5
312
100
AcDbEntity
  8
0
  6
CONTINUOUS
 62
     2
100
AcDbLine
 10
-8.0
 20
6.2
 30
0.0
 11
-5.6
 21
6.2
 31
0.0
  0
LINE
  5
313
100
AcDbEntity
  8
0
  6
CONTINUOUS
 62
     7
100
AcDbLine
 10
-7.7
 20
6.5
 30
0.0
 11
-8.0
 21
6.2
 31
0.0
  0
LINE
  5
314
100
AcDbEntity
  8
0
  6
CONTINUOUS
 62
     2
100
AcDbLine
 10
-1.0
 20
6.2
 30
0.0
 11
-0.480385
 21
6.5
 31
0.0
  0
LINE
  5
315
100
AcDbEntity
  8
0
  6
CONTINUOUS
 62
     7
100
AcDbLine
 10
-7.7
 20
3.5
 30
0.0
 11
-7.7
 21
6.5
 31
0.0
  0
LINE
  5
316
100
AcDbEntity
  8
0
  6
CONTINUOUS
 62
     7
100
AcDbLine
 10
-1.0
 20
3.5
 30
0.0
 11
-1.0
 21
6.5
 31
0.0
  0
LINE
  5
317
100
AcDbEntity
  8
0
  6
CONTINUOUS
 62
     7
100
AcDbLine
 10
-8.0
 20
3.8
 30
0.0
 11
-8.0
 21
6.2
 31
0.0
  0
LINE
  5
318
100
AcDbEntity
  8
0
  6
CONTINUOUS
 62
     7
100
AcDbLine
 10
-7.7
 20
6.5
 30
0.0
 11
-5.6
 21
6.5
 31
0.0
  0
LINE
  5
319
100
AcDbEntity
  8
0
  6
CONTINUOUS
 62
     7
100
AcDbLine
 10
0.0
 20
14.0
 30
0.0
 11
0.0
 21
0.0
 31
0.0
  0
LINE
  5
31A
100
AcDbEntity
  8
0
  6
CONTINUOUS
 62
     7
100
AcDbLine
 10
31.5
 20
14.0
 30
0.0
 11
31.5
 21
0.0
 31
0.0
  0
LINE
  5
31B
100
AcDbEntity
  8
0
  6
CENTER
 62
     2
100
AcDbLine
 10
-9.095598
 20
5.0
 30
0.0
 11
32.355882
 21
5.0
 31
0.0
  0
LINE
  5
31C
100
AcDbEntity
  8
0
  6
CONTINUOUS
 62
     7
100
AcDbLine
 10
19.1
 20
14.0
 30
0.0
 11
31.5
 21
14.0
 31
0.0
  0
LINE
  5
31D
100
AcDbEntity
  8
0
  6
CONTINUOUS
 62
     7
100
AcDbLine
 10
29.5
 20
12.252691
 30
0.0
 11
31.5
 21
12.252691
 31
0.0
  0
LINE
  5
31E
100
AcDbEntity
  8
0
  6
CONTINUOUS
 62
     7
100
AcDbLine
 10
19.1
 20
12.606245
 30
0.0
 11
31.5
 21
12.606245
 31
0.0
  0
LINE
  5
31F
100
AcDbEntity
  8
0
  6
CENTER
 62
     2
100
AcDbLine
 10
5.0
 20
1.5
 30
0.0
 11
5.0
 21
-1.5
 31
0.0
  0
ENDBLK
  5
320
100
AcDbEntity
  8
0
100
AcDbBlockEnd
  0
BLOCK
  5
90
100
AcDbEntity
  8
0
  6
BYBLOCK
 62
     0
100
AcDbBlockBegin
  2
*X8
 70
     1
 10
0.0
 20
0.0
 30
0.0
  3
*X8
  1

  0
LINE
  5
91
100
AcDbEntity
  8
0
  6
BYBLOCK
 62
     0
100
AcDbLine
 10
10.119693
 20
-1.194016
 30
0.0
 11
11.194016
 21
-0.119693
 31
0.0
  0
LINE
  5
92
100
AcDbEntity
  8
0
  6
BYBLOCK
 62
     0
100
AcDbLine
 10
9.102709
 20
-0.796786
 30
0.0
 11
10.796786
 21
0.897291
 31
0.0
  0
LINE
  5
93
100
AcDbEntity
  8
0
  6
BYBLOCK
 62
     0
100
AcDbLine
 10
8.860009
 20
0.374728
 30
0.0
 11
9.625272
 21
1.139991
 31
0.0
  0
LINE
  5
94
100
AcDbEntity
  8
0
  6
BYBLOCK
 62
     0
100
AcDbLine
 10
9.625272
 20
-1.139991
 30
0.0
 11
8.860009
 21
-0.374728
 31
0.0
  0
LINE
  5
95
100
AcDbEntity
  8
0
  6
BYBLOCK
 62
     0
100
AcDbLine
 10
10.796786
 20
-0.897291
 30
0.0
 11
9.102709
 21
0.796786
 31
0.0
  0
LINE
  5
96
100
AcDbEntity
  8
0
  6
BYBLOCK
 62
     0
100
AcDbLine
 10
11.194016
 20
0.119693
 30
0.0
 11
10.119693
 21
1.194016
 31
0.0
  0
ENDBLK
  5
97
100
AcDbEntity
  8
0
  6
BYBLOCK
 62
     0
100
AcDbBlockEnd
  0
BLOCK
  5
12A
100
AcDbEntity
  8
0
  6
BYBLOCK
 62
     0
100
AcDbBlockBegin
  2
*X9
 70
     1
 10
0.0
 20
0.0
 30
0.0
  3
*X9
  1

  0
LINE
  5
12B
100
AcDbEntity
  8
0
  6
BYBLOCK
 62
     0
100
AcDbLine
 10
9.384242
 20
7.970028
 30
0.0
 11
11.029972
 21
9.615758
 31
0.0
  0
LINE
  5
12C
100
AcDbEntity
  8
0
  6
BYBLOCK
 62
     0
100
AcDbLine
 10
8.814435
 20
8.814435
 30
0.0
 11
10.185565
 21
10.185565
 31
0.0
  0
LINE
  5
12D
100
AcDbEntity
  8
0
  6
BYBLOCK
 62
     0
100
AcDbLine
 10
10.483195
 20
7.901582
 30
0.0
 11
8.901582
 21
9.483195
 31
0.0
  0
LINE
  5
12E
100
AcDbEntity
  8
0
  6
BYBLOCK
 62
     0
100
AcDbLine
 10
11.148096
 20
8.650894
 30
0.0
 11
9.650894
 21
10.148096
 31
0.0
  0
ENDBLK
  5
12F
100
AcDbEntity
  8
0
  6
BYBLOCK
 62
     0
100
AcDbBlockEnd
  0
BLOCK
  5
17A
100
AcDbEntity
  8
0
  6
BYBLOCK
 62
     0
100
AcDbBlockBegin
  2
*X10
 70
     1
 10
0.0
 20
0.0
 30
0.0
  3
*X10
  1

  0
LINE
  5
17B
100
AcDbEntity
  8
0
  6
BYBLOCK
 62
     0
100
AcDbLine
 10
9.546036
 20
3.889182
 30
0.0
 11
11.110818
 21
5.453964
 31
0.0
  0
LINE
  5
17C
100
AcDbEntity
  8
0
  6
BYBLOCK
 62
     0
100
AcDbLine
 10
8.861977
 20
4.619337
 30
0.0
 11
10.380663
 21
6.138023
 31
0.0
  0
LINE
  5
17D
100
AcDbEntity
  8
0
  6
BYBLOCK
 62
     0
100
AcDbLine
 10
10.3032
 20
3.838936
 30
0.0
 11
8.838936
 21
5.3032
 31
0.0
  0
LINE
  5
17E
100
AcDbEntity
  8
0
  6
BYBLOCK
 62
     0
100
AcDbLine
 10
11.07981
 20
4.476539
 30
0.0
 11
9.476539
 21
6.07981
 31
0.0
  0
ENDBLK
  5
17F
100
AcDbEntity
  8
0
  6
BYBLOCK
 62
     0
100
AcDbBlockEnd
  0
BLOCK
  5
1B6
100
AcDbEntity
  8
0
  6
BYBLOCK
 62
     0
100
AcDbBlockBegin
  2
*X11
 70
     1
 10
0.0
 20
0.0
 30
0.0
  3
*X11
  1

  0
LINE
  5
1B7
100
AcDbEntity
  8
0
  6
BYBLOCK
 62
     0
100
AcDbLine
 10
10.119693
 20
-1.194016
 30
0.0
 11
11.194016
 21
-0.119693
 31
0.0
  0
LINE
  5
1B8
100
AcDbEntity
  8
0
  6
BYBLOCK
 62
     0
100
AcDbLine
 10
9.102709
 20
-0.796786
 30
0.0
 11
10.796786
 21
0.897291
 31
0.0
  0
LINE
  5
1B9
100
AcDbEntity
  8
0
  6
BYBLOCK
 62
     0
100
AcDbLine
 10
8.860009
 20
0.374728
 30
0.0
 11
9.625272
 21
1.139991
 31
0.0
  0
LINE
  5
1BA
100
AcDbEntity
  8
0
  6
BYBLOCK
 62
     0
100
AcDbLine
 10
9.625272
 20
-1.139991
 30
0.0
 11
8.860009
 21
-0.374728
 31
0.0
  0
LINE
  5
1BB
100
AcDbEntity
  8
0
  6
BYBLOCK
 62
     0
100
AcDbLine
 10
10.796786
 20
-0.897291
 30
0.0
 11
9.102709
 21
0.796786
 31
0.0
  0
LINE
  5
1BC
100
AcDbEntity
  8
0
  6
BYBLOCK
 62
     0
100
AcDbLine
 10
11.194016
 20
0.119693
 30
0.0
 11
10.119693
 21
1.194016
 31
0.0
  0
ENDBLK
  5
1BD
100
AcDbEntity
  8
0
  6
BYBLOCK
 62
     0
100
AcDbBlockEnd
  0
BLOCK
  5
273
100
AcDbEntity
  8
0
  6
BYBLOCK
 62
     0
100
AcDbBlockBegin
  2
*X12
 70
     1
 10
0.0
 20
0.0
 30
0.0
  3
*X12
  1

  0
LINE
  5
274
100
AcDbEntity
  8
0
  6
BYBLOCK
 62
     0
100
AcDbLine
 10
9.384242
 20
7.970028
 30
0.0
 11
11.029972
 21
9.615758
 31
0.0
  0
LINE
  5
275
100
AcDbEntity
  8
0
  6
BYBLOCK
 62
     0
100
AcDbLine
 10
8.814435
 20
8.814435
 30
0.0
 11
10.185565
 21
10.185565
 31
0.0
  0
LINE
  5
276
100
AcDbEntity
  8
0
  6
BYBLOCK
 62
     0
100
AcDbLine
 10
10.483195
 20
7.901582
 30
0.0
 11
8.901582
 21
9.483195
 31
0.0
  0
LINE
  5
277
100
AcDbEntity
  8
0
  6
BYBLOCK
 62
     0
100
AcDbLine
 10
11.148096
 20
8.650894
 30
0.0
 11
9.650894
 21
10.148096
 31
0.0
  0
ENDBLK
  5
278
100
AcDbEntity
  8
0
  6
BYBLOCK
 62
     0
100
AcDbBlockEnd
  0
BLOCK
  5
2E6
100
AcDbEntity
  8
0
  6
BYBLOCK
 62
     0
100
AcDbBlockBegin
  2
*X13
 70
     1
 10
0.0
 20
0.0
 30
0.0
  3
*X13
  1

  0
LINE
  5
2E7
100
AcDbEntity
  8
0
  6
BYBLOCK
 62
     0
100
AcDbLine
 10
9.546036
 20
3.889182
 30
0.0
 11
11.110818
 21
5.453964
 31
0.0
  0
LINE
  5
2E8
100
AcDbEntity
  8
0
  6
BYBLOCK
 62
     0
100
AcDbLine
 10
8.861977
 20
4.619337
 30
0.0
 11
10.380663
 21
6.138023
 31
0.0
  0
LINE
  5
2E9
100
AcDbEntity
  8
0
  6
BYBLOCK
 62
     0
100
AcDbLine
 10
10.3032
 20
3.838936
 30
0.0
 11
8.838936
 21
5.3032
 31
0.0
  0
LINE
  5
2EA
100
AcDbEntity
  8
0
  6
BYBLOCK
 62
     0
100
AcDbLine
 10
11.07981
 20
4.476539
 30
0.0
 11
9.476539
 21
6.07981
 31
0.0
  0
ENDBLK
  5
2EB
100
AcDbEntity
  8
0
  6
BYBLOCK
 62
     0
100
AcDbBlockEnd
  0
BLOCK
  5
323
100
AcDbEntity
  8
0
  6
BYBLOCK
 62
     0
100
AcDbBlockBegin
  2
_OPEN30
 70
     2
 10
0.0
 20
0.0
 30
0.0
  3
_OPEN30
  1

  0
LINE
  5
324
100
AcDbEntity
  8
0
  6
BYBLOCK
 62
     0
100
AcDbLine
 10
-1.0
 20
0.267949
 30
0.0
 11
0.0
 21
0.0
 31
0.0
  0
LINE
  5
325
100
AcDbEntity
  8
0
  6
BYBLOCK
 62
     0
100
AcDbLine
 10
0.0
 20
0.0
 30
0.0
 11
-1.0
 21
-0.267949
 31
0.0
  0
LINE
  5
326
100
AcDbEntity
  8
0
  6
BYBLOCK
 62
     0
100
AcDbLine
 10
0.0
 20
0.0
 30
0.0
 11
-1.0
 21
0.0
 31
0.0
  0
ENDBLK
  5
327
100
AcDbEntity
  8
0
  6
BYBLOCK
 62
     0
100
AcDbBlockEnd
  0
ENDSEC
  0
SECTION
  2
ENTITIES
  0
LEADER
  5
321
100
AcDbEntity
  8
0
 62
     2
100
AcDbLeader
  3
MXDIMSTYLE
 74
     0
 76
     3
 10
79.226504
 20
-52.838331
 30
0.0
 10
86.595522
 20
-65.601845
 30
0.0
 10
91.595522
 20
-65.601845
 30
0.0
 77
     2
1001
ACAD
1000
DSTYLE
1002
{
1070
     6
1000
_OPEN30
1070
     7
1000
_OPEN30
1070
    41
1040
2.77
1070
   173
1070
     1
1002
}
  0
MTEXT
  5
328
100
AcDbEntity
  8
0
 62
     2
100
AcDbMText
 10
86.595522
 20
-62.570595
 30
0.0
 40
2.5
 41
0.0
 71
     4
 72
     1
  1
\A1;-R
  0
LEADER
  5
329
100
AcDbEntity
  8
0
 62
     2
100
AcDbLeader
  3
MXDIMSTYLE
 74
     0
 76
     3
 10
77.726504
 20
37.759745
 30
0.0
 10
72.971437
 20
45.995761
 30
0.0
 10
67.854529
 20
45.995761
 30
0.0
 77
     2
1001
ACAD
1000
DSTYLE
1002
{
1070
     6
1000
_OPEN30
1070
     7
1000
_OPEN30
1070
    41
1040
2.77
1070
   173
1070
     1
1002
}
  0
MTEXT
  5
32A
100
AcDbEntity
  8
0
 62
     2
100
AcDbMText
 10
67.854529
 20
49.027011
 30
0.0
 40
2.5
 41
0.0
 71
     4
 72
     1
  1
\A1;-L
  0
LINE
  5
32B
100
AcDbEntity
  8
0
  6
CONTINUOUS
 62
     7
100
AcDbLine
 10
-0.024994
 20
84.5
 30
0.0
 11
-0.024994
 21
-84.800003
 31
0.0
  0
MTEXT
  5
32C
100
AcDbEntity
  8
0
  6
CONTINUOUS
 62
     3
100
AcDbMText
 10
72.877176
 20
15.636286
 30
0.0
 40
3.2
 41
0.0
 71
     4
 72
     1
  1
\W1.065;\A1;STRETCH LINE
  0
LEADER
  5
32D
100
AcDbEntity
  8
0
 62
     2
100
AcDbLeader
  3
MXDIMSTYLE
 74
     0
 76
     3
 10
-60.773496
 20
-52.838331
 30
0.0
 10
-53.404478
 20
-65.601845
 30
0.0
 10
-48.404478
 20
-65.601845
 30
0.0
 77
     2
1001
ACAD
1000
DSTYLE
1002
{
1070
     6
1000
_OPEN30
1070
     7
1000
_OPEN30
1070
    41
1040
2.77
1070
   173
1070
     1
1002
}
  0
MTEXT
  5
32E
100
AcDbEntity
  8
0
 62
     2
100
AcDbMText
 10
-53.404478
 20
-62.570595
 30
0.0
 40
2.5
 41
0.0
 71
     4
 72
     1
  1
\A1;-R
  0
LEADER
  5
32F
100
AcDbEntity
  8
0
 62
     2
100
AcDbLeader
  3
MXDIMSTYLE
 74
     0
 76
     3
 10
-62.273496
 20
37.759745
 30
0.0
 10
-67.028563
 20
45.995761
 30
0.0
 10
-72.145471
 20
45.995761
 30
0.0
 77
     2
1001
ACAD
1000
DSTYLE
1002
{
1070
     6
1000
_OPEN30
1070
     7
1000
_OPEN30
1070
    41
1040
2.77
1070
   173
1070
     1
1002
}
  0
MTEXT
  5
330
100
AcDbEntity
  8
0
 62
     2
100
AcDbMText
 10
-72.145471
 20
49.027011
 30
0.0
 40
2.5
 41
0.0
 71
     4
 72
     1
  1
\A1;-L
  0
INSERT
  5
331
100
AcDbEntity
  8
0
100
AcDbBlockReference
  2
MS_8
 10
68.476504
 20
-56.539293
 30
0.0
  0
INSERT
  5
332
100
AcDbEntity
  8
0
100
AcDbBlockReference
  2
MS_7
 10
68.476504
 20
27.460707
 30
0.0
  0
INSERT
  5
333
100
AcDbEntity
  8
0
100
AcDbBlockReference
  2
MS_6
 10
24.476504
 20
-7.539293
 30
0.0
  0
INSERT
  5
334
100
AcDbEntity
  8
0
100
AcDbBlockReference
  2
MS_5
 10
68.476504
 20
-7.539293
 30
0.0
  0
INSERT
  5
335
100
AcDbEntity
  8
0
100
AcDbBlockReference
  2
MS_4
 10
-71.523496
 20
-56.539293
 30
0.0
  0
INSERT
  5
336
100
AcDbEntity
  8
0
100
AcDbBlockReference
  2
MS_3
 10
-71.523496
 20
27.460707
 30
0.0
  0
INSERT
  5
337
100
AcDbEntity
  8
0
100
AcDbBlockReference
  2
MS_2
 10
-115.523496
 20
-7.539293
 30
0.0
  0
INSERT
  5
338
100
AcDbEntity
  8
0
100
AcDbBlockReference
  2
MS_1
 10
-71.523496
 20
-7.539293
 30
0.0
  0
MTEXT
  5
339
100
AcDbEntity
  8
0
  6
CONTINUOUS
 62
     3
100
AcDbMText
 10
-67.122824
 20
53.94345
 30
0.0
 40
3.2
 41
0.0
 71
     4
 72
     1
  1
\W1.065;\A1;STRETCH LINE
  0
LINE
  5
33A
100
AcDbEntity
  8
0
  6
CONTINUOUS
 62
     7
100
AcDbLine
 10
-133.399994
 20
-89.800003
 30
0.0
 11
-69.399994
 21
-89.800003
 31
0.0
  0
LINE
  5
33B
100
AcDbEntity
  8
0
  6
CONTINUOUS
 62
     7
100
AcDbLine
 10
-133.399994
 20
-77.800003
 30
0.0
 11
-133.399994
 21
-89.800003
 31
0.0
  0
LINE
  5
33C
100
AcDbEntity
  8
0
  6
CONTINUOUS
 62
     7
100
AcDbLine
 10
-133.399994
 20
-83.800003
 30
0.0
 11
-69.399994
 21
-83.800003
 31
0.0
  0
LINE
  5
33D
100
AcDbEntity
  8
0
  6
CONTINUOUS
 62
     7
100
AcDbLine
 10
-133.399994
 20
-77.800003
 30
0.0
 11
-69.399994
 21
-77.800003
 31
0.0
  0
MTEXT
  5
33E
100
AcDbEntity
  8
0
  6
CONTINUOUS
 62
     7
100
AcDbMText
 10
-129.666661
 20
-80.800003
 30
0.0
 40
3.2
 41
0.0
 71
     4
 72
     1
  1
\A1;STROKE
  0
MTEXT
  5
33F
100
AcDbEntity
  8
0
  6
CONTINUOUS
 62
     7
100
AcDbMText
 10
-131.266661
 20
-86.800003
 30
0.0
 40
3.2
 41
0.0
 71
     4
 72
     1
  1
\A1;STRETCH
  0
LINE
  5
340
100
AcDbEntity
  8
0
  6
CONTINUOUS
 62
     7
100
AcDbLine
 10
-107.799994
 20
-77.800003
 30
0.0
 11
-107.799994
 21
-89.800003
 31
0.0
  0
LINE
  5
341
100
AcDbEntity
  8
0
  6
CONTINUOUS
 62
     7
100
AcDbLine
 10
-98.199994
 20
-77.800003
 30
0.0
 11
-98.199994
 21
-89.800003
 31
0.0
  0
LINE
  5
342
100
AcDbEntity
  8
0
  6
CONTINUOUS
 62
     7
100
AcDbLine
 10
-88.599994
 20
-77.800003
 30
0.0
 11
-88.599994
 21
-89.800003
 31
0.0
  0
LINE
  5
343
100
AcDbEntity
  8
0
  6
CONTINUOUS
 62
     7
100
AcDbLine
 10
-78.999994
 20
-77.800003
 30
0.0
 11
-78.999994
 21
-89.800003
 31
0.0
  0
LINE
  5
344
100
AcDbEntity
  8
0
  6
CONTINUOUS
 62
     7
100
AcDbLine
 10
-69.399994
 20
-77.800003
 30
0.0
 11
-69.399994
 21
-89.800003
 31
0.0
  0
MTEXT
  5
345
100
AcDbEntity
  8
0
  6
CONTINUOUS
 62
     7
100
AcDbMText
 10
-104.066661
 20
-80.800003
 30
0.0
 40
3.2
 41
0.0
 71
     4
 72
     1
  1
\A1;4
  0
MTEXT
  5
346
100
AcDbEntity
  8
0
  6
CONTINUOUS
 62
     7
100
AcDbMText
 10
-94.466661
 20
-80.800003
 30
0.0
 40
3.2
 41
0.0
 71
     4
 72
     1
  1
\A1;6
  0
MTEXT
  5
347
100
AcDbEntity
  8
0
  6
CONTINUOUS
 62
     7
100
AcDbMText
 10
-84.866661
 20
-80.800003
 30
0.0
 40
3.2
 41
0.0
 71
     4
 72
     1
  1
\A1;8
  0
MTEXT
  5
348
100
AcDbEntity
  8
0
  6
CONTINUOUS
 62
     7
100
AcDbMText
 10
-76.688883
 20
-80.800003
 30
0.0
 40
3.2
 41
0.0
 71
     4
 72
     1
  1
\W1.333;\A1;10
  0
MTEXT
  5
349
100
AcDbEntity
  8
0
  6
CONTINUOUS
 62
     7
100
AcDbMText
 10
-75.159994
 20
-86.800003
 30
0.0
 40
3.2
 41
0.0
 71
     4
 72
     1
  1
\W1.200;\A1;0
  0
MTEXT
  5
34A
100
AcDbEntity
  8
0
  6
CONTINUOUS
 62
     7
100
AcDbMText
 10
-86.466661
 20
-86.800003
 30
0.0
 40
3.2
 41
0.0
 71
     4
 72
     1
  1
\A1;-2
  0
MTEXT
  5
34B
100
AcDbEntity
  8
0
  6
CONTINUOUS
 62
     7
100
AcDbMText
 10
-96.066661
 20
-86.800003
 30
0.0
 40
3.2
 41
0.0
 71
     4
 72
     1
  1
\A1;-4
  0
MTEXT
  5
34C
100
AcDbEntity
  8
0
  6
CONTINUOUS
 62
     7
100
AcDbMText
 10
-105.666661
 20
-86.800003
 30
0.0
 40
3.2
 41
0.0
 71
     4
 72
     1
  1
\A1;-6
  0
MTEXT
  5
34D
100
AcDbEntity
  8
0
  6
CONTINUOUS
 62
     7
100
AcDbMText
 10
-120.031947
 20
-74.800003
 30
0.0
 40
3.2
 41
0.0
 71
     4
 72
     1
  1
\W1.065;\A1;STRETCH LIST
  0
MTEXT
  5
34E
100
AcDbEntity
  8
0
  6
CONTINUOUS
 62
     7
100
AcDbMText
 10
-78.423994
 20
-75.800003
 30
0.0
 40
3.2
 41
0.0
 71
     4
 72
     1
  1
\W1.200;\A1;(mm)
  0
MTEXT
  5
34F
100
AcDbEntity
  8
0
  6
CONTINUOUS
 62
     7
100
AcDbMText
 10
72.908336
 20
68.5
 30
0.0
 40
3.2
 41
0.0
 71
     4
 72
     1
  1
\A1;ZE255
  0
MTEXT
  5
350
100
AcDbEntity
  8
0
  6
CONTINUOUS
 62
     7
100
AcDbMText
 10
8.950546
 20
74.5
 30
0.0
 40
3.2
 41
0.0
 71
     4
 72
     1
  1
\W1.079;\A1;MODEL:MBSAS8*ST(10)-ZE235
  0
MTEXT
  5
351
100
AcDbEntity
  8
0
  6
CONTINUOUS
 62
     7
100
AcDbMText
 10
-65.428569
 20
68.5
 30
0.0
 40
3.2
 41
0.0
 71
     4
 72
     1
  1
\W1.071;\A1;ZE155
  0
LINE
  5
352
100
AcDbEntity
  8
0
  6
CONTINUOUS
 62
     7
100
AcDbLine
 10
-138.399994
 20
94.5
 30
0.0
 11
138.350006
 21
94.5
 31
0.0
  0
LINE
  5
353
100
AcDbEntity
  8
0
  6
CONTINUOUS
 62
     7
100
AcDbLine
 10
138.350006
 20
94.5
 30
0.0
 11
138.350006
 21
-94.800003
 31
0.0
  0
LINE
  5
354
100
AcDbEntity
  8
0
  6
CONTINUOUS
 62
     7
100
AcDbLine
 10
-138.399994
 20
-94.800003
 30
0.0
 11
138.350006
 21
-94.800003
 31
0.0
  0
LINE
  5
355
100
AcDbEntity
  8
0
  6
CONTINUOUS
 62
     7
100
AcDbLine
 10
-138.399994
 20
94.5
 30
0.0
 11
-138.399994
 21
-94.800003
 31
0.0
  0
LINE
  5
356
100
AcDbEntity
  8
0
  6
CONTINUOUS
 62
     7
100
AcDbLine
 10
73.350006
 20
-84.800003
 30
0.0
 11
138.350006
 21
-84.800003
 31
0.0
  0
LINE
  5
357
100
AcDbEntity
  8
0
  6
CONTINUOUS
 62
     7
100
AcDbLine
 10
-138.399994
 20
84.5
 30
0.0
 11
-73.399994
 21
84.5
 31
0.0
  0
LINE
  5
358
100
AcDbEntity
  8
0
  6
CONTINUOUS
 62
     7
100
AcDbLine
 10
73.350006
 20
84.5
 30
0.0
 11
138.350006
 21
84.5
 31
0.0
  0
LINE
  5
359
100
AcDbEntity
  8
0
  6
CONTINUOUS
 62
     7
100
AcDbLine
 10
73.350006
 20
-84.800003
 30
0.0
 11
73.350006
 21
-94.800003
 31
0.0
  0
LINE
  5
35A
100
AcDbEntity
  8
0
  6
CONTINUOUS
 62
     7
100
AcDbLine
 10
73.350006
 20
94.5
 30
0.0
 11
73.350006
 21
84.5
 31
0.0
  0
LINE
  5
35B
100
AcDbEntity
  8
0
  6
CONTINUOUS
 62
     7
100
AcDbLine
 10
-73.399994
 20
94.5
 30
0.0
 11
-73.399994
 21
84.5
 31
0.0
  0
MTEXT
  5
35C
100
AcDbEntity
  8
0
  6
CONTINUOUS
 62
     7
100
AcDbMText
 10
77.440529
 20
-89.800003
 30
0.0
 40
4.5
 41
0.0
 71
     4
 72
     1
  1
\W1.121;\A1;KOGANEI CORP.
  0
MTEXT
  5
35D
100
AcDbEntity
  8
0
  6
CONTINUOUS
 62
     7
100
AcDbMText
 10
93.74946
 20
89.5
 30
0.0
 40
3.2
 41
0.0
 71
     4
 72
     1
  1
\W1.311;\A1;Ver. 1.0
  0
MTEXT
  5
35E
100
AcDbEntity
  8
0
  6
CONTINUOUS
 62
     7
100
AcDbMText
 10
-130.901862
 20
91.1
 30
0.0
 40
3.2
 41
0.0
 71
     1
 72
     1
  1
\W1.121;\A1;MINIBIT CYLINDER
  0
MTEXT
  5
35F
100
AcDbEntity
  8
0
  6
CONTINUOUS
 62
     7
100
AcDbMText
 10
-129.416052
 20
74.5
 30
0.0
 40
3.2
 41
0.0
 71
     4
 72
     1
  1
\W1.095;\A1;MODEL:MBSAS8*ST(10)-ZE135
  0
ENDSEC
  0
SECTION
  2
OBJECTS
  0
DICTIONARY
  5
19
100
AcDbDictionary
  3
ACAD_GROUP
350
1A
  3
ACAD_MLINESTYLE
350
1B
  0
DICTIONARY
  5
1A
102
{ACAD_REACTORS
330
19
102
}
100
AcDbDictionary
  0
DICTIONARY
  5
1B
102
{ACAD_REACTORS
330
19
102
}
100
AcDbDictionary
  3
STANDARD
350
1C
  0
MLINESTYLE
  5
1C
102
{ACAD_REACTORS
330
1B
102
}
100
AcDbMlineStyle
  2
STANDARD
 70
     0
  3

 62
     0
 51
90.0
 52
90.0
 71
     2
 49
0.5
 62
   256
  6
BYLAYER
 49
-0.5
 62
   256
  6
BYLAYER
  0
ENDSEC
  0
EOF
