  0
SECTION
  2
HEADER
  9
$ACADVER
  1
AC1012
  9
$DWGCODEPAGE
  3
dos932
  9
$INSBASE
 10
0.0
 20
0.0
 30
0.0
  9
$EXTMIN
 10
-138.39999389648437
 20
-94.800003051757812
 30
0.0
  9
$EXTMAX
 10
138.35000610351562
 20
94.5
 30
0.0
  9
$LIMMIN
 10
-138.39999389648437
 20
-94.800003051757812
  9
$LIMMAX
 10
138.35000610351562
 20
94.5
  9
$ORTHOMODE
 70
               0
  9
$REGENMODE
 70
               1
  9
$FILLMODE
 70
               1
  9
$QTEXTMODE
 70
               0
  9
$MIRRTEXT
 70
               1
  9
$DRAGMODE
 70
               2
  9
$LTSCALE
 40
1.0
  9
$OSMODE
 70
               0
  9
$ATTMODE
 70
               1
  9
$TEXTSIZE
 40
3.2000000476837158
  9
$TRACEWID
 40
0.05
  9
$TEXTSTYLE
  7
MX_NOTE_STANDARD
  9
$CLAYER
  8
0
  9
$CELTYPE
  6
CONTINUOUS
  9
$CECOLOR
 62
             256
  9
$CELTSCALE
 40
1.0
  9
$DELOBJ
 70
               1
  9
$DISPSILH
 70
               0
  9
$DIMSCALE
 40
1.0
  9
$DIMASZ
 40
2.5
  9
$DIMEXO
 40
1.5
  9
$DIMDLI
 40
3.75
  9
$DIMRND
 40
0.0
  9
$DIMDLE
 40
0.0
  9
$DIMEXE
 40
1.5
  9
$DIMTP
 40
0.0
  9
$DIMTM
 40
0.0
  9
$DIMTXT
 40
3.2000000476837158
  9
$DIMCEN
 40
2.5
  9
$DIMTSZ
 40
0.0
  9
$DIMTOL
 70
               0
  9
$DIMLIM
 70
               0
  9
$DIMTIH
 70
               0
  9
$DIMTOH
 70
               0
  9
$DIMSE1
 70
               0
  9
$DIMSE2
 70
               0
  9
$DIMTAD
 70
               1
  9
$DIMZIN
 70
               8
  9
$DIMBLK
  1

  9
$DIMASO
 70
               1
  9
$DIMSHO
 70
               1
  9
$DIMPOST
  1

  9
$DIMAPOST
  1

  9
$DIMALT
 70
               0
  9
$DIMALTD
 70
               4
  9
$DIMALTF
 40
0.0394
  9
$DIMLFAC
 40
1.0
  9
$DIMTOFL
 70
               1
  9
$DIMTVP
 40
0.0
  9
$DIMTIX
 70
               0
  9
$DIMSOXD
 70
               0
  9
$DIMSAH
 70
               0
  9
$DIMBLK1
  1

  9
$DIMBLK2
  1

  9
$DIMSTYLE
  2
MXDIMSTYLE
  9
$DIMCLRD
 70
               0
  9
$DIMCLRE
 70
               0
  9
$DIMCLRT
 70
               0
  9
$DIMTFAC
 40
1.0
  9
$DIMGAP
 40
1.0
  9
$DIMJUST
 70
               0
  9
$DIMSD1
 70
               0
  9
$DIMSD2
 70
               0
  9
$DIMTOLJ
 70
               1
  9
$DIMTZIN
 70
               0
  9
$DIMALTZ
 70
               0
  9
$DIMALTTZ
 70
               0
  9
$DIMFIT
 70
               3
  9
$DIMUPT
 70
               1
  9
$DIMUNIT
 70
               2
  9
$DIMDEC
 70
               4
  9
$DIMTDEC
 70
               4
  9
$DIMALTU
 70
               8
  9
$DIMALTTD
 70
               4
  9
$DIMTXSTY
  7
MX_NOTE_STANDARD
  9
$DIMAUNIT
 70
               0
  9
$LUNITS
 70
               2
  9
$LUPREC
 70
               4
  9
$SKETCHINC
 40
0.1
  9
$FILLETRAD
 40
0.0
  9
$AUNITS
 70
               0
  9
$AUPREC
 70
               0
  9
$MENU
  1
acad
  9
$ELEVATION
 40
0.0
  9
$PELEVATION
 40
0.0
  9
$THICKNESS
 40
0.0
  9
$LIMCHECK
 70
               0
  9
$BLIPMODE
 70
               1
  9
$CHAMFERA
 40
0.0
  9
$CHAMFERB
 40
0.0
  9
$CHAMFERC
 40
0.0
  9
$CHAMFERD
 40
0.0
  9
$SKPOLY
 70
               0
  9
$TDCREATE
 40
2452209.493298611
  9
$TDUPDATE
 40
2452209.493298611
  9
$TDINDWG
 40
0.0000000000
  9
$TDUSRTIMER
 40
0.0000000000
  9
$USRTIMER
 70
               1
  9
$ANGBASE
 50
0.0
  9
$ANGDIR
 70
               0
  9
$PDMODE
 70
               0
  9
$PDSIZE
 40
0.0
  9
$PLINEWID
 40
0.0
  9
$COORDS
 70
               1
  9
$SPLFRAME
 70
               0
  9
$SPLINETYPE
 70
               6
  9
$SPLINESEGS
 70
               8
  9
$ATTDIA
 70
               0
  9
$ATTREQ
 70
               1
  9
$HANDLING
 70
               1
  9
$HANDSEED
  5
36D
  9
$SURFTAB1
 70
               6
  9
$SURFTAB2
 70
               6
  9
$SURFTYPE
 70
               6
  9
$SURFU
 70
               6
  9
$SURFV
 70
               6
  9
$UCSNAME
  2

  9
$UCSORG
 10
0.0
 20
0.0
 30
0.0
  9
$UCSXDIR
 10
1.0
 20
0.0
 30
0.0
  9
$UCSYDIR
 10
0.0
 20
1.0
 30
0.0
  9
$PUCSNAME
  2

  9
$PUCSORG
 10
0.0
 20
0.0
 30
0.0
  9
$PUCSXDIR
 10
1.0
 20
0.0
 30
0.0
  9
$PUCSYDIR
 10
0.0
 20
1.0
 30
0.0
  9
$USERI1
 70
               0
  9
$USERI2
 70
               0
  9
$USERI3
 70
               0
  9
$USERI4
 70
               0
  9
$USERI5
 70
               0
  9
$USERR1
 40
0.0
  9
$USERR2
 40
0.0
  9
$USERR3
 40
0.0
  9
$USERR4
 40
0.0
  9
$USERR5
 40
0.0
  9
$WORLDVIEW
 70
               1
  9
$SHADEDGE
 70
               3
  9
$SHADEDIF
 70
              70
  9
$TILEMODE
 70
               1
  9
$MAXACTVP
 70
              16
  9
$PINSBASE
 10
0.0
 20
0.0
 30
0.0
  9
$PLIMCHECK
 70
               0
  9
$PEXTMIN
 10
1.0000000000000000E+20
 20
1.0000000000000000E+20
 30
1.0000000000000000E+20
  9
$PEXTMAX
 10
-1.0000000000000000E+20
 20
-1.0000000000000000E+20
 30
-1.0000000000000000E+20
  9
$PLIMMIN
 10
0.0
 20
0.0
  9
$PLIMMAX
 10
12.0
 20
9.0
  9
$UNITMODE
 70
               0
  9
$VISRETAIN
 70
               0
  9
$PLINEGEN
 70
               1
  9
$PSLTSCALE
 70
               0
  9
$TREEDEPTH
 70
            3020
  9
$PICKSTYLE
 70
               1
  9
$CMLSTYLE
  2
Standard
  9
$CMLJUST
 70
               0
  9
$CMLSCALE
 40
1.0
  9
$SAVEIMAGES
 70
               0
  0
ENDSEC
  0
SECTION
  2
CLASSES
  0
CLASS
  1
LWPOLYLINE
  2
AcDbPolyline
  3
"AutoCAD"
 90
        0
280
               0
281
               1
  0
CLASS
  1
IMAGE
  2
AcDbRasterImage
  3
ISM
 90
      127
280
               0
281
               1
  0
CLASS
  1
OLE2FRAME
  2
AcDbOle2Frame
  3
""
 90
        0
280
               0
281
               1
  0
CLASS
  1
HATCH
  2
AcDbHatch
  3
"ACAD_SEDONA"
 90
        0
280
               0
281
               1
  0
CLASS
  1
DICTIONARYVAR
  2
AcDbDictionaryVar
  3
"AutoCAD"
 90
        0
280
               0
281
               0
  0
CLASS
  1
RASTERVARIABLES
  2
AcDbRasterVariables
  3
ISM
 90
        0
280
               0
281
               0
  0
CLASS
  1
IMAGEDEF
  2
AcDbRasterImageDef
  3
ISM
 90
        0
280
               0
281
               0
  0
CLASS
  1
IMAGEDEF_REACTOR
  2
AcDbRasterImageDefReactor
  3
ISM
 90
        1
280
               0
281
               0
  0
CLASS
  1
IDBUFFER
  2
AcDbIdBuffer
  3
"Acad"
 90
        0
280
               0
281
               0
  0
CLASS
  1
SPATIAL_FILTER
  2
AcDbSpatialFilter
  3
"Acad"
 90
        0
280
               0
281
               0
  0
CLASS
  1
XRECORD
  2
AcDbXrecord
  3
"<Built In>"
 90
        0
280
               0
281
               0
  0
CLASS
  1
SORTENTSTABLE
  2
AcDbSortentsTable
  3
"AutoCAD"
 90
        0
280
               0
281
               0
  0
CLASS
  1
LAYER_INDEX
  2
AcDbLayerIndex
  3
"Acad"
 90
        0
280
               0
281
               0
  0
CLASS
  1
SPATIAL_INDEX
  2
AcDbSpatialIndex
  3
"Acad"
 90
        0
280
               0
281
               0
  0
CLASS
  1
OBJECT_PTR
  2
CAseDLPNTableRecord
  3
"ASE-LPNTableRecord"
 90
        1
280
               0
281
               0
  0
CLASS
  1
LAYOUT
  2
AcDbLayout
  3
"AutoCAD 2000"
 90
        1
280
               0
281
               0
  0
CLASS
  1
PLOTSETTINGS
  2
AcDbPlotSettings
  3
"AutoCAD 2000"
 90
        1
280
               0
281
               0
  0
CLASS
  1
ACDBDICTIONARYWDFLT
  2
AcDbDictionaryWithDefault
  3
"AutoCAD 2000"
 90
        1
280
               0
281
               0
  0
CLASS
  1
ACDBPLACEHOLDER
  2
AcDbPlaceHolder
  3
"AutoCAD 2000"
 90
        1
280
               0
281
               0
  0
CLASS
  1
VBA_PROJECT
  2
AcDbVbaProject
  3
"acadvba"
 90
        1
280
               0
281
               0
  0
CLASS
  1
WIPEOUT
  2
AcDbWipeout
  3
WipeOut|AutoCAD Express Tool|expresstools@autodesk.com
 90
      127
280
               0
281
               1
  0
CLASS
  1
WIPEOUTVARIABLES
  2
AcDbWipeoutVariables
  3
WipeOut|AutoCAD Express Tool|expresstools@autodesk.com
 90
        0
280
               0
281
               0
  0
CLASS
  1
RTEXT
  2
RText
  3
RText|AutoCAD Express Tool|expresstools@autodesk.com
 90
        0
280
               0
281
               1
  0
CLASS
  1
ARCALIGNEDTEXT
  2
AcDbArcAlignedText
  3
ATEXT|AutoCAD Express Tool|expresstools@autodesk.com
 90
        0
280
               0
281
               1
  0
ENDSEC
  0
SECTION
  2
TABLES
  0
TABLE
  2
VPORT
  5
7
100
AcDbSymbolTable
 70
               1
  0
VPORT
  5
15
100
AcDbSymbolTableRecord
100
AcDbViewportTableRecord
  2
*ACTIVE
 70
               0
 10
0.0
 20
0.0
 11
1.0
 21
1.0
 12
-0.024993896484375
 22
-0.1500015258789063
 13
0.0
 23
0.0
 14
1.0
 24
1.0
 15
0.0
 25
0.0
 16
0.0
 26
0.0
 36
1.0
 17
0.0
 27
0.0
 37
0.0
 40
191.1930030822754
 41
1.7320508075688772
 42
50.0
 43
0.0
 44
0.0
 50
0.0
 51
0.0
 71
               0
 72
             100
 73
               1
 74
               1
 75
               0
 76
               0
 77
               0
 78
               0
  0
ENDTAB
  0
TABLE
  2
LTYPE
  5
4
100
AcDbSymbolTable
 70
               6
  0
LTYPE
  5
11
100
AcDbSymbolTableRecord
100
AcDbLinetypeTableRecord
  2
BYBLOCK
 70
              64
  3

 72
              65
 73
               0
 40
0.0
  0
LTYPE
  5
12
100
AcDbSymbolTableRecord
100
AcDbLinetypeTableRecord
  2
BYLAYER
 70
              64
  3

 72
              65
 73
               0
 40
0.0
  0
LTYPE
  5
13
100
AcDbSymbolTableRecord
100
AcDbLinetypeTableRecord
  2
CONTINUOUS
 70
              64
  3
Solid line
 72
              65
 73
               0
 40
0.0
  0
LTYPE
  5
27
100
AcDbSymbolTableRecord
100
AcDbLinetypeTableRecord
  2
PHANTOM
 70
              64
  3
Phantom ______  __  __  ______  __  __  ______
 72
              65
 73
               6
 40
63.500000000000007
 49
31.75
 74
               0
 49
-6.3499999999999996
 74
               0
 49
6.3499999999999996
 74
               0
 49
-6.3499999999999996
 74
               0
 49
6.3499999999999996
 74
               0
 49
-6.3499999999999996
 74
               0
  0
LTYPE
  5
7C
100
AcDbSymbolTableRecord
100
AcDbLinetypeTableRecord
  2
CENTER
 70
              64
  3
Center ____ _ ____ _ ____ _ ____ _ ____ _ ____
 72
              65
 73
               4
 40
50.800000000000004
 49
31.75
 74
               0
 49
-6.3499999999999996
 74
               0
 49
6.3499999999999996
 74
               0
 49
-6.3499999999999996
 74
               0
  0
LTYPE
  5
105
100
AcDbSymbolTableRecord
100
AcDbLinetypeTableRecord
  2
DASHED
 70
              64
  3
Dashed __ __ __ __ __ __ __ __ __ __ __ __ __ _
 72
              65
 73
               2
 40
19.049999999999997
 49
12.699999999999999
 74
               0
 49
-6.3499999999999996
 74
               0
  0
ENDTAB
  0
TABLE
  2
LAYER
  5
2
100
AcDbSymbolTable
 70
               2
  0
LAYER
  5
14
100
AcDbSymbolTableRecord
100
AcDbLayerTableRecord
  2
0
 70
               0
 62
               7
  6
CONTINUOUS
  0
LAYER
  5
1D
100
AcDbSymbolTableRecord
100
AcDbLayerTableRecord
  2
DEFPOINTS
 70
               0
 62
               7
  6
CONTINUOUS
  0
ENDTAB
  0
TABLE
  2
STYLE
  5
3
100
AcDbSymbolTable
 70
               1
  0
STYLE
  5
17
100
AcDbSymbolTableRecord
100
AcDbTextStyleTableRecord
  2
MX_NOTE_STANDARD
 70
               0
 40
3.2000000476837158
 41
1.0
 50
0.0
 71
               0
 42
3.2000000476837158
  3
txt.shx
  4
extfont.shx
  0
ENDTAB
  0
TABLE
  2
VIEW
  5
5
100
AcDbSymbolTable
 70
               0
  0
ENDTAB
  0
TABLE
  2
UCS
  5
6
100
AcDbSymbolTable
 70
               0
  0
ENDTAB
  0
TABLE
  2
APPID
  5
8
100
AcDbSymbolTable
 70
               1
  0
APPID
  5
16
100
AcDbSymbolTableRecord
100
AcDbRegAppTableRecord
  2
ACAD
 70
               0
  0
ENDTAB
  0
TABLE
  2
DIMSTYLE
  5
9
100
AcDbSymbolTable
 70
               1
  0
DIMSTYLE
105
18
100
AcDbSymbolTableRecord
100
AcDbDimStyleTableRecord
  2
MXDIMSTYLE
 70
               0
  3

  4

  5

  6

  7

 40
1.0
 41
2.5
 42
1.5
 43
3.75
 44
1.5
 45
0.0
 46
0.0
 47
0.0
 48
0.0
 71
               0
 72
               0
 73
               0
 74
               0
 75
               0
 76
               0
 77
               1
 78
               8
140
3.2000000476837158
141
2.5
142
0.0
143
0.0394
144
1.0
145
0.0
146
1.0
147
1.0
170
               0
171
               4
172
               1
173
               0
174
               0
175
               0
176
               0
177
               0
178
               0
270
               2
271
               4
272
               4
273
               8
274
               4
275
               0
280
               0
281
               0
282
               0
283
               1
284
               0
285
               0
286
               0
287
               3
288
               1
340
17
  0
ENDTAB
  0
TABLE
  2
BLOCK_RECORD
  5
1
100
AcDbSymbolTable
 70
              15
  0
BLOCK_RECORD
  5
A
100
AcDbSymbolTableRecord
100
AcDbBlockTableRecord
  2
*MODEL_SPACE
  0
BLOCK_RECORD
  5
B
100
AcDbSymbolTableRecord
100
AcDbBlockTableRecord
  2
*PAPER_SPACE
  0
BLOCK_RECORD
  5
1E
100
AcDbSymbolTableRecord
100
AcDbBlockTableRecord
  2
MS_1
  0
BLOCK_RECORD
  5
1F
100
AcDbSymbolTableRecord
100
AcDbBlockTableRecord
  2
MS_2
  0
BLOCK_RECORD
  5
20
100
AcDbSymbolTableRecord
100
AcDbBlockTableRecord
  2
MS_3
  0
BLOCK_RECORD
  5
21
100
AcDbSymbolTableRecord
100
AcDbBlockTableRecord
  2
MS_4
  0
BLOCK_RECORD
  5
22
100
AcDbSymbolTableRecord
100
AcDbBlockTableRecord
  2
MS_5
  0
BLOCK_RECORD
  5
23
100
AcDbSymbolTableRecord
100
AcDbBlockTableRecord
  2
MS_6
  0
BLOCK_RECORD
  5
24
100
AcDbSymbolTableRecord
100
AcDbBlockTableRecord
  2
MS_7
  0
BLOCK_RECORD
  5
25
100
AcDbSymbolTableRecord
100
AcDbBlockTableRecord
  2
MS_8
  0
BLOCK_RECORD
  5
41
100
AcDbSymbolTableRecord
100
AcDbBlockTableRecord
  2
*X8
  0
BLOCK_RECORD
  5
FD
100
AcDbSymbolTableRecord
100
AcDbBlockTableRecord
  2
*X9
  0
BLOCK_RECORD
  5
151
100
AcDbSymbolTableRecord
100
AcDbBlockTableRecord
  2
*X10
  0
BLOCK_RECORD
  5
207
100
AcDbSymbolTableRecord
100
AcDbBlockTableRecord
  2
*X11
  0
BLOCK_RECORD
  5
2AA
100
AcDbSymbolTableRecord
100
AcDbBlockTableRecord
  2
*X12
  0
BLOCK_RECORD
  5
31F
100
AcDbSymbolTableRecord
100
AcDbBlockTableRecord
  2
*X13
  0
BLOCK_RECORD
  5
330
100
AcDbSymbolTableRecord
100
AcDbBlockTableRecord
  2
_OPEN30
  0
ENDTAB
  0
ENDSEC
  0
SECTION
  2
BLOCKS
  0
BLOCK
  5
D
100
AcDbEntity
  8
0
100
AcDbBlockBegin
  2
*MODEL_SPACE
 70
               0
 10
0.0
 20
0.0
 30
0.0
  3
*MODEL_SPACE
  1

  0
ENDBLK
  5
E
100
AcDbEntity
  8
0
100
AcDbBlockEnd
  0
BLOCK
  5
F
100
AcDbEntity
 67
               1
  8
0
100
AcDbBlockBegin
  2
*PAPER_SPACE
 70
               0
 10
0.0
 20
0.0
 30
0.0
  3
*PAPER_SPACE
  1

  0
ENDBLK
  5
10
100
AcDbEntity
 67
               1
  8
0
100
AcDbBlockEnd
  0
BLOCK
  5
26
100
AcDbEntity
  8
0
100
AcDbBlockBegin
  2
MS_1
 70
               0
 10
0.0
 20
0.0
 30
0.0
  3
MS_1
  1

  0
LINE
  5
28
100
AcDbEntity
  8
0
  6
PHANTOM
 62
               3
100
AcDbLine
 10
24.067602850044196
 20
2.8984909752856183
 30
0.0
 11
12.880970628920167
 21
2.8984909752856183
 31
0.0
  0
LINE
  5
29
100
AcDbEntity
  8
0
  6
PHANTOM
 62
               3
100
AcDbLine
 10
24.067602850044196
 20
28.0
 30
0.0
 11
24.067602850044196
 21
2.8984909752856183
 31
0.0
  0
LINE
  5
2A
100
AcDbEntity
  8
0
  6
PHANTOM
 62
               3
100
AcDbLine
 10
12.880970628920167
 20
2.8984909752856183
 30
0.0
 11
12.880970628920167
 21
-28.0
 31
0.0
  0
LINE
  5
2B
100
AcDbEntity
  8
0
  6
CONTINUOUS
 62
               4
100
AcDbLine
 10
31.0
 20
-6.4558874482657487
 30
0.0
 11
38.665063543869763
 21
-6.4558874482657487
 31
0.0
  0
LINE
  5
2C
100
AcDbEntity
  8
0
  6
CONTINUOUS
 62
               4
100
AcDbLine
 10
31.0
 20
-3.7558874425417557
 30
0.0
 11
39.388526356947381
 21
-3.7558874425417557
 31
0.0
  0
LINE
  5
2D
100
AcDbEntity
  8
0
  6
CONTINUOUS
 62
               4
100
AcDbLine
 10
30.0
 20
3.7558874235195887
 30
0.0
 11
38.665063543869692
 21
3.7558874235195887
 31
0.0
  0
LINE
  5
2E
100
AcDbEntity
  8
0
  6
CONTINUOUS
 62
               4
100
AcDbLine
 10
23.000000032859987
 20
6.4558874292435817
 30
0.0
 11
39.388526356947153
 21
6.4558874292435817
 31
0.0
  0
LINE
  5
2F
100
AcDbEntity
  8
0
  6
CONTINUOUS
 62
               4
100
AcDbLine
 10
7.5
 20
7.7221825248347216
 30
0.0
 11
7.5
 21
5.4060849870406145
 31
0.0
  0
LINE
  5
30
100
AcDbEntity
  8
0
  6
CONTINUOUS
 62
               4
100
AcDbLine
 10
23.000000032859987
 20
7.7221825248347216
 30
0.0
 11
23.000000032859987
 21
5.4060849870406145
 31
0.0
  0
LINE
  5
31
100
AcDbEntity
  8
0
  6
CONTINUOUS
 62
               4
100
AcDbLine
 10
31.0
 20
-2.7230447192786471
 30
0.0
 11
31.0
 21
-7.7221825438568885
 31
0.0
  0
LINE
  5
32
100
AcDbEntity
  8
0
  6
CONTINUOUS
 62
               4
100
AcDbLine
 10
15.499999967139757
 20
-5.4060849870406145
 30
0.0
 11
15.499999967139757
 21
-7.7221825438568885
 31
0.0
  0
LINE
  5
33
100
AcDbEntity
  8
0
  6
CONTINUOUS
 62
               4
100
AcDbLine
 10
30.00000001764468
 20
-2.7230447192786471
 30
0.0
 11
31.000000019764684
 21
-2.7230447192786471
 31
0.0
  0
LINE
  5
34
100
AcDbEntity
  8
0
  6
CONTINUOUS
 62
               4
100
AcDbLine
 10
29.999999997879996
 20
-4.4694913435030514
 30
0.0
 11
31.0
 21
-4.4694913435030514
 31
0.0
  0
ELLIPSE
  5
35
100
AcDbEntity
  8
0
  6
CONTINUOUS
 62
               4
100
AcDbEllipse
 10
9.5000000042400359
 20
6.6615223508063011
 30
0.0
 11
-1.25000000265
 21
0.0000000000000002
 31
0.0
210
0.0
220
0.0
230
1.0
 40
0.7071067811865475
 41
0.0
 42
6.2831853071795862
  0
LINE
  5
36
100
AcDbEntity
  8
0
  6
CONTINUOUS
 62
               4
100
AcDbLine
 10
9.7500000047699871
 20
7.5275477564267206
 30
0.0
 11
9.7500000047699871
 21
5.7954969451858744
 31
0.0
  0
LINE
  5
37
100
AcDbEntity
  8
0
  6
CONTINUOUS
 62
               4
100
AcDbLine
 10
9.250000003709971
 20
7.5275477564267206
 30
0.0
 11
9.250000003709971
 21
5.7954969451858744
 31
0.0
  0
ELLIPSE
  5
38
100
AcDbEntity
  8
0
  6
CONTINUOUS
 62
               4
100
AcDbEllipse
 10
17.499999971379765
 20
-6.6615223698284609
 30
0.0
 11
-1.25000000265
 21
0.0000000000000002
 31
0.0
210
0.0
220
0.0
230
1.0
 40
0.7071067811865475
 41
0.0
 42
6.2831853071795862
  0
LINE
  5
39
100
AcDbEntity
  8
0
  6
CONTINUOUS
 62
               4
100
AcDbLine
 10
17.749999971909773
 20
-7.5275477754488804
 30
0.0
 11
17.749999971909773
 21
-5.7954969642080485
 31
0.0
  0
LINE
  5
3A
100
AcDbEntity
  8
0
  6
CONTINUOUS
 62
               4
100
AcDbLine
 10
17.249999970849757
 20
-7.5275477754488804
 30
0.0
 11
17.249999970849757
 21
-5.7954969642080485
 31
0.0
  0
LINE
  5
3B
100
AcDbEntity
  8
0
  6
CONTINUOUS
 62
             200
100
AcDbLine
 10
38.331127768706196
 20
2.5096221303280259
 30
0.0
 11
39.740096658071494
 21
7.7679656700177375
 31
0.0
  0
LINE
  5
3C
100
AcDbEntity
  8
0
  6
CONTINUOUS
 62
             200
100
AcDbLine
 10
38.331127768706267
 20
-7.7021527414572688
 30
0.0
 11
39.740096658071565
 21
-2.4438092017675643
 31
0.0
  0
LINE
  5
3D
100
AcDbEntity
  8
0
  6
CONTINUOUS
 62
               4
100
AcDbLine
 10
7.5000000346271634
 20
7.7221825248347216
 30
0.0
 11
23.000000032859987
 21
7.7221825248347216
 31
0.0
  0
LINE
  5
3E
100
AcDbEntity
  8
0
  6
CONTINUOUS
 62
               4
100
AcDbLine
 10
7.5000000346271634
 20
5.6008621767778664
 30
0.0
 11
23.000000022298906
 21
5.6008621767778664
 31
0.0
  0
LINE
  5
3F
100
AcDbEntity
  8
0
  6
CONTINUOUS
 62
               4
100
AcDbLine
 10
15.499999978835575
 20
-7.7221825438568885
 30
0.0
 11
31.0
 21
-7.7221825438568885
 31
0.0
  0
LINE
  5
40
100
AcDbEntity
  8
0
  6
CONTINUOUS
 62
               4
100
AcDbLine
 10
15.499999978835575
 20
-5.6008621958000333
 30
0.0
 11
31.0
 21
-5.6008621958000333
 31
0.0
  0
INSERT
  5
4A
100
AcDbEntity
  8
0
  6
CONTINUOUS
 62
               7
100
AcDbBlockReference
  2
*X8
 10
0.0
 20
0.0
 30
0.0
  0
LINE
  5
4B
100
AcDbEntity
  8
0
  6
CONTINUOUS
 62
               7
100
AcDbLine
 10
0.0
 20
1.5
 30
0.0
 11
-2.5
 21
1.5
 31
0.0
  0
LINE
  5
4C
100
AcDbEntity
  8
0
  6
CONTINUOUS
 62
               7
100
AcDbLine
 10
0.0
 20
-1.5
 30
0.0
 11
-2.5
 21
-1.5
 31
0.0
  0
LINE
  5
4D
100
AcDbEntity
  8
0
  6
CONTINUOUS
 62
               2
100
AcDbLine
 10
-1.0
 20
-1.2000000000000028
 30
0.0
 11
-0.4803847577293539
 21
-1.5
 31
0.0
  0
LINE
  5
4E
100
AcDbEntity
  8
0
  6
CONTINUOUS
 62
               2
100
AcDbLine
 10
-1.0
 20
1.2000000000000028
 30
0.0
 11
-0.4803847577293539
 21
1.5
 31
0.0
  0
SPLINE
  5
4F
100
AcDbEntity
  8
0
  6
CONTINUOUS
 62
               7
100
AcDbSpline
210
0.0
220
0.0
230
1.0
 70
               0
 71
               3
 72
               0
 73
               0
 74
               5
 44
0.000001
 12
-0.5262037598477771
 22
0.8503585144643775
 32
0.0
 13
0.5262037751704171
 23
0.8503585049826933
 33
0.0
 11
-5.8543798819169126
 21
-3.1754265238809296
 31
0.0
 11
-6.0318484367291623
 21
-2.794852077955797
 31
0.0
 11
-6.0999999999999943
 21
-2.3815698774887011
 31
0.0
 11
-6.0318484162285726
 21
-1.9682877574118116
 31
0.0
 11
-5.8543798798272633
 21
-1.5877133879722152
 31
0.0
  0
SPLINE
  5
50
100
AcDbEntity
  8
0
  6
CONTINUOUS
 62
               7
100
AcDbSpline
210
0.0
220
0.0
230
1.0
 70
               0
 71
               3
 72
               0
 73
               0
 74
               5
 44
0.000001
 12
0.526203759847777
 22
0.8503585144643776
 32
0.0
 13
-0.5262037751704169
 23
0.8503585049826934
 33
0.0
 11
-2.7456201180830533
 21
-3.1754265238809296
 31
0.0
 11
-2.5681515632708178
 21
-2.794852077955797
 31
0.0
 11
-2.5
 21
-2.3815698774887011
 31
0.0
 11
-2.568151583771408
 21
-1.9682877574118116
 31
0.0
 11
-2.7456201201727026
 21
-1.5877133879722152
 31
0.0
  0
SPLINE
  5
51
100
AcDbEntity
  8
0
  6
CONTINUOUS
 62
               7
100
AcDbSpline
210
0.0
220
0.0
230
1.0
 70
               0
 71
               3
 72
               0
 73
               0
 74
               5
 44
0.000001
 12
-0.5262037598477771
 22
0.8503585144643775
 32
0.0
 13
0.5262037751704171
 23
0.8503585049826933
 33
0.0
 11
-4.0543798819169297
 21
-3.1754265238809296
 31
0.0
 11
-4.2318484367291651
 21
-2.794852077955797
 31
0.0
 11
-4.2999999999999829
 21
-2.3815698774887011
 31
0.0
 11
-4.2318484162285754
 21
-1.9682877574118116
 31
0.0
 11
-4.0543798798272803
 21
-1.5877133879722152
 31
0.0
  0
SPLINE
  5
52
100
AcDbEntity
  8
0
  6
CONTINUOUS
 62
               7
100
AcDbSpline
210
0.0
220
0.0
230
1.0
 70
               0
 71
               3
 72
               0
 73
               0
 74
               5
 44
0.000001
 12
0.526203759847777
 22
0.8503585144643776
 32
0.0
 13
-0.5262037751704169
 23
0.8503585049826934
 33
0.0
 11
-4.5456201180830647
 21
-3.1754265238809296
 31
0.0
 11
-4.368151563270815
 21
-2.794852077955797
 31
0.0
 11
-4.2999999999999829
 21
-2.3815698774887011
 31
0.0
 11
-4.3681515837714047
 21
-1.9682877574118116
 31
0.0
 11
-4.545620120172714
 21
-1.5877133879722152
 31
0.0
  0
SPLINE
  5
53
100
AcDbEntity
  8
0
  6
CONTINUOUS
 62
               7
100
AcDbSpline
210
0.0
220
0.0
230
1.0
 70
               0
 71
               3
 72
               0
 73
               0
 74
               5
 44
0.000001
 12
-0.2955767328958228
 22
-0.9553190016798742
 32
0.0
 13
0.2955767328958227
 23
-0.9553190016798742
 33
0.0
 11
-5.8543798798272633
 21
1.5877133879722152
 31
0.0
 11
-6.0365491313846542
 21
0.803775075127956
 31
0.0
 11
-6.0999999999999943
 21
0.0
 31
0.0
 11
-6.0365491313846542
 21
-0.8037750751279561
 31
0.0
 11
-5.8543798798272633
 21
-1.5877133879722152
 31
0.0
  0
SPLINE
  5
54
100
AcDbEntity
  8
0
  6
CONTINUOUS
 62
               7
100
AcDbSpline
210
0.0
220
0.0
230
1.0
 70
               0
 71
               3
 72
               0
 73
               0
 74
               5
 44
0.000001
 12
0.2955767328958229
 22
-0.9553190016798742
 32
0.0
 13
-0.2955767328958228
 23
-0.9553190016798742
 33
0.0
 11
-2.7456201201727026
 21
1.5877133879722152
 31
0.0
 11
-2.5634508686153259
 21
0.803775075127956
 31
0.0
 11
-2.5
 21
0.0
 31
0.0
 11
-2.5634508686153259
 21
-0.8037750751279561
 31
0.0
 11
-2.7456201201727026
 21
-1.5877133879722152
 31
0.0
  0
SPLINE
  5
55
100
AcDbEntity
  8
0
  6
CONTINUOUS
 62
               7
100
AcDbSpline
210
0.0
220
0.0
230
1.0
 70
               0
 71
               3
 72
               0
 73
               0
 74
               5
 44
0.000001
 12
0.2955767328958229
 22
-0.9553190016798742
 32
0.0
 13
-0.2955767328958228
 23
-0.9553190016798742
 33
0.0
 11
-4.545620120172714
 21
1.5877133879722152
 31
0.0
 11
-4.3634508686153231
 21
0.803775075127956
 31
0.0
 11
-4.2999999999999829
 21
0.0
 31
0.0
 11
-4.3634508686153231
 21
-0.8037750751279561
 31
0.0
 11
-4.545620120172714
 21
-1.5877133879722152
 31
0.0
  0
SPLINE
  5
56
100
AcDbEntity
  8
0
  6
CONTINUOUS
 62
               7
100
AcDbSpline
210
0.0
220
0.0
230
1.0
 70
               0
 71
               3
 72
               0
 73
               0
 74
               5
 44
0.000001
 12
-0.2955767328958228
 22
-0.9553190016798742
 32
0.0
 13
0.2955767328958229
 23
-0.9553190016798742
 33
0.0
 11
-4.0543798798272803
 21
1.5877133879722152
 31
0.0
 11
-4.2365491313846571
 21
0.803775075127956
 31
0.0
 11
-4.2999999999999829
 21
0.0
 31
0.0
 11
-4.2365491313846571
 21
-0.8037750751279561
 31
0.0
 11
-4.0543798798272803
 21
-1.5877133879722152
 31
0.0
  0
SPLINE
  5
57
100
AcDbEntity
  8
0
  6
CONTINUOUS
 62
               7
100
AcDbSpline
210
0.0
220
0.0
230
1.0
 70
               0
 71
               3
 72
               0
 73
               0
 74
               5
 44
0.000001
 12
0.526203759847777
 22
-0.8503585144643776
 32
0.0
 13
-0.5262037751704169
 23
-0.8503585049826934
 33
0.0
 11
-4.5456201180830647
 21
3.1754265238809296
 31
0.0
 11
-4.368151563270815
 21
2.794852077955797
 31
0.0
 11
-4.2999999999999829
 21
2.3815698774887011
 31
0.0
 11
-4.3681515837714047
 21
1.9682877574118116
 31
0.0
 11
-4.545620120172714
 21
1.5877133879722152
 31
0.0
  0
SPLINE
  5
58
100
AcDbEntity
  8
0
  6
CONTINUOUS
 62
               7
100
AcDbSpline
210
0.0
220
0.0
230
1.0
 70
               0
 71
               3
 72
               0
 73
               0
 74
               5
 44
0.000001
 12
-0.5262037598477771
 22
-0.8503585144643775
 32
0.0
 13
0.5262037751704171
 23
-0.8503585049826933
 33
0.0
 11
-5.8543798819169126
 21
3.1754265238809296
 31
0.0
 11
-6.0318484367291623
 21
2.794852077955797
 31
0.0
 11
-6.0999999999999943
 21
2.3815698774887011
 31
0.0
 11
-6.0318484162285726
 21
1.9682877574118116
 31
0.0
 11
-5.8543798798272633
 21
1.5877133879722152
 31
0.0
  0
SPLINE
  5
59
100
AcDbEntity
  8
0
  6
CONTINUOUS
 62
               7
100
AcDbSpline
210
0.0
220
0.0
230
1.0
 70
               0
 71
               3
 72
               0
 73
               0
 74
               5
 44
0.000001
 12
0.526203759847777
 22
-0.8503585144643776
 32
0.0
 13
-0.5262037751704169
 23
-0.8503585049826934
 33
0.0
 11
-2.7456201180830533
 21
3.1754265238809296
 31
0.0
 11
-2.5681515632708178
 21
2.794852077955797
 31
0.0
 11
-2.5
 21
2.3815698774887011
 31
0.0
 11
-2.568151583771408
 21
1.9682877574118116
 31
0.0
 11
-2.7456201201727026
 21
1.5877133879722152
 31
0.0
  0
SPLINE
  5
5A
100
AcDbEntity
  8
0
  6
CONTINUOUS
 62
               7
100
AcDbSpline
210
0.0
220
0.0
230
1.0
 70
               0
 71
               3
 72
               0
 73
               0
 74
               5
 44
0.000001
 12
-0.5262037598477771
 22
-0.8503585144643775
 32
0.0
 13
0.5262037751704171
 23
-0.8503585049826933
 33
0.0
 11
-4.0543798819169297
 21
3.1754265238809296
 31
0.0
 11
-4.2318484367291651
 21
2.794852077955797
 31
0.0
 11
-4.2999999999999829
 21
2.3815698774887011
 31
0.0
 11
-4.2318484162285754
 21
1.9682877574118116
 31
0.0
 11
-4.0543798798272803
 21
1.5877133879722152
 31
0.0
  0
LINE
  5
5B
100
AcDbEntity
  8
0
  6
CONTINUOUS
 62
               7
100
AcDbLine
 10
-2.5
 20
-2.75
 30
0.0
 11
-2.7456201180830533
 21
-3.1754265238809296
 31
0.0
  0
LINE
  5
5C
100
AcDbEntity
  8
0
  6
CONTINUOUS
 62
               7
100
AcDbLine
 10
-6.0999999999999943
 20
-2.75
 30
0.0
 11
-5.8543798819169126
 21
-3.1754265238809296
 31
0.0
  0
LINE
  5
5D
100
AcDbEntity
  8
0
  6
CONTINUOUS
 62
               7
100
AcDbLine
 10
-4.2999999999999829
 20
-2.75
 30
0.0
 11
-4.0543798819169297
 21
-3.1754265238809296
 31
0.0
  0
LINE
  5
5E
100
AcDbEntity
  8
0
  6
CONTINUOUS
 62
               7
100
AcDbLine
 10
-4.2999999999999829
 20
-2.75
 30
0.0
 11
-4.5456201180830647
 21
-3.1754265238809296
 31
0.0
  0
LINE
  5
5F
100
AcDbEntity
  8
0
  6
CONTINUOUS
 62
               7
100
AcDbLine
 10
-4.545620120172714
 20
-3.1754265238809296
 30
0.0
 11
-5.8543798691084135
 21
-3.1754265238809296
 31
0.0
  0
LINE
  5
60
100
AcDbEntity
  8
0
  6
CONTINUOUS
 62
               7
100
AcDbLine
 10
-4.545620120172714
 20
-1.5877133879722152
 30
0.0
 11
-5.8543798798272633
 21
-1.5877133879722152
 31
0.0
  0
LINE
  5
61
100
AcDbEntity
  8
0
  6
CONTINUOUS
 62
               7
100
AcDbLine
 10
-4.0543798798272803
 20
-1.5877133879722152
 30
0.0
 11
-2.7456201201727026
 21
-1.5877133879722152
 31
0.0
  0
LINE
  5
62
100
AcDbEntity
  8
0
  6
CONTINUOUS
 62
               7
100
AcDbLine
 10
-4.0543798798272803
 20
-3.1754265238809296
 30
0.0
 11
-2.7456201308915809
 21
-3.1754265238809296
 31
0.0
  0
LINE
  5
63
100
AcDbEntity
  8
0
  6
CONTINUOUS
 62
               7
100
AcDbLine
 10
-4.545620120172714
 20
1.5877133879722152
 30
0.0
 11
-5.8543798798272633
 21
1.5877133879722152
 31
0.0
  0
LINE
  5
64
100
AcDbEntity
  8
0
  6
CONTINUOUS
 62
               7
100
AcDbLine
 10
-4.0543798798272803
 20
1.5877133879722152
 30
0.0
 11
-2.7456201201727026
 21
1.5877133879722152
 31
0.0
  0
LINE
  5
65
100
AcDbEntity
  8
0
  6
CONTINUOUS
 62
               7
100
AcDbLine
 10
-4.0543798798272803
 20
3.1754265238809296
 30
0.0
 11
-2.7456201308915809
 21
3.1754265238809296
 31
0.0
  0
LINE
  5
66
100
AcDbEntity
  8
0
  6
CONTINUOUS
 62
               7
100
AcDbLine
 10
-4.2999999999999829
 20
2.75
 30
0.0
 11
-4.0543798819169297
 21
3.1754265238809296
 31
0.0
  0
LINE
  5
67
100
AcDbEntity
  8
0
  6
CONTINUOUS
 62
               7
100
AcDbLine
 10
-2.5
 20
2.75
 30
0.0
 11
-2.7456201180830533
 21
3.1754265238809296
 31
0.0
  0
LINE
  5
68
100
AcDbEntity
  8
0
  6
CONTINUOUS
 62
               7
100
AcDbLine
 10
-6.0999999999999943
 20
2.75
 30
0.0
 11
-5.8543798819169126
 21
3.1754265238809296
 31
0.0
  0
LINE
  5
69
100
AcDbEntity
  8
0
  6
CONTINUOUS
 62
               7
100
AcDbLine
 10
-4.2999999999999829
 20
2.75
 30
0.0
 11
-4.5456201180830647
 21
3.1754265238809296
 31
0.0
  0
LINE
  5
6A
100
AcDbEntity
  8
0
  6
CONTINUOUS
 62
               7
100
AcDbLine
 10
-4.545620120172714
 20
3.1754265238809296
 30
0.0
 11
-5.8543798691084135
 21
3.1754265238809296
 31
0.0
  0
LINE
  5
6B
100
AcDbEntity
  8
0
  6
CONTINUOUS
 62
               7
100
AcDbLine
 10
-6.0999999999999943
 20
-2.750000018878012
 30
0.0
 11
-6.0999999999999943
 21
2.749999981121988
 31
0.0
  0
LINE
  5
6C
100
AcDbEntity
  8
0
  6
CONTINUOUS
 62
               7
100
AcDbLine
 10
-2.5
 20
-2.750000018878012
 30
0.0
 11
-2.5
 21
2.749999981121988
 31
0.0
  0
LINE
  5
6D
100
AcDbEntity
  8
0
  6
CONTINUOUS
 62
               7
100
AcDbLine
 10
-4.2999999999999829
 20
-2.750000018878012
 30
0.0
 11
-4.2999999999999829
 21
2.749999981121988
 31
0.0
  0
LINE
  5
6E
100
AcDbEntity
  8
0
  6
CONTINUOUS
 62
               2
100
AcDbLine
 10
-2.5
 20
-1.2000000000000028
 30
0.0
 11
-1.0
 21
-1.2000000000000028
 31
0.0
  0
LINE
  5
6F
100
AcDbEntity
  8
0
  6
CONTINUOUS
 62
               2
100
AcDbLine
 10
-2.5
 20
1.2000000000000028
 30
0.0
 11
-1.0
 21
1.2000000000000028
 31
0.0
  0
LINE
  5
70
100
AcDbEntity
  8
0
  6
CONTINUOUS
 62
               2
100
AcDbLine
 10
-8.0
 20
-1.2000000000000028
 30
0.0
 11
-6.0999999999999943
 21
-1.2000000000000028
 31
0.0
  0
LINE
  5
71
100
AcDbEntity
  8
0
  6
CONTINUOUS
 62
               7
100
AcDbLine
 10
-7.7000000000000171
 20
-1.5
 30
0.0
 11
-8.0
 21
-1.2000000000000028
 31
0.0
  0
LINE
  5
72
100
AcDbEntity
  8
0
  6
CONTINUOUS
 62
               7
100
AcDbLine
 10
-7.7000000000000171
 20
-1.5
 30
0.0
 11
-6.0999999999999943
 21
-1.5
 31
0.0
  0
LINE
  5
73
100
AcDbEntity
  8
0
  6
CONTINUOUS
 62
               2
100
AcDbLine
 10
-8.0
 20
1.2000000000000028
 30
0.0
 11
-6.0999999999999943
 21
1.2000000000000028
 31
0.0
  0
LINE
  5
74
100
AcDbEntity
  8
0
  6
CONTINUOUS
 62
               7
100
AcDbLine
 10
-7.7000000000000171
 20
1.5
 30
0.0
 11
-8.0
 21
1.2000000000000028
 31
0.0
  0
LINE
  5
75
100
AcDbEntity
  8
0
  6
CONTINUOUS
 62
               7
100
AcDbLine
 10
-7.7000000000000171
 20
-1.5
 30
0.0
 11
-7.7000000000000171
 21
1.5
 31
0.0
  0
LINE
  5
76
100
AcDbEntity
  8
0
  6
CONTINUOUS
 62
               7
100
AcDbLine
 10
-1.0
 20
-1.5
 30
0.0
 11
-1.0
 21
1.5
 31
0.0
  0
LINE
  5
77
100
AcDbEntity
  8
0
  6
CONTINUOUS
 62
               7
100
AcDbLine
 10
-8.0
 20
-1.2000000000000028
 30
0.0
 11
-8.0
 21
1.2000000000000028
 31
0.0
  0
LINE
  5
78
100
AcDbEntity
  8
0
  6
CONTINUOUS
 62
               7
100
AcDbLine
 10
-7.7000000000000171
 20
1.5
 30
0.0
 11
-6.0999999999999943
 21
1.5
 31
0.0
  0
LINE
  5
79
100
AcDbEntity
  8
0
  6
CONTINUOUS
 62
               7
100
AcDbLine
 10
0.0
 20
-8.5
 30
0.0
 11
30.0
 21
-8.5
 31
0.0
  0
CIRCLE
  5
7A
100
AcDbEntity
  8
0
  6
CONTINUOUS
 62
               7
100
AcDbCircle
 10
26.999999999999972
 20
0.0000000000000142
 30
0.0
 40
1.1999999999999886
  0
CIRCLE
  5
7B
100
AcDbEntity
  8
0
  6
CONTINUOUS
 62
               2
100
AcDbCircle
 10
26.999999999999972
 20
0.0000000000000142
 30
0.0
 40
1.5
  0
LINE
  5
7D
100
AcDbEntity
  8
0
  6
CENTER
 62
               2
100
AcDbLine
 10
26.999999999999972
 20
1.9547775518886965
 30
0.0
 11
26.999999999999972
 21
-1.9760956580291094
 31
0.0
  0
CIRCLE
  5
7E
100
AcDbEntity
  8
0
  6
CONTINUOUS
 62
               7
100
AcDbCircle
 10
10.0
 20
0.0000000000000142
 30
0.0
 40
1.1999999999999886
  0
CIRCLE
  5
7F
100
AcDbEntity
  8
0
  6
CONTINUOUS
 62
               2
100
AcDbCircle
 10
10.0
 20
0.0000000000000142
 30
0.0
 40
1.5
  0
LINE
  5
80
100
AcDbEntity
  8
0
  6
CENTER
 62
               2
100
AcDbLine
 10
10.0
 20
1.9547775518886965
 30
0.0
 11
10.0
 21
-1.9760956580291094
 31
0.0
  0
LINE
  5
81
100
AcDbEntity
  8
0
  6
CONTINUOUS
 62
               7
100
AcDbLine
 10
0.0
 20
-5.0000000373376992
 30
0.0
 11
3.2104469623184144
 21
-5.0000000373376992
 31
0.0
  0
LINE
  5
82
100
AcDbEntity
  8
0
  6
CONTINUOUS
 62
               7
100
AcDbLine
 10
0.0
 20
-5.4060849870406145
 30
0.0
 11
3.0379182082845091
 21
-5.4060849870406145
 31
0.0
  0
LINE
  5
83
100
AcDbEntity
  8
0
  6
CONTINUOUS
 62
               7
100
AcDbLine
 10
0.0
 20
-7.4393398101114769
 30
0.0
 11
3.5402736862588711
 21
-7.4393398101114769
 31
0.0
  0
LINE
  5
84
100
AcDbEntity
  8
0
  6
CONTINUOUS
 62
               7
100
AcDbLine
 10
6.7895530376815856
 20
-5.0000000373376992
 30
0.0
 11
30.0
 21
-5.0000000373376992
 31
0.0
  0
LINE
  5
85
100
AcDbEntity
  8
0
  6
CONTINUOUS
 62
               7
100
AcDbLine
 10
6.9620817917154909
 20
-5.4060849870406145
 30
0.0
 11
30.0
 21
-5.4060849870406145
 31
0.0
  0
LINE
  5
86
100
AcDbEntity
  8
0
  6
CONTINUOUS
 62
               7
100
AcDbLine
 10
6.4597263137411289
 20
-7.4393398101114769
 30
0.0
 11
15.499999967139757
 21
-7.4393398101114769
 31
0.0
  0
LINE
  5
87
100
AcDbEntity
  8
0
  6
CONTINUOUS
 62
               7
100
AcDbLine
 10
6.7895530376815856
 20
5.0000000373376992
 30
0.0
 11
30.0
 21
5.0000000373376992
 31
0.0
  0
LINE
  5
88
100
AcDbEntity
  8
0
  6
CONTINUOUS
 62
               7
100
AcDbLine
 10
6.9620817917154909
 20
5.4060849870406145
 30
0.0
 11
30.0
 21
5.4060849870406145
 31
0.0
  0
LINE
  5
89
100
AcDbEntity
  8
0
  6
CONTINUOUS
 62
               7
100
AcDbLine
 10
6.4597263137411289
 20
7.4393398101114769
 30
0.0
 11
7.5
 21
7.4393398101114769
 31
0.0
  0
LINE
  5
8A
100
AcDbEntity
  8
0
  6
CONTINUOUS
 62
               7
100
AcDbLine
 10
0.0
 20
5.0000000373376992
 30
0.0
 11
3.2104469623184144
 21
5.0000000373376992
 31
0.0
  0
LINE
  5
8B
100
AcDbEntity
  8
0
  6
CONTINUOUS
 62
               7
100
AcDbLine
 10
0.0
 20
5.4060849870406145
 30
0.0
 11
3.0379182082845091
 21
5.4060849870406145
 31
0.0
  0
LINE
  5
8C
100
AcDbEntity
  8
0
  6
CONTINUOUS
 62
               7
100
AcDbLine
 10
0.0
 20
8.5
 30
0.0
 11
30.0
 21
8.5
 31
0.0
  0
LINE
  5
8D
100
AcDbEntity
  8
0
  6
CONTINUOUS
 62
               7
100
AcDbLine
 10
0.0
 20
7.4393398101114769
 30
0.0
 11
3.5402736862588711
 21
7.4393398101114769
 31
0.0
  0
LINE
  5
8E
100
AcDbEntity
  8
0
  6
CENTER
 62
               2
100
AcDbLine
 10
2.1999999999999886
 20
-6.0
 30
0.0
 11
7.7999999999999972
 21
-6.0
 31
0.0
  0
CIRCLE
  5
8F
100
AcDbEntity
  8
0
  6
CONTINUOUS
 62
               7
100
AcDbCircle
 10
5.0
 20
-6.0
 30
0.0
 40
2.0500000000000007
  0
CIRCLE
  5
90
100
AcDbEntity
  8
0
  6
CONTINUOUS
 62
               7
100
AcDbCircle
 10
5.0
 20
-6.0
 30
0.0
 40
1.1000000000000014
  0
LINE
  5
91
100
AcDbEntity
  8
0
  6
CENTER
 62
               2
100
AcDbLine
 10
5.0
 20
-8.7999999999999972
 30
0.0
 11
5.0
 21
-3.2000000000000028
 31
0.0
  0
LINE
  5
92
100
AcDbEntity
  8
0
  6
CONTINUOUS
 62
               7
100
AcDbLine
 10
0.0
 20
8.5
 30
0.0
 11
0.0
 21
-8.5
 31
0.0
  0
CIRCLE
  5
93
100
AcDbEntity
  8
0
  6
CONTINUOUS
 62
               7
100
AcDbCircle
 10
5.0
 20
6.0
 30
0.0
 40
2.0500000000000007
  0
CIRCLE
  5
94
100
AcDbEntity
  8
0
  6
CONTINUOUS
 62
               7
100
AcDbCircle
 10
5.0
 20
6.0
 30
0.0
 40
1.1000000000000014
  0
LINE
  5
95
100
AcDbEntity
  8
0
  6
CENTER
 62
               2
100
AcDbLine
 10
2.1999999999999886
 20
6.0
 30
0.0
 11
7.7999999999999972
 21
6.0
 31
0.0
  0
LINE
  5
96
100
AcDbEntity
  8
0
  6
CONTINUOUS
 62
               7
100
AcDbLine
 10
30.0
 20
8.5
 30
0.0
 11
30.0
 21
6.4558874292435817
 31
0.0
  0
LINE
  5
97
100
AcDbEntity
  8
0
  6
CENTER
 62
               2
100
AcDbLine
 10
-9.0022314592533803
 20
0.0
 30
0.0
 11
31.706095837897948
 21
0.0
 31
0.0
  0
LINE
  5
98
100
AcDbEntity
  8
0
  6
CONTINUOUS
 62
               7
100
AcDbLine
 10
23.000000032859987
 20
7.4393398101114769
 30
0.0
 11
30.0
 21
7.4393398101114769
 31
0.0
  0
LINE
  5
99
100
AcDbEntity
  8
0
  6
CONTINUOUS
 62
               7
100
AcDbLine
 10
30.0
 20
5.4060849870406145
 30
0.0
 11
30.0
 21
-5.4060849870406145
 31
0.0
  0
LINE
  5
9A
100
AcDbEntity
  8
0
  6
CONTINUOUS
 62
               7
100
AcDbLine
 10
30.0
 20
-7.7221825438568885
 30
0.0
 11
30.0
 21
-8.5
 31
0.0
  0
LINE
  5
9B
100
AcDbEntity
  8
0
  6
CENTER
 62
               2
100
AcDbLine
 10
5.0
 20
8.7999999999999972
 30
0.0
 11
5.0
 21
3.2000000000000028
 31
0.0
  0
ENDBLK
  5
9C
100
AcDbEntity
  8
0
100
AcDbBlockEnd
  0
BLOCK
  5
9D
100
AcDbEntity
  8
0
100
AcDbBlockBegin
  2
MS_2
 70
               0
 10
0.0
 20
0.0
 30
0.0
  3
MS_2
  1

  0
LINE
  5
9E
100
AcDbEntity
  8
0
  6
CONTINUOUS
 62
             200
100
AcDbLine
 10
9.2444824188574444
 20
4.0826028990971661
 30
0.0
 11
8.1848323973757147
 21
3.0229528776154506
 31
0.0
  0
LINE
  5
9F
100
AcDbEntity
  8
0
  6
CONTINUOUS
 62
               4
100
AcDbLine
 10
11.07992959620006
 20
4.5058568161618577
 30
0.0
 11
9.9849242355840033
 21
3.4108514555458438
 31
0.0
  0
LINE
  5
A0
100
AcDbEntity
  8
0
  6
CONTINUOUS
 62
               4
100
AcDbLine
 10
9.3848936228478976
 20
3.94219169510672
 30
0.0
 11
8.4656548053566496
 21
3.0229528776154506
 31
0.0
  0
LINE
  5
A1
100
AcDbEntity
  8
0
  6
CONTINUOUS
 62
               4
100
AcDbLine
 10
7.758548022670908
 20
3.0229528776154506
 30
0.0
 11
8.4656548053566496
 21
3.0229528776154506
 31
0.0
  0
ARC
  5
A2
100
AcDbEntity
  8
0
  6
CONTINUOUS
 62
               4
100
AcDbCircle
 10
8.5343445258686472
 20
4.86034677911295
 30
0.0
 40
2.0506628653391066
100
AcDbArc
 50
225.05843089091513
 51
315.02142384112307
  0
LINE
  5
A3
100
AcDbEntity
  8
0
  6
CONTINUOUS
 62
               4
100
AcDbLine
 10
11.07992959620006
 20
4.5058568161618577
 30
0.0
 11
11.081949901293342
 21
5.2836742771160186
 31
0.0
  0
LINE
  5
A4
100
AcDbEntity
  8
0
  6
CONTINUOUS
 62
             200
100
AcDbLine
 10
7.7595581752177623
 20
5.5675271427369477
 30
0.0
 11
6.6978878486425231
 21
4.5058568161618577
 31
0.0
  0
LINE
  5
A5
100
AcDbEntity
  8
0
  6
CONTINUOUS
 62
               4
100
AcDbLine
 10
8.1807917871889515
 20
7.4049946251728596
 30
0.0
 11
7.0857864265730939
 21
6.3099892645568456
 31
0.0
  0
LINE
  5
A6
100
AcDbEntity
  8
0
  6
CONTINUOUS
 62
               4
100
AcDbLine
 10
7.6171266661337995
 20
5.7099586518207754
 30
0.0
 11
6.6978878486425231
 21
4.7907198343294706
 31
0.0
  0
LINE
  5
A7
100
AcDbEntity
  8
0
  6
CONTINUOUS
 62
               4
100
AcDbLine
 10
6.6978878486425231
 20
4.7907198343294706
 30
0.0
 11
6.6978878486425231
 21
4.0836130516438569
 31
0.0
  0
ARC
  5
A8
100
AcDbEntity
  8
0
  6
CONTINUOUS
 62
               4
100
AcDbCircle
 10
8.5372070999514449
 20
4.8594102075046646
 30
0.0
 40
2.0520237746840961
100
AcDbArc
 50
135.01661649434493
 51
224.98338350565427
  0
LINE
  5
A9
100
AcDbEntity
  8
0
  6
CONTINUOUS
 62
               4
100
AcDbLine
 10
8.4656548053566496
 20
3.0229528776154506
 30
0.0
 11
6.6978878486425231
 21
4.7907198343294706
 31
0.0
  0
LINE
  5
AA
100
AcDbEntity
  8
0
  6
CONTINUOUS
 62
               4
100
AcDbLine
 10
9.9505790489963033
 20
3.3765062689582646
 30
0.0
 11
7.0514412399853654
 21
6.2756440779692593
 31
0.0
  0
LINE
  5
AB
100
AcDbEntity
  8
0
  6
CONTINUOUS
 62
               4
100
AcDbLine
 10
7.758548022670908
 20
3.0229528776154506
 30
0.0
 11
6.6978878486425231
 21
4.0836130516438569
 31
0.0
  0
LINE
  5
AC
100
AcDbEntity
  8
0
  6
CONTINUOUS
 62
               4
100
AcDbLine
 10
11.399137800955259
 20
5.6008621767778646
 30
0.0
 11
9.2778174528982902
 21
7.7221825248346914
 31
0.0
  0
LINE
  5
AD
100
AcDbEntity
  8
0
  6
CONTINUOUS
 62
               4
100
AcDbLine
 10
9.2778174528982902
 20
7.72218252483467
 30
0.0
 11
8.9606295532366289
 21
7.4049946251728596
 31
0.0
  0
LINE
  5
AE
100
AcDbEntity
  8
0
  6
CENTER
 62
             200
100
AcDbLine
 10
11.356975160126865
 20
7.6800198840064109
 30
0.0
 11
6.4435368753580917
 21
2.7665815992374814
 31
0.0
  0
LINE
  5
AF
100
AcDbEntity
  8
0
  6
CONTINUOUS
 62
               4
100
AcDbLine
 10
10.514244170051427
 20
3.9401713900133313
 30
0.0
 11
7.6151063610405174
 21
6.8393091990243615
 31
0.0
  0
LINE
  5
B0
100
AcDbEntity
  8
0
  6
CONTINUOUS
 62
               4
100
AcDbLine
 10
8.1807917871889515
 20
7.4049946251728596
 30
0.0
 11
8.9606295532366289
 21
7.4049946251728596
 31
0.0
  0
LINE
  5
B1
100
AcDbEntity
  8
0
  6
CONTINUOUS
 62
               4
100
AcDbLine
 10
11.399137800955259
 20
5.6008621767778148
 30
0.0
 11
11.081949901293342
 21
5.2836742771160186
 31
0.0
  0
ARC
  5
B2
100
AcDbEntity
  8
0
  6
CONTINUOUS
 62
               4
100
AcDbCircle
 10
8.5343445068464803
 20
-4.8603467981351463
 30
0.0
 40
2.0506628653391066
100
AcDbArc
 50
44.978576158876109
 51
134.94156910908407
  0
ARC
  5
B3
100
AcDbEntity
  8
0
  6
CONTINUOUS
 62
               4
100
AcDbCircle
 10
8.5372070809292779
 20
-4.8594102265268324
 30
0.0
 40
2.0520237746840961
100
AcDbArc
 50
135.01661649434493
 51
224.98338350565427
  0
LINE
  5
B4
100
AcDbEntity
  8
0
  6
CONTINUOUS
 62
               4
100
AcDbLine
 10
9.9505790299741363
 20
-3.3765062879804253
 30
0.0
 11
7.0514412209631985
 21
-6.2756440969914546
 31
0.0
  0
LINE
  5
B5
100
AcDbEntity
  8
0
  6
CENTER
 62
             200
100
AcDbLine
 10
11.356975141104698
 20
-7.6800199030285849
 30
0.0
 11
6.4435368563359248
 21
-2.7665816182596776
 31
0.0
  0
LINE
  5
B6
100
AcDbEntity
  8
0
  6
CONTINUOUS
 62
               4
100
AcDbLine
 10
10.51424415102926
 20
-3.9401714090355631
 30
0.0
 11
7.6151063420183505
 21
-6.8393092180465569
 31
0.0
  0
LINE
  5
B7
100
AcDbEntity
  8
0
  6
CONTINUOUS
 62
               4
100
AcDbLine
 10
7.7585480036487411
 20
-3.0229528966376185
 30
0.0
 11
6.6978878296203561
 21
-4.0836130706660461
 31
0.0
  0
LINE
  5
B8
100
AcDbEntity
  8
0
  6
CONTINUOUS
 62
               4
100
AcDbLine
 10
8.4656547863344827
 20
-3.0229528966376185
 30
0.0
 11
6.6978878296203561
 21
-4.7907198533516668
 31
0.0
  0
LINE
  5
B9
100
AcDbEntity
  8
0
  6
CONTINUOUS
 62
               4
100
AcDbLine
 10
6.6978878296203561
 20
-4.7907198533516668
 30
0.0
 11
6.6978878296203561
 21
-4.0836130706660461
 31
0.0
  0
LINE
  5
BA
100
AcDbEntity
  8
0
  6
CONTINUOUS
 62
               4
100
AcDbLine
 10
7.6171266471116326
 20
-5.7099586708429708
 30
0.0
 11
6.6978878296203561
 21
-4.7907198533516668
 31
0.0
  0
LINE
  5
BB
100
AcDbEntity
  8
0
  6
CONTINUOUS
 62
             200
100
AcDbLine
 10
7.7595581561955953
 20
-5.567527161759144
 30
0.0
 11
6.6978878296203561
 21
-4.5058568351840256
 31
0.0
  0
LINE
  5
BC
100
AcDbEntity
  8
0
  6
CONTINUOUS
 62
               4
100
AcDbLine
 10
7.7585480036487411
 20
-3.0229528966376185
 30
0.0
 11
8.4656547863344827
 21
-3.0229528966376185
 31
0.0
  0
LINE
  5
BD
100
AcDbEntity
  8
0
  6
CONTINUOUS
 62
               4
100
AcDbLine
 10
9.3848936038257307
 20
-3.9421917141289518
 30
0.0
 11
8.4656547863344827
 21
-3.0229528966376185
 31
0.0
  0
LINE
  5
BE
100
AcDbEntity
  8
0
  6
CONTINUOUS
 62
             200
100
AcDbLine
 10
9.2444823998352774
 20
-4.0826029181193624
 30
0.0
 11
8.1848323783535477
 21
-3.0229528966376185
 31
0.0
  0
LINE
  5
BF
100
AcDbEntity
  8
0
  6
CONTINUOUS
 62
               4
100
AcDbLine
 10
8.1807917681667845
 20
-7.4049946441950478
 30
0.0
 11
7.0857864075509269
 21
-6.309989283579041
 31
0.0
  0
LINE
  5
C0
100
AcDbEntity
  8
0
  6
CONTINUOUS
 62
               4
100
AcDbLine
 10
11.399137781933092
 20
-5.6008621958000315
 30
0.0
 11
11.081949882271175
 21
-5.2836742961382219
 31
0.0
  0
LINE
  5
C1
100
AcDbEntity
  8
0
  6
CONTINUOUS
 62
               4
100
AcDbLine
 10
8.1807917681667845
 20
-7.4049946441950478
 30
0.0
 11
8.960629534214462
 21
-7.4049946441950478
 31
0.0
  0
LINE
  5
C2
100
AcDbEntity
  8
0
  6
CONTINUOUS
 62
               4
100
AcDbLine
 10
9.2778174338761232
 20
-7.7221825438568867
 30
0.0
 11
8.960629534214462
 21
-7.4049946441950478
 31
0.0
  0
LINE
  5
C3
100
AcDbEntity
  8
0
  6
CONTINUOUS
 62
               4
100
AcDbLine
 10
11.399137781933092
 20
-5.6008621958000315
 30
0.0
 11
9.2778174338761232
 21
-7.7221825438568867
 31
0.0
  0
LINE
  5
C4
100
AcDbEntity
  8
0
  6
CONTINUOUS
 62
               4
100
AcDbLine
 10
11.079929577177893
 20
-4.5058568351840256
 30
0.0
 11
11.081949882271175
 21
-5.2836742961382219
 31
0.0
  0
LINE
  5
C5
100
AcDbEntity
  8
0
  6
CONTINUOUS
 62
               4
100
AcDbLine
 10
11.079929577177893
 20
-4.5058568351840256
 30
0.0
 11
9.9849242165618364
 21
-3.4108514745680116
 31
0.0
  0
CIRCLE
  5
C6
100
AcDbEntity
  8
0
  6
CONTINUOUS
 62
               7
100
AcDbCircle
 10
4.0
 20
0.0
 30
0.0
 40
3.25
  0
LINE
  5
C7
100
AcDbEntity
  8
0
  6
CONTINUOUS
 62
               7
100
AcDbLine
 10
4.0
 20
3.1754265808690292
 30
0.0
 11
6.7500001116530086
 21
1.587713133558772
 31
0.0
  0
LINE
  5
C8
100
AcDbEntity
  8
0
  6
CONTINUOUS
 62
               7
100
AcDbLine
 10
6.7500000868849384
 20
-1.5877132904345217
 30
0.0
 11
3.9999998517575932
 21
-3.1754265238809296
 31
0.0
  0
LINE
  5
C9
100
AcDbEntity
  8
0
  6
CONTINUOUS
 62
               7
100
AcDbLine
 10
4.0
 20
-3.1754265808690292
 30
0.0
 11
1.2499998883470198
 21
-1.5877131335587649
 31
0.0
  0
LINE
  5
CA
100
AcDbEntity
  8
0
  6
CONTINUOUS
 62
               7
100
AcDbLine
 10
1.2499999131150616
 20
1.5877132904345146
 30
0.0
 11
4.0000001482424068
 21
3.1754265238809296
 31
0.0
  0
ARC
  5
CB
100
AcDbEntity
  8
0
  6
CONTINUOUS
 62
               7
100
AcDbCircle
 10
4.0
 20
0.0
 30
0.0
 40
3.0499999999999998
100
AcDbArc
 50
94.374394311699646
 51
145.6256012324834
  0
ARC
  5
CC
100
AcDbEntity
  8
0
  6
CONTINUOUS
 62
               7
100
AcDbCircle
 10
4.0
 20
0.0
 30
0.0
 40
3.0499999999999998
100
AcDbArc
 50
34.374394311699547
 51
85.625601232483788
  0
ARC
  5
CD
100
AcDbEntity
  8
0
  6
CONTINUOUS
 62
               7
100
AcDbCircle
 10
4.0
 20
0.0
 30
0.0
 40
3.0499999999999998
100
AcDbArc
 50
334.37439431169884
 51
25.625601232484005
  0
ARC
  5
CE
100
AcDbEntity
  8
0
  6
CONTINUOUS
 62
               7
100
AcDbCircle
 10
4.0
 20
0.0
 30
0.0
 40
3.0499999999999998
100
AcDbArc
 50
274.37439431169918
 51
325.62560123248301
  0
ARC
  5
CF
100
AcDbEntity
  8
0
  6
CONTINUOUS
 62
               7
100
AcDbCircle
 10
4.0
 20
0.0
 30
0.0
 40
3.0499999999999998
100
AcDbArc
 50
154.37439431169929
 51
205.62560123248301
  0
LINE
  5
D0
100
AcDbEntity
  8
0
  6
CONTINUOUS
 62
               7
100
AcDbLine
 10
1.2499999131150616
 20
-1.5877132904345075
 30
0.0
 11
1.2500000365894266
 21
1.5877133903221576
 31
0.0
  0
CIRCLE
  5
D1
100
AcDbEntity
  8
0
  6
CONTINUOUS
 62
               7
100
AcDbCircle
 10
4.0
 20
0.0
 30
0.0
 40
2.75
  0
LINE
  5
D2
100
AcDbEntity
  8
0
  6
CONTINUOUS
 62
               7
100
AcDbLine
 10
6.7500000868849384
 20
1.5877132904345146
 30
0.0
 11
6.7499999634106018
 21
-1.5877133903221505
 31
0.0
  0
CIRCLE
  5
D3
100
AcDbEntity
  8
0
  6
CONTINUOUS
 62
               2
100
AcDbCircle
 10
4.0
 20
0.0
 30
0.0
 40
1.2000000000000028
  0
CIRCLE
  5
D4
100
AcDbEntity
  8
0
  6
CONTINUOUS
 62
               7
100
AcDbCircle
 10
4.0
 20
0.0
 30
0.0
 40
1.5
  0
ARC
  5
D5
100
AcDbEntity
  8
0
  6
CONTINUOUS
 62
               7
100
AcDbCircle
 10
4.0
 20
0.0
 30
0.0
 40
3.0499999999999998
100
AcDbArc
 50
214.37439431169884
 51
265.6256012324834
  0
ARC
  5
D6
100
AcDbEntity
  8
0
  6
CONTINUOUS
 62
               7
100
AcDbCircle
 10
0.4000000000000057
 20
8.1000000000000014
 30
0.0
 40
0.4
100
AcDbArc
 50
89.999999999999801
 51
179.9999999999996
  0
ARC
  5
D7
100
AcDbEntity
  8
0
  6
CONTINUOUS
 62
               7
100
AcDbCircle
 10
0.4000000000000057
 20
-8.1000000000000014
 30
0.0
 40
0.4
100
AcDbArc
 50
179.9999999999996
 51
269.99999999999937
  0
CIRCLE
  5
D8
100
AcDbEntity
  8
0
  6
CONTINUOUS
 62
               7
100
AcDbCircle
 10
4.0
 20
-6.0
 30
0.0
 40
1.1000000000000001
  0
CIRCLE
  5
D9
100
AcDbEntity
  8
0
  6
CONTINUOUS
 62
               2
100
AcDbCircle
 10
4.0
 20
-6.0
 30
0.0
 40
1.5
  0
CIRCLE
  5
DA
100
AcDbEntity
  8
0
  6
CONTINUOUS
 62
               7
100
AcDbCircle
 10
4.0
 20
6.0
 30
0.0
 40
1.1000000000000001
  0
CIRCLE
  5
DB
100
AcDbEntity
  8
0
  6
CONTINUOUS
 62
               2
100
AcDbCircle
 10
4.0
 20
6.0
 30
0.0
 40
1.5
  0
LINE
  5
DC
100
AcDbEntity
  8
0
  6
CENTER
 62
               2
100
AcDbLine
 10
4.0
 20
8.5
 30
0.0
 11
4.0
 21
-8.5
 31
0.0
  0
ARC
  5
DD
100
AcDbEntity
  8
0
  6
CONTINUOUS
 62
               7
100
AcDbCircle
 10
8.4999999958417618
 20
-4.8230447197212385
 30
0.0
 40
2.1000000111152071
100
AcDbArc
 50
44.999999999999901
 51
224.99999999999949
  0
LINE
  5
DE
100
AcDbEntity
  8
0
  6
CONTINUOUS
 62
               7
100
AcDbLine
 10
8.1464466052484852
 20
-7.4393398101114769
 30
0.0
 11
7.0150757553500114
 21
-6.3079689602130031
 31
0.0
  0
ARC
  5
DF
100
AcDbEntity
  8
0
  6
CONTINUOUS
 62
               7
100
AcDbCircle
 10
8.7818536264305465
 20
-7.7928932007047393
 30
0.0
 40
0.3007001998472195
100
AcDbArc
 50
-44.866737929198983
 51
44.866737929198038
  0
LINE
  5
E0
100
AcDbEntity
  8
0
  6
CONTINUOUS
 62
               7
100
AcDbLine
 10
9.0278175036501409
 20
-7.9721824740829135
 30
0.0
 11
8.4999999777330402
 21
-8.5
 31
0.0
  0
LINE
  5
E1
100
AcDbEntity
  8
0
  6
CONTINUOUS
 62
               7
100
AcDbLine
 10
8.1464466052484852
 20
-7.4393398101114769
 30
0.0
 11
8.8535533864350384
 21
-7.4393398101114769
 31
0.0
  0
LINE
  5
E2
100
AcDbEntity
  8
0
  6
CONTINUOUS
 62
               7
100
AcDbLine
 10
8.9949747426723548
 20
-7.5807611663487791
 30
0.0
 11
8.8535533864350384
 21
-7.4393398101114769
 31
0.0
  0
LINE
  5
E3
100
AcDbEntity
  8
0
  6
CONTINUOUS
 62
               7
100
AcDbLine
 10
11.257716442469302
 20
-5.3180194665518314
 30
0.0
 11
11.116295086231986
 21
-5.1765981103145151
 31
0.0
  0
ARC
  5
E4
100
AcDbEntity
  8
0
  6
CONTINUOUS
 62
               7
100
AcDbCircle
 10
11.469848476825263
 20
-5.1065606351367308
 30
0.0
 40
0.2995243519038812
100
AcDbArc
 50
224.90894124989543
 51
315.09105875010232
  0
LINE
  5
E5
100
AcDbEntity
  8
0
  6
CONTINUOUS
 62
               7
100
AcDbLine
 10
11.116295086231986
 20
-5.1765981103145151
 30
0.0
 11
11.116295086231986
 21
-4.4694913291279761
 31
0.0
  0
LINE
  5
E6
100
AcDbEntity
  8
0
  6
CONTINUOUS
 62
               7
100
AcDbLine
 10
11.116295086231986
 20
-4.4694913291279761
 30
0.0
 11
9.9849242363335122
 21
-3.3381204792295023
 31
0.0
  0
LINE
  5
E7
100
AcDbEntity
  8
0
  6
CONTINUOUS
 62
               7
100
AcDbLine
 10
11.681980511181223
 20
-5.3180194665518314
 30
0.0
 11
12.0
 21
-4.9999999777330828
 31
0.0
  0
LINE
  5
E8
100
AcDbEntity
  8
0
  6
CONTINUOUS
 62
               7
100
AcDbLine
 10
0.4000000000000057
 20
-8.5
 30
0.0
 11
8.4999999777330402
 21
-8.5
 31
0.0
  0
LINE
  5
E9
100
AcDbEntity
  8
0
  6
CONTINUOUS
 62
               7
100
AcDbLine
 10
0.0
 20
8.1000000000000014
 30
0.0
 11
0.0
 21
-8.1000000000000014
 31
0.0
  0
LINE
  5
EA
100
AcDbEntity
  8
0
  6
CENTER
 62
               2
100
AcDbLine
 10
-1.1778889561377071
 20
0.0
 30
0.0
 11
12.949028127981279
 21
0.0
 31
0.0
  0
LINE
  5
EB
100
AcDbEntity
  8
0
  6
CONTINUOUS
 62
               7
100
AcDbLine
 10
0.4000000000000057
 20
8.5
 30
0.0
 11
8.4999999777330402
 21
8.5
 31
0.0
  0
LINE
  5
EC
100
AcDbEntity
  8
0
  6
CONTINUOUS
 62
               7
100
AcDbLine
 10
12.0
 20
5.0000000373376992
 30
0.0
 11
12.0
 21
-4.9999999777330828
 31
0.0
  0
LINE
  5
ED
100
AcDbEntity
  8
0
  6
CONTINUOUS
 62
               7
100
AcDbLine
 10
8.1464466052484852
 20
7.4393398101114769
 30
0.0
 11
7.0150757553500114
 21
6.3079689602130031
 31
0.0
  0
LINE
  5
EE
100
AcDbEntity
  8
0
  6
CONTINUOUS
 62
               7
100
AcDbLine
 10
9.0278175036501409
 20
7.9721824740829135
 30
0.0
 11
8.4999999777330402
 21
8.5
 31
0.0
  0
LINE
  5
EF
100
AcDbEntity
  8
0
  6
CONTINUOUS
 62
               7
100
AcDbLine
 10
8.1464466052484852
 20
7.4393398101114769
 30
0.0
 11
8.8535533864350384
 21
7.4393398101114769
 31
0.0
  0
ARC
  5
F0
100
AcDbEntity
  8
0
  6
CONTINUOUS
 62
               7
100
AcDbCircle
 10
8.7818536264305465
 20
7.7928932007047393
 30
0.0
 40
0.3007001998472195
100
AcDbArc
 50
315.13326207080115
 51
44.866737929199004
  0
LINE
  5
F1
100
AcDbEntity
  8
0
  6
CONTINUOUS
 62
               7
100
AcDbLine
 10
8.9949747426723548
 20
7.5807611663487791
 30
0.0
 11
8.8535533864350384
 21
7.4393398101114769
 31
0.0
  0
ARC
  5
F2
100
AcDbEntity
  8
0
  6
CONTINUOUS
 62
               7
100
AcDbCircle
 10
8.4999999958417618
 20
4.8230447197212385
 30
0.0
 40
2.1000000111152071
100
AcDbArc
 50
134.99999999999969
 51
314.99999999999932
  0
LINE
  5
F3
100
AcDbEntity
  8
0
  6
CONTINUOUS
 62
               7
100
AcDbLine
 10
11.116295086231986
 20
4.4694913291279761
 30
0.0
 11
9.9849242363335122
 21
3.3381204792295023
 31
0.0
  0
LINE
  5
F4
100
AcDbEntity
  8
0
  6
CONTINUOUS
 62
               7
100
AcDbLine
 10
11.116295086231986
 20
5.1765981103145151
 30
0.0
 11
11.116295086231986
 21
4.4694913291279761
 31
0.0
  0
ARC
  5
F5
100
AcDbEntity
  8
0
  6
CONTINUOUS
 62
               7
100
AcDbCircle
 10
11.469848476825263
 20
5.1065606351367308
 30
0.0
 40
0.2995243519038812
100
AcDbArc
 50
44.908941249896863
 51
135.09105875010374
  0
LINE
  5
F6
100
AcDbEntity
  8
0
  6
CONTINUOUS
 62
               7
100
AcDbLine
 10
11.257716442469302
 20
5.3180194665518314
 30
0.0
 11
11.116295086231986
 21
5.1765981103145151
 31
0.0
  0
LINE
  5
F7
100
AcDbEntity
  8
0
  6
CONTINUOUS
 62
               7
100
AcDbLine
 10
11.681980511181223
 20
5.3180194665518314
 30
0.0
 11
12.0
 21
4.9999999777330828
 31
0.0
  0
LINE
  5
F8
100
AcDbEntity
  8
0
  6
CENTER
 62
               2
100
AcDbLine
 10
-1.5
 20
6.0
 30
0.0
 11
6.5
 21
6.0
 31
0.0
  0
LINE
  5
F9
100
AcDbEntity
  8
0
  6
CENTER
 62
               2
100
AcDbLine
 10
-1.5
 20
-6.0
 30
0.0
 11
6.5
 21
-6.0
 31
0.0
  0
ENDBLK
  5
FA
100
AcDbEntity
  8
0
100
AcDbBlockEnd
  0
BLOCK
  5
FB
100
AcDbEntity
  8
0
100
AcDbBlockBegin
  2
MS_3
 70
               0
 10
0.0
 20
0.0
 30
0.0
  3
MS_3
  1

  0
LINE
  5
FC
100
AcDbEntity
  8
0
  6
PHANTOM
 62
               3
100
AcDbLine
 10
24.067602850044224
 20
17.0
 30
0.0
 11
24.067602850044224
 21
-5.0
 31
0.0
  0
INSERT
  5
104
100
AcDbEntity
  8
0
  6
CONTINUOUS
 62
               7
100
AcDbBlockReference
  2
*X9
 10
0.0
 20
0.0
 30
0.0
  0
CIRCLE
  5
106
100
AcDbEntity
  8
0
  6
DASHED
 62
               7
100
AcDbCircle
 10
26.999999999999972
 20
8.0000000000000142
 30
0.0
 40
1.1999999999999886
  0
CIRCLE
  5
107
100
AcDbEntity
  8
0
  6
DASHED
 62
               2
100
AcDbCircle
 10
26.999999999999972
 20
8.0000000000000142
 30
0.0
 40
1.5
  0
LINE
  5
108
100
AcDbEntity
  8
0
  6
CENTER
 62
               2
100
AcDbLine
 10
26.999999999999972
 20
9.9547775518886965
 30
0.0
 11
26.999999999999972
 21
6.0239043419708906
 31
0.0
  0
CIRCLE
  5
109
100
AcDbEntity
  8
0
  6
DASHED
 62
               7
100
AcDbCircle
 10
10.0
 20
8.0000000000000142
 30
0.0
 40
1.1999999999999886
  0
CIRCLE
  5
10A
100
AcDbEntity
  8
0
  6
DASHED
 62
               2
100
AcDbCircle
 10
10.0
 20
8.0000000000000142
 30
0.0
 40
1.5
  0
LINE
  5
10B
100
AcDbEntity
  8
0
  6
CENTER
 62
               2
100
AcDbLine
 10
10.0
 20
9.9209735412594711
 30
0.0
 11
10.0
 21
6.0239043419708906
 31
0.0
  0
LINE
  5
10C
100
AcDbEntity
  8
0
  6
CENTER
 62
               2
100
AcDbLine
 10
-9.3941909744649905
 20
8.0
 30
0.0
 11
31.706095837897948
 21
8.0
 31
0.0
  0
LINE
  5
10D
100
AcDbEntity
  8
0
  6
CONTINUOUS
 62
               7
100
AcDbLine
 10
0.0
 20
0.0
 30
0.0
 11
30.0
 21
0.0
 31
0.0
  0
LINE
  5
10E
100
AcDbEntity
  8
0
  6
CONTINUOUS
 62
               7
100
AcDbLine
 10
0.0
 20
0.883704913768014
 30
0.0
 11
7.5
 21
0.883704913768014
 31
0.0
  0
LINE
  5
10F
100
AcDbEntity
  8
0
  6
CONTINUOUS
 62
               7
100
AcDbLine
 10
0.0
 20
2.9174461737222259
 30
0.0
 11
30.0
 21
2.9174461737222259
 31
0.0
  0
LINE
  5
110
100
AcDbEntity
  8
0
  6
CONTINUOUS
 62
               7
100
AcDbLine
 10
0.0
 20
0.5301515231747374
 30
0.0
 11
30.0
 21
0.5301515231747374
 31
0.0
  0
LINE
  5
111
100
AcDbEntity
  8
0
  6
CONTINUOUS
 62
               7
100
AcDbLine
 10
0.0
 20
3.5000000222669598
 30
0.0
 11
30.0
 21
3.5000000222669598
 31
0.0
  0
LINE
  5
112
100
AcDbEntity
  8
0
  6
CONTINUOUS
 62
               7
100
AcDbLine
 10
0.0
 20
12.0
 30
0.0
 11
30.0
 21
12.0
 31
0.0
  0
LINE
  5
113
100
AcDbEntity
  8
0
  6
CONTINUOUS
 62
               7
100
AcDbLine
 10
0.0
 20
0.0
 30
0.0
 11
0.0
 21
12.0
 31
0.0
  0
LINE
  5
114
100
AcDbEntity
  8
0
  6
CONTINUOUS
 62
               7
100
AcDbLine
 10
30.0
 20
0.0
 30
0.0
 11
30.0
 21
1.9671572982866223
 31
0.0
  0
LINE
  5
115
100
AcDbEntity
  8
0
  6
CONTINUOUS
 62
               7
100
AcDbLine
 10
-7.7000000000000171
 20
6.5
 30
0.0
 11
-5.5999999999999943
 21
6.5
 31
0.0
  0
LINE
  5
116
100
AcDbEntity
  8
0
  6
CONTINUOUS
 62
               7
100
AcDbLine
 10
-8.0
 20
9.2000000000000028
 30
0.0
 11
-8.0
 21
6.7999999999999972
 31
0.0
  0
LINE
  5
117
100
AcDbEntity
  8
0
  6
CONTINUOUS
 62
               7
100
AcDbLine
 10
-1.0
 20
9.5
 30
0.0
 11
-1.0
 21
6.5
 31
0.0
  0
LINE
  5
118
100
AcDbEntity
  8
0
  6
CONTINUOUS
 62
               7
100
AcDbLine
 10
-7.7000000000000171
 20
9.5
 30
0.0
 11
-7.7000000000000171
 21
6.5
 31
0.0
  0
LINE
  5
119
100
AcDbEntity
  8
0
  6
CONTINUOUS
 62
               7
100
AcDbLine
 10
-7.7000000000000171
 20
6.5
 30
0.0
 11
-8.0
 21
6.7999999999999972
 31
0.0
  0
LINE
  5
11A
100
AcDbEntity
  8
0
  6
CONTINUOUS
 62
               2
100
AcDbLine
 10
-8.0
 20
6.7999999999999972
 30
0.0
 11
-5.5999999999999943
 21
6.7999999999999972
 31
0.0
  0
LINE
  5
11B
100
AcDbEntity
  8
0
  6
CONTINUOUS
 62
               7
100
AcDbLine
 10
-7.7000000000000171
 20
9.5
 30
0.0
 11
-5.5999999999999943
 21
9.5
 31
0.0
  0
LINE
  5
11C
100
AcDbEntity
  8
0
  6
CONTINUOUS
 62
               7
100
AcDbLine
 10
-7.7000000000000171
 20
9.5
 30
0.0
 11
-8.0
 21
9.2000000000000028
 31
0.0
  0
LINE
  5
11D
100
AcDbEntity
  8
0
  6
CONTINUOUS
 62
               2
100
AcDbLine
 10
-8.0
 20
9.2000000000000028
 30
0.0
 11
-5.5999999999999943
 21
9.2000000000000028
 31
0.0
  0
LINE
  5
11E
100
AcDbEntity
  8
0
  6
CONTINUOUS
 62
               2
100
AcDbLine
 10
-2.0
 20
6.7999999999999972
 30
0.0
 11
-1.0
 21
6.7999999999999972
 31
0.0
  0
LINE
  5
11F
100
AcDbEntity
  8
0
  6
CONTINUOUS
 62
               2
100
AcDbLine
 10
-2.0
 20
9.2000000000000028
 30
0.0
 11
-1.0
 21
9.2000000000000028
 31
0.0
  0
LINE
  5
120
100
AcDbEntity
  8
0
  6
CONTINUOUS
 62
               2
100
AcDbLine
 10
-1.0
 20
9.2000000000000028
 30
0.0
 11
-0.4803847577293539
 21
9.5
 31
0.0
  0
LINE
  5
121
100
AcDbEntity
  8
0
  6
CONTINUOUS
 62
               2
100
AcDbLine
 10
-1.0
 20
6.7999999999999972
 30
0.0
 11
-0.4803847577293539
 21
6.5
 31
0.0
  0
SPLINE
  5
122
100
AcDbEntity
  8
0
  6
CONTINUOUS
 62
               7
100
AcDbSpline
210
0.0
220
0.0
230
1.0
 70
               0
 71
               3
 72
               0
 73
               0
 74
               5
 44
0.000001
 12
-0.3364389337625614
 22
0.9417052850274925
 32
0.0
 13
0.3364389335092213
 23
0.9417052851180021
 33
0.0
 11
-3.5543798798272803
 21
5.250000018878012
 31
0.0
 11
-3.7359307314102335
 21
5.9263140562489101
 31
0.0
 11
-3.7999999999999972
 21
6.625
 31
0.0
 11
-3.7359307329601386
 21
7.3236859533231211
 31
0.0
 11
-3.5543798798272803
 21
8.0
 31
0.0
  0
SPLINE
  5
123
100
AcDbEntity
  8
0
  6
CONTINUOUS
 62
               7
100
AcDbSpline
210
0.0
220
0.0
230
1.0
 70
               0
 71
               3
 72
               0
 73
               0
 74
               5
 44
0.000001
 12
0.3364389337625613
 22
0.9417052850274925
 32
0.0
 13
-0.3364389335092214
 23
0.9417052851180021
 33
0.0
 11
-2.2456201201727168
 21
5.250000018878012
 31
0.0
 11
-2.0640692685897637
 21
5.9263140562489101
 31
0.0
 11
-2.0
 21
6.625
 31
0.0
 11
-2.0640692670398586
 21
7.3236859533231211
 31
0.0
 11
-2.2456201201727168
 21
8.0
 31
0.0
  0
SPLINE
  5
124
100
AcDbEntity
  8
0
  6
CONTINUOUS
 62
               7
100
AcDbSpline
210
0.0
220
0.0
230
1.0
 70
               0
 71
               3
 72
               0
 73
               0
 74
               5
 44
0.000001
 12
-0.3364389337625614
 22
0.9417052850274925
 32
0.0
 13
0.3364389335092213
 23
0.9417052851180021
 33
0.0
 11
-5.3543798798272775
 21
5.250000018878012
 31
0.0
 11
-5.5359307314102306
 21
5.9263140562489101
 31
0.0
 11
-5.5999999999999943
 21
6.625
 31
0.0
 11
-5.5359307329601357
 21
7.3236859533231211
 31
0.0
 11
-5.3543798798272775
 21
8.0
 31
0.0
  0
SPLINE
  5
125
100
AcDbEntity
  8
0
  6
CONTINUOUS
 62
               7
100
AcDbSpline
210
0.0
220
0.0
230
1.0
 70
               0
 71
               3
 72
               0
 73
               0
 74
               5
 44
0.000001
 12
0.3364389337625613
 22
0.9417052850274925
 32
0.0
 13
-0.3364389335092214
 23
0.9417052851180021
 33
0.0
 11
-4.045620120172714
 21
5.250000018878012
 31
0.0
 11
-3.8640692685897609
 21
5.9263140562489101
 31
0.0
 11
-3.7999999999999972
 21
6.625
 31
0.0
 11
-3.8640692670398558
 21
7.3236859533231211
 31
0.0
 11
-4.045620120172714
 21
8.0
 31
0.0
  0
SPLINE
  5
126
100
AcDbEntity
  8
0
  6
CONTINUOUS
 62
               7
100
AcDbSpline
210
0.0
220
0.0
230
1.0
 70
               0
 71
               3
 72
               0
 73
               0
 74
               5
 44
0.000001
 12
-0.3364389337625614
 22
-0.9417052850274925
 32
0.0
 13
0.3364389335092213
 23
-0.9417052851180021
 33
0.0
 11
-5.3543798798272775
 21
10.749999981121988
 31
0.0
 11
-5.5359307314102306
 21
10.073685943751091
 31
0.0
 11
-5.5999999999999943
 21
9.375
 31
0.0
 11
-5.5359307329601357
 21
8.6763140466768789
 31
0.0
 11
-5.3543798798272775
 21
8.0
 31
0.0
  0
SPLINE
  5
127
100
AcDbEntity
  8
0
  6
CONTINUOUS
 62
               7
100
AcDbSpline
210
0.0
220
0.0
230
1.0
 70
               0
 71
               3
 72
               0
 73
               0
 74
               5
 44
0.000001
 12
0.3364389337625613
 22
-0.9417052850274925
 32
0.0
 13
-0.3364389335092214
 23
-0.9417052851180021
 33
0.0
 11
-4.045620120172714
 21
10.749999981121988
 31
0.0
 11
-3.8640692685897609
 21
10.073685943751091
 31
0.0
 11
-3.7999999999999972
 21
9.375
 31
0.0
 11
-3.8640692670398558
 21
8.6763140466768789
 31
0.0
 11
-4.045620120172714
 21
8.0
 31
0.0
  0
SPLINE
  5
128
100
AcDbEntity
  8
0
  6
CONTINUOUS
 62
               7
100
AcDbSpline
210
0.0
220
0.0
230
1.0
 70
               0
 71
               3
 72
               0
 73
               0
 74
               5
 44
0.000001
 12
-0.3364389337625614
 22
-0.9417052850274925
 32
0.0
 13
0.3364389335092213
 23
-0.9417052851180021
 33
0.0
 11
-3.5543798798272803
 21
10.749999981121988
 31
0.0
 11
-3.7359307314102335
 21
10.073685943751091
 31
0.0
 11
-3.7999999999999972
 21
9.375
 31
0.0
 11
-3.7359307329601386
 21
8.6763140466768789
 31
0.0
 11
-3.5543798798272803
 21
8.0
 31
0.0
  0
SPLINE
  5
129
100
AcDbEntity
  8
0
  6
CONTINUOUS
 62
               7
100
AcDbSpline
210
0.0
220
0.0
230
1.0
 70
               0
 71
               3
 72
               0
 73
               0
 74
               5
 44
0.000001
 12
0.3364389337625613
 22
-0.9417052850274925
 32
0.0
 13
-0.3364389335092214
 23
-0.9417052851180021
 33
0.0
 11
-2.2456201201727168
 21
10.749999981121988
 31
0.0
 11
-2.0640692685897637
 21
10.073685943751091
 31
0.0
 11
-2.0
 21
9.375
 31
0.0
 11
-2.0640692670398586
 21
8.6763140466768789
 31
0.0
 11
-2.2456201201727168
 21
8.0
 31
0.0
  0
LINE
  5
12A
100
AcDbEntity
  8
0
  6
CONTINUOUS
 62
               7
100
AcDbLine
 10
-2.0
 20
10.750000018878012
 30
0.0
 11
-2.0
 21
5.250000018878012
 31
0.0
  0
LINE
  5
12B
100
AcDbEntity
  8
0
  6
CONTINUOUS
 62
               7
100
AcDbLine
 10
-5.5999999999999943
 20
10.750000018878012
 30
0.0
 11
-5.5999999999999943
 21
5.250000018878012
 31
0.0
  0
LINE
  5
12C
100
AcDbEntity
  8
0
  6
CONTINUOUS
 62
               7
100
AcDbLine
 10
-3.7999999999999972
 20
10.750000018878012
 30
0.0
 11
-3.7999999999999972
 21
5.250000018878012
 31
0.0
  0
LINE
  5
12D
100
AcDbEntity
  8
0
  6
CONTINUOUS
 62
               7
100
AcDbLine
 10
-3.7999999999999972
 20
5.250000018878012
 30
0.0
 11
-5.5999999999999943
 21
5.250000018878012
 31
0.0
  0
LINE
  5
12E
100
AcDbEntity
  8
0
  6
CONTINUOUS
 62
               7
100
AcDbLine
 10
-3.7999999999999972
 20
5.250000018878012
 30
0.0
 11
-2.0
 21
5.250000018878012
 31
0.0
  0
LINE
  5
12F
100
AcDbEntity
  8
0
  6
CONTINUOUS
 62
               7
100
AcDbLine
 10
-3.5543798798272803
 20
8.0
 30
0.0
 11
-2.2456201201727168
 21
8.0
 31
0.0
  0
LINE
  5
130
100
AcDbEntity
  8
0
  6
CONTINUOUS
 62
               7
100
AcDbLine
 10
-3.7999999999999972
 20
10.75
 30
0.0
 11
-2.0
 21
10.75
 31
0.0
  0
LINE
  5
131
100
AcDbEntity
  8
0
  6
CONTINUOUS
 62
               7
100
AcDbLine
 10
-3.7999999999999972
 20
10.75
 30
0.0
 11
-5.5999999999999943
 21
10.75
 31
0.0
  0
LINE
  5
132
100
AcDbEntity
  8
0
  6
CONTINUOUS
 62
               7
100
AcDbLine
 10
-4.045620120172714
 20
8.0
 30
0.0
 11
-5.3543798798272775
 21
8.0
 31
0.0
  0
LINE
  5
133
100
AcDbEntity
  8
0
  6
CONTINUOUS
 62
               7
100
AcDbLine
 10
0.0
 20
9.5
 30
0.0
 11
-2.0
 21
9.5
 31
0.0
  0
LINE
  5
134
100
AcDbEntity
  8
0
  6
CONTINUOUS
 62
               7
100
AcDbLine
 10
0.0
 20
6.5
 30
0.0
 11
-2.0
 21
6.5
 31
0.0
  0
LINE
  5
135
100
AcDbEntity
  8
0
  6
CONTINUOUS
 62
               4
100
AcDbLine
 10
22.999999999367589
 20
0.6008622173846305
 30
0.0
 11
7.5000000116958176
 21
0.6008622173846305
 31
0.0
  0
LINE
  5
136
100
AcDbEntity
  8
0
  6
CONTINUOUS
 62
               4
100
AcDbLine
 10
22.999999999367589
 20
2.7221825654415994
 30
0.0
 11
7.5000000116958176
 21
2.7221825654415994
 31
0.0
  0
LINE
  5
137
100
AcDbEntity
  8
0
  6
CONTINUOUS
 62
               4
100
AcDbLine
 10
30.0
 20
4.4671573035866317
 30
0.0
 11
39.334936518941397
 21
4.4671573035866317
 31
0.0
  0
LINE
  5
138
100
AcDbEntity
  8
0
  6
CONTINUOUS
 62
               4
100
AcDbLine
 10
23.000000032860243
 20
2.9174461737222259
 30
0.0
 11
23.000000032860243
 21
0.6008622173846163
 31
0.0
  0
LINE
  5
139
100
AcDbEntity
  8
0
  6
CONTINUOUS
 62
               4
100
AcDbLine
 10
7.5
 20
2.9174461737222259
 30
0.0
 11
7.5
 21
0.6008622173846163
 31
0.0
  0
ELLIPSE
  5
13A
100
AcDbEntity
  8
0
  6
CONTINUOUS
 62
               4
100
AcDbEllipse
 10
9.5000000042400075
 20
1.6615223765119111
 30
0.0
 11
-1.25000000265
 21
0.0000000000000002
 31
0.0
210
0.0
220
0.0
230
1.0
 40
0.7071067811865475
 41
0.0
 42
6.2831853071795862
  0
LINE
  5
13B
100
AcDbEntity
  8
0
  6
CONTINUOUS
 62
               4
100
AcDbLine
 10
9.7500000047700155
 20
0.7954969708914916
 30
0.0
 11
9.7500000047700155
 21
2.5275477821323378
 31
0.0
  0
LINE
  5
13C
100
AcDbEntity
  8
0
  6
CONTINUOUS
 62
               4
100
AcDbLine
 10
9.2500000037099994
 20
0.7954969708914916
 30
0.0
 11
9.2500000037099994
 21
2.5275477821323378
 31
0.0
  0
LINE
  5
13D
100
AcDbEntity
  8
0
  6
CONTINUOUS
 62
               4
100
AcDbLine
 10
23.000000032860243
 20
1.9671572982866223
 30
0.0
 11
38.665063543869763
 21
1.9671572982866223
 31
0.0
  0
LINE
  5
13E
100
AcDbEntity
  8
0
  6
CONTINUOUS
 62
               7
100
AcDbLine
 10
30.0
 20
2.9174461737222259
 30
0.0
 11
30.0
 21
12.0
 31
0.0
  0
LINE
  5
13F
100
AcDbEntity
  8
0
  6
CONTINUOUS
 62
               7
100
AcDbLine
 10
23.000000032860243
 20
0.883704913768014
 30
0.0
 11
30.0
 21
0.883704913768014
 31
0.0
  0
LINE
  5
140
100
AcDbEntity
  8
0
  6
CONTINUOUS
 62
             200
100
AcDbLine
 10
38.304332849703343
 20
0.6208920048830748
 30
0.0
 11
39.713301739068584
 21
5.8792355445727793
 31
0.0
  0
LINE
  5
141
100
AcDbEntity
  8
0
  6
CENTER
 62
               2
100
AcDbLine
 10
5.0
 20
10.5
 30
0.0
 11
5.0
 21
13.5
 31
0.0
  0
ENDBLK
  5
142
100
AcDbEntity
  8
0
100
AcDbBlockEnd
  0
BLOCK
  5
143
100
AcDbEntity
  8
0
100
AcDbBlockBegin
  2
MS_4
 70
               0
 10
0.0
 20
0.0
 30
0.0
  3
MS_4
  1

  0
LINE
  5
144
100
AcDbEntity
  8
0
  6
PHANTOM
 62
               3
100
AcDbLine
 10
12.880970628920196
 20
17.0
 30
0.0
 11
12.880970628920196
 21
-5.0
 31
0.0
  0
LINE
  5
145
100
AcDbEntity
  8
0
  6
CONTINUOUS
 62
               4
100
AcDbLine
 10
31.0
 20
10.032842701031086
 30
0.0
 11
39.334936518941419
 21
10.032842701031086
 31
0.0
  0
LINE
  5
146
100
AcDbEntity
  8
0
  6
CONTINUOUS
 62
             200
100
AcDbLine
 10
38.304332849703457
 20
6.1865774023275293
 30
0.0
 11
39.713301739068697
 21
11.444920942017234
 31
0.0
  0
LINE
  5
147
100
AcDbEntity
  8
0
  6
CONTINUOUS
 62
               4
100
AcDbLine
 10
17.249999970849757
 20
11.204503028426217
 30
0.0
 11
17.249999970849757
 21
9.4724522171853707
 31
0.0
  0
LINE
  5
148
100
AcDbEntity
  8
0
  6
CONTINUOUS
 62
               4
100
AcDbLine
 10
17.749999971909773
 20
11.204503028426217
 30
0.0
 11
17.749999971909773
 21
9.4724522171853707
 31
0.0
  0
ELLIPSE
  5
149
100
AcDbEntity
  8
0
  6
CONTINUOUS
 62
               4
100
AcDbEllipse
 10
17.499999971379765
 20
10.338477622805797
 30
0.0
 11
-1.25000000265
 21
0.0000000000000002
 31
0.0
210
0.0
220
0.0
230
1.0
 40
0.7071067811865475
 41
0.0
 42
6.2831853071795862
  0
LINE
  5
14A
100
AcDbEntity
  8
0
  6
CONTINUOUS
 62
               4
100
AcDbLine
 10
15.499999967139757
 20
9.0825538262777599
 30
0.0
 11
15.499999967139757
 21
11.399137781933092
 31
0.0
  0
LINE
  5
14B
100
AcDbEntity
  8
0
  6
CONTINUOUS
 62
               4
100
AcDbLine
 10
31.0
 20
6.3999999722559835
 30
0.0
 11
31.0
 21
11.399137781933092
 31
0.0
  0
LINE
  5
14C
100
AcDbEntity
  8
0
  6
CONTINUOUS
 62
               4
100
AcDbLine
 10
31.0
 20
7.5328426957310768
 30
0.0
 11
38.665063543869763
 21
7.5328426957310768
 31
0.0
  0
LINE
  5
14D
100
AcDbEntity
  8
0
  6
CONTINUOUS
 62
               4
100
AcDbLine
 10
29.999999997879996
 20
8.1464465964804162
 30
0.0
 11
31.0
 21
8.1464465964804162
 31
0.0
  0
LINE
  5
14E
100
AcDbEntity
  8
0
  6
CONTINUOUS
 62
               4
100
AcDbLine
 10
30.00000001764468
 20
6.3999999722559835
 30
0.0
 11
31.000000019764684
 21
6.3999999722559835
 31
0.0
  0
LINE
  5
14F
100
AcDbEntity
  8
0
  6
CONTINUOUS
 62
               4
100
AcDbLine
 10
30.999999966507346
 20
9.277817433876109
 30
0.0
 11
15.499999978835575
 21
9.277817433876109
 31
0.0
  0
LINE
  5
150
100
AcDbEntity
  8
0
  6
CONTINUOUS
 62
               4
100
AcDbLine
 10
30.999999966507346
 20
11.399137781933078
 30
0.0
 11
15.499999978835575
 21
11.399137781933078
 31
0.0
  0
INSERT
  5
159
100
AcDbEntity
  8
0
  6
CONTINUOUS
 62
               7
100
AcDbBlockReference
  2
*X10
 10
0.0
 20
0.0
 30
0.0
  0
CIRCLE
  5
15A
100
AcDbEntity
  8
0
  6
DASHED
 62
               7
100
AcDbCircle
 10
26.999999999999972
 20
4.0000000000000142
 30
0.0
 40
1.1999999999999886
  0
CIRCLE
  5
15B
100
AcDbEntity
  8
0
  6
DASHED
 62
               2
100
AcDbCircle
 10
26.999999999999972
 20
4.0000000000000142
 30
0.0
 40
1.5
  0
LINE
  5
15C
100
AcDbEntity
  8
0
  6
CENTER
 62
               2
100
AcDbLine
 10
26.999999999999972
 20
5.9547775518886965
 30
0.0
 11
26.999999999999972
 21
2.0239043419708906
 31
0.0
  0
CIRCLE
  5
15D
100
AcDbEntity
  8
0
  6
DASHED
 62
               7
100
AcDbCircle
 10
10.0
 20
4.0000000000000142
 30
0.0
 40
1.1999999999999886
  0
CIRCLE
  5
15E
100
AcDbEntity
  8
0
  6
DASHED
 62
               2
100
AcDbCircle
 10
10.0
 20
4.0000000000000142
 30
0.0
 40
1.5
  0
LINE
  5
15F
100
AcDbEntity
  8
0
  6
CENTER
 62
               2
100
AcDbLine
 10
10.0
 20
5.9547775518886965
 30
0.0
 11
10.0
 21
1.9250251871512063
 31
0.0
  0
LINE
  5
160
100
AcDbEntity
  8
0
  6
CONTINUOUS
 62
               7
100
AcDbLine
 10
0.0
 20
5.5
 30
0.0
 11
-2.0
 21
5.5
 31
0.0
  0
LINE
  5
161
100
AcDbEntity
  8
0
  6
CONTINUOUS
 62
               7
100
AcDbLine
 10
0.0
 20
2.5
 30
0.0
 11
-2.0
 21
2.5
 31
0.0
  0
LINE
  5
162
100
AcDbEntity
  8
0
  6
CONTINUOUS
 62
               7
100
AcDbLine
 10
-4.045620120172714
 20
4.0
 30
0.0
 11
-5.3543798798272775
 21
4.0
 31
0.0
  0
LINE
  5
163
100
AcDbEntity
  8
0
  6
CONTINUOUS
 62
               7
100
AcDbLine
 10
-3.7999999999999972
 20
1.25
 30
0.0
 11
-5.5999999999999943
 21
1.25
 31
0.0
  0
LINE
  5
164
100
AcDbEntity
  8
0
  6
CONTINUOUS
 62
               7
100
AcDbLine
 10
-3.7999999999999972
 20
1.25
 30
0.0
 11
-2.0
 21
1.25
 31
0.0
  0
LINE
  5
165
100
AcDbEntity
  8
0
  6
CONTINUOUS
 62
               7
100
AcDbLine
 10
-3.5543798798272803
 20
4.0
 30
0.0
 11
-2.2456201201727168
 21
4.0
 31
0.0
  0
LINE
  5
166
100
AcDbEntity
  8
0
  6
CONTINUOUS
 62
               7
100
AcDbLine
 10
-3.7999999999999972
 20
6.749999981121988
 30
0.0
 11
-2.0
 21
6.749999981121988
 31
0.0
  0
LINE
  5
167
100
AcDbEntity
  8
0
  6
CONTINUOUS
 62
               7
100
AcDbLine
 10
-3.7999999999999972
 20
6.749999981121988
 30
0.0
 11
-5.5999999999999943
 21
6.749999981121988
 31
0.0
  0
LINE
  5
168
100
AcDbEntity
  8
0
  6
CONTINUOUS
 62
               7
100
AcDbLine
 10
-3.7999999999999972
 20
1.249999981121988
 30
0.0
 11
-3.7999999999999972
 21
6.749999981121988
 31
0.0
  0
LINE
  5
169
100
AcDbEntity
  8
0
  6
CONTINUOUS
 62
               7
100
AcDbLine
 10
-5.5999999999999943
 20
1.249999981121988
 30
0.0
 11
-5.5999999999999943
 21
6.749999981121988
 31
0.0
  0
LINE
  5
16A
100
AcDbEntity
  8
0
  6
CONTINUOUS
 62
               7
100
AcDbLine
 10
-2.0
 20
1.249999981121988
 30
0.0
 11
-2.0
 21
6.749999981121988
 31
0.0
  0
SPLINE
  5
16B
100
AcDbEntity
  8
0
  6
CONTINUOUS
 62
               7
100
AcDbSpline
210
0.0
220
0.0
230
1.0
 70
               0
 71
               3
 72
               0
 73
               0
 74
               5
 44
0.000001
 12
0.3364389337625613
 22
0.9417052850274925
 32
0.0
 13
-0.3364389335092214
 23
0.9417052851180021
 33
0.0
 11
-2.2456201201727168
 21
1.250000018878012
 31
0.0
 11
-2.0640692685897637
 21
1.9263140562489101
 31
0.0
 11
-2.0
 21
2.625
 31
0.0
 11
-2.0640692670398586
 21
3.3236859533231216
 31
0.0
 11
-2.2456201201727168
 21
4.0
 31
0.0
  0
SPLINE
  5
16C
100
AcDbEntity
  8
0
  6
CONTINUOUS
 62
               7
100
AcDbSpline
210
0.0
220
0.0
230
1.0
 70
               0
 71
               3
 72
               0
 73
               0
 74
               5
 44
0.000001
 12
-0.3364389337625614
 22
0.9417052850274925
 32
0.0
 13
0.3364389335092213
 23
0.9417052851180021
 33
0.0
 11
-3.5543798798272803
 21
1.250000018878012
 31
0.0
 11
-3.7359307314102335
 21
1.9263140562489101
 31
0.0
 11
-3.7999999999999972
 21
2.625
 31
0.0
 11
-3.7359307329601386
 21
3.3236859533231216
 31
0.0
 11
-3.5543798798272803
 21
4.0
 31
0.0
  0
SPLINE
  5
16D
100
AcDbEntity
  8
0
  6
CONTINUOUS
 62
               7
100
AcDbSpline
210
0.0
220
0.0
230
1.0
 70
               0
 71
               3
 72
               0
 73
               0
 74
               5
 44
0.000001
 12
0.3364389337625613
 22
0.9417052850274925
 32
0.0
 13
-0.3364389335092214
 23
0.9417052851180021
 33
0.0
 11
-4.045620120172714
 21
1.250000018878012
 31
0.0
 11
-3.8640692685897609
 21
1.9263140562489101
 31
0.0
 11
-3.7999999999999972
 21
2.625
 31
0.0
 11
-3.8640692670398558
 21
3.3236859533231216
 31
0.0
 11
-4.045620120172714
 21
4.0
 31
0.0
  0
SPLINE
  5
16E
100
AcDbEntity
  8
0
  6
CONTINUOUS
 62
               7
100
AcDbSpline
210
0.0
220
0.0
230
1.0
 70
               0
 71
               3
 72
               0
 73
               0
 74
               5
 44
0.000001
 12
-0.3364389337625614
 22
0.9417052850274925
 32
0.0
 13
0.3364389335092213
 23
0.9417052851180021
 33
0.0
 11
-5.3543798798272775
 21
1.250000018878012
 31
0.0
 11
-5.5359307314102306
 21
1.9263140562489101
 31
0.0
 11
-5.5999999999999943
 21
2.625
 31
0.0
 11
-5.5359307329601357
 21
3.3236859533231216
 31
0.0
 11
-5.3543798798272775
 21
4.0
 31
0.0
  0
SPLINE
  5
16F
100
AcDbEntity
  8
0
  6
CONTINUOUS
 62
               7
100
AcDbSpline
210
0.0
220
0.0
230
1.0
 70
               0
 71
               3
 72
               0
 73
               0
 74
               5
 44
0.000001
 12
0.3364389337625613
 22
-0.9417052850274925
 32
0.0
 13
-0.3364389335092214
 23
-0.9417052851180021
 33
0.0
 11
-4.045620120172714
 21
6.749999981121988
 31
0.0
 11
-3.8640692685897609
 21
6.0736859437510899
 31
0.0
 11
-3.7999999999999972
 21
5.375
 31
0.0
 11
-3.8640692670398558
 21
4.6763140466768789
 31
0.0
 11
-4.045620120172714
 21
4.0
 31
0.0
  0
SPLINE
  5
170
100
AcDbEntity
  8
0
  6
CONTINUOUS
 62
               7
100
AcDbSpline
210
0.0
220
0.0
230
1.0
 70
               0
 71
               3
 72
               0
 73
               0
 74
               5
 44
0.000001
 12
-0.3364389337625614
 22
-0.9417052850274925
 32
0.0
 13
0.3364389335092213
 23
-0.9417052851180021
 33
0.0
 11
-5.3543798798272775
 21
6.749999981121988
 31
0.0
 11
-5.5359307314102306
 21
6.0736859437510899
 31
0.0
 11
-5.5999999999999943
 21
5.375
 31
0.0
 11
-5.5359307329601357
 21
4.6763140466768789
 31
0.0
 11
-5.3543798798272775
 21
4.0
 31
0.0
  0
SPLINE
  5
171
100
AcDbEntity
  8
0
  6
CONTINUOUS
 62
               7
100
AcDbSpline
210
0.0
220
0.0
230
1.0
 70
               0
 71
               3
 72
               0
 73
               0
 74
               5
 44
0.000001
 12
0.3364389337625613
 22
-0.9417052850274925
 32
0.0
 13
-0.3364389335092214
 23
-0.9417052851180021
 33
0.0
 11
-2.2456201201727168
 21
6.749999981121988
 31
0.0
 11
-2.0640692685897637
 21
6.0736859437510899
 31
0.0
 11
-2.0
 21
5.375
 31
0.0
 11
-2.0640692670398586
 21
4.6763140466768789
 31
0.0
 11
-2.2456201201727168
 21
4.0
 31
0.0
  0
SPLINE
  5
172
100
AcDbEntity
  8
0
  6
CONTINUOUS
 62
               7
100
AcDbSpline
210
0.0
220
0.0
230
1.0
 70
               0
 71
               3
 72
               0
 73
               0
 74
               5
 44
0.000001
 12
-0.3364389337625614
 22
-0.9417052850274925
 32
0.0
 13
0.3364389335092213
 23
-0.9417052851180021
 33
0.0
 11
-3.5543798798272803
 21
6.749999981121988
 31
0.0
 11
-3.7359307314102335
 21
6.0736859437510899
 31
0.0
 11
-3.7999999999999972
 21
5.375
 31
0.0
 11
-3.7359307329601386
 21
4.6763140466768789
 31
0.0
 11
-3.5543798798272803
 21
4.0
 31
0.0
  0
LINE
  5
173
100
AcDbEntity
  8
0
  6
CONTINUOUS
 62
               2
100
AcDbLine
 10
-1.0
 20
5.2000000000000028
 30
0.0
 11
-0.4803847577293539
 21
5.5
 31
0.0
  0
LINE
  5
174
100
AcDbEntity
  8
0
  6
CONTINUOUS
 62
               2
100
AcDbLine
 10
-1.0
 20
2.7999999999999972
 30
0.0
 11
-0.4803847577293539
 21
2.5
 31
0.0
  0
LINE
  5
175
100
AcDbEntity
  8
0
  6
CONTINUOUS
 62
               2
100
AcDbLine
 10
-2.0
 20
2.7999999999999972
 30
0.0
 11
-1.0
 21
2.7999999999999972
 31
0.0
  0
LINE
  5
176
100
AcDbEntity
  8
0
  6
CONTINUOUS
 62
               2
100
AcDbLine
 10
-2.0
 20
5.2000000000000028
 30
0.0
 11
-1.0
 21
5.2000000000000028
 31
0.0
  0
LINE
  5
177
100
AcDbEntity
  8
0
  6
CONTINUOUS
 62
               2
100
AcDbLine
 10
-8.0
 20
2.7999999999999972
 30
0.0
 11
-5.5999999999999943
 21
2.7999999999999972
 31
0.0
  0
LINE
  5
178
100
AcDbEntity
  8
0
  6
CONTINUOUS
 62
               7
100
AcDbLine
 10
-7.7000000000000171
 20
2.5
 30
0.0
 11
-8.0
 21
2.7999999999999972
 31
0.0
  0
LINE
  5
179
100
AcDbEntity
  8
0
  6
CONTINUOUS
 62
               7
100
AcDbLine
 10
-7.7000000000000171
 20
2.5
 30
0.0
 11
-5.5999999999999943
 21
2.5
 31
0.0
  0
LINE
  5
17A
100
AcDbEntity
  8
0
  6
CONTINUOUS
 62
               2
100
AcDbLine
 10
-8.0
 20
5.2000000000000028
 30
0.0
 11
-5.5999999999999943
 21
5.2000000000000028
 31
0.0
  0
LINE
  5
17B
100
AcDbEntity
  8
0
  6
CONTINUOUS
 62
               7
100
AcDbLine
 10
-7.7000000000000171
 20
5.5
 30
0.0
 11
-8.0
 21
5.2000000000000028
 31
0.0
  0
LINE
  5
17C
100
AcDbEntity
  8
0
  6
CONTINUOUS
 62
               7
100
AcDbLine
 10
-7.7000000000000171
 20
2.5
 30
0.0
 11
-7.7000000000000171
 21
5.5
 31
0.0
  0
LINE
  5
17D
100
AcDbEntity
  8
0
  6
CONTINUOUS
 62
               7
100
AcDbLine
 10
-1.0
 20
2.5
 30
0.0
 11
-1.0
 21
5.5
 31
0.0
  0
LINE
  5
17E
100
AcDbEntity
  8
0
  6
CONTINUOUS
 62
               7
100
AcDbLine
 10
-8.0
 20
2.7999999999999972
 30
0.0
 11
-8.0
 21
5.2000000000000028
 31
0.0
  0
LINE
  5
17F
100
AcDbEntity
  8
0
  6
CONTINUOUS
 62
               7
100
AcDbLine
 10
-7.7000000000000171
 20
5.5
 30
0.0
 11
-5.5999999999999943
 21
5.5
 31
0.0
  0
LINE
  5
180
100
AcDbEntity
  8
0
  6
CONTINUOUS
 62
               7
100
AcDbLine
 10
30.0
 20
12.0
 30
0.0
 11
30.0
 21
11.399137781933078
 31
0.0
  0
LINE
  5
181
100
AcDbEntity
  8
0
  6
CONTINUOUS
 62
               7
100
AcDbLine
 10
0.0
 20
12.0
 30
0.0
 11
0.0
 21
0.0
 31
0.0
  0
LINE
  5
182
100
AcDbEntity
  8
0
  6
CONTINUOUS
 62
               7
100
AcDbLine
 10
0.0
 20
0.0
 30
0.0
 11
30.0
 21
0.0
 31
0.0
  0
LINE
  5
183
100
AcDbEntity
  8
0
  6
CONTINUOUS
 62
               7
100
AcDbLine
 10
0.0
 20
8.4999999777330402
 30
0.0
 11
30.0
 21
8.4999999777330402
 31
0.0
  0
LINE
  5
184
100
AcDbEntity
  8
0
  6
CONTINUOUS
 62
               7
100
AcDbLine
 10
0.0
 20
11.469848476825263
 30
0.0
 11
30.0
 21
11.469848476825263
 31
0.0
  0
LINE
  5
185
100
AcDbEntity
  8
0
  6
CONTINUOUS
 62
               7
100
AcDbLine
 10
0.0
 20
9.0825538262777599
 30
0.0
 11
30.0
 21
9.0825538262777599
 31
0.0
  0
LINE
  5
186
100
AcDbEntity
  8
0
  6
CONTINUOUS
 62
               7
100
AcDbLine
 10
0.0
 20
11.116295086231986
 30
0.0
 11
15.499999967139757
 21
11.116295086231986
 31
0.0
  0
LINE
  5
187
100
AcDbEntity
  8
0
  6
CONTINUOUS
 62
               7
100
AcDbLine
 10
0.0
 20
12.0
 30
0.0
 11
30.0
 21
12.0
 31
0.0
  0
LINE
  5
188
100
AcDbEntity
  8
0
  6
CENTER
 62
               2
100
AcDbLine
 10
-8.9446301573943572
 20
4.0
 30
0.0
 11
31.706095837897948
 21
4.0
 31
0.0
  0
LINE
  5
189
100
AcDbEntity
  8
0
  6
CONTINUOUS
 62
               7
100
AcDbLine
 10
30.0
 20
9.0825538262777599
 30
0.0
 11
30.0
 21
0.0
 31
0.0
  0
LINE
  5
18A
100
AcDbEntity
  8
0
  6
CENTER
 62
               2
100
AcDbLine
 10
5.0
 20
1.5
 30
0.0
 11
5.0
 21
-1.5
 31
0.0
  0
ENDBLK
  5
18B
100
AcDbEntity
  8
0
100
AcDbBlockEnd
  0
BLOCK
  5
18C
100
AcDbEntity
  8
0
100
AcDbBlockBegin
  2
MS_5
 70
               0
 10
0.0
 20
0.0
 30
0.0
  3
MS_5
  1

  0
LINE
  5
18D
100
AcDbEntity
  8
0
  6
PHANTOM
 62
               3
100
AcDbLine
 10
12.08097062892017
 20
2.8984909752856183
 30
0.0
 11
12.08097062892017
 21
-12.508764044943817
 31
0.0
  0
LINE
  5
18E
100
AcDbEntity
  8
0
  6
PHANTOM
 62
               3
100
AcDbLine
 10
24.067602850044196
 20
2.8984909752856183
 30
0.0
 11
12.08097062892017
 21
2.8984909752856183
 31
0.0
  0
LINE
  5
18F
100
AcDbEntity
  8
0
  6
PHANTOM
 62
               3
100
AcDbLine
 10
24.067602850044196
 20
13.918202247191012
 30
0.0
 11
24.067602850044196
 21
2.8984909752856183
 31
0.0
  0
LINE
  5
190
100
AcDbEntity
  8
0
  6
CONTINUOUS
 62
               4
100
AcDbLine
 10
9.250000003709971
 20
7.5275477564266922
 30
0.0
 11
9.250000003709971
 21
5.7954969451858496
 31
0.0
  0
LINE
  5
191
100
AcDbEntity
  8
0
  6
CONTINUOUS
 62
               4
100
AcDbLine
 10
9.7500000047699871
 20
7.5275477564266922
 30
0.0
 11
9.7500000047699871
 21
5.7954969451858496
 31
0.0
  0
ELLIPSE
  5
192
100
AcDbEntity
  8
0
  6
CONTINUOUS
 62
               4
100
AcDbEllipse
 10
9.5000000042400359
 20
6.6615223508063011
 30
0.0
 11
-1.25000000265
 21
0.0000000000000002
 31
0.0
210
0.0
220
0.0
230
1.0
 40
0.7071067811865475
 41
0.0
 42
6.2831853071795862
  0
LINE
  5
193
100
AcDbEntity
  8
0
  6
CONTINUOUS
 62
               4
100
AcDbLine
 10
7.5
 20
7.7221825248346718
 30
0.0
 11
7.5
 21
5.4060849870406145
 31
0.0
  0
LINE
  5
194
100
AcDbEntity
  8
0
  6
CONTINUOUS
 62
               4
100
AcDbLine
 10
22.500000031799999
 20
5.4060849870406145
 30
0.0
 11
22.500000031799999
 21
11.575914402052163
 31
0.0
  0
LINE
  5
195
100
AcDbEntity
  8
0
  6
CONTINUOUS
 62
               4
100
AcDbLine
 10
20.000000026500004
 20
8.6767766009345237
 30
0.0
 11
20.000000026500004
 21
9.3838834031260738
 31
0.0
  0
LINE
  5
196
100
AcDbEntity
  8
0
  6
CONTINUOUS
 62
               4
100
AcDbLine
 10
22.100000014953878
 20
10.126345524945972
 30
0.0
 11
22.100000014953878
 21
10.83345230187966
 31
0.0
  0
ELLIPSE
  5
197
100
AcDbEntity
  8
0
  6
CONTINUOUS
 62
               4
100
AcDbEllipse
 10
20.000000026500004
 20
10.833452307631589
 30
0.0
 11
2.1000000044519944
 21
0.0
 31
0.0
210
0.0
220
0.0
230
1.0
 40
0.690270905444012
 41
2.2690212382307813
 42
0.8725714153590118
  0
LINE
  5
198
100
AcDbEntity
  8
0
  6
CONTINUOUS
 62
               4
100
AcDbLine
 10
20.000000026500004
 20
8.6767766204404566
 30
0.0
 11
22.500000051564683
 21
8.6767766204404566
 31
0.0
  0
LINE
  5
199
100
AcDbEntity
  8
0
  6
CONTINUOUS
 62
               4
100
AcDbLine
 10
21.803625156899869
 20
11.575914429451487
 30
0.0
 11
22.500000031799999
 21
11.575914429451487
 31
0.0
  0
LINE
  5
19A
100
AcDbEntity
  8
0
  6
CONTINUOUS
 62
               4
100
AcDbLine
 10
17.90000002204809
 20
10.833452307631589
 30
0.0
 11
17.90000002204809
 21
6.6615223508063011
 31
0.0
  0
ELLIPSE
  5
19B
100
AcDbEntity
  8
0
  6
CONTINUOUS
 62
               4
100
AcDbEllipse
 10
20.000000026500004
 20
10.126345524945972
 30
0.0
 11
2.0999999884538685
 21
0.0
 31
0.0
210
0.0
220
0.0
230
1.0
 40
0.6902709107026031
 41
4.7123889803846897
 42
0.0
  0
LINE
  5
19C
100
AcDbEntity
  8
0
  6
CONTINUOUS
 62
               4
100
AcDbLine
 10
18.530306177714436
 20
6.2726135562659984
 30
0.0
 11
22.500000031799999
 21
6.2726135562659984
 31
0.0
  0
LINE
  5
19D
100
AcDbEntity
  8
0
  6
CONTINUOUS
 62
               4
100
AcDbLine
 10
18.530306177714436
 20
5.6008621767779019
 30
0.0
 11
18.530306177714436
 21
6.2726135332652184
 31
0.0
  0
ELLIPSE
  5
19E
100
AcDbEntity
  8
0
  6
CONTINUOUS
 62
               4
100
AcDbEllipse
 10
20.00000004626466
 20
6.6615223508063011
 30
0.0
 11
-2.1000000242166501
 21
0.0000000000000003
 31
0.0
210
0.0
220
0.0
230
1.0
 40
0.6902708989473662
 41
0.0
 42
0.7956029495296795
  0
LINE
  5
19F
100
AcDbEntity
  8
0
  6
CONTINUOUS
 62
               4
100
AcDbLine
 10
21.350000029362121
 20
10.83345230187966
 30
0.0
 11
21.350000029362121
 21
13.833452308239664
 31
0.0
  0
LINE
  5
1A0
100
AcDbEntity
  8
0
  6
CONTINUOUS
 62
               4
100
AcDbLine
 10
18.650000023638086
 20
10.83345230187966
 30
0.0
 11
18.650000023638086
 21
13.833452308239664
 31
0.0
  0
ELLIPSE
  5
1A1
100
AcDbEntity
  8
0
  6
CONTINUOUS
 62
               4
100
AcDbEllipse
 10
20.000000026500004
 20
10.833452307631589
 30
0.0
 11
1.3500000028620016
 21
0.0
 31
0.0
210
0.0
220
0.0
230
1.0
 40
0.7130928703394489
 41
3.1415926535897931
 42
0.0
  0
ELLIPSE
  5
1A2
100
AcDbEntity
  8
0
  6
CONTINUOUS
 62
               4
100
AcDbEllipse
 10
20.000000026500004
 20
13.833452313991589
 30
0.0
 11
1.3500000028620016
 21
0.0
 31
0.0
210
0.0
220
0.0
230
1.0
 40
0.7130928703394489
 41
0.0
 42
6.2831853071795862
  0
LINE
  5
1A3
100
AcDbEntity
  8
0
  6
CONTINUOUS
 62
               4
100
AcDbLine
 10
12.999999968200029
 20
-5.4060849870406145
 30
0.0
 11
12.999999968200029
 21
-11.575914421074337
 31
0.0
  0
LINE
  5
1A4
100
AcDbEntity
  8
0
  6
CONTINUOUS
 62
               4
100
AcDbLine
 10
15.499999973499996
 20
-8.6767766199567049
 30
0.0
 11
15.499999973499996
 21
-9.3838834221481946
 31
0.0
  0
LINE
  5
1A5
100
AcDbEntity
  8
0
  6
CONTINUOUS
 62
               4
100
AcDbLine
 10
17.599999977952137
 20
-10.833452326653706
 30
0.0
 11
17.599999977952137
 21
-6.6615223698284254
 31
0.0
  0
ELLIPSE
  5
1A6
100
AcDbEntity
  8
0
  6
CONTINUOUS
 62
               4
100
AcDbEllipse
 10
15.499999973499996
 20
-10.126345543968092
 30
0.0
 11
-2.0999999884538685
 21
0.0000000000000003
 31
0.0
210
0.0
220
0.0
230
1.0
 40
0.6902709107026031
 41
4.7123889803846897
 42
0.0
  0
ELLIPSE
  5
1A7
100
AcDbEntity
  8
0
  6
CONTINUOUS
 62
               4
100
AcDbEllipse
 10
15.499999973499996
 20
-13.83345233301371
 30
0.0
 11
-1.3500000028620016
 21
0.0000000000000002
 31
0.0
210
0.0
220
0.0
230
1.0
 40
0.7130928703394489
 41
0.0
 42
6.2831853071795862
  0
ELLIPSE
  5
1A8
100
AcDbEntity
  8
0
  6
CONTINUOUS
 62
               4
100
AcDbEllipse
 10
15.499999973499996
 20
-10.833452326653706
 30
0.0
 11
-1.3500000028620016
 21
0.0000000000000002
 31
0.0
210
0.0
220
0.0
230
1.0
 40
0.7130928703394489
 41
3.1415926535897931
 42
0.0
  0
LINE
  5
1A9
100
AcDbEntity
  8
0
  6
CONTINUOUS
 62
               4
100
AcDbLine
 10
16.84999997636217
 20
-10.833452320901841
 30
0.0
 11
16.84999997636217
 21
-13.833452327261838
 31
0.0
  0
LINE
  5
1AA
100
AcDbEntity
  8
0
  6
CONTINUOUS
 62
               4
100
AcDbLine
 10
14.149999970638106
 20
-10.833452320901841
 30
0.0
 11
14.149999970638106
 21
-13.833452327261838
 31
0.0
  0
LINE
  5
1AB
100
AcDbEntity
  8
0
  6
CONTINUOUS
 62
               4
100
AcDbLine
 10
13.696374843100358
 20
-11.575914448473604
 30
0.0
 11
12.999999968200029
 21
-11.575914448473604
 31
0.0
  0
ELLIPSE
  5
1AC
100
AcDbEntity
  8
0
  6
CONTINUOUS
 62
               4
100
AcDbEllipse
 10
15.499999973499996
 20
-10.833452326653706
 30
0.0
 11
-2.1000000044519944
 21
0.0000000000000003
 31
0.0
210
0.0
220
0.0
230
1.0
 40
0.690270905444012
 41
2.2690212382307813
 42
0.8725714153590118
  0
LINE
  5
1AD
100
AcDbEntity
  8
0
  6
CONTINUOUS
 62
               4
100
AcDbLine
 10
13.399999985046378
 20
-10.126345543968092
 30
0.0
 11
13.399999985046378
 21
-10.833452320901841
 31
0.0
  0
LINE
  5
1AE
100
AcDbEntity
  8
0
  6
CONTINUOUS
 62
               4
100
AcDbLine
 10
15.499999973499996
 20
-8.6767766394626307
 30
0.0
 11
12.999999948435573
 21
-8.6767766394626307
 31
0.0
  0
LINE
  5
1AF
100
AcDbEntity
  8
0
  6
CONTINUOUS
 62
               4
100
AcDbLine
 10
16.969693822285763
 20
-6.2726135752881191
 30
0.0
 11
12.999999968200029
 21
-6.2726135752881191
 31
0.0
  0
LINE
  5
1B0
100
AcDbEntity
  8
0
  6
CONTINUOUS
 62
               4
100
AcDbLine
 10
16.969693822285763
 20
-5.6008621958000759
 30
0.0
 11
16.969693822285763
 21
-6.2726135522874031
 31
0.0
  0
ELLIPSE
  5
1B1
100
AcDbEntity
  8
0
  6
CONTINUOUS
 62
               4
100
AcDbEllipse
 10
15.499999953735539
 20
-6.6615223698284254
 30
0.0
 11
2.1000000242166501
 21
0.0
 31
0.0
210
0.0
220
0.0
230
1.0
 40
0.6902708989473662
 41
0.0
 42
0.7956029495296795
  0
LINE
  5
1B2
100
AcDbEntity
  8
0
  6
CONTINUOUS
 62
               4
100
AcDbLine
 10
26.249999996290029
 20
-7.5275477754488165
 30
0.0
 11
26.249999996290029
 21
-5.7954969642080201
 31
0.0
  0
LINE
  5
1B3
100
AcDbEntity
  8
0
  6
CONTINUOUS
 62
               4
100
AcDbLine
 10
25.749999995230041
 20
-7.5275477754488165
 30
0.0
 11
25.749999995230041
 21
-5.7954969642080201
 31
0.0
  0
ELLIPSE
  5
1B4
100
AcDbEntity
  8
0
  6
CONTINUOUS
 62
               4
100
AcDbEllipse
 10
25.999999995759993
 20
-6.6615223698284254
 30
0.0
 11
1.25000000265
 21
0.0
 31
0.0
210
0.0
220
0.0
230
1.0
 40
0.7071067811865475
 41
0.0
 42
6.2831853071795862
  0
LINE
  5
1B5
100
AcDbEntity
  8
0
  6
CONTINUOUS
 62
               4
100
AcDbLine
 10
28.0
 20
-7.7221825438568459
 30
0.0
 11
28.0
 21
-5.4060849870406145
 31
0.0
  0
LINE
  5
1B6
100
AcDbEntity
  8
0
  6
CONTINUOUS
 62
               4
100
AcDbLine
 10
7.5000000346271634
 20
7.7221825248346718
 30
0.0
 11
17.90000002204809
 21
7.7221825248346718
 31
0.0
  0
LINE
  5
1B7
100
AcDbEntity
  8
0
  6
CONTINUOUS
 62
               4
100
AcDbLine
 10
7.5000000346271634
 20
5.6008621767779019
 30
0.0
 11
22.500000031799999
 21
5.6008621767779019
 31
0.0
  0
LINE
  5
1B8
100
AcDbEntity
  8
0
  6
CONTINUOUS
 62
               4
100
AcDbLine
 10
17.600000011634961
 20
-7.7221825438568459
 30
0.0
 11
27.999999965833126
 21
-7.7221825438568459
 31
0.0
  0
LINE
  5
1B9
100
AcDbEntity
  8
0
  6
CONTINUOUS
 62
               4
100
AcDbLine
 10
12.999999991361506
 20
-5.6008621958000759
 30
0.0
 11
27.999999965833126
 21
-5.6008621958000759
 31
0.0
  0
LINE
  5
1BA
100
AcDbEntity
  8
0
  6
CENTER
 62
               2
100
AcDbLine
 10
-9.0022314592533803
 20
0.0
 30
0.0
 11
31.706095837897948
 21
0.0
 31
0.0
  0
LINE
  5
1BB
100
AcDbEntity
  8
0
  6
CONTINUOUS
 62
               7
100
AcDbLine
 10
30.0
 20
8.5
 30
0.0
 11
30.0
 21
-8.5
 31
0.0
  0
LINE
  5
1BC
100
AcDbEntity
  8
0
  6
CENTER
 62
               2
100
AcDbLine
 10
2.1999999999999886
 20
6.0
 30
0.0
 11
7.7999999999999972
 21
6.0
 31
0.0
  0
LINE
  5
1BD
100
AcDbEntity
  8
0
  6
CENTER
 62
               2
100
AcDbLine
 10
5.0
 20
8.7999999999999972
 30
0.0
 11
5.0
 21
3.2000000000000028
 31
0.0
  0
CIRCLE
  5
1BE
100
AcDbEntity
  8
0
  6
CONTINUOUS
 62
               7
100
AcDbCircle
 10
5.0
 20
6.0
 30
0.0
 40
1.1000000000000014
  0
CIRCLE
  5
1BF
100
AcDbEntity
  8
0
  6
CONTINUOUS
 62
               7
100
AcDbCircle
 10
5.0
 20
6.0
 30
0.0
 40
2.0500000000000007
  0
LINE
  5
1C0
100
AcDbEntity
  8
0
  6
CONTINUOUS
 62
               7
100
AcDbLine
 10
0.0
 20
8.5
 30
0.0
 11
0.0
 21
-8.5
 31
0.0
  0
LINE
  5
1C1
100
AcDbEntity
  8
0
  6
CENTER
 62
               2
100
AcDbLine
 10
5.0
 20
-8.7999999999999972
 30
0.0
 11
5.0
 21
-3.2000000000000028
 31
0.0
  0
CIRCLE
  5
1C2
100
AcDbEntity
  8
0
  6
CONTINUOUS
 62
               7
100
AcDbCircle
 10
5.0
 20
-6.0
 30
0.0
 40
1.1000000000000014
  0
CIRCLE
  5
1C3
100
AcDbEntity
  8
0
  6
CONTINUOUS
 62
               7
100
AcDbCircle
 10
5.0
 20
-6.0
 30
0.0
 40
2.0500000000000007
  0
LINE
  5
1C4
100
AcDbEntity
  8
0
  6
CENTER
 62
               2
100
AcDbLine
 10
2.1999999999999886
 20
-6.0
 30
0.0
 11
7.7999999999999972
 21
-6.0
 31
0.0
  0
LINE
  5
1C5
100
AcDbEntity
  8
0
  6
CONTINUOUS
 62
               7
100
AcDbLine
 10
0.0
 20
7.4393398101114769
 30
0.0
 11
3.5402736862588711
 21
7.4393398101114769
 31
0.0
  0
LINE
  5
1C6
100
AcDbEntity
  8
0
  6
CONTINUOUS
 62
               7
100
AcDbLine
 10
0.0
 20
8.5
 30
0.0
 11
17.90000002204809
 21
8.5
 31
0.0
  0
LINE
  5
1C7
100
AcDbEntity
  8
0
  6
CONTINUOUS
 62
               7
100
AcDbLine
 10
0.0
 20
5.4060849870406145
 30
0.0
 11
3.0379182082845091
 21
5.4060849870406145
 31
0.0
  0
LINE
  5
1C8
100
AcDbEntity
  8
0
  6
CONTINUOUS
 62
               7
100
AcDbLine
 10
0.0
 20
5.0000000373376992
 30
0.0
 11
3.2104469623184144
 21
5.0000000373376992
 31
0.0
  0
LINE
  5
1C9
100
AcDbEntity
  8
0
  6
CONTINUOUS
 62
               7
100
AcDbLine
 10
6.4597263137411289
 20
7.4393398101114769
 30
0.0
 11
7.5
 21
7.4393398101114769
 31
0.0
  0
LINE
  5
1CA
100
AcDbEntity
  8
0
  6
CONTINUOUS
 62
               7
100
AcDbLine
 10
6.9620817917154909
 20
5.4060849870406145
 30
0.0
 11
30.0
 21
5.4060849870406145
 31
0.0
  0
LINE
  5
1CB
100
AcDbEntity
  8
0
  6
CONTINUOUS
 62
               7
100
AcDbLine
 10
6.7895530376815856
 20
5.0000000373376992
 30
0.0
 11
30.0
 21
5.0000000373376992
 31
0.0
  0
LINE
  5
1CC
100
AcDbEntity
  8
0
  6
CONTINUOUS
 62
               7
100
AcDbLine
 10
6.4597263137411289
 20
-7.4393398101114769
 30
0.0
 11
12.999999968200029
 21
-7.4393398101114769
 31
0.0
  0
LINE
  5
1CD
100
AcDbEntity
  8
0
  6
CONTINUOUS
 62
               7
100
AcDbLine
 10
6.9620817917154909
 20
-5.4060849870406145
 30
0.0
 11
30.0
 21
-5.4060849870406145
 31
0.0
  0
LINE
  5
1CE
100
AcDbEntity
  8
0
  6
CONTINUOUS
 62
               7
100
AcDbLine
 10
6.7895530376815856
 20
-5.0000000373376992
 30
0.0
 11
30.0
 21
-5.0000000373376992
 31
0.0
  0
LINE
  5
1CF
100
AcDbEntity
  8
0
  6
CONTINUOUS
 62
               7
100
AcDbLine
 10
0.0
 20
-7.4393398101114769
 30
0.0
 11
3.5402736862588711
 21
-7.4393398101114769
 31
0.0
  0
LINE
  5
1D0
100
AcDbEntity
  8
0
  6
CONTINUOUS
 62
               7
100
AcDbLine
 10
0.0
 20
-5.4060849870406145
 30
0.0
 11
3.0379182082845091
 21
-5.4060849870406145
 31
0.0
  0
LINE
  5
1D1
100
AcDbEntity
  8
0
  6
CONTINUOUS
 62
               7
100
AcDbLine
 10
0.0
 20
-5.0000000373376992
 30
0.0
 11
3.2104469623184144
 21
-5.0000000373376992
 31
0.0
  0
LINE
  5
1D2
100
AcDbEntity
  8
0
  6
CENTER
 62
               2
100
AcDbLine
 10
10.0
 20
1.9547775518886965
 30
0.0
 11
10.0
 21
-1.9760956580291094
 31
0.0
  0
CIRCLE
  5
1D3
100
AcDbEntity
  8
0
  6
CONTINUOUS
 62
               2
100
AcDbCircle
 10
10.0
 20
0.0000000000000142
 30
0.0
 40
1.5
  0
CIRCLE
  5
1D4
100
AcDbEntity
  8
0
  6
CONTINUOUS
 62
               7
100
AcDbCircle
 10
10.0
 20
0.0000000000000142
 30
0.0
 40
1.1999999999999886
  0
LINE
  5
1D5
100
AcDbEntity
  8
0
  6
CENTER
 62
               2
100
AcDbLine
 10
26.999999999999972
 20
1.9547775518886965
 30
0.0
 11
26.999999999999972
 21
-1.9760956580291094
 31
0.0
  0
CIRCLE
  5
1D6
100
AcDbEntity
  8
0
  6
CONTINUOUS
 62
               2
100
AcDbCircle
 10
26.999999999999972
 20
0.0000000000000142
 30
0.0
 40
1.5
  0
CIRCLE
  5
1D7
100
AcDbEntity
  8
0
  6
CONTINUOUS
 62
               7
100
AcDbCircle
 10
26.999999999999972
 20
0.0000000000000142
 30
0.0
 40
1.1999999999999886
  0
LINE
  5
1D8
100
AcDbEntity
  8
0
  6
CONTINUOUS
 62
               7
100
AcDbLine
 10
0.0
 20
-8.5
 30
0.0
 11
12.999999968200029
 21
-8.5
 31
0.0
  0
LINE
  5
1D9
100
AcDbEntity
  8
0
  6
CONTINUOUS
 62
               7
100
AcDbLine
 10
-7.7000000000000171
 20
1.5
 30
0.0
 11
-6.0999999999999943
 21
1.5
 31
0.0
  0
LINE
  5
1DA
100
AcDbEntity
  8
0
  6
CONTINUOUS
 62
               7
100
AcDbLine
 10
-8.0
 20
-1.2000000000000028
 30
0.0
 11
-8.0
 21
1.2000000000000028
 31
0.0
  0
LINE
  5
1DB
100
AcDbEntity
  8
0
  6
CONTINUOUS
 62
               7
100
AcDbLine
 10
-1.0
 20
-1.5
 30
0.0
 11
-1.0
 21
1.5
 31
0.0
  0
LINE
  5
1DC
100
AcDbEntity
  8
0
  6
CONTINUOUS
 62
               7
100
AcDbLine
 10
-7.7000000000000171
 20
-1.5
 30
0.0
 11
-7.7000000000000171
 21
1.5
 31
0.0
  0
LINE
  5
1DD
100
AcDbEntity
  8
0
  6
CONTINUOUS
 62
               7
100
AcDbLine
 10
-7.7000000000000171
 20
1.5
 30
0.0
 11
-8.0
 21
1.2000000000000028
 31
0.0
  0
LINE
  5
1DE
100
AcDbEntity
  8
0
  6
CONTINUOUS
 62
               2
100
AcDbLine
 10
-8.0
 20
1.2000000000000028
 30
0.0
 11
-6.0999999999999943
 21
1.2000000000000028
 31
0.0
  0
LINE
  5
1DF
100
AcDbEntity
  8
0
  6
CONTINUOUS
 62
               7
100
AcDbLine
 10
-7.7000000000000171
 20
-1.5
 30
0.0
 11
-6.0999999999999943
 21
-1.5
 31
0.0
  0
LINE
  5
1E0
100
AcDbEntity
  8
0
  6
CONTINUOUS
 62
               7
100
AcDbLine
 10
-7.7000000000000171
 20
-1.5
 30
0.0
 11
-8.0
 21
-1.2000000000000028
 31
0.0
  0
LINE
  5
1E1
100
AcDbEntity
  8
0
  6
CONTINUOUS
 62
               2
100
AcDbLine
 10
-8.0
 20
-1.2000000000000028
 30
0.0
 11
-6.0999999999999943
 21
-1.2000000000000028
 31
0.0
  0
LINE
  5
1E2
100
AcDbEntity
  8
0
  6
CONTINUOUS
 62
               2
100
AcDbLine
 10
-2.5
 20
1.2000000000000028
 30
0.0
 11
-1.0
 21
1.2000000000000028
 31
0.0
  0
LINE
  5
1E3
100
AcDbEntity
  8
0
  6
CONTINUOUS
 62
               2
100
AcDbLine
 10
-2.5
 20
-1.2000000000000028
 30
0.0
 11
-1.0
 21
-1.2000000000000028
 31
0.0
  0
LINE
  5
1E4
100
AcDbEntity
  8
0
  6
CONTINUOUS
 62
               7
100
AcDbLine
 10
-4.2999999999999829
 20
-2.750000018878012
 30
0.0
 11
-4.2999999999999829
 21
2.749999981121988
 31
0.0
  0
LINE
  5
1E5
100
AcDbEntity
  8
0
  6
CONTINUOUS
 62
               7
100
AcDbLine
 10
-2.5
 20
-2.750000018878012
 30
0.0
 11
-2.5
 21
2.749999981121988
 31
0.0
  0
LINE
  5
1E6
100
AcDbEntity
  8
0
  6
CONTINUOUS
 62
               7
100
AcDbLine
 10
-6.0999999999999943
 20
-2.750000018878012
 30
0.0
 11
-6.0999999999999943
 21
2.749999981121988
 31
0.0
  0
LINE
  5
1E7
100
AcDbEntity
  8
0
  6
CONTINUOUS
 62
               7
100
AcDbLine
 10
-4.545620120172714
 20
3.1754265238809296
 30
0.0
 11
-5.8543798691084135
 21
3.1754265238809296
 31
0.0
  0
LINE
  5
1E8
100
AcDbEntity
  8
0
  6
CONTINUOUS
 62
               7
100
AcDbLine
 10
-4.2999999999999829
 20
2.75
 30
0.0
 11
-4.5456201180830647
 21
3.1754265238809296
 31
0.0
  0
LINE
  5
1E9
100
AcDbEntity
  8
0
  6
CONTINUOUS
 62
               7
100
AcDbLine
 10
-6.0999999999999943
 20
2.75
 30
0.0
 11
-5.8543798819169126
 21
3.1754265238809296
 31
0.0
  0
LINE
  5
1EA
100
AcDbEntity
  8
0
  6
CONTINUOUS
 62
               7
100
AcDbLine
 10
-2.5
 20
2.75
 30
0.0
 11
-2.7456201180830533
 21
3.1754265238809296
 31
0.0
  0
LINE
  5
1EB
100
AcDbEntity
  8
0
  6
CONTINUOUS
 62
               7
100
AcDbLine
 10
-4.2999999999999829
 20
2.75
 30
0.0
 11
-4.0543798819169297
 21
3.1754265238809296
 31
0.0
  0
LINE
  5
1EC
100
AcDbEntity
  8
0
  6
CONTINUOUS
 62
               7
100
AcDbLine
 10
-4.0543798798272803
 20
3.1754265238809296
 30
0.0
 11
-2.7456201308915809
 21
3.1754265238809296
 31
0.0
  0
LINE
  5
1ED
100
AcDbEntity
  8
0
  6
CONTINUOUS
 62
               7
100
AcDbLine
 10
-4.0543798798272803
 20
1.5877133879722152
 30
0.0
 11
-2.7456201201727026
 21
1.5877133879722152
 31
0.0
  0
LINE
  5
1EE
100
AcDbEntity
  8
0
  6
CONTINUOUS
 62
               7
100
AcDbLine
 10
-4.545620120172714
 20
1.5877133879722152
 30
0.0
 11
-5.8543798798272633
 21
1.5877133879722152
 31
0.0
  0
LINE
  5
1EF
100
AcDbEntity
  8
0
  6
CONTINUOUS
 62
               7
100
AcDbLine
 10
-4.0543798798272803
 20
-3.1754265238809296
 30
0.0
 11
-2.7456201308915809
 21
-3.1754265238809296
 31
0.0
  0
LINE
  5
1F0
100
AcDbEntity
  8
0
  6
CONTINUOUS
 62
               7
100
AcDbLine
 10
-4.0543798798272803
 20
-1.5877133879722152
 30
0.0
 11
-2.7456201201727026
 21
-1.5877133879722152
 31
0.0
  0
LINE
  5
1F1
100
AcDbEntity
  8
0
  6
CONTINUOUS
 62
               7
100
AcDbLine
 10
-4.545620120172714
 20
-1.5877133879722152
 30
0.0
 11
-5.8543798798272633
 21
-1.5877133879722152
 31
0.0
  0
LINE
  5
1F2
100
AcDbEntity
  8
0
  6
CONTINUOUS
 62
               7
100
AcDbLine
 10
-4.545620120172714
 20
-3.1754265238809296
 30
0.0
 11
-5.8543798691084135
 21
-3.1754265238809296
 31
0.0
  0
LINE
  5
1F3
100
AcDbEntity
  8
0
  6
CONTINUOUS
 62
               7
100
AcDbLine
 10
-4.2999999999999829
 20
-2.75
 30
0.0
 11
-4.5456201180830647
 21
-3.1754265238809296
 31
0.0
  0
LINE
  5
1F4
100
AcDbEntity
  8
0
  6
CONTINUOUS
 62
               7
100
AcDbLine
 10
-4.2999999999999829
 20
-2.75
 30
0.0
 11
-4.0543798819169297
 21
-3.1754265238809296
 31
0.0
  0
LINE
  5
1F5
100
AcDbEntity
  8
0
  6
CONTINUOUS
 62
               7
100
AcDbLine
 10
-6.0999999999999943
 20
-2.75
 30
0.0
 11
-5.8543798819169126
 21
-3.1754265238809296
 31
0.0
  0
LINE
  5
1F6
100
AcDbEntity
  8
0
  6
CONTINUOUS
 62
               7
100
AcDbLine
 10
-2.5
 20
-2.75
 30
0.0
 11
-2.7456201180830533
 21
-3.1754265238809296
 31
0.0
  0
SPLINE
  5
1F7
100
AcDbEntity
  8
0
  6
CONTINUOUS
 62
               7
100
AcDbSpline
210
0.0
220
0.0
230
1.0
 70
               0
 71
               3
 72
               0
 73
               0
 74
               5
 44
0.000001
 12
-0.5262037598477771
 22
-0.8503585144643775
 32
0.0
 13
0.5262037751704171
 23
-0.8503585049826933
 33
0.0
 11
-4.0543798819169297
 21
3.1754265238809296
 31
0.0
 11
-4.2318484367291651
 21
2.794852077955797
 31
0.0
 11
-4.2999999999999829
 21
2.3815698774887011
 31
0.0
 11
-4.2318484162285754
 21
1.9682877574118116
 31
0.0
 11
-4.0543798798272803
 21
1.5877133879722152
 31
0.0
  0
SPLINE
  5
1F8
100
AcDbEntity
  8
0
  6
CONTINUOUS
 62
               7
100
AcDbSpline
210
0.0
220
0.0
230
1.0
 70
               0
 71
               3
 72
               0
 73
               0
 74
               5
 44
0.000001
 12
0.526203759847777
 22
-0.8503585144643776
 32
0.0
 13
-0.5262037751704169
 23
-0.8503585049826934
 33
0.0
 11
-2.7456201180830533
 21
3.1754265238809296
 31
0.0
 11
-2.5681515632708178
 21
2.794852077955797
 31
0.0
 11
-2.5
 21
2.3815698774887011
 31
0.0
 11
-2.568151583771408
 21
1.9682877574118116
 31
0.0
 11
-2.7456201201727026
 21
1.5877133879722152
 31
0.0
  0
SPLINE
  5
1F9
100
AcDbEntity
  8
0
  6
CONTINUOUS
 62
               7
100
AcDbSpline
210
0.0
220
0.0
230
1.0
 70
               0
 71
               3
 72
               0
 73
               0
 74
               5
 44
0.000001
 12
-0.5262037598477771
 22
-0.8503585144643775
 32
0.0
 13
0.5262037751704171
 23
-0.8503585049826933
 33
0.0
 11
-5.8543798819169126
 21
3.1754265238809296
 31
0.0
 11
-6.0318484367291623
 21
2.794852077955797
 31
0.0
 11
-6.0999999999999943
 21
2.3815698774887011
 31
0.0
 11
-6.0318484162285726
 21
1.9682877574118116
 31
0.0
 11
-5.8543798798272633
 21
1.5877133879722152
 31
0.0
  0
SPLINE
  5
1FA
100
AcDbEntity
  8
0
  6
CONTINUOUS
 62
               7
100
AcDbSpline
210
0.0
220
0.0
230
1.0
 70
               0
 71
               3
 72
               0
 73
               0
 74
               5
 44
0.000001
 12
0.526203759847777
 22
-0.8503585144643776
 32
0.0
 13
-0.5262037751704169
 23
-0.8503585049826934
 33
0.0
 11
-4.5456201180830647
 21
3.1754265238809296
 31
0.0
 11
-4.368151563270815
 21
2.794852077955797
 31
0.0
 11
-4.2999999999999829
 21
2.3815698774887011
 31
0.0
 11
-4.3681515837714047
 21
1.9682877574118116
 31
0.0
 11
-4.545620120172714
 21
1.5877133879722152
 31
0.0
  0
SPLINE
  5
1FB
100
AcDbEntity
  8
0
  6
CONTINUOUS
 62
               7
100
AcDbSpline
210
0.0
220
0.0
230
1.0
 70
               0
 71
               3
 72
               0
 73
               0
 74
               5
 44
0.000001
 12
-0.2955767328958228
 22
-0.9553190016798742
 32
0.0
 13
0.2955767328958229
 23
-0.9553190016798742
 33
0.0
 11
-4.0543798798272803
 21
1.5877133879722152
 31
0.0
 11
-4.2365491313846571
 21
0.803775075127956
 31
0.0
 11
-4.2999999999999829
 21
0.0
 31
0.0
 11
-4.2365491313846571
 21
-0.8037750751279561
 31
0.0
 11
-4.0543798798272803
 21
-1.5877133879722152
 31
0.0
  0
SPLINE
  5
1FC
100
AcDbEntity
  8
0
  6
CONTINUOUS
 62
               7
100
AcDbSpline
210
0.0
220
0.0
230
1.0
 70
               0
 71
               3
 72
               0
 73
               0
 74
               5
 44
0.000001
 12
0.2955767328958229
 22
-0.9553190016798742
 32
0.0
 13
-0.2955767328958228
 23
-0.9553190016798742
 33
0.0
 11
-4.545620120172714
 21
1.5877133879722152
 31
0.0
 11
-4.3634508686153231
 21
0.803775075127956
 31
0.0
 11
-4.2999999999999829
 21
0.0
 31
0.0
 11
-4.3634508686153231
 21
-0.8037750751279561
 31
0.0
 11
-4.545620120172714
 21
-1.5877133879722152
 31
0.0
  0
SPLINE
  5
1FD
100
AcDbEntity
  8
0
  6
CONTINUOUS
 62
               7
100
AcDbSpline
210
0.0
220
0.0
230
1.0
 70
               0
 71
               3
 72
               0
 73
               0
 74
               5
 44
0.000001
 12
0.2955767328958229
 22
-0.9553190016798742
 32
0.0
 13
-0.2955767328958228
 23
-0.9553190016798742
 33
0.0
 11
-2.7456201201727026
 21
1.5877133879722152
 31
0.0
 11
-2.5634508686153259
 21
0.803775075127956
 31
0.0
 11
-2.5
 21
0.0
 31
0.0
 11
-2.5634508686153259
 21
-0.8037750751279561
 31
0.0
 11
-2.7456201201727026
 21
-1.5877133879722152
 31
0.0
  0
SPLINE
  5
1FE
100
AcDbEntity
  8
0
  6
CONTINUOUS
 62
               7
100
AcDbSpline
210
0.0
220
0.0
230
1.0
 70
               0
 71
               3
 72
               0
 73
               0
 74
               5
 44
0.000001
 12
-0.2955767328958228
 22
-0.9553190016798742
 32
0.0
 13
0.2955767328958227
 23
-0.9553190016798742
 33
0.0
 11
-5.8543798798272633
 21
1.5877133879722152
 31
0.0
 11
-6.0365491313846542
 21
0.803775075127956
 31
0.0
 11
-6.0999999999999943
 21
0.0
 31
0.0
 11
-6.0365491313846542
 21
-0.8037750751279561
 31
0.0
 11
-5.8543798798272633
 21
-1.5877133879722152
 31
0.0
  0
SPLINE
  5
1FF
100
AcDbEntity
  8
0
  6
CONTINUOUS
 62
               7
100
AcDbSpline
210
0.0
220
0.0
230
1.0
 70
               0
 71
               3
 72
               0
 73
               0
 74
               5
 44
0.000001
 12
0.526203759847777
 22
0.8503585144643776
 32
0.0
 13
-0.5262037751704169
 23
0.8503585049826934
 33
0.0
 11
-4.5456201180830647
 21
-3.1754265238809296
 31
0.0
 11
-4.368151563270815
 21
-2.794852077955797
 31
0.0
 11
-4.2999999999999829
 21
-2.3815698774887011
 31
0.0
 11
-4.3681515837714047
 21
-1.9682877574118116
 31
0.0
 11
-4.545620120172714
 21
-1.5877133879722152
 31
0.0
  0
SPLINE
  5
200
100
AcDbEntity
  8
0
  6
CONTINUOUS
 62
               7
100
AcDbSpline
210
0.0
220
0.0
230
1.0
 70
               0
 71
               3
 72
               0
 73
               0
 74
               5
 44
0.000001
 12
-0.5262037598477771
 22
0.8503585144643775
 32
0.0
 13
0.5262037751704171
 23
0.8503585049826933
 33
0.0
 11
-4.0543798819169297
 21
-3.1754265238809296
 31
0.0
 11
-4.2318484367291651
 21
-2.794852077955797
 31
0.0
 11
-4.2999999999999829
 21
-2.3815698774887011
 31
0.0
 11
-4.2318484162285754
 21
-1.9682877574118116
 31
0.0
 11
-4.0543798798272803
 21
-1.5877133879722152
 31
0.0
  0
SPLINE
  5
201
100
AcDbEntity
  8
0
  6
CONTINUOUS
 62
               7
100
AcDbSpline
210
0.0
220
0.0
230
1.0
 70
               0
 71
               3
 72
               0
 73
               0
 74
               5
 44
0.000001
 12
0.526203759847777
 22
0.8503585144643776
 32
0.0
 13
-0.5262037751704169
 23
0.8503585049826934
 33
0.0
 11
-2.7456201180830533
 21
-3.1754265238809296
 31
0.0
 11
-2.5681515632708178
 21
-2.794852077955797
 31
0.0
 11
-2.5
 21
-2.3815698774887011
 31
0.0
 11
-2.568151583771408
 21
-1.9682877574118116
 31
0.0
 11
-2.7456201201727026
 21
-1.5877133879722152
 31
0.0
  0
SPLINE
  5
202
100
AcDbEntity
  8
0
  6
CONTINUOUS
 62
               7
100
AcDbSpline
210
0.0
220
0.0
230
1.0
 70
               0
 71
               3
 72
               0
 73
               0
 74
               5
 44
0.000001
 12
-0.5262037598477771
 22
0.8503585144643775
 32
0.0
 13
0.5262037751704171
 23
0.8503585049826933
 33
0.0
 11
-5.8543798819169126
 21
-3.1754265238809296
 31
0.0
 11
-6.0318484367291623
 21
-2.794852077955797
 31
0.0
 11
-6.0999999999999943
 21
-2.3815698774887011
 31
0.0
 11
-6.0318484162285726
 21
-1.9682877574118116
 31
0.0
 11
-5.8543798798272633
 21
-1.5877133879722152
 31
0.0
  0
LINE
  5
203
100
AcDbEntity
  8
0
  6
CONTINUOUS
 62
               2
100
AcDbLine
 10
-1.0
 20
1.2000000000000028
 30
0.0
 11
-0.4803847577293539
 21
1.5
 31
0.0
  0
LINE
  5
204
100
AcDbEntity
  8
0
  6
CONTINUOUS
 62
               2
100
AcDbLine
 10
-1.0
 20
-1.2000000000000028
 30
0.0
 11
-0.4803847577293539
 21
-1.5
 31
0.0
  0
LINE
  5
205
100
AcDbEntity
  8
0
  6
CONTINUOUS
 62
               7
100
AcDbLine
 10
0.0
 20
-1.5
 30
0.0
 11
-2.5
 21
-1.5
 31
0.0
  0
LINE
  5
206
100
AcDbEntity
  8
0
  6
CONTINUOUS
 62
               7
100
AcDbLine
 10
0.0
 20
1.5
 30
0.0
 11
-2.5
 21
1.5
 31
0.0
  0
INSERT
  5
210
100
AcDbEntity
  8
0
  6
CONTINUOUS
 62
               7
100
AcDbBlockReference
  2
*X11
 10
0.0
 20
0.0
 30
0.0
  0
LINE
  5
211
100
AcDbEntity
  8
0
  6
CONTINUOUS
 62
               7
100
AcDbLine
 10
22.500000031799999
 20
7.4393398101114769
 30
0.0
 11
30.0
 21
7.4393398101114769
 31
0.0
  0
LINE
  5
212
100
AcDbEntity
  8
0
  6
CONTINUOUS
 62
               7
100
AcDbLine
 10
22.500000031799999
 20
8.5
 30
0.0
 11
30.0
 21
8.5
 31
0.0
  0
LINE
  5
213
100
AcDbEntity
  8
0
  6
CONTINUOUS
 62
               7
100
AcDbLine
 10
28.0
 20
-7.4393398101114769
 30
0.0
 11
30.0
 21
-7.4393398101114769
 31
0.0
  0
LINE
  5
214
100
AcDbEntity
  8
0
  6
CONTINUOUS
 62
               7
100
AcDbLine
 10
17.599999977952137
 20
-8.5
 30
0.0
 11
30.0
 21
-8.5
 31
0.0
  0
ENDBLK
  5
215
100
AcDbEntity
  8
0
100
AcDbBlockEnd
  0
BLOCK
  5
216
100
AcDbEntity
  8
0
100
AcDbBlockBegin
  2
MS_6
 70
               0
 10
0.0
 20
0.0
 30
0.0
  3
MS_6
  1

  0
LINE
  5
217
100
AcDbEntity
  8
0
  6
CONTINUOUS
 62
               4
100
AcDbLine
 10
13.563894647499851
 20
-11.779965272128457
 30
0.0
 11
15.935741384252097
 21
-14.151812008880626
 31
0.0
  0
LINE
  5
218
100
AcDbEntity
  8
0
  6
CONTINUOUS
 62
               4
100
AcDbLine
 10
15.473082960751
 20
-9.8707769588773147
 30
0.0
 11
17.569071977363947
 21
-11.966765975490105
 31
0.0
  0
LINE
  5
219
100
AcDbEntity
  8
0
  6
PHANTOM
 62
             200
100
AcDbLine
 10
18.20483980599947
 20
-10.91120362076024
 30
0.0
 11
15.189254765086289
 21
-15.21790538610184
 31
0.0
  0
LINE
  5
21A
100
AcDbEntity
  8
0
  6
CONTINUOUS
 62
               4
100
AcDbLine
 10
15.95997649403752
 20
-9.383883425590767
 30
0.0
 11
13.060838679246316
 21
-12.28302124038192
 31
0.0
  0
LINE
  5
21B
100
AcDbEntity
  8
0
  6
CONTINUOUS
 62
               4
100
AcDbLine
 10
12.848706652957517
 20
-6.2726135845108146
 30
0.0
 11
12.070889187186637
 21
-6.2726135845108146
 31
0.0
  0
LINE
  5
21C
100
AcDbEntity
  8
0
  6
CONTINUOUS
 62
               4
100
AcDbLine
 10
9.9495688270877594
 20
-8.3939339205256829
 30
0.0
 11
9.949568839129924
 21
-9.1717513983386425
 31
0.0
  0
LINE
  5
21D
100
AcDbEntity
  8
0
  6
CONTINUOUS
 62
               4
100
AcDbLine
 10
15.959976488257425
 20
-9.3838834313708901
 30
0.0
 11
12.848706644440782
 21
-6.2726135875542184
 31
0.0
  0
LINE
  5
21E
100
AcDbEntity
  8
0
  6
CONTINUOUS
 62
               4
100
AcDbLine
 10
13.060838679246316
 20
-12.28302124038192
 30
0.0
 11
9.9495688354296163
 21
-9.1717513965652415
 31
0.0
  0
LINE
  5
21F
100
AcDbEntity
  8
0
  6
CONTINUOUS
 62
               4
100
AcDbLine
 10
11.079929596199847
 20
-4.5058568444066722
 30
0.0
 11
11.0819499012931
 21
-5.2836743053608473
 31
0.0
  0
LINE
  5
220
100
AcDbEntity
  8
0
  6
CONTINUOUS
 62
               4
100
AcDbLine
 10
12.070889180443189
 20
-6.2726135845108146
 30
0.0
 11
11.0819499012931
 21
-5.2836743053608473
 31
0.0
  0
LINE
  5
221
100
AcDbEntity
  8
0
  6
CONTINUOUS
 62
               4
100
AcDbLine
 10
9.949568839129924
 20
-8.3939339393111823
 30
0.0
 11
8.9606295532363873
 21
-7.4049946534177025
 31
0.0
  0
LINE
  5
222
100
AcDbEntity
  8
0
  6
CONTINUOUS
 62
               4
100
AcDbLine
 10
8.1807917871887099
 20
-7.4049946534177025
 30
0.0
 11
8.9606295532363873
 21
-7.4049946534177025
 31
0.0
  0
LINE
  5
223
100
AcDbEntity
  8
0
  6
CONTINUOUS
 62
               4
100
AcDbLine
 10
8.1807917871887099
 20
-7.4049946534177025
 30
0.0
 11
7.0857864265728523
 21
-6.3099892928016885
 31
0.0
  0
ARC
  5
224
100
AcDbEntity
  8
0
  6
CONTINUOUS
 62
               4
100
AcDbCircle
 10
8.5343445258684056
 20
-4.8603468073577716
 30
0.0
 40
2.0506628653391066
100
AcDbArc
 50
44.978576158876109
 51
134.94156910908407
  0
ARC
  5
225
100
AcDbEntity
  8
0
  6
CONTINUOUS
 62
               4
100
AcDbCircle
 10
8.5372070999511749
 20
-4.8594102357494791
 30
0.0
 40
2.0520237746840961
100
AcDbArc
 50
135.01661649434493
 51
224.98338350565427
  0
LINE
  5
226
100
AcDbEntity
  8
0
  6
CENTER
 62
             200
100
AcDbLine
 10
17.746934638935031
 20
-14.069979391059547
 30
0.0
 11
6.4435368753578786
 21
-2.7665816274823314
 31
0.0
  0
LINE
  5
227
100
AcDbEntity
  8
0
  6
CONTINUOUS
 62
               4
100
AcDbLine
 10
15.252869711352034
 20
-8.6767766429051463
 30
0.0
 11
12.353731896560774
 21
-11.5759144576963
 31
0.0
  0
LINE
  5
228
100
AcDbEntity
  8
0
  6
CONTINUOUS
 62
               4
100
AcDbLine
 10
12.070889180443189
 20
6.2726135562659984
 30
0.0
 11
11.0819499012931
 21
5.2836742771160274
 31
0.0
  0
LINE
  5
229
100
AcDbEntity
  8
0
  6
CONTINUOUS
 62
               4
100
AcDbLine
 10
8.1807917871887099
 20
7.4049946251728862
 30
0.0
 11
8.9606295532363873
 21
7.4049946251728862
 31
0.0
  0
LINE
  5
22A
100
AcDbEntity
  8
0
  6
CONTINUOUS
 62
               4
100
AcDbLine
 10
10.514244170051242
 20
3.9401713900133402
 30
0.0
 11
7.6151063610403043
 21
6.8393091990243668
 31
0.0
  0
LINE
  5
22B
100
AcDbEntity
  8
0
  6
CENTER
 62
             200
100
AcDbLine
 10
17.746934638935031
 20
14.069979362814674
 30
0.0
 11
6.4435368753578786
 21
2.7665815992375187
 31
0.0
  0
LINE
  5
22C
100
AcDbEntity
  8
0
  6
CONTINUOUS
 62
               4
100
AcDbLine
 10
9.949568839129924
 20
8.3939339110663056
 30
0.0
 11
8.9606295532363873
 21
7.4049946251728862
 31
0.0
  0
LINE
  5
22D
100
AcDbEntity
  8
0
  6
CONTINUOUS
 62
               4
100
AcDbLine
 10
11.399137800955046
 20
5.6008621767778699
 30
0.0
 11
9.277817452898276
 21
7.7221825248346718
 31
0.0
  0
LINE
  5
22E
100
AcDbEntity
  8
0
  6
CONTINUOUS
 62
               4
100
AcDbLine
 10
13.060838679246316
 20
12.283021212137047
 30
0.0
 11
9.9495688354296163
 21
9.1717513683203649
 31
0.0
  0
LINE
  5
22F
100
AcDbEntity
  8
0
  6
CONTINUOUS
 62
               4
100
AcDbLine
 10
15.959976488257425
 20
9.3838834031260738
 30
0.0
 11
12.848706644440782
 21
6.2726135593093382
 31
0.0
  0
LINE
  5
230
100
AcDbEntity
  8
0
  6
CONTINUOUS
 62
               4
100
AcDbLine
 10
9.9495688270877594
 20
8.3939338922808631
 30
0.0
 11
9.949568839129924
 21
9.1717513700937658
 31
0.0
  0
LINE
  5
231
100
AcDbEntity
  8
0
  6
CONTINUOUS
 62
               4
100
AcDbLine
 10
12.848706652957517
 20
6.2726135562659984
 30
0.0
 11
12.070889187186637
 21
6.2726135562659984
 31
0.0
  0
LINE
  5
232
100
AcDbEntity
  8
0
  6
CONTINUOUS
 62
               4
100
AcDbLine
 10
15.95997649403752
 20
9.3838833973458975
 30
0.0
 11
13.060838679246316
 21
12.283021212137047
 31
0.0
  0
LINE
  5
233
100
AcDbEntity
  8
0
  6
PHANTOM
 62
             200
100
AcDbLine
 10
18.20483980599947
 20
10.911203592515363
 30
0.0
 11
15.189254765086289
 21
15.217905357857028
 31
0.0
  0
LINE
  5
234
100
AcDbEntity
  8
0
  6
CONTINUOUS
 62
               4
100
AcDbLine
 10
15.473082960751
 20
9.870776930632438
 30
0.0
 11
17.569071977363947
 21
11.966765947245232
 31
0.0
  0
LINE
  5
235
100
AcDbEntity
  8
0
  6
CONTINUOUS
 62
               4
100
AcDbLine
 10
13.563894647499851
 20
11.779965243883588
 30
0.0
 11
15.935741384252097
 21
14.151811980635753
 31
0.0
  0
LINE
  5
236
100
AcDbEntity
  8
0
  6
CONTINUOUS
 62
               4
100
AcDbLine
 10
7.7585480226708938
 20
3.0229528776154559
 30
0.0
 11
6.6978878486423099
 21
4.0836130516438836
 31
0.0
  0
LINE
  5
237
100
AcDbEntity
  8
0
  6
CONTINUOUS
 62
               4
100
AcDbLine
 10
9.9501850924310276
 20
3.376900225523535
 30
0.0
 11
7.0514412399851807
 21
6.275644077969293
 31
0.0
  0
LINE
  5
238
100
AcDbEntity
  8
0
  6
CONTINUOUS
 62
               4
100
AcDbLine
 10
8.465654805356408
 20
3.0229528776154559
 30
0.0
 11
6.6978878486423099
 21
4.7907198343294439
 31
0.0
  0
ARC
  5
239
100
AcDbEntity
  8
0
  6
CONTINUOUS
 62
               4
100
AcDbCircle
 10
8.5372070999511749
 20
4.8594102075046663
 30
0.0
 40
2.0520237746840961
100
AcDbArc
 50
135.01661649434493
 51
224.98338350565427
  0
LINE
  5
23A
100
AcDbEntity
  8
0
  6
CONTINUOUS
 62
               4
100
AcDbLine
 10
6.6978878486423099
 20
4.7907198343294439
 30
0.0
 11
6.6978878486423099
 21
4.0836130516438836
 31
0.0
  0
LINE
  5
23B
100
AcDbEntity
  8
0
  6
CONTINUOUS
 62
               4
100
AcDbLine
 10
7.6171266661335579
 20
5.7099586518207737
 30
0.0
 11
6.6978878486423099
 21
4.7907198343294439
 31
0.0
  0
LINE
  5
23C
100
AcDbEntity
  8
0
  6
CONTINUOUS
 62
               4
100
AcDbLine
 10
8.1807917871887099
 20
7.4049946251728862
 30
0.0
 11
7.0857864265728523
 21
6.3099892645568758
 31
0.0
  0
LINE
  5
23D
100
AcDbEntity
  8
0
  6
CONTINUOUS
 62
             200
100
AcDbLine
 10
7.7595581752175491
 20
5.5675271427369815
 30
0.0
 11
6.6978878486423099
 21
4.505856816161856
 31
0.0
  0
LINE
  5
23E
100
AcDbEntity
  8
0
  6
CONTINUOUS
 62
               4
100
AcDbLine
 10
11.079929596199847
 20
4.505856816161856
 30
0.0
 11
11.0819499012931
 21
5.2836742771160274
 31
0.0
  0
ARC
  5
23F
100
AcDbEntity
  8
0
  6
CONTINUOUS
 62
               4
100
AcDbCircle
 10
8.5343445258684056
 20
4.8603467791129553
 30
0.0
 40
2.0506628653391066
100
AcDbArc
 50
225.05843089091513
 51
315.02142384112307
  0
LINE
  5
240
100
AcDbEntity
  8
0
  6
CONTINUOUS
 62
               4
100
AcDbLine
 10
7.7585480226708938
 20
3.0229528776154559
 30
0.0
 11
8.465654805356408
 21
3.0229528776154559
 31
0.0
  0
LINE
  5
241
100
AcDbEntity
  8
0
  6
CONTINUOUS
 62
               4
100
AcDbLine
 10
9.3848936228477129
 20
3.9421916951067253
 30
0.0
 11
8.465654805356408
 21
3.0229528776154559
 31
0.0
  0
LINE
  5
242
100
AcDbEntity
  8
0
  6
CONTINUOUS
 62
               4
100
AcDbLine
 10
11.079929596199847
 20
4.505856816161856
 30
0.0
 11
9.9849242355837617
 21
3.4108514555458456
 31
0.0
  0
LINE
  5
243
100
AcDbEntity
  8
0
  6
CONTINUOUS
 62
             200
100
AcDbLine
 10
9.2444824188572028
 20
4.0826028990971892
 30
0.0
 11
8.1848323973755015
 21
3.0229528776154559
 31
0.0
  0
LINE
  5
244
100
AcDbEntity
  8
0
  6
CONTINUOUS
 62
               4
100
AcDbLine
 10
11.0819499012931
 20
-4.5038365393132835
 30
0.0
 11
9.9869445406772996
 21
-3.4088311786972767
 31
0.0
  0
LINE
  5
245
100
AcDbEntity
  8
0
  6
CONTINUOUS
 62
               7
100
AcDbLine
 10
11.681980511181223
 20
5.3180194665518314
 30
0.0
 11
12.0
 21
4.9999999777330828
 31
0.0
  0
LINE
  5
246
100
AcDbEntity
  8
0
  6
CONTINUOUS
 62
               7
100
AcDbLine
 10
11.257716442469302
 20
5.3180194665518314
 30
0.0
 11
11.116295086231986
 21
5.1765981103145151
 31
0.0
  0
ARC
  5
247
100
AcDbEntity
  8
0
  6
CONTINUOUS
 62
               7
100
AcDbCircle
 10
11.469848476825263
 20
5.1065606351367308
 30
0.0
 40
0.2995243519038812
100
AcDbArc
 50
44.908941249896863
 51
135.09105875010374
  0
LINE
  5
248
100
AcDbEntity
  8
0
  6
CONTINUOUS
 62
               7
100
AcDbLine
 10
11.116295086231986
 20
5.1765981103145151
 30
0.0
 11
11.116295086231986
 21
4.4694913291279761
 31
0.0
  0
LINE
  5
249
100
AcDbEntity
  8
0
  6
CONTINUOUS
 62
               7
100
AcDbLine
 10
11.116295086231986
 20
4.4694913291279761
 30
0.0
 11
9.9849242363335122
 21
3.3381204792295023
 31
0.0
  0
ARC
  5
24A
100
AcDbEntity
  8
0
  6
CONTINUOUS
 62
               7
100
AcDbCircle
 10
8.4999999958417618
 20
4.8230447197212385
 30
0.0
 40
2.1000000111152071
100
AcDbArc
 50
134.99999999999969
 51
314.99999999999932
  0
LINE
  5
24B
100
AcDbEntity
  8
0
  6
CONTINUOUS
 62
               7
100
AcDbLine
 10
8.9949747426723548
 20
7.5807611663487791
 30
0.0
 11
8.8535533864350384
 21
7.4393398101114769
 31
0.0
  0
ARC
  5
24C
100
AcDbEntity
  8
0
  6
CONTINUOUS
 62
               7
100
AcDbCircle
 10
8.7818536264305465
 20
7.7928932007047393
 30
0.0
 40
0.3007001998472195
100
AcDbArc
 50
315.13326207080115
 51
44.866737929199004
  0
LINE
  5
24D
100
AcDbEntity
  8
0
  6
CONTINUOUS
 62
               7
100
AcDbLine
 10
8.1464466052484852
 20
7.4393398101114769
 30
0.0
 11
8.8535533864350384
 21
7.4393398101114769
 31
0.0
  0
LINE
  5
24E
100
AcDbEntity
  8
0
  6
CONTINUOUS
 62
               7
100
AcDbLine
 10
9.0278175036501409
 20
7.9721824740829135
 30
0.0
 11
8.4999999777330402
 21
8.5
 31
0.0
  0
LINE
  5
24F
100
AcDbEntity
  8
0
  6
CONTINUOUS
 62
               7
100
AcDbLine
 10
8.1464466052484852
 20
7.4393398101114769
 30
0.0
 11
7.0150757553500114
 21
6.3079689602130031
 31
0.0
  0
LINE
  5
250
100
AcDbEntity
  8
0
  6
CONTINUOUS
 62
               7
100
AcDbLine
 10
12.0
 20
5.0000000373376992
 30
0.0
 11
12.0
 21
-4.9999999777330828
 31
0.0
  0
LINE
  5
251
100
AcDbEntity
  8
0
  6
CONTINUOUS
 62
               7
100
AcDbLine
 10
0.4000000000000057
 20
8.5
 30
0.0
 11
8.4999999777330402
 21
8.5
 31
0.0
  0
LINE
  5
252
100
AcDbEntity
  8
0
  6
CENTER
 62
               2
100
AcDbLine
 10
-1.1778889561377071
 20
0.0
 30
0.0
 11
12.949028127981279
 21
0.0
 31
0.0
  0
LINE
  5
253
100
AcDbEntity
  8
0
  6
CONTINUOUS
 62
               7
100
AcDbLine
 10
0.0
 20
8.1000000000000014
 30
0.0
 11
0.0
 21
-8.1000000000000014
 31
0.0
  0
LINE
  5
254
100
AcDbEntity
  8
0
  6
CONTINUOUS
 62
               7
100
AcDbLine
 10
0.4000000000000057
 20
-8.5
 30
0.0
 11
8.4999999777330402
 21
-8.5
 31
0.0
  0
LINE
  5
255
100
AcDbEntity
  8
0
  6
CONTINUOUS
 62
               7
100
AcDbLine
 10
11.681980511181223
 20
-5.3180194665518314
 30
0.0
 11
12.0
 21
-4.9999999777330828
 31
0.0
  0
LINE
  5
256
100
AcDbEntity
  8
0
  6
CONTINUOUS
 62
               7
100
AcDbLine
 10
11.116295086231986
 20
-4.4694913291279761
 30
0.0
 11
9.9849242363335122
 21
-3.3381204792295023
 31
0.0
  0
LINE
  5
257
100
AcDbEntity
  8
0
  6
CONTINUOUS
 62
               7
100
AcDbLine
 10
11.116295086231986
 20
-5.1765981103145151
 30
0.0
 11
11.116295086231986
 21
-4.4694913291279761
 31
0.0
  0
ARC
  5
258
100
AcDbEntity
  8
0
  6
CONTINUOUS
 62
               7
100
AcDbCircle
 10
11.469848476825263
 20
-5.1065606351367308
 30
0.0
 40
0.2995243519038812
100
AcDbArc
 50
224.90894124989543
 51
315.09105875010232
  0
LINE
  5
259
100
AcDbEntity
  8
0
  6
CONTINUOUS
 62
               7
100
AcDbLine
 10
11.257716442469302
 20
-5.3180194665518314
 30
0.0
 11
11.116295086231986
 21
-5.1765981103145151
 31
0.0
  0
LINE
  5
25A
100
AcDbEntity
  8
0
  6
CONTINUOUS
 62
               7
100
AcDbLine
 10
8.9949747426723548
 20
-7.5807611663487791
 30
0.0
 11
8.8535533864350384
 21
-7.4393398101114769
 31
0.0
  0
LINE
  5
25B
100
AcDbEntity
  8
0
  6
CONTINUOUS
 62
               7
100
AcDbLine
 10
8.1464466052484852
 20
-7.4393398101114769
 30
0.0
 11
8.8535533864350384
 21
-7.4393398101114769
 31
0.0
  0
LINE
  5
25C
100
AcDbEntity
  8
0
  6
CONTINUOUS
 62
               7
100
AcDbLine
 10
9.0278175036501409
 20
-7.9721824740829135
 30
0.0
 11
8.4999999777330402
 21
-8.5
 31
0.0
  0
ARC
  5
25D
100
AcDbEntity
  8
0
  6
CONTINUOUS
 62
               7
100
AcDbCircle
 10
8.7818536264305465
 20
-7.7928932007047393
 30
0.0
 40
0.3007001998472195
100
AcDbArc
 50
-44.866737929198983
 51
44.866737929198038
  0
LINE
  5
25E
100
AcDbEntity
  8
0
  6
CONTINUOUS
 62
               7
100
AcDbLine
 10
8.1464466052484852
 20
-7.4393398101114769
 30
0.0
 11
7.0150757553500114
 21
-6.3079689602130031
 31
0.0
  0
ARC
  5
25F
100
AcDbEntity
  8
0
  6
CONTINUOUS
 62
               7
100
AcDbCircle
 10
8.4999999958417618
 20
-4.8230447197212385
 30
0.0
 40
2.1000000111152071
100
AcDbArc
 50
44.999999999999901
 51
224.99999999999949
  0
LINE
  5
260
100
AcDbEntity
  8
0
  6
CENTER
 62
               2
100
AcDbLine
 10
4.0
 20
8.5
 30
0.0
 11
4.0
 21
-8.5
 31
0.0
  0
CIRCLE
  5
261
100
AcDbEntity
  8
0
  6
CONTINUOUS
 62
               2
100
AcDbCircle
 10
4.0
 20
6.0
 30
0.0
 40
1.5
  0
CIRCLE
  5
262
100
AcDbEntity
  8
0
  6
CONTINUOUS
 62
               7
100
AcDbCircle
 10
4.0
 20
6.0
 30
0.0
 40
1.1000000000000001
  0
CIRCLE
  5
263
100
AcDbEntity
  8
0
  6
CONTINUOUS
 62
               2
100
AcDbCircle
 10
4.0
 20
-6.0
 30
0.0
 40
1.5
  0
CIRCLE
  5
264
100
AcDbEntity
  8
0
  6
CONTINUOUS
 62
               7
100
AcDbCircle
 10
4.0
 20
-6.0
 30
0.0
 40
1.1000000000000001
  0
ARC
  5
265
100
AcDbEntity
  8
0
  6
CONTINUOUS
 62
               7
100
AcDbCircle
 10
0.4000000000000057
 20
-8.1000000000000014
 30
0.0
 40
0.4
100
AcDbArc
 50
179.9999999999996
 51
269.99999999999937
  0
ARC
  5
266
100
AcDbEntity
  8
0
  6
CONTINUOUS
 62
               7
100
AcDbCircle
 10
0.4000000000000057
 20
8.1000000000000014
 30
0.0
 40
0.4
100
AcDbArc
 50
89.999999999999801
 51
179.9999999999996
  0
ARC
  5
267
100
AcDbEntity
  8
0
  6
CONTINUOUS
 62
               7
100
AcDbCircle
 10
4.0
 20
0.0
 30
0.0
 40
3.0499999999999998
100
AcDbArc
 50
214.37439431169884
 51
265.6256012324834
  0
CIRCLE
  5
268
100
AcDbEntity
  8
0
  6
CONTINUOUS
 62
               7
100
AcDbCircle
 10
4.0
 20
0.0
 30
0.0
 40
1.5
  0
CIRCLE
  5
269
100
AcDbEntity
  8
0
  6
CONTINUOUS
 62
               2
100
AcDbCircle
 10
4.0
 20
0.0
 30
0.0
 40
1.2000000000000028
  0
LINE
  5
26A
100
AcDbEntity
  8
0
  6
CONTINUOUS
 62
               7
100
AcDbLine
 10
6.7500000868849384
 20
1.5877132904345146
 30
0.0
 11
6.7499999634106018
 21
-1.5877133903221505
 31
0.0
  0
CIRCLE
  5
26B
100
AcDbEntity
  8
0
  6
CONTINUOUS
 62
               7
100
AcDbCircle
 10
4.0
 20
0.0
 30
0.0
 40
2.75
  0
LINE
  5
26C
100
AcDbEntity
  8
0
  6
CONTINUOUS
 62
               7
100
AcDbLine
 10
1.2499999131150616
 20
-1.5877132904345075
 30
0.0
 11
1.2500000365894266
 21
1.5877133903221576
 31
0.0
  0
ARC
  5
26D
100
AcDbEntity
  8
0
  6
CONTINUOUS
 62
               7
100
AcDbCircle
 10
4.0
 20
0.0
 30
0.0
 40
3.0499999999999998
100
AcDbArc
 50
154.37439431169929
 51
205.62560123248301
  0
ARC
  5
26E
100
AcDbEntity
  8
0
  6
CONTINUOUS
 62
               7
100
AcDbCircle
 10
4.0
 20
0.0
 30
0.0
 40
3.0499999999999998
100
AcDbArc
 50
274.37439431169918
 51
325.62560123248301
  0
ARC
  5
26F
100
AcDbEntity
  8
0
  6
CONTINUOUS
 62
               7
100
AcDbCircle
 10
4.0
 20
0.0
 30
0.0
 40
3.0499999999999998
100
AcDbArc
 50
334.37439431169884
 51
25.625601232484005
  0
ARC
  5
270
100
AcDbEntity
  8
0
  6
CONTINUOUS
 62
               7
100
AcDbCircle
 10
4.0
 20
0.0
 30
0.0
 40
3.0499999999999998
100
AcDbArc
 50
34.374394311699547
 51
85.625601232483788
  0
ARC
  5
271
100
AcDbEntity
  8
0
  6
CONTINUOUS
 62
               7
100
AcDbCircle
 10
4.0
 20
0.0
 30
0.0
 40
3.0499999999999998
100
AcDbArc
 50
94.374394311699646
 51
145.6256012324834
  0
LINE
  5
272
100
AcDbEntity
  8
0
  6
CONTINUOUS
 62
               7
100
AcDbLine
 10
1.2499999131150616
 20
1.5877132904345146
 30
0.0
 11
4.0000001482424068
 21
3.1754265238809296
 31
0.0
  0
LINE
  5
273
100
AcDbEntity
  8
0
  6
CONTINUOUS
 62
               7
100
AcDbLine
 10
4.0
 20
-3.1754265808690292
 30
0.0
 11
1.2499998883470198
 21
-1.5877131335587649
 31
0.0
  0
LINE
  5
274
100
AcDbEntity
  8
0
  6
CONTINUOUS
 62
               7
100
AcDbLine
 10
6.7500000868849384
 20
-1.5877132904345217
 30
0.0
 11
3.9999998517575932
 21
-3.1754265238809296
 31
0.0
  0
LINE
  5
275
100
AcDbEntity
  8
0
  6
CONTINUOUS
 62
               7
100
AcDbLine
 10
4.0
 20
3.1754265808690292
 30
0.0
 11
6.7500001116530086
 21
1.587713133558772
 31
0.0
  0
CIRCLE
  5
276
100
AcDbEntity
  8
0
  6
CONTINUOUS
 62
               7
100
AcDbCircle
 10
4.0
 20
0.0
 30
0.0
 40
3.25
  0
LINE
  5
277
100
AcDbEntity
  8
0
  6
CENTER
 62
               2
100
AcDbLine
 10
-1.5
 20
6.0
 30
0.0
 11
6.5
 21
6.0
 31
0.0
  0
LINE
  5
278
100
AcDbEntity
  8
0
  6
CENTER
 62
               2
100
AcDbLine
 10
-1.5
 20
-6.0
 30
0.0
 11
6.5
 21
-6.0
 31
0.0
  0
ENDBLK
  5
279
100
AcDbEntity
  8
0
100
AcDbBlockEnd
  0
BLOCK
  5
27A
100
AcDbEntity
  8
0
100
AcDbBlockBegin
  2
MS_7
 70
               0
 10
0.0
 20
0.0
 30
0.0
  3
MS_7
  1

  0
LINE
  5
27B
100
AcDbEntity
  8
0
  6
CONTINUOUS
 62
               7
100
AcDbLine
 10
0.0
 20
6.5
 30
0.0
 11
-2.0
 21
6.5
 31
0.0
  0
LINE
  5
27C
100
AcDbEntity
  8
0
  6
CONTINUOUS
 62
               7
100
AcDbLine
 10
0.0
 20
9.5
 30
0.0
 11
-2.0
 21
9.5
 31
0.0
  0
LINE
  5
27D
100
AcDbEntity
  8
0
  6
CONTINUOUS
 62
               7
100
AcDbLine
 10
-4.045620120172714
 20
8.0
 30
0.0
 11
-5.3543798798272775
 21
8.0
 31
0.0
  0
LINE
  5
27E
100
AcDbEntity
  8
0
  6
CONTINUOUS
 62
               7
100
AcDbLine
 10
-3.7999999999999972
 20
10.75
 30
0.0
 11
-5.5999999999999943
 21
10.75
 31
0.0
  0
LINE
  5
27F
100
AcDbEntity
  8
0
  6
CONTINUOUS
 62
               7
100
AcDbLine
 10
-3.7999999999999972
 20
10.75
 30
0.0
 11
-2.0
 21
10.75
 31
0.0
  0
LINE
  5
280
100
AcDbEntity
  8
0
  6
CONTINUOUS
 62
               7
100
AcDbLine
 10
-3.5543798798272803
 20
8.0
 30
0.0
 11
-2.2456201201727168
 21
8.0
 31
0.0
  0
LINE
  5
281
100
AcDbEntity
  8
0
  6
CONTINUOUS
 62
               7
100
AcDbLine
 10
-3.7999999999999972
 20
5.250000018878012
 30
0.0
 11
-2.0
 21
5.250000018878012
 31
0.0
  0
LINE
  5
282
100
AcDbEntity
  8
0
  6
CONTINUOUS
 62
               7
100
AcDbLine
 10
-3.7999999999999972
 20
5.250000018878012
 30
0.0
 11
-5.5999999999999943
 21
5.250000018878012
 31
0.0
  0
LINE
  5
283
100
AcDbEntity
  8
0
  6
CONTINUOUS
 62
               7
100
AcDbLine
 10
-3.7999999999999972
 20
10.750000018878012
 30
0.0
 11
-3.7999999999999972
 21
5.250000018878012
 31
0.0
  0
LINE
  5
284
100
AcDbEntity
  8
0
  6
CONTINUOUS
 62
               7
100
AcDbLine
 10
-5.5999999999999943
 20
10.750000018878012
 30
0.0
 11
-5.5999999999999943
 21
5.250000018878012
 31
0.0
  0
LINE
  5
285
100
AcDbEntity
  8
0
  6
CONTINUOUS
 62
               7
100
AcDbLine
 10
-2.0
 20
10.750000018878012
 30
0.0
 11
-2.0
 21
5.250000018878012
 31
0.0
  0
SPLINE
  5
286
100
AcDbEntity
  8
0
  6
CONTINUOUS
 62
               7
100
AcDbSpline
210
0.0
220
0.0
230
1.0
 70
               0
 71
               3
 72
               0
 73
               0
 74
               5
 44
0.000001
 12
0.3364389337625613
 22
-0.9417052850274925
 32
0.0
 13
-0.3364389335092214
 23
-0.9417052851180021
 33
0.0
 11
-2.2456201201727168
 21
10.749999981121988
 31
0.0
 11
-2.0640692685897637
 21
10.073685943751091
 31
0.0
 11
-2.0
 21
9.375
 31
0.0
 11
-2.0640692670398586
 21
8.6763140466768789
 31
0.0
 11
-2.2456201201727168
 21
8.0
 31
0.0
  0
SPLINE
  5
287
100
AcDbEntity
  8
0
  6
CONTINUOUS
 62
               7
100
AcDbSpline
210
0.0
220
0.0
230
1.0
 70
               0
 71
               3
 72
               0
 73
               0
 74
               5
 44
0.000001
 12
-0.3364389337625614
 22
-0.9417052850274925
 32
0.0
 13
0.3364389335092213
 23
-0.9417052851180021
 33
0.0
 11
-3.5543798798272803
 21
10.749999981121988
 31
0.0
 11
-3.7359307314102335
 21
10.073685943751091
 31
0.0
 11
-3.7999999999999972
 21
9.375
 31
0.0
 11
-3.7359307329601386
 21
8.6763140466768789
 31
0.0
 11
-3.5543798798272803
 21
8.0
 31
0.0
  0
SPLINE
  5
288
100
AcDbEntity
  8
0
  6
CONTINUOUS
 62
               7
100
AcDbSpline
210
0.0
220
0.0
230
1.0
 70
               0
 71
               3
 72
               0
 73
               0
 74
               5
 44
0.000001
 12
0.3364389337625613
 22
-0.9417052850274925
 32
0.0
 13
-0.3364389335092214
 23
-0.9417052851180021
 33
0.0
 11
-4.045620120172714
 21
10.749999981121988
 31
0.0
 11
-3.8640692685897609
 21
10.073685943751091
 31
0.0
 11
-3.7999999999999972
 21
9.375
 31
0.0
 11
-3.8640692670398558
 21
8.6763140466768789
 31
0.0
 11
-4.045620120172714
 21
8.0
 31
0.0
  0
SPLINE
  5
289
100
AcDbEntity
  8
0
  6
CONTINUOUS
 62
               7
100
AcDbSpline
210
0.0
220
0.0
230
1.0
 70
               0
 71
               3
 72
               0
 73
               0
 74
               5
 44
0.000001
 12
-0.3364389337625614
 22
-0.9417052850274925
 32
0.0
 13
0.3364389335092213
 23
-0.9417052851180021
 33
0.0
 11
-5.3543798798272775
 21
10.749999981121988
 31
0.0
 11
-5.5359307314102306
 21
10.073685943751091
 31
0.0
 11
-5.5999999999999943
 21
9.375
 31
0.0
 11
-5.5359307329601357
 21
8.6763140466768789
 31
0.0
 11
-5.3543798798272775
 21
8.0
 31
0.0
  0
SPLINE
  5
28A
100
AcDbEntity
  8
0
  6
CONTINUOUS
 62
               7
100
AcDbSpline
210
0.0
220
0.0
230
1.0
 70
               0
 71
               3
 72
               0
 73
               0
 74
               5
 44
0.000001
 12
0.3364389337625613
 22
0.9417052850274925
 32
0.0
 13
-0.3364389335092214
 23
0.9417052851180021
 33
0.0
 11
-4.045620120172714
 21
5.250000018878012
 31
0.0
 11
-3.8640692685897609
 21
5.9263140562489101
 31
0.0
 11
-3.7999999999999972
 21
6.625
 31
0.0
 11
-3.8640692670398558
 21
7.3236859533231211
 31
0.0
 11
-4.045620120172714
 21
8.0
 31
0.0
  0
SPLINE
  5
28B
100
AcDbEntity
  8
0
  6
CONTINUOUS
 62
               7
100
AcDbSpline
210
0.0
220
0.0
230
1.0
 70
               0
 71
               3
 72
               0
 73
               0
 74
               5
 44
0.000001
 12
-0.3364389337625614
 22
0.9417052850274925
 32
0.0
 13
0.3364389335092213
 23
0.9417052851180021
 33
0.0
 11
-5.3543798798272775
 21
5.250000018878012
 31
0.0
 11
-5.5359307314102306
 21
5.9263140562489101
 31
0.0
 11
-5.5999999999999943
 21
6.625
 31
0.0
 11
-5.5359307329601357
 21
7.3236859533231211
 31
0.0
 11
-5.3543798798272775
 21
8.0
 31
0.0
  0
SPLINE
  5
28C
100
AcDbEntity
  8
0
  6
CONTINUOUS
 62
               7
100
AcDbSpline
210
0.0
220
0.0
230
1.0
 70
               0
 71
               3
 72
               0
 73
               0
 74
               5
 44
0.000001
 12
0.3364389337625613
 22
0.9417052850274925
 32
0.0
 13
-0.3364389335092214
 23
0.9417052851180021
 33
0.0
 11
-2.2456201201727168
 21
5.250000018878012
 31
0.0
 11
-2.0640692685897637
 21
5.9263140562489101
 31
0.0
 11
-2.0
 21
6.625
 31
0.0
 11
-2.0640692670398586
 21
7.3236859533231211
 31
0.0
 11
-2.2456201201727168
 21
8.0
 31
0.0
  0
SPLINE
  5
28D
100
AcDbEntity
  8
0
  6
CONTINUOUS
 62
               7
100
AcDbSpline
210
0.0
220
0.0
230
1.0
 70
               0
 71
               3
 72
               0
 73
               0
 74
               5
 44
0.000001
 12
-0.3364389337625614
 22
0.9417052850274925
 32
0.0
 13
0.3364389335092213
 23
0.9417052851180021
 33
0.0
 11
-3.5543798798272803
 21
5.250000018878012
 31
0.0
 11
-3.7359307314102335
 21
5.9263140562489101
 31
0.0
 11
-3.7999999999999972
 21
6.625
 31
0.0
 11
-3.7359307329601386
 21
7.3236859533231211
 31
0.0
 11
-3.5543798798272803
 21
8.0
 31
0.0
  0
LINE
  5
28E
100
AcDbEntity
  8
0
  6
CONTINUOUS
 62
               2
100
AcDbLine
 10
-1.0
 20
6.7999999999999972
 30
0.0
 11
-0.4803847577293539
 21
6.5
 31
0.0
  0
LINE
  5
28F
100
AcDbEntity
  8
0
  6
CONTINUOUS
 62
               2
100
AcDbLine
 10
-1.0
 20
9.2000000000000028
 30
0.0
 11
-0.4803847577293539
 21
9.5
 31
0.0
  0
LINE
  5
290
100
AcDbEntity
  8
0
  6
CONTINUOUS
 62
               2
100
AcDbLine
 10
-2.0
 20
9.2000000000000028
 30
0.0
 11
-1.0
 21
9.2000000000000028
 31
0.0
  0
LINE
  5
291
100
AcDbEntity
  8
0
  6
CONTINUOUS
 62
               2
100
AcDbLine
 10
-2.0
 20
6.7999999999999972
 30
0.0
 11
-1.0
 21
6.7999999999999972
 31
0.0
  0
LINE
  5
292
100
AcDbEntity
  8
0
  6
CONTINUOUS
 62
               2
100
AcDbLine
 10
-8.0
 20
9.2000000000000028
 30
0.0
 11
-5.5999999999999943
 21
9.2000000000000028
 31
0.0
  0
LINE
  5
293
100
AcDbEntity
  8
0
  6
CONTINUOUS
 62
               7
100
AcDbLine
 10
-7.7000000000000171
 20
9.5
 30
0.0
 11
-8.0
 21
9.2000000000000028
 31
0.0
  0
LINE
  5
294
100
AcDbEntity
  8
0
  6
CONTINUOUS
 62
               7
100
AcDbLine
 10
-7.7000000000000171
 20
9.5
 30
0.0
 11
-5.5999999999999943
 21
9.5
 31
0.0
  0
LINE
  5
295
100
AcDbEntity
  8
0
  6
CONTINUOUS
 62
               2
100
AcDbLine
 10
-8.0
 20
6.7999999999999972
 30
0.0
 11
-5.5999999999999943
 21
6.7999999999999972
 31
0.0
  0
LINE
  5
296
100
AcDbEntity
  8
0
  6
CONTINUOUS
 62
               7
100
AcDbLine
 10
-7.7000000000000171
 20
6.5
 30
0.0
 11
-8.0
 21
6.7999999999999972
 31
0.0
  0
LINE
  5
297
100
AcDbEntity
  8
0
  6
CONTINUOUS
 62
               7
100
AcDbLine
 10
-7.7000000000000171
 20
9.5
 30
0.0
 11
-7.7000000000000171
 21
6.5
 31
0.0
  0
LINE
  5
298
100
AcDbEntity
  8
0
  6
CONTINUOUS
 62
               7
100
AcDbLine
 10
-1.0
 20
9.5
 30
0.0
 11
-1.0
 21
6.5
 31
0.0
  0
LINE
  5
299
100
AcDbEntity
  8
0
  6
CONTINUOUS
 62
               7
100
AcDbLine
 10
-8.0
 20
9.2000000000000028
 30
0.0
 11
-8.0
 21
6.7999999999999972
 31
0.0
  0
LINE
  5
29A
100
AcDbEntity
  8
0
  6
CONTINUOUS
 62
               7
100
AcDbLine
 10
-7.7000000000000171
 20
6.5
 30
0.0
 11
-5.5999999999999943
 21
6.5
 31
0.0
  0
LINE
  5
29B
100
AcDbEntity
  8
0
  6
CONTINUOUS
 62
               7
100
AcDbLine
 10
30.0
 20
0.0
 30
0.0
 11
30.0
 21
12.0
 31
0.0
  0
LINE
  5
29C
100
AcDbEntity
  8
0
  6
CONTINUOUS
 62
               7
100
AcDbLine
 10
0.0
 20
0.0
 30
0.0
 11
0.0
 21
12.0
 31
0.0
  0
LINE
  5
29D
100
AcDbEntity
  8
0
  6
CONTINUOUS
 62
               7
100
AcDbLine
 10
0.0
 20
12.0
 30
0.0
 11
30.0
 21
12.0
 31
0.0
  0
LINE
  5
29E
100
AcDbEntity
  8
0
  6
CONTINUOUS
 62
               7
100
AcDbLine
 10
0.0
 20
3.5000000222669598
 30
0.0
 11
30.0
 21
3.5000000222669598
 31
0.0
  0
LINE
  5
29F
100
AcDbEntity
  8
0
  6
CONTINUOUS
 62
               7
100
AcDbLine
 10
0.0
 20
0.5301515231747374
 30
0.0
 11
17.900000053847862
 21
0.5301515231747374
 31
0.0
  0
LINE
  5
2A0
100
AcDbEntity
  8
0
  6
CONTINUOUS
 62
               7
100
AcDbLine
 10
0.0
 20
2.9174461737222259
 30
0.0
 11
30.0
 21
2.9174461737222259
 31
0.0
  0
LINE
  5
2A1
100
AcDbEntity
  8
0
  6
CONTINUOUS
 62
               7
100
AcDbLine
 10
0.0
 20
0.883704913768014
 30
0.0
 11
7.5000000317999991
 21
0.883704913768014
 31
0.0
  0
LINE
  5
2A2
100
AcDbEntity
  8
0
  6
CONTINUOUS
 62
               7
100
AcDbLine
 10
0.0
 20
0.0
 30
0.0
 11
17.900000053847862
 21
0.0
 31
0.0
  0
LINE
  5
2A3
100
AcDbEntity
  8
0
  6
CENTER
 62
               2
100
AcDbLine
 10
-9.3941909744649905
 20
8.0
 30
0.0
 11
31.706095837897948
 21
8.0
 31
0.0
  0
LINE
  5
2A4
100
AcDbEntity
  8
0
  6
CENTER
 62
               2
100
AcDbLine
 10
10.0
 20
9.9209735412594711
 30
0.0
 11
10.0
 21
6.0239043419708906
 31
0.0
  0
CIRCLE
  5
2A5
100
AcDbEntity
  8
0
  6
DASHED
 62
               2
100
AcDbCircle
 10
10.0
 20
8.0000000000000142
 30
0.0
 40
1.5
  0
CIRCLE
  5
2A6
100
AcDbEntity
  8
0
  6
DASHED
 62
               7
100
AcDbCircle
 10
10.0
 20
8.0000000000000142
 30
0.0
 40
1.1999999999999886
  0
LINE
  5
2A7
100
AcDbEntity
  8
0
  6
CENTER
 62
               2
100
AcDbLine
 10
26.999999999999972
 20
9.9547775518886965
 30
0.0
 11
26.999999999999972
 21
6.0239043419708906
 31
0.0
  0
CIRCLE
  5
2A8
100
AcDbEntity
  8
0
  6
DASHED
 62
               2
100
AcDbCircle
 10
26.999999999999972
 20
8.0000000000000142
 30
0.0
 40
1.5
  0
CIRCLE
  5
2A9
100
AcDbEntity
  8
0
  6
DASHED
 62
               7
100
AcDbCircle
 10
26.999999999999972
 20
8.0000000000000142
 30
0.0
 40
1.1999999999999886
  0
INSERT
  5
2B1
100
AcDbEntity
  8
0
  6
CONTINUOUS
 62
               7
100
AcDbBlockReference
  2
*X12
 10
0.0
 20
0.0
 30
0.0
  0
LINE
  5
2B2
100
AcDbEntity
  8
0
  6
CONTINUOUS
 62
               4
100
AcDbLine
 10
13.0
 20
-3.2528696865498574
 30
0.0
 11
12.999999977824032
 21
0.0
 31
0.0
  0
ELLIPSE
  5
2B3
100
AcDbEntity
  8
0
  6
CONTINUOUS
 62
               4
100
AcDbEllipse
 10
15.500000005299967
 20
-2.5104075647299595
 30
0.0
 11
-2.1000000044519944
 21
0.0000000000000003
 31
0.0
210
0.0
220
0.0
230
1.0
 40
0.690270905444012
 41
0.537738676477459
 42
3.1415926535897931
  0
ELLIPSE
  5
2B4
100
AcDbEntity
  8
0
  6
CONTINUOUS
 62
               4
100
AcDbEllipse
 10
15.500000005299967
 20
-5.5104075710899636
 30
0.0
 11
-1.3500000028620016
 21
0.0000000000000002
 31
0.0
210
0.0
220
0.0
230
1.0
 40
0.7130928703394489
 41
0.0
 42
3.1415926535897931
  0
LINE
  5
2B5
100
AcDbEntity
  8
0
  6
CONTINUOUS
 62
               4
100
AcDbLine
 10
14.150000002438077
 20
-3.6207571856772276
 30
0.0
 11
14.150000002438077
 21
-5.5104075653380349
 31
0.0
  0
LINE
  5
2B6
100
AcDbEntity
  8
0
  6
CONTINUOUS
 62
               4
100
AcDbLine
 10
15.500000005299967
 20
-3.2528696865498574
 30
0.0
 11
15.500000005299967
 21
-3.9599764692354711
 31
0.0
  0
LINE
  5
2B7
100
AcDbEntity
  8
0
  6
CONTINUOUS
 62
               4
100
AcDbLine
 10
15.500000005299967
 20
-3.2528696865498574
 30
0.0
 11
13.0
 21
-3.2528696865498574
 31
0.0
  0
LINE
  5
2B8
100
AcDbEntity
  8
0
  6
CONTINUOUS
 62
               4
100
AcDbLine
 10
7.5000000659668729
 20
0.6008622180670429
 30
0.0
 11
17.900000053847862
 21
0.6008622180670429
 31
0.0
  0
LINE
  5
2B9
100
AcDbEntity
  8
0
  6
CONTINUOUS
 62
               4
100
AcDbLine
 10
7.5000000659668729
 20
2.7221825661237702
 30
0.0
 11
22.50000006359997
 21
2.7221825661237702
 31
0.0
  0
LINE
  5
2BA
100
AcDbEntity
  8
0
  6
CONTINUOUS
 62
               4
100
AcDbLine
 10
20.000000058300003
 20
-0.3537318580328943
 30
0.0
 11
20.000000058300003
 21
-1.0608386602244479
 31
0.0
  0
LINE
  5
2BB
100
AcDbEntity
  8
0
  6
CONTINUOUS
 62
               4
100
AcDbLine
 10
20.000000058300003
 20
-0.3537318775388272
 30
0.0
 11
22.500000083364426
 21
-0.3537318775388272
 31
0.0
  0
LINE
  5
2BC
100
AcDbEntity
  8
0
  6
CONTINUOUS
 62
               4
100
AcDbLine
 10
22.100000046753621
 20
-1.8033007820443459
 30
0.0
 11
22.100000046753621
 21
-2.5104075589780308
 31
0.0
  0
LINE
  5
2BD
100
AcDbEntity
  8
0
  6
CONTINUOUS
 62
               4
100
AcDbLine
 10
21.803625188699641
 20
-3.2528696865498574
 30
0.0
 11
22.50000006359997
 21
-3.2528696865498574
 31
0.0
  0
LINE
  5
2BE
100
AcDbEntity
  8
0
  6
CONTINUOUS
 62
               4
100
AcDbLine
 10
21.350000061161893
 20
-2.5104075589780308
 30
0.0
 11
21.350000061161893
 21
-5.5104075653380349
 31
0.0
  0
LINE
  5
2BF
100
AcDbEntity
  8
0
  6
CONTINUOUS
 62
               4
100
AcDbLine
 10
18.650000055437829
 20
-2.5104075589780308
 30
0.0
 11
18.650000055437829
 21
-5.5104075653380349
 31
0.0
  0
ELLIPSE
  5
2C0
100
AcDbEntity
  8
0
  6
CONTINUOUS
 62
               4
100
AcDbEllipse
 10
20.000000058300003
 20
-2.5104075647299595
 30
0.0
 11
1.3500000028620016
 21
0.0
 31
0.0
210
0.0
220
0.0
230
1.0
 40
0.7130928703394489
 41
0.0
 42
3.1415926535897931
  0
ELLIPSE
  5
2C1
100
AcDbEntity
  8
0
  6
CONTINUOUS
 62
               4
100
AcDbEllipse
 10
20.000000058300003
 20
-5.5104075710899636
 30
0.0
 11
1.3500000028620016
 21
0.0
 31
0.0
210
0.0
220
0.0
230
1.0
 40
0.7130928703394489
 41
0.0
 42
6.2831853071795862
  0
ELLIPSE
  5
2C2
100
AcDbEntity
  8
0
  6
CONTINUOUS
 62
               4
100
AcDbEllipse
 10
20.000000058300003
 20
-1.8033007820443459
 30
0.0
 11
2.0999999884538685
 21
0.0
 31
0.0
210
0.0
220
0.0
230
1.0
 40
0.6902709107026031
 41
0.0
 42
1.5707963267948966
  0
ELLIPSE
  5
2C3
100
AcDbEntity
  8
0
  6
CONTINUOUS
 62
               4
100
AcDbEllipse
 10
20.000000058300003
 20
-2.5104075647299595
 30
0.0
 11
2.1000000044519944
 21
0.0
 31
0.0
210
0.0
220
0.0
230
1.0
 40
0.690270905444012
 41
-0.8725714153590118
 42
4.014164068948805
  0
LINE
  5
2C4
100
AcDbEntity
  8
0
  6
CONTINUOUS
 62
               4
100
AcDbLine
 10
18.530306209514237
 20
2.0504311866356275
 30
0.0
 11
22.50000006359997
 21
2.0504311866356275
 31
0.0
  0
ELLIPSE
  5
2C5
100
AcDbEntity
  8
0
  6
CONTINUOUS
 62
               4
100
AcDbEllipse
 10
20.00000007806446
 20
1.6615223920953213
 30
0.0
 11
-2.1000000242166501
 21
0.0000000000000003
 31
0.0
210
0.0
220
0.0
230
1.0
 40
0.6902708989473662
 41
5.4875823576499068
 42
0.0
  0
LINE
  5
2C6
100
AcDbEntity
  8
0
  6
CONTINUOUS
 62
               4
100
AcDbLine
 10
18.530306209514237
 20
2.7221825661237702
 30
0.0
 11
18.530306209514237
 21
2.0504312096364075
 31
0.0
  0
LINE
  5
2C7
100
AcDbEntity
  8
0
  6
CONTINUOUS
 62
               4
100
AcDbLine
 10
17.900000053847862
 20
-2.5104075647299595
 30
0.0
 11
17.900000053847862
 21
1.6615223920953213
 31
0.0
  0
LINE
  5
2C8
100
AcDbEntity
  8
0
  6
CONTINUOUS
 62
               4
100
AcDbLine
 10
22.50000006359997
 20
2.9174461737222259
 30
0.0
 11
22.50000006359997
 21
-3.2528696591505337
 31
0.0
  0
ELLIPSE
  5
2C9
100
AcDbEntity
  8
0
  6
CONTINUOUS
 62
               4
100
AcDbEllipse
 10
9.5000000360400065
 20
1.6615223920953213
 30
0.0
 11
-1.25000000265
 21
0.0000000000000002
 31
0.0
210
0.0
220
0.0
230
1.0
 40
0.7071067811865475
 41
0.0
 42
6.2831853071795862
  0
LINE
  5
2CA
100
AcDbEntity
  8
0
  6
CONTINUOUS
 62
               4
100
AcDbLine
 10
9.7500000365699577
 20
0.7954969864749302
 30
0.0
 11
9.7500000365699577
 21
2.5275477977157763
 31
0.0
  0
LINE
  5
2CB
100
AcDbEntity
  8
0
  6
CONTINUOUS
 62
               4
100
AcDbLine
 10
9.2500000355099701
 20
0.7954969864749302
 30
0.0
 11
9.2500000355099701
 21
2.5275477977157763
 31
0.0
  0
LINE
  5
2CC
100
AcDbEntity
  8
0
  6
CONTINUOUS
 62
               4
100
AcDbLine
 10
7.5000000317999991
 20
0.6008622180670287
 30
0.0
 11
7.5000000317999991
 21
2.9174461737222259
 31
0.0
  0
LINE
  5
2CD
100
AcDbEntity
  8
0
  6
CONTINUOUS
 62
               7
100
AcDbLine
 10
22.50000006359997
 20
0.883704913768014
 30
0.0
 11
30.0
 21
0.883704913768014
 31
0.0
  0
LINE
  5
2CE
100
AcDbEntity
  8
0
  6
CONTINUOUS
 62
               7
100
AcDbLine
 10
22.50000006359997
 20
0.5301515231747374
 30
0.0
 11
30.0
 21
0.5301515231747374
 31
0.0
  0
LINE
  5
2CF
100
AcDbEntity
  8
0
  6
CONTINUOUS
 62
               7
100
AcDbLine
 10
22.50000006359997
 20
0.0
 30
0.0
 11
30.0
 21
0.0
 31
0.0
  0
LINE
  5
2D0
100
AcDbEntity
  8
0
  6
CONTINUOUS
 62
               4
100
AcDbLine
 10
17.599999987576155
 20
-2.5104075647299595
 30
0.0
 11
17.599999987576155
 21
0.0
 31
0.0
  0
LINE
  5
2D1
100
AcDbEntity
  8
0
  6
CONTINUOUS
 62
               4
100
AcDbLine
 10
16.849999985986187
 20
-3.6207571985238758
 30
0.0
 11
16.849999985986187
 21
-5.5104075653380349
 31
0.0
  0
LINE
  5
2D2
100
AcDbEntity
  8
0
  6
CENTER
 62
               2
100
AcDbLine
 10
5.0
 20
10.5
 30
0.0
 11
5.0
 21
13.5
 31
0.0
  0
ENDBLK
  5
2D3
100
AcDbEntity
  8
0
100
AcDbBlockEnd
  0
BLOCK
  5
2D4
100
AcDbEntity
  8
0
100
AcDbBlockBegin
  2
MS_8
 70
               0
 10
0.0
 20
0.0
 30
0.0
  3
MS_8
  1

  0
LINE
  5
2D5
100
AcDbEntity
  8
0
  6
CONTINUOUS
 62
               4
100
AcDbLine
 10
28.0
 20
11.399137781932971
 30
0.0
 11
28.0
 21
9.0825538262777599
 31
0.0
  0
LINE
  5
2D6
100
AcDbEntity
  8
0
  6
CONTINUOUS
 62
               4
100
AcDbLine
 10
26.249999996290029
 20
11.20450301352507
 30
0.0
 11
26.249999996290029
 21
9.4724522022842237
 31
0.0
  0
LINE
  5
2D7
100
AcDbEntity
  8
0
  6
CONTINUOUS
 62
               4
100
AcDbLine
 10
25.749999995230041
 20
11.20450301352507
 30
0.0
 11
25.749999995230041
 21
9.4724522022842237
 31
0.0
  0
ELLIPSE
  5
2D8
100
AcDbEntity
  8
0
  6
CONTINUOUS
 62
               4
100
AcDbEllipse
 10
25.999999995759993
 20
10.338477607904679
 30
0.0
 11
1.25000000265
 21
0.0
 31
0.0
210
0.0
220
0.0
230
1.0
 40
0.7071067811865475
 41
0.0
 42
6.2831853071795862
  0
LINE
  5
2D9
100
AcDbEntity
  8
0
  6
CONTINUOUS
 62
               4
100
AcDbLine
 10
12.999999968200029
 20
9.0825538262777599
 30
0.0
 11
12.999999968200029
 21
15.252869659150534
 31
0.0
  0
LINE
  5
2DA
100
AcDbEntity
  8
0
  6
CONTINUOUS
 62
               4
100
AcDbLine
 10
17.599999977952137
 20
14.51040756472996
 30
0.0
 11
17.599999977952137
 21
10.338477607904679
 31
0.0
  0
LINE
  5
2DB
100
AcDbEntity
  8
0
  6
CONTINUOUS
 62
               4
100
AcDbLine
 10
16.969693822285763
 20
9.2778174338762298
 30
0.0
 11
16.969693822285763
 21
9.9495687903635925
 31
0.0
  0
ELLIPSE
  5
2DC
100
AcDbEntity
  8
0
  6
CONTINUOUS
 62
               4
100
AcDbEllipse
 10
15.499999953735539
 20
10.338477607904679
 30
0.0
 11
2.1000000242166501
 21
0.0
 31
0.0
210
0.0
220
0.0
230
1.0
 40
0.6902708989473662
 41
5.4875823576499068
 42
0.0
  0
LINE
  5
2DD
100
AcDbEntity
  8
0
  6
CONTINUOUS
 62
               4
100
AcDbLine
 10
16.969693822285763
 20
9.9495688133643725
 30
0.0
 11
12.999999968200029
 21
9.9495688133643725
 31
0.0
  0
ELLIPSE
  5
2DE
100
AcDbEntity
  8
0
  6
CONTINUOUS
 62
               4
100
AcDbEllipse
 10
15.499999973499996
 20
14.51040756472996
 30
0.0
 11
-2.1000000044519944
 21
0.0000000000000003
 31
0.0
210
0.0
220
0.0
230
1.0
 40
0.690270905444012
 41
-0.8725714153590118
 42
4.014164068948805
  0
ELLIPSE
  5
2DF
100
AcDbEntity
  8
0
  6
CONTINUOUS
 62
               4
100
AcDbEllipse
 10
15.499999973499996
 20
13.803300782044346
 30
0.0
 11
-2.0999999884538685
 21
0.0000000000000003
 31
0.0
210
0.0
220
0.0
230
1.0
 40
0.6902709107026031
 41
0.0
 42
1.5707963267948966
  0
ELLIPSE
  5
2E0
100
AcDbEntity
  8
0
  6
CONTINUOUS
 62
               4
100
AcDbEllipse
 10
15.499999973499996
 20
17.510407571089964
 30
0.0
 11
-1.3500000028620016
 21
0.0000000000000002
 31
0.0
210
0.0
220
0.0
230
1.0
 40
0.7130928703394489
 41
0.0
 42
6.2831853071795862
  0
ELLIPSE
  5
2E1
100
AcDbEntity
  8
0
  6
CONTINUOUS
 62
               4
100
AcDbEllipse
 10
15.499999973499996
 20
14.51040756472996
 30
0.0
 11
-1.3500000028620016
 21
0.0000000000000002
 31
0.0
210
0.0
220
0.0
230
1.0
 40
0.7130928703394489
 41
0.0
 42
3.1415926535897931
  0
LINE
  5
2E2
100
AcDbEntity
  8
0
  6
CONTINUOUS
 62
               4
100
AcDbLine
 10
16.84999997636217
 20
14.510407558978031
 30
0.0
 11
16.84999997636217
 21
17.510407565338035
 31
0.0
  0
LINE
  5
2E3
100
AcDbEntity
  8
0
  6
CONTINUOUS
 62
               4
100
AcDbLine
 10
14.149999970638106
 20
14.510407558978031
 30
0.0
 11
14.149999970638106
 21
17.510407565338035
 31
0.0
  0
LINE
  5
2E4
100
AcDbEntity
  8
0
  6
CONTINUOUS
 62
               4
100
AcDbLine
 10
13.696374843100358
 20
15.252869686549857
 30
0.0
 11
12.999999968200029
 21
15.252869686549857
 31
0.0
  0
LINE
  5
2E5
100
AcDbEntity
  8
0
  6
CONTINUOUS
 62
               4
100
AcDbLine
 10
13.399999985046378
 20
13.803300782044346
 30
0.0
 11
13.399999985046378
 21
14.510407558978031
 31
0.0
  0
LINE
  5
2E6
100
AcDbEntity
  8
0
  6
CONTINUOUS
 62
               4
100
AcDbLine
 10
15.499999973499996
 20
12.353731877538827
 30
0.0
 11
12.999999948435573
 21
12.353731877538827
 31
0.0
  0
LINE
  5
2E7
100
AcDbEntity
  8
0
  6
CONTINUOUS
 62
               4
100
AcDbLine
 10
15.499999973499996
 20
12.353731858032894
 30
0.0
 11
15.499999973499996
 21
13.060838660224448
 31
0.0
  0
LINE
  5
2E8
100
AcDbEntity
  8
0
  6
CONTINUOUS
 62
               4
100
AcDbLine
 10
27.999999965833126
 20
9.2778174338762298
 30
0.0
 11
12.999999968200029
 21
9.2778174338762298
 31
0.0
  0
LINE
  5
2E9
100
AcDbEntity
  8
0
  6
CONTINUOUS
 62
               4
100
AcDbLine
 10
27.999999965833126
 20
11.399137781932957
 30
0.0
 11
17.599999977952137
 21
11.399137781932957
 31
0.0
  0
LINE
  5
2EA
100
AcDbEntity
  8
0
  6
CONTINUOUS
 62
               4
100
AcDbLine
 10
20.000000026500032
 20
15.252869686549857
 30
0.0
 11
22.500000031799999
 21
15.252869686549857
 31
0.0
  0
LINE
  5
2EB
100
AcDbEntity
  8
0
  6
CONTINUOUS
 62
               4
100
AcDbLine
 10
20.000000026500032
 20
15.252869686549857
 30
0.0
 11
20.000000026500032
 21
15.959976469235471
 31
0.0
  0
LINE
  5
2EC
100
AcDbEntity
  8
0
  6
CONTINUOUS
 62
               4
100
AcDbLine
 10
21.350000029361922
 20
15.620757185677228
 30
0.0
 11
21.350000029361922
 21
17.510407565338035
 31
0.0
  0
ELLIPSE
  5
2ED
100
AcDbEntity
  8
0
  6
CONTINUOUS
 62
               4
100
AcDbEllipse
 10
20.000000026500032
 20
17.510407571089964
 30
0.0
 11
1.3500000028620016
 21
0.0
 31
0.0
210
0.0
220
0.0
230
1.0
 40
0.7130928703394489
 41
0.0
 42
3.1415926535897931
  0
ELLIPSE
  5
2EE
100
AcDbEntity
  8
0
  6
CONTINUOUS
 62
               4
100
AcDbEllipse
 10
20.000000026500032
 20
14.51040756472996
 30
0.0
 11
2.1000000044519944
 21
0.0
 31
0.0
210
0.0
220
0.0
230
1.0
 40
0.690270905444012
 41
0.5377386764774587
 42
3.1415926535897931
  0
LINE
  5
2EF
100
AcDbEntity
  8
0
  6
CONTINUOUS
 62
               4
100
AcDbLine
 10
22.500000031799999
 20
15.252869686549857
 30
0.0
 11
22.500000053975967
 21
12.0
 31
0.0
  0
LINE
  5
2F0
100
AcDbEntity
  8
0
  6
CENTER
 62
               2
100
AcDbLine
 10
-8.9446301573943572
 20
4.0
 30
0.0
 11
31.706095837897948
 21
4.0
 31
0.0
  0
LINE
  5
2F1
100
AcDbEntity
  8
0
  6
CONTINUOUS
 62
               7
100
AcDbLine
 10
0.0
 20
12.0
 30
0.0
 11
12.999999968200029
 21
12.0
 31
0.0
  0
LINE
  5
2F2
100
AcDbEntity
  8
0
  6
CONTINUOUS
 62
               7
100
AcDbLine
 10
0.0
 20
11.116295086231986
 30
0.0
 11
12.999999968200029
 21
11.116295086231986
 31
0.0
  0
LINE
  5
2F3
100
AcDbEntity
  8
0
  6
CONTINUOUS
 62
               7
100
AcDbLine
 10
0.0
 20
9.0825538262777599
 30
0.0
 11
30.0
 21
9.0825538262777599
 31
0.0
  0
LINE
  5
2F4
100
AcDbEntity
  8
0
  6
CONTINUOUS
 62
               7
100
AcDbLine
 10
0.0
 20
11.469848476825263
 30
0.0
 11
12.999999968200029
 21
11.469848476825263
 31
0.0
  0
LINE
  5
2F5
100
AcDbEntity
  8
0
  6
CONTINUOUS
 62
               7
100
AcDbLine
 10
0.0
 20
8.4999999777330402
 30
0.0
 11
30.0
 21
8.4999999777330402
 31
0.0
  0
LINE
  5
2F6
100
AcDbEntity
  8
0
  6
CONTINUOUS
 62
               7
100
AcDbLine
 10
0.0
 20
0.0
 30
0.0
 11
30.0
 21
0.0
 31
0.0
  0
LINE
  5
2F7
100
AcDbEntity
  8
0
  6
CONTINUOUS
 62
               7
100
AcDbLine
 10
0.0
 20
12.0
 30
0.0
 11
0.0
 21
0.0
 31
0.0
  0
LINE
  5
2F8
100
AcDbEntity
  8
0
  6
CONTINUOUS
 62
               7
100
AcDbLine
 10
30.0
 20
12.0
 30
0.0
 11
30.0
 21
0.0
 31
0.0
  0
LINE
  5
2F9
100
AcDbEntity
  8
0
  6
CONTINUOUS
 62
               7
100
AcDbLine
 10
-7.7000000000000171
 20
5.5
 30
0.0
 11
-5.5999999999999943
 21
5.5
 31
0.0
  0
LINE
  5
2FA
100
AcDbEntity
  8
0
  6
CONTINUOUS
 62
               7
100
AcDbLine
 10
-8.0
 20
2.7999999999999972
 30
0.0
 11
-8.0
 21
5.2000000000000028
 31
0.0
  0
LINE
  5
2FB
100
AcDbEntity
  8
0
  6
CONTINUOUS
 62
               7
100
AcDbLine
 10
-1.0
 20
2.5
 30
0.0
 11
-1.0
 21
5.5
 31
0.0
  0
LINE
  5
2FC
100
AcDbEntity
  8
0
  6
CONTINUOUS
 62
               7
100
AcDbLine
 10
-7.7000000000000171
 20
2.5
 30
0.0
 11
-7.7000000000000171
 21
5.5
 31
0.0
  0
LINE
  5
2FD
100
AcDbEntity
  8
0
  6
CONTINUOUS
 62
               7
100
AcDbLine
 10
-7.7000000000000171
 20
5.5
 30
0.0
 11
-8.0
 21
5.2000000000000028
 31
0.0
  0
LINE
  5
2FE
100
AcDbEntity
  8
0
  6
CONTINUOUS
 62
               2
100
AcDbLine
 10
-8.0
 20
5.2000000000000028
 30
0.0
 11
-5.5999999999999943
 21
5.2000000000000028
 31
0.0
  0
LINE
  5
2FF
100
AcDbEntity
  8
0
  6
CONTINUOUS
 62
               7
100
AcDbLine
 10
-7.7000000000000171
 20
2.5
 30
0.0
 11
-5.5999999999999943
 21
2.5
 31
0.0
  0
LINE
  5
300
100
AcDbEntity
  8
0
  6
CONTINUOUS
 62
               7
100
AcDbLine
 10
-7.7000000000000171
 20
2.5
 30
0.0
 11
-8.0
 21
2.7999999999999972
 31
0.0
  0
LINE
  5
301
100
AcDbEntity
  8
0
  6
CONTINUOUS
 62
               2
100
AcDbLine
 10
-8.0
 20
2.7999999999999972
 30
0.0
 11
-5.5999999999999943
 21
2.7999999999999972
 31
0.0
  0
LINE
  5
302
100
AcDbEntity
  8
0
  6
CONTINUOUS
 62
               2
100
AcDbLine
 10
-2.0
 20
5.2000000000000028
 30
0.0
 11
-1.0
 21
5.2000000000000028
 31
0.0
  0
LINE
  5
303
100
AcDbEntity
  8
0
  6
CONTINUOUS
 62
               2
100
AcDbLine
 10
-2.0
 20
2.7999999999999972
 30
0.0
 11
-1.0
 21
2.7999999999999972
 31
0.0
  0
LINE
  5
304
100
AcDbEntity
  8
0
  6
CONTINUOUS
 62
               2
100
AcDbLine
 10
-1.0
 20
2.7999999999999972
 30
0.0
 11
-0.4803847577293539
 21
2.5
 31
0.0
  0
LINE
  5
305
100
AcDbEntity
  8
0
  6
CONTINUOUS
 62
               2
100
AcDbLine
 10
-1.0
 20
5.2000000000000028
 30
0.0
 11
-0.4803847577293539
 21
5.5
 31
0.0
  0
SPLINE
  5
306
100
AcDbEntity
  8
0
  6
CONTINUOUS
 62
               7
100
AcDbSpline
210
0.0
220
0.0
230
1.0
 70
               0
 71
               3
 72
               0
 73
               0
 74
               5
 44
0.000001
 12
-0.3364389337625614
 22
-0.9417052850274925
 32
0.0
 13
0.3364389335092213
 23
-0.9417052851180021
 33
0.0
 11
-3.5543798798272803
 21
6.749999981121988
 31
0.0
 11
-3.7359307314102335
 21
6.0736859437510899
 31
0.0
 11
-3.7999999999999972
 21
5.375
 31
0.0
 11
-3.7359307329601386
 21
4.6763140466768789
 31
0.0
 11
-3.5543798798272803
 21
4.0
 31
0.0
  0
SPLINE
  5
307
100
AcDbEntity
  8
0
  6
CONTINUOUS
 62
               7
100
AcDbSpline
210
0.0
220
0.0
230
1.0
 70
               0
 71
               3
 72
               0
 73
               0
 74
               5
 44
0.000001
 12
0.3364389337625613
 22
-0.9417052850274925
 32
0.0
 13
-0.3364389335092214
 23
-0.9417052851180021
 33
0.0
 11
-2.2456201201727168
 21
6.749999981121988
 31
0.0
 11
-2.0640692685897637
 21
6.0736859437510899
 31
0.0
 11
-2.0
 21
5.375
 31
0.0
 11
-2.0640692670398586
 21
4.6763140466768789
 31
0.0
 11
-2.2456201201727168
 21
4.0
 31
0.0
  0
SPLINE
  5
308
100
AcDbEntity
  8
0
  6
CONTINUOUS
 62
               7
100
AcDbSpline
210
0.0
220
0.0
230
1.0
 70
               0
 71
               3
 72
               0
 73
               0
 74
               5
 44
0.000001
 12
-0.3364389337625614
 22
-0.9417052850274925
 32
0.0
 13
0.3364389335092213
 23
-0.9417052851180021
 33
0.0
 11
-5.3543798798272775
 21
6.749999981121988
 31
0.0
 11
-5.5359307314102306
 21
6.0736859437510899
 31
0.0
 11
-5.5999999999999943
 21
5.375
 31
0.0
 11
-5.5359307329601357
 21
4.6763140466768789
 31
0.0
 11
-5.3543798798272775
 21
4.0
 31
0.0
  0
SPLINE
  5
309
100
AcDbEntity
  8
0
  6
CONTINUOUS
 62
               7
100
AcDbSpline
210
0.0
220
0.0
230
1.0
 70
               0
 71
               3
 72
               0
 73
               0
 74
               5
 44
0.000001
 12
0.3364389337625613
 22
-0.9417052850274925
 32
0.0
 13
-0.3364389335092214
 23
-0.9417052851180021
 33
0.0
 11
-4.045620120172714
 21
6.749999981121988
 31
0.0
 11
-3.8640692685897609
 21
6.0736859437510899
 31
0.0
 11
-3.7999999999999972
 21
5.375
 31
0.0
 11
-3.8640692670398558
 21
4.6763140466768789
 31
0.0
 11
-4.045620120172714
 21
4.0
 31
0.0
  0
SPLINE
  5
30A
100
AcDbEntity
  8
0
  6
CONTINUOUS
 62
               7
100
AcDbSpline
210
0.0
220
0.0
230
1.0
 70
               0
 71
               3
 72
               0
 73
               0
 74
               5
 44
0.000001
 12
-0.3364389337625614
 22
0.9417052850274925
 32
0.0
 13
0.3364389335092213
 23
0.9417052851180021
 33
0.0
 11
-5.3543798798272775
 21
1.250000018878012
 31
0.0
 11
-5.5359307314102306
 21
1.9263140562489101
 31
0.0
 11
-5.5999999999999943
 21
2.625
 31
0.0
 11
-5.5359307329601357
 21
3.3236859533231216
 31
0.0
 11
-5.3543798798272775
 21
4.0
 31
0.0
  0
SPLINE
  5
30B
100
AcDbEntity
  8
0
  6
CONTINUOUS
 62
               7
100
AcDbSpline
210
0.0
220
0.0
230
1.0
 70
               0
 71
               3
 72
               0
 73
               0
 74
               5
 44
0.000001
 12
0.3364389337625613
 22
0.9417052850274925
 32
0.0
 13
-0.3364389335092214
 23
0.9417052851180021
 33
0.0
 11
-4.045620120172714
 21
1.250000018878012
 31
0.0
 11
-3.8640692685897609
 21
1.9263140562489101
 31
0.0
 11
-3.7999999999999972
 21
2.625
 31
0.0
 11
-3.8640692670398558
 21
3.3236859533231216
 31
0.0
 11
-4.045620120172714
 21
4.0
 31
0.0
  0
SPLINE
  5
30C
100
AcDbEntity
  8
0
  6
CONTINUOUS
 62
               7
100
AcDbSpline
210
0.0
220
0.0
230
1.0
 70
               0
 71
               3
 72
               0
 73
               0
 74
               5
 44
0.000001
 12
-0.3364389337625614
 22
0.9417052850274925
 32
0.0
 13
0.3364389335092213
 23
0.9417052851180021
 33
0.0
 11
-3.5543798798272803
 21
1.250000018878012
 31
0.0
 11
-3.7359307314102335
 21
1.9263140562489101
 31
0.0
 11
-3.7999999999999972
 21
2.625
 31
0.0
 11
-3.7359307329601386
 21
3.3236859533231216
 31
0.0
 11
-3.5543798798272803
 21
4.0
 31
0.0
  0
SPLINE
  5
30D
100
AcDbEntity
  8
0
  6
CONTINUOUS
 62
               7
100
AcDbSpline
210
0.0
220
0.0
230
1.0
 70
               0
 71
               3
 72
               0
 73
               0
 74
               5
 44
0.000001
 12
0.3364389337625613
 22
0.9417052850274925
 32
0.0
 13
-0.3364389335092214
 23
0.9417052851180021
 33
0.0
 11
-2.2456201201727168
 21
1.250000018878012
 31
0.0
 11
-2.0640692685897637
 21
1.9263140562489101
 31
0.0
 11
-2.0
 21
2.625
 31
0.0
 11
-2.0640692670398586
 21
3.3236859533231216
 31
0.0
 11
-2.2456201201727168
 21
4.0
 31
0.0
  0
LINE
  5
30E
100
AcDbEntity
  8
0
  6
CONTINUOUS
 62
               7
100
AcDbLine
 10
-2.0
 20
1.249999981121988
 30
0.0
 11
-2.0
 21
6.749999981121988
 31
0.0
  0
LINE
  5
30F
100
AcDbEntity
  8
0
  6
CONTINUOUS
 62
               7
100
AcDbLine
 10
-5.5999999999999943
 20
1.249999981121988
 30
0.0
 11
-5.5999999999999943
 21
6.749999981121988
 31
0.0
  0
LINE
  5
310
100
AcDbEntity
  8
0
  6
CONTINUOUS
 62
               7
100
AcDbLine
 10
-3.7999999999999972
 20
1.249999981121988
 30
0.0
 11
-3.7999999999999972
 21
6.749999981121988
 31
0.0
  0
LINE
  5
311
100
AcDbEntity
  8
0
  6
CONTINUOUS
 62
               7
100
AcDbLine
 10
-3.7999999999999972
 20
6.749999981121988
 30
0.0
 11
-5.5999999999999943
 21
6.749999981121988
 31
0.0
  0
LINE
  5
312
100
AcDbEntity
  8
0
  6
CONTINUOUS
 62
               7
100
AcDbLine
 10
-3.7999999999999972
 20
6.749999981121988
 30
0.0
 11
-2.0
 21
6.749999981121988
 31
0.0
  0
LINE
  5
313
100
AcDbEntity
  8
0
  6
CONTINUOUS
 62
               7
100
AcDbLine
 10
-3.5543798798272803
 20
4.0
 30
0.0
 11
-2.2456201201727168
 21
4.0
 31
0.0
  0
LINE
  5
314
100
AcDbEntity
  8
0
  6
CONTINUOUS
 62
               7
100
AcDbLine
 10
-3.7999999999999972
 20
1.25
 30
0.0
 11
-2.0
 21
1.25
 31
0.0
  0
LINE
  5
315
100
AcDbEntity
  8
0
  6
CONTINUOUS
 62
               7
100
AcDbLine
 10
-3.7999999999999972
 20
1.25
 30
0.0
 11
-5.5999999999999943
 21
1.25
 31
0.0
  0
LINE
  5
316
100
AcDbEntity
  8
0
  6
CONTINUOUS
 62
               7
100
AcDbLine
 10
-4.045620120172714
 20
4.0
 30
0.0
 11
-5.3543798798272775
 21
4.0
 31
0.0
  0
LINE
  5
317
100
AcDbEntity
  8
0
  6
CONTINUOUS
 62
               7
100
AcDbLine
 10
0.0
 20
2.5
 30
0.0
 11
-2.0
 21
2.5
 31
0.0
  0
LINE
  5
318
100
AcDbEntity
  8
0
  6
CONTINUOUS
 62
               7
100
AcDbLine
 10
0.0
 20
5.5
 30
0.0
 11
-2.0
 21
5.5
 31
0.0
  0
LINE
  5
319
100
AcDbEntity
  8
0
  6
CENTER
 62
               2
100
AcDbLine
 10
10.0
 20
5.9547775518886965
 30
0.0
 11
10.0
 21
1.9250251871512063
 31
0.0
  0
CIRCLE
  5
31A
100
AcDbEntity
  8
0
  6
DASHED
 62
               2
100
AcDbCircle
 10
10.0
 20
4.0000000000000142
 30
0.0
 40
1.5
  0
CIRCLE
  5
31B
100
AcDbEntity
  8
0
  6
DASHED
 62
               7
100
AcDbCircle
 10
10.0
 20
4.0000000000000142
 30
0.0
 40
1.1999999999999886
  0
LINE
  5
31C
100
AcDbEntity
  8
0
  6
CENTER
 62
               2
100
AcDbLine
 10
26.999999999999972
 20
5.9547775518886965
 30
0.0
 11
26.999999999999972
 21
2.0239043419708906
 31
0.0
  0
CIRCLE
  5
31D
100
AcDbEntity
  8
0
  6
DASHED
 62
               2
100
AcDbCircle
 10
26.999999999999972
 20
4.0000000000000142
 30
0.0
 40
1.5
  0
CIRCLE
  5
31E
100
AcDbEntity
  8
0
  6
DASHED
 62
               7
100
AcDbCircle
 10
26.999999999999972
 20
4.0000000000000142
 30
0.0
 40
1.1999999999999886
  0
INSERT
  5
327
100
AcDbEntity
  8
0
  6
CONTINUOUS
 62
               7
100
AcDbBlockReference
  2
*X13
 10
0.0
 20
0.0
 30
0.0
  0
LINE
  5
328
100
AcDbEntity
  8
0
  6
CONTINUOUS
 62
               7
100
AcDbLine
 10
17.599999977952137
 20
12.0
 30
0.0
 11
30.0
 21
12.0
 31
0.0
  0
LINE
  5
329
100
AcDbEntity
  8
0
  6
CONTINUOUS
 62
               7
100
AcDbLine
 10
28.0
 20
11.116295086231986
 30
0.0
 11
30.0
 21
11.116295086231986
 31
0.0
  0
LINE
  5
32A
100
AcDbEntity
  8
0
  6
CONTINUOUS
 62
               7
100
AcDbLine
 10
17.599999977952137
 20
11.469848476825263
 30
0.0
 11
30.0
 21
11.469848476825263
 31
0.0
  0
LINE
  5
32B
100
AcDbEntity
  8
0
  6
CONTINUOUS
 62
               4
100
AcDbLine
 10
18.650000034725849
 20
15.620757192100477
 30
0.0
 11
18.650000034725849
 21
17.510407565338035
 31
0.0
  0
LINE
  5
32C
100
AcDbEntity
  8
0
  6
CONTINUOUS
 62
               4
100
AcDbLine
 10
17.900000033135882
 20
14.51040756472996
 30
0.0
 11
17.900000033135882
 21
12.0
 31
0.0
  0
LINE
  5
32D
100
AcDbEntity
  8
0
  6
CENTER
 62
               2
100
AcDbLine
 10
5.0
 20
1.5
 30
0.0
 11
5.0
 21
-1.5
 31
0.0
  0
ENDBLK
  5
32E
100
AcDbEntity
  8
0
100
AcDbBlockEnd
  0
BLOCK
  5
42
100
AcDbEntity
  8
0
  6
ByBlock
 62
               0
100
AcDbBlockBegin
  2
*X8
 70
               1
 10
0.0
 20
0.0
 30
0.0
  3
*X8
  1

  0
LINE
  5
43
100
AcDbEntity
  8
0
  6
ByBlock
 62
               0
100
AcDbLine
 10
10.119692732885158
 20
-1.1940157660996027
 30
0.0
 11
11.194015766099616
 21
-0.1196927328851443
 31
0.0
  0
LINE
  5
44
100
AcDbEntity
  8
0
  6
ByBlock
 62
               0
100
AcDbLine
 10
9.1027086952509606
 20
-0.7967862413607038
 30
0.0
 11
10.796786241360717
 21
0.8972913047490526
 31
0.0
  0
LINE
  5
45
100
AcDbEntity
  8
0
  6
ByBlock
 62
               0
100
AcDbLine
 10
8.8600091787553712
 20
0.374727804516799
 30
0.0
 11
9.6252721954832143
 21
1.1399908212446421
 31
0.0
  0
LINE
  5
46
100
AcDbEntity
  8
0
  6
ByBlock
 62
               0
100
AcDbLine
 10
9.6252721954831699
 20
-1.1399908212445997
 30
0.0
 11
8.8600091787553872
 21
-0.3747278045168172
 31
0.0
  0
LINE
  5
47
100
AcDbEntity
  8
0
  6
ByBlock
 62
               0
100
AcDbLine
 10
10.796786241360703
 20
-0.8972913047490397
 30
0.0
 11
9.1027086952509464
 21
0.7967862413607164
 31
0.0
  0
LINE
  5
48
100
AcDbEntity
  8
0
  6
ByBlock
 62
               0
100
AcDbLine
 10
11.194015766099621
 20
0.1196927328851398
 30
0.0
 11
10.119692732885127
 21
1.1940157660996349
 31
0.0
  0
ENDBLK
  5
49
100
AcDbEntity
  8
0
  6
ByBlock
 62
               0
100
AcDbBlockEnd
  0
BLOCK
  5
FE
100
AcDbEntity
  8
0
  6
ByBlock
 62
               0
100
AcDbBlockBegin
  2
*X9
 70
               1
 10
0.0
 20
0.0
 30
0.0
  3
*X9
  1

  0
LINE
  5
FF
100
AcDbEntity
  8
0
  6
ByBlock
 62
               0
100
AcDbLine
 10
9.6736549051782994
 20
6.8452277804321087
 30
0.0
 11
11.154772219567905
 21
8.3263450948217148
 31
0.0
  0
LINE
  5
100
100
AcDbEntity
  8
0
  6
ByBlock
 62
               0
100
AcDbLine
 10
8.910731516394204
 20
7.4965179540211082
 30
0.0
 11
10.503482045978906
 21
9.0892684836058084
 31
0.0
  0
LINE
  5
101
100
AcDbEntity
  8
0
  6
ByBlock
 62
               0
100
AcDbLine
 10
10.159866236427336
 20
6.8106965120498053
 30
0.0
 11
8.8106965120497911
 21
8.1598662364273498
 31
0.0
  0
LINE
  5
102
100
AcDbEntity
  8
0
  6
ByBlock
 62
               0
100
AcDbLine
 10
11.018818308343135
 20
7.3659580025070994
 30
0.0
 11
9.365958002507087
 21
9.0188183083431497
 31
0.0
  0
ENDBLK
  5
103
100
AcDbEntity
  8
0
  6
ByBlock
 62
               0
100
AcDbBlockEnd
  0
BLOCK
  5
152
100
AcDbEntity
  8
0
  6
ByBlock
 62
               0
100
AcDbBlockBegin
  2
*X10
 70
               1
 10
0.0
 20
0.0
 30
0.0
  3
*X10
  1

  0
LINE
  5
153
100
AcDbEntity
  8
0
  6
ByBlock
 62
               0
100
AcDbLine
 10
9.8773519891373933
 20
2.8062841772719174
 30
0.0
 11
11.193715822728096
 21
4.1226480108626209
 31
0.0
  0
LINE
  5
154
100
AcDbEntity
  8
0
  6
ByBlock
 62
               0
100
AcDbLine
 10
8.9974260727148963
 20
3.3405718232225148
 30
0.0
 11
10.659428176777499
 21
5.002573927285118
 31
0.0
  0
LINE
  5
155
100
AcDbEntity
  8
0
  6
ByBlock
 62
               0
100
AcDbLine
 10
9.9256143307715696
 20
2.8023077305862842
 30
0.0
 11
8.8023077305862696
 21
3.9256143307715852
 31
0.0
  0
LINE
  5
156
100
AcDbEntity
  8
0
  6
ByBlock
 62
               0
100
AcDbLine
 10
10.91661459715688
 20
3.2255210265740701
 30
0.0
 11
9.2255210265740555
 21
4.9166145971568946
 31
0.0
  0
LINE
  5
157
100
AcDbEntity
  8
0
  6
ByBlock
 62
               0
100
AcDbLine
 10
11.116470769099449
 20
4.4398784170045955
 30
0.0
 11
10.43987841700458
 21
5.1164707690994637
 31
0.0
  0
ENDBLK
  5
158
100
AcDbEntity
  8
0
  6
ByBlock
 62
               0
100
AcDbBlockEnd
  0
BLOCK
  5
208
100
AcDbEntity
  8
0
  6
ByBlock
 62
               0
100
AcDbBlockBegin
  2
*X11
 70
               1
 10
0.0
 20
0.0
 30
0.0
  3
*X11
  1

  0
LINE
  5
209
100
AcDbEntity
  8
0
  6
ByBlock
 62
               0
100
AcDbLine
 10
10.119692732885158
 20
-1.1940157660996027
 30
0.0
 11
11.194015766099616
 21
-0.1196927328851443
 31
0.0
  0
LINE
  5
20A
100
AcDbEntity
  8
0
  6
ByBlock
 62
               0
100
AcDbLine
 10
9.1027086952509606
 20
-0.7967862413607038
 30
0.0
 11
10.796786241360717
 21
0.8972913047490526
 31
0.0
  0
LINE
  5
20B
100
AcDbEntity
  8
0
  6
ByBlock
 62
               0
100
AcDbLine
 10
8.8600091787553712
 20
0.374727804516799
 30
0.0
 11
9.6252721954832143
 21
1.1399908212446421
 31
0.0
  0
LINE
  5
20C
100
AcDbEntity
  8
0
  6
ByBlock
 62
               0
100
AcDbLine
 10
9.6252721954831699
 20
-1.1399908212445997
 30
0.0
 11
8.8600091787553872
 21
-0.3747278045168172
 31
0.0
  0
LINE
  5
20D
100
AcDbEntity
  8
0
  6
ByBlock
 62
               0
100
AcDbLine
 10
10.796786241360703
 20
-0.8972913047490397
 30
0.0
 11
9.1027086952509464
 21
0.7967862413607164
 31
0.0
  0
LINE
  5
20E
100
AcDbEntity
  8
0
  6
ByBlock
 62
               0
100
AcDbLine
 10
11.194015766099621
 20
0.1196927328851398
 30
0.0
 11
10.119692732885127
 21
1.1940157660996349
 31
0.0
  0
ENDBLK
  5
20F
100
AcDbEntity
  8
0
  6
ByBlock
 62
               0
100
AcDbBlockEnd
  0
BLOCK
  5
2AB
100
AcDbEntity
  8
0
  6
ByBlock
 62
               0
100
AcDbBlockBegin
  2
*X12
 70
               1
 10
0.0
 20
0.0
 30
0.0
  3
*X12
  1

  0
LINE
  5
2AC
100
AcDbEntity
  8
0
  6
ByBlock
 62
               0
100
AcDbLine
 10
9.6736549051782994
 20
6.8452277804321087
 30
0.0
 11
11.154772219567905
 21
8.3263450948217148
 31
0.0
  0
LINE
  5
2AD
100
AcDbEntity
  8
0
  6
ByBlock
 62
               0
100
AcDbLine
 10
8.910731516394204
 20
7.4965179540211082
 30
0.0
 11
10.503482045978906
 21
9.0892684836058084
 31
0.0
  0
LINE
  5
2AE
100
AcDbEntity
  8
0
  6
ByBlock
 62
               0
100
AcDbLine
 10
10.159866236427336
 20
6.8106965120498053
 30
0.0
 11
8.8106965120497911
 21
8.1598662364273498
 31
0.0
  0
LINE
  5
2AF
100
AcDbEntity
  8
0
  6
ByBlock
 62
               0
100
AcDbLine
 10
11.018818308343135
 20
7.3659580025070994
 30
0.0
 11
9.365958002507087
 21
9.0188183083431497
 31
0.0
  0
ENDBLK
  5
2B0
100
AcDbEntity
  8
0
  6
ByBlock
 62
               0
100
AcDbBlockEnd
  0
BLOCK
  5
320
100
AcDbEntity
  8
0
  6
ByBlock
 62
               0
100
AcDbBlockBegin
  2
*X13
 70
               1
 10
0.0
 20
0.0
 30
0.0
  3
*X13
  1

  0
LINE
  5
321
100
AcDbEntity
  8
0
  6
ByBlock
 62
               0
100
AcDbLine
 10
9.8773519891373933
 20
2.8062841772719174
 30
0.0
 11
11.193715822728096
 21
4.1226480108626209
 31
0.0
  0
LINE
  5
322
100
AcDbEntity
  8
0
  6
ByBlock
 62
               0
100
AcDbLine
 10
8.9974260727148963
 20
3.3405718232225148
 30
0.0
 11
10.659428176777499
 21
5.002573927285118
 31
0.0
  0
LINE
  5
323
100
AcDbEntity
  8
0
  6
ByBlock
 62
               0
100
AcDbLine
 10
9.9256143307715696
 20
2.8023077305862842
 30
0.0
 11
8.8023077305862696
 21
3.9256143307715852
 31
0.0
  0
LINE
  5
324
100
AcDbEntity
  8
0
  6
ByBlock
 62
               0
100
AcDbLine
 10
10.91661459715688
 20
3.2255210265740701
 30
0.0
 11
9.2255210265740555
 21
4.9166145971568946
 31
0.0
  0
LINE
  5
325
100
AcDbEntity
  8
0
  6
ByBlock
 62
               0
100
AcDbLine
 10
11.116470769099449
 20
4.4398784170045955
 30
0.0
 11
10.43987841700458
 21
5.1164707690994637
 31
0.0
  0
ENDBLK
  5
326
100
AcDbEntity
  8
0
  6
ByBlock
 62
               0
100
AcDbBlockEnd
  0
BLOCK
  5
331
100
AcDbEntity
  8
0
  6
ByBlock
 62
               0
100
AcDbBlockBegin
  2
_OPEN30
 70
               2
 10
0.0
 20
0.0
 30
0.0
  3
_OPEN30
  1

  0
LINE
  5
332
100
AcDbEntity
  8
0
  6
ByBlock
 62
               0
100
AcDbLine
 10
-1.0
 20
0.267949
 30
0.0
 11
0.0
 21
0.0
 31
0.0
  0
LINE
  5
333
100
AcDbEntity
  8
0
  6
ByBlock
 62
               0
100
AcDbLine
 10
0.0
 20
0.0
 30
0.0
 11
-1.0
 21
-0.267949
 31
0.0
  0
LINE
  5
334
100
AcDbEntity
  8
0
  6
ByBlock
 62
               0
100
AcDbLine
 10
0.0
 20
0.0
 30
0.0
 11
-1.0
 21
0.0
 31
0.0
  0
ENDBLK
  5
335
100
AcDbEntity
  8
0
  6
ByBlock
 62
               0
100
AcDbBlockEnd
  0
ENDSEC
  0
SECTION
  2
ENTITIES
  0
LEADER
  5
32F
100
AcDbEntity
  8
0
 62
               2
100
AcDbLeader
  3
MXDIMSTYLE
 73
               3
 74
               0
 75
               0
 40
0.0
 76
               3
 10
80.556210110770053
 20
-42.721129950329185
 30
0.0
 10
87.925228183983876
 20
-55.484643655028904
 30
0.0
 10
92.925228183983876
 20
-55.484643655028904
 30
0.0
 77
               2
1001
ACAD
1000
DSTYLE
1002
{
1070
               6
1000
_OPEN30
1070
               7
1000
_OPEN30
1070
              41
1040
2.77
1070
             173
1070
               1
1002
}
  0
MTEXT
  5
336
100
AcDbEntity
  8
0
 62
               2
100
AcDbMText
 10
87.925228183983876
 20
-52.453393655028904
 30
0.0
 40
2.5
 41
0.0
 71
               4
 72
               1
  1
\A1;-R
  7
MX_NOTE_STANDARD
  0
LEADER
  5
337
100
AcDbEntity
  8
0
 62
               2
100
AcDbLeader
  3
MXDIMSTYLE
 73
               3
 74
               0
 75
               0
 40
0.0
 76
               3
 10
79.056210110770053
 20
41.876946261024116
 30
0.0
 10
74.301143825643436
 20
50.112962660221243
 30
0.0
 10
69.184234925203697
 20
50.112962660221243
 30
0.0
 77
               2
1001
ACAD
1000
DSTYLE
1002
{
1070
               6
1000
_OPEN30
1070
               7
1000
_OPEN30
1070
              41
1040
2.77
1070
             173
1070
               1
1002
}
  0
MTEXT
  5
338
100
AcDbEntity
  8
0
 62
               2
100
AcDbMText
 10
69.184234925203697
 20
53.144212660221243
 30
0.0
 40
2.5
 41
0.0
 71
               4
 72
               1
  1
\A1;-L
  7
MX_NOTE_STANDARD
  0
LINE
  5
339
100
AcDbEntity
  8
0
  6
CONTINUOUS
 62
               7
100
AcDbLine
 10
-0.024993896484375
 20
84.5
 30
0.0
 11
-0.024993896484375
 21
-84.800003051757813
 31
0.0
  0
MTEXT
  5
33A
100
AcDbEntity
  8
0
  6
CONTINUOUS
 62
               3
100
AcDbMText
 10
74.706882247304165
 20
20.978853553602626
 30
0.0
 40
3.2000000476837158
 41
0.0
 71
               4
 72
               1
  1
\W1.065;\A1;STRETCH LINE
  7
MX_NOTE_STANDARD
  0
LEADER
  5
33B
100
AcDbEntity
  8
0
 62
               2
100
AcDbLeader
  3
MXDIMSTYLE
 73
               3
 74
               0
 75
               0
 40
0.0
 76
               3
 10
-60.943789889229947
 20
41.876946261024116
 30
0.0
 10
-65.698856174356564
 20
50.112962660221243
 30
0.0
 10
-70.815765074796303
 20
50.112962660221243
 30
0.0
 77
               2
1001
ACAD
1000
DSTYLE
1002
{
1070
               6
1000
_OPEN30
1070
               7
1000
_OPEN30
1070
              41
1040
2.77
1070
             173
1070
               1
1002
}
  0
MTEXT
  5
33C
100
AcDbEntity
  8
0
 62
               2
100
AcDbMText
 10
-70.815765074796303
 20
53.144212660221243
 30
0.0
 40
2.5
 41
0.0
 71
               4
 72
               1
  1
\A1;-L
  7
MX_NOTE_STANDARD
  0
LEADER
  5
33D
100
AcDbEntity
  8
0
 62
               2
100
AcDbLeader
  3
MXDIMSTYLE
 73
               3
 74
               0
 75
               0
 40
0.0
 76
               3
 10
-59.443789889229954
 20
-42.721129950329185
 30
0.0
 10
-52.074771816016117
 20
-55.484643655028904
 30
0.0
 10
-47.074771816016117
 20
-55.484643655028904
 30
0.0
 77
               2
1001
ACAD
1000
DSTYLE
1002
{
1070
               6
1000
_OPEN30
1070
               7
1000
_OPEN30
1070
              41
1040
2.77
1070
             173
1070
               1
1002
}
  0
MTEXT
  5
33E
100
AcDbEntity
  8
0
 62
               2
100
AcDbMText
 10
-52.074771816016117
 20
-52.453393655028904
 30
0.0
 40
2.5
 41
0.0
 71
               4
 72
               1
  1
\A1;-R
  7
MX_NOTE_STANDARD
  0
INSERT
  5
33F
100
AcDbEntity
  8
0
100
AcDbBlockReference
  2
MS_8
 10
69.806210110770053
 20
-45.422091844652542
 30
0.0
  0
INSERT
  5
340
100
AcDbEntity
  8
0
100
AcDbBlockReference
  2
MS_7
 10
69.806210110770053
 20
32.577908155347458
 30
0.0
  0
INSERT
  5
341
100
AcDbEntity
  8
0
100
AcDbBlockReference
  2
MS_6
 10
27.806210110770081
 20
-0.422091833157296
 30
0.0
  0
INSERT
  5
342
100
AcDbEntity
  8
0
100
AcDbBlockReference
  2
MS_5
 10
69.806210110770081
 20
-0.422091833157296
 30
0.0
  0
INSERT
  5
343
100
AcDbEntity
  8
0
100
AcDbBlockReference
  2
MS_4
 10
-70.193789889229947
 20
-45.422091844652542
 30
0.0
  0
INSERT
  5
344
100
AcDbEntity
  8
0
100
AcDbBlockReference
  2
MS_3
 10
-70.193789889229947
 20
32.577908155347458
 30
0.0
  0
INSERT
  5
345
100
AcDbEntity
  8
0
100
AcDbBlockReference
  2
MS_2
 10
-112.19378988922992
 20
-0.422091833157296
 30
0.0
  0
INSERT
  5
346
100
AcDbEntity
  8
0
100
AcDbBlockReference
  2
MS_1
 10
-70.193789889229919
 20
-0.422091833157296
 30
0.0
  0
MTEXT
  5
347
100
AcDbEntity
  8
0
  6
CONTINUOUS
 62
               3
100
AcDbMText
 10
-65.293117752695835
 20
57.060651294916369
 30
0.0
 40
3.2000000476837158
 41
0.0
 71
               4
 72
               1
  1
\W1.065;\A1;STRETCH LINE
  7
MX_NOTE_STANDARD
  0
LINE
  5
348
100
AcDbEntity
  8
0
  6
CONTINUOUS
 62
               7
100
AcDbLine
 10
-133.39999389648437
 20
-89.800003051757812
 30
0.0
 11
-78.999993896484384
 21
-89.800003051757812
 31
0.0
  0
LINE
  5
349
100
AcDbEntity
  8
0
  6
CONTINUOUS
 62
               7
100
AcDbLine
 10
-133.39999389648437
 20
-77.800003051757812
 30
0.0
 11
-133.39999389648437
 21
-89.800003051757812
 31
0.0
  0
LINE
  5
34A
100
AcDbEntity
  8
0
  6
CONTINUOUS
 62
               7
100
AcDbLine
 10
-133.39999389648437
 20
-83.800003051757813
 30
0.0
 11
-78.999993896484384
 21
-83.800003051757813
 31
0.0
  0
LINE
  5
34B
100
AcDbEntity
  8
0
  6
CONTINUOUS
 62
               7
100
AcDbLine
 10
-133.39999389648437
 20
-77.800003051757812
 30
0.0
 11
-78.999993896484384
 21
-77.800003051757812
 31
0.0
  0
MTEXT
  5
34C
100
AcDbEntity
  8
0
  6
CONTINUOUS
 62
               7
100
AcDbMText
 10
-129.6666606982549
 20
-80.800003051757813
 30
0.0
 40
3.2000000476837158
 41
0.0
 71
               4
 72
               1
  1
\A1;STROKE
  7
MX_NOTE_STANDARD
  0
MTEXT
  5
34D
100
AcDbEntity
  8
0
  6
CONTINUOUS
 62
               7
100
AcDbMText
 10
-131.26666072209676
 20
-86.800003051757813
 30
0.0
 40
3.2000000476837158
 41
0.0
 71
               4
 72
               1
  1
\A1;STRETCH
  7
MX_NOTE_STANDARD
  0
LINE
  5
34E
100
AcDbEntity
  8
0
  6
CONTINUOUS
 62
               7
100
AcDbLine
 10
-107.79999389648438
 20
-77.800003051757812
 30
0.0
 11
-107.79999389648438
 21
-89.800003051757812
 31
0.0
  0
LINE
  5
34F
100
AcDbEntity
  8
0
  6
CONTINUOUS
 62
               7
100
AcDbLine
 10
-98.199993896484386
 20
-77.800003051757812
 30
0.0
 11
-98.199993896484386
 21
-89.800003051757812
 31
0.0
  0
LINE
  5
350
100
AcDbEntity
  8
0
  6
CONTINUOUS
 62
               7
100
AcDbLine
 10
-88.599993896484378
 20
-77.800003051757812
 30
0.0
 11
-88.599993896484378
 21
-89.800003051757812
 31
0.0
  0
LINE
  5
351
100
AcDbEntity
  8
0
  6
CONTINUOUS
 62
               7
100
AcDbLine
 10
-78.999993896484384
 20
-77.800003051757812
 30
0.0
 11
-78.999993896484384
 21
-89.800003051757812
 31
0.0
  0
MTEXT
  5
352
100
AcDbEntity
  8
0
  6
CONTINUOUS
 62
               7
100
AcDbMText
 10
-104.06666057904562
 20
-80.800003051757813
 30
0.0
 40
3.2000000476837158
 41
0.0
 71
               4
 72
               1
  1
\A1;4
  7
MX_NOTE_STANDARD
  0
MTEXT
  5
353
100
AcDbEntity
  8
0
  6
CONTINUOUS
 62
               7
100
AcDbMText
 10
-94.466660579045623
 20
-80.800003051757813
 30
0.0
 40
3.2000000476837158
 41
0.0
 71
               4
 72
               1
  1
\A1;6
  7
MX_NOTE_STANDARD
  0
MTEXT
  5
354
100
AcDbEntity
  8
0
  6
CONTINUOUS
 62
               7
100
AcDbMText
 10
-84.866660579045629
 20
-80.800003051757813
 30
0.0
 40
3.2000000476837158
 41
0.0
 71
               4
 72
               1
  1
\A1;8
  7
MX_NOTE_STANDARD
  0
MTEXT
  5
355
100
AcDbEntity
  8
0
  6
CONTINUOUS
 62
               7
100
AcDbMText
 10
-84.759993895530727
 20
-86.800003051757813
 30
0.0
 40
3.2000000476837158
 41
0.0
 71
               4
 72
               1
  1
\W1.200;\A1;0
  7
MX_NOTE_STANDARD
  0
MTEXT
  5
356
100
AcDbEntity
  8
0
  6
CONTINUOUS
 62
               7
100
AcDbMText
 10
-96.066660602887481
 20
-86.800003051757813
 30
0.0
 40
3.2000000476837158
 41
0.0
 71
               4
 72
               1
  1
\A1;-2
  7
MX_NOTE_STANDARD
  0
MTEXT
  5
357
100
AcDbEntity
  8
0
  6
CONTINUOUS
 62
               7
100
AcDbMText
 10
-105.66666060288748
 20
-86.800003051757813
 30
0.0
 40
3.2000000476837158
 41
0.0
 71
               4
 72
               1
  1
\A1;-4
  7
MX_NOTE_STANDARD
  0
MTEXT
  5
358
100
AcDbEntity
  8
0
  6
CONTINUOUS
 62
               7
100
AcDbMText
 10
-129.6319468378457
 20
-74.800003051757813
 30
0.0
 40
3.2000000476837158
 41
0.0
 71
               4
 72
               1
  1
\W1.065;\A1;STRETCH LIST
  7
MX_NOTE_STANDARD
  0
MTEXT
  5
359
100
AcDbEntity
  8
0
  6
CONTINUOUS
 62
               7
100
AcDbMText
 10
-88.023993985366843
 20
-75.800003051757813
 30
0.0
 40
3.2000000476837158
 41
0.0
 71
               4
 72
               1
  1
\W1.200;\A1;(mm)
  7
MX_NOTE_STANDARD
  0
MTEXT
  5
35A
100
AcDbEntity
  8
0
  6
CONTINUOUS
 62
               7
100
AcDbMText
 10
-130.90186156846724
 20
91.099999904632568
 30
0.0
 40
3.1999998092651367
 41
0.0
 71
               1
 72
               1
  1
\W1.121;\A1;MINIBIT CYLINDER
  7
MX_NOTE_STANDARD
  0
MTEXT
  5
35B
100
AcDbEntity
  8
0
  6
CONTINUOUS
 62
               7
100
AcDbMText
 10
-68.628569271613145
 20
68.5
 30
0.0
 40
3.1999998092651367
 41
0.0
 71
               4
 72
               1
  1
\W1.071;\A1;ZE155
  7
MX_NOTE_STANDARD
  0
MTEXT
  5
35C
100
AcDbEntity
  8
0
  6
CONTINUOUS
 62
               7
100
AcDbMText
 10
69.708335494995112
 20
68.5
 30
0.0
 40
3.1999998092651367
 41
0.0
 71
               4
 72
               1
  1
\A1;ZE255
  7
MX_NOTE_STANDARD
  0
MTEXT
  5
35D
100
AcDbEntity
  8
0
  6
CONTINUOUS
 62
               7
100
AcDbMText
 10
8.9397120463394373
 20
74.5
 30
0.0
 40
3.1999998092651367
 41
0.0
 71
               4
 72
               1
  1
\W1.059;\A1;MODEL:MBSAS6*ST(8)-ZE235
  7
MX_NOTE_STANDARD
  0
MTEXT
  5
35E
100
AcDbEntity
  8
0
  6
CONTINUOUS
 62
               7
100
AcDbMText
 10
-129.42685950870475
 20
74.5
 30
0.0
 40
3.1999998092651367
 41
0.0
 71
               4
 72
               1
  1
\W1.075;\A1;MODEL:MBSAS6*ST(8)-ZE135
  7
MX_NOTE_STANDARD
  0
LINE
  5
35F
100
AcDbEntity
  8
0
  6
CONTINUOUS
 62
               7
100
AcDbLine
 10
-138.39999389648437
 20
94.5
 30
0.0
 11
138.35000610351562
 21
94.5
 31
0.0
  0
LINE
  5
360
100
AcDbEntity
  8
0
  6
CONTINUOUS
 62
               7
100
AcDbLine
 10
138.35000610351562
 20
94.5
 30
0.0
 11
138.35000610351562
 21
-94.800003051757812
 31
0.0
  0
LINE
  5
361
100
AcDbEntity
  8
0
  6
CONTINUOUS
 62
               7
100
AcDbLine
 10
-138.39999389648437
 20
-94.800003051757812
 30
0.0
 11
138.35000610351562
 21
-94.800003051757812
 31
0.0
  0
LINE
  5
362
100
AcDbEntity
  8
0
  6
CONTINUOUS
 62
               7
100
AcDbLine
 10
-138.39999389648437
 20
94.5
 30
0.0
 11
-138.39999389648437
 21
-94.800003051757812
 31
0.0
  0
LINE
  5
363
100
AcDbEntity
  8
0
  6
CONTINUOUS
 62
               7
100
AcDbLine
 10
73.350006103515625
 20
-84.800003051757813
 30
0.0
 11
138.35000610351562
 21
-84.800003051757813
 31
0.0
  0
LINE
  5
364
100
AcDbEntity
  8
0
  6
CONTINUOUS
 62
               7
100
AcDbLine
 10
-138.39999389648437
 20
84.5
 30
0.0
 11
-73.399993896484375
 21
84.5
 31
0.0
  0
LINE
  5
365
100
AcDbEntity
  8
0
  6
CONTINUOUS
 62
               7
100
AcDbLine
 10
73.350006103515625
 20
84.5
 30
0.0
 11
138.35000610351562
 21
84.5
 31
0.0
  0
LINE
  5
366
100
AcDbEntity
  8
0
  6
CONTINUOUS
 62
               7
100
AcDbLine
 10
73.350006103515625
 20
-84.800003051757813
 30
0.0
 11
73.350006103515625
 21
-94.800003051757812
 31
0.0
  0
LINE
  5
367
100
AcDbEntity
  8
0
  6
CONTINUOUS
 62
               7
100
AcDbLine
 10
73.350006103515625
 20
94.5
 30
0.0
 11
73.350006103515625
 21
84.5
 31
0.0
  0
LINE
  5
368
100
AcDbEntity
  8
0
  6
CONTINUOUS
 62
               7
100
AcDbLine
 10
-73.399993896484375
 20
94.5
 30
0.0
 11
-73.399993896484375
 21
84.5
 31
0.0
  0
MTEXT
  5
369
100
AcDbEntity
  8
0
  6
CONTINUOUS
 62
               7
100
AcDbMText
 10
77.440529363489745
 20
-89.800003051757812
 30
0.0
 40
4.5
 41
0.0
 71
               4
 72
               1
  1
\W1.121;\A1;KOGANEI CORP.
  7
MX_NOTE_STANDARD
  0
MTEXT
  5
36A
100
AcDbEntity
  8
0
  6
CONTINUOUS
 62
               7
100
AcDbMText
 10
93.749460369842424
 20
89.5
 30
0.0
 40
3.1999998092651367
 41
0.0
 71
               4
 72
               1
  1
\W1.311;\A1;Ver. 1.0
  7
MX_NOTE_STANDARD
  0
ENDSEC
  0
SECTION
  2
OBJECTS
  0
DICTIONARY
  5
19
100
AcDbDictionary
  3
ACAD_GROUP
350
1A
  3
ACAD_MLINESTYLE
350
1B
  0
DICTIONARY
  5
1A
102
{ACAD_REACTORS
330
19
102
}
100
AcDbDictionary
  0
DICTIONARY
  5
1B
102
{ACAD_REACTORS
330
19
102
}
100
AcDbDictionary
  3
STANDARD
350
1C
  0
MLINESTYLE
  5
1C
102
{ACAD_REACTORS
330
1B
102
}
100
AcDbMlineStyle
  2
Standard
 70
               0
  3

 62
               0
 51
90.0
 52
90.0
 71
               2
 49
0.5
 62
             256
  6
ByLayer
 49
-0.5
 62
             256
  6
ByLayer
  0
ENDSEC
  0
EOF
