  0
SECTION
  2
HEADER
  9
$ACADVER
  1
AC1012
  9
$DWGCODEPAGE
  3
dos932
  9
$INSBASE
 10
0.0
 20
0.0
 30
0.0
  9
$EXTMIN
 10
-138.39999389648437
 20
-94.800003051757812
 30
0.0
  9
$EXTMAX
 10
138.35000610351562
 20
94.5
 30
0.0
  9
$LIMMIN
 10
-138.39999389648437
 20
-94.800003051757812
  9
$LIMMAX
 10
138.35000610351562
 20
94.5
  9
$ORTHOMODE
 70
               0
  9
$REGENMODE
 70
               1
  9
$FILLMODE
 70
               1
  9
$QTEXTMODE
 70
               0
  9
$MIRRTEXT
 70
               1
  9
$DRAGMODE
 70
               2
  9
$LTSCALE
 40
1.0
  9
$OSMODE
 70
               0
  9
$ATTMODE
 70
               1
  9
$TEXTSIZE
 40
3.2000000476837158
  9
$TRACEWID
 40
0.05
  9
$TEXTSTYLE
  7
MX_NOTE_STANDARD
  9
$CLAYER
  8
0
  9
$CELTYPE
  6
CONTINUOUS
  9
$CECOLOR
 62
             256
  9
$CELTSCALE
 40
1.0
  9
$DELOBJ
 70
               1
  9
$DISPSILH
 70
               0
  9
$DIMSCALE
 40
1.0
  9
$DIMASZ
 40
2.5
  9
$DIMEXO
 40
1.5
  9
$DIMDLI
 40
3.75
  9
$DIMRND
 40
0.0
  9
$DIMDLE
 40
0.0
  9
$DIMEXE
 40
1.5
  9
$DIMTP
 40
0.0
  9
$DIMTM
 40
0.0
  9
$DIMTXT
 40
3.2000000476837158
  9
$DIMCEN
 40
2.5
  9
$DIMTSZ
 40
0.0
  9
$DIMTOL
 70
               0
  9
$DIMLIM
 70
               0
  9
$DIMTIH
 70
               0
  9
$DIMTOH
 70
               0
  9
$DIMSE1
 70
               0
  9
$DIMSE2
 70
               0
  9
$DIMTAD
 70
               1
  9
$DIMZIN
 70
               8
  9
$DIMBLK
  1

  9
$DIMASO
 70
               1
  9
$DIMSHO
 70
               1
  9
$DIMPOST
  1

  9
$DIMAPOST
  1

  9
$DIMALT
 70
               0
  9
$DIMALTD
 70
               4
  9
$DIMALTF
 40
0.0394
  9
$DIMLFAC
 40
1.0
  9
$DIMTOFL
 70
               1
  9
$DIMTVP
 40
0.0
  9
$DIMTIX
 70
               0
  9
$DIMSOXD
 70
               0
  9
$DIMSAH
 70
               0
  9
$DIMBLK1
  1

  9
$DIMBLK2
  1

  9
$DIMSTYLE
  2
MXDIMSTYLE
  9
$DIMCLRD
 70
               0
  9
$DIMCLRE
 70
               0
  9
$DIMCLRT
 70
               0
  9
$DIMTFAC
 40
1.0
  9
$DIMGAP
 40
1.0
  9
$DIMJUST
 70
               0
  9
$DIMSD1
 70
               0
  9
$DIMSD2
 70
               0
  9
$DIMTOLJ
 70
               1
  9
$DIMTZIN
 70
               0
  9
$DIMALTZ
 70
               0
  9
$DIMALTTZ
 70
               0
  9
$DIMFIT
 70
               3
  9
$DIMUPT
 70
               1
  9
$DIMUNIT
 70
               2
  9
$DIMDEC
 70
               4
  9
$DIMTDEC
 70
               4
  9
$DIMALTU
 70
               8
  9
$DIMALTTD
 70
               4
  9
$DIMTXSTY
  7
MX_NOTE_STANDARD
  9
$DIMAUNIT
 70
               0
  9
$LUNITS
 70
               2
  9
$LUPREC
 70
               4
  9
$SKETCHINC
 40
0.1
  9
$FILLETRAD
 40
0.0
  9
$AUNITS
 70
               0
  9
$AUPREC
 70
               0
  9
$MENU
  1
acad
  9
$ELEVATION
 40
0.0
  9
$PELEVATION
 40
0.0
  9
$THICKNESS
 40
0.0
  9
$LIMCHECK
 70
               0
  9
$BLIPMODE
 70
               1
  9
$CHAMFERA
 40
0.0
  9
$CHAMFERB
 40
0.0
  9
$CHAMFERC
 40
0.0
  9
$CHAMFERD
 40
0.0
  9
$SKPOLY
 70
               0
  9
$TDCREATE
 40
2452209.493275463
  9
$TDUPDATE
 40
2452209.493275463
  9
$TDINDWG
 40
0.0000000000
  9
$TDUSRTIMER
 40
0.0000000000
  9
$USRTIMER
 70
               1
  9
$ANGBASE
 50
0.0
  9
$ANGDIR
 70
               0
  9
$PDMODE
 70
               0
  9
$PDSIZE
 40
0.0
  9
$PLINEWID
 40
0.0
  9
$COORDS
 70
               1
  9
$SPLFRAME
 70
               0
  9
$SPLINETYPE
 70
               6
  9
$SPLINESEGS
 70
               8
  9
$ATTDIA
 70
               0
  9
$ATTREQ
 70
               1
  9
$HANDLING
 70
               1
  9
$HANDSEED
  5
363
  9
$SURFTAB1
 70
               6
  9
$SURFTAB2
 70
               6
  9
$SURFTYPE
 70
               6
  9
$SURFU
 70
               6
  9
$SURFV
 70
               6
  9
$UCSNAME
  2

  9
$UCSORG
 10
0.0
 20
0.0
 30
0.0
  9
$UCSXDIR
 10
1.0
 20
0.0
 30
0.0
  9
$UCSYDIR
 10
0.0
 20
1.0
 30
0.0
  9
$PUCSNAME
  2

  9
$PUCSORG
 10
0.0
 20
0.0
 30
0.0
  9
$PUCSXDIR
 10
1.0
 20
0.0
 30
0.0
  9
$PUCSYDIR
 10
0.0
 20
1.0
 30
0.0
  9
$USERI1
 70
               0
  9
$USERI2
 70
               0
  9
$USERI3
 70
               0
  9
$USERI4
 70
               0
  9
$USERI5
 70
               0
  9
$USERR1
 40
0.0
  9
$USERR2
 40
0.0
  9
$USERR3
 40
0.0
  9
$USERR4
 40
0.0
  9
$USERR5
 40
0.0
  9
$WORLDVIEW
 70
               1
  9
$SHADEDGE
 70
               3
  9
$SHADEDIF
 70
              70
  9
$TILEMODE
 70
               1
  9
$MAXACTVP
 70
              16
  9
$PINSBASE
 10
0.0
 20
0.0
 30
0.0
  9
$PLIMCHECK
 70
               0
  9
$PEXTMIN
 10
1.0000000000000000E+20
 20
1.0000000000000000E+20
 30
1.0000000000000000E+20
  9
$PEXTMAX
 10
-1.0000000000000000E+20
 20
-1.0000000000000000E+20
 30
-1.0000000000000000E+20
  9
$PLIMMIN
 10
0.0
 20
0.0
  9
$PLIMMAX
 10
12.0
 20
9.0
  9
$UNITMODE
 70
               0
  9
$VISRETAIN
 70
               0
  9
$PLINEGEN
 70
               1
  9
$PSLTSCALE
 70
               0
  9
$TREEDEPTH
 70
            3020
  9
$PICKSTYLE
 70
               1
  9
$CMLSTYLE
  2
Standard
  9
$CMLJUST
 70
               0
  9
$CMLSCALE
 40
1.0
  9
$SAVEIMAGES
 70
               0
  0
ENDSEC
  0
SECTION
  2
CLASSES
  0
CLASS
  1
LWPOLYLINE
  2
AcDbPolyline
  3
"AutoCAD"
 90
        0
280
               0
281
               1
  0
CLASS
  1
IMAGE
  2
AcDbRasterImage
  3
ISM
 90
      127
280
               0
281
               1
  0
CLASS
  1
OLE2FRAME
  2
AcDbOle2Frame
  3
""
 90
        0
280
               0
281
               1
  0
CLASS
  1
HATCH
  2
AcDbHatch
  3
"ACAD_SEDONA"
 90
        0
280
               0
281
               1
  0
CLASS
  1
DICTIONARYVAR
  2
AcDbDictionaryVar
  3
"AutoCAD"
 90
        0
280
               0
281
               0
  0
CLASS
  1
RASTERVARIABLES
  2
AcDbRasterVariables
  3
ISM
 90
        0
280
               0
281
               0
  0
CLASS
  1
IMAGEDEF
  2
AcDbRasterImageDef
  3
ISM
 90
        0
280
               0
281
               0
  0
CLASS
  1
IMAGEDEF_REACTOR
  2
AcDbRasterImageDefReactor
  3
ISM
 90
        1
280
               0
281
               0
  0
CLASS
  1
IDBUFFER
  2
AcDbIdBuffer
  3
"Acad"
 90
        0
280
               0
281
               0
  0
CLASS
  1
SPATIAL_FILTER
  2
AcDbSpatialFilter
  3
"Acad"
 90
        0
280
               0
281
               0
  0
CLASS
  1
XRECORD
  2
AcDbXrecord
  3
"<Built In>"
 90
        0
280
               0
281
               0
  0
CLASS
  1
SORTENTSTABLE
  2
AcDbSortentsTable
  3
"AutoCAD"
 90
        0
280
               0
281
               0
  0
CLASS
  1
LAYER_INDEX
  2
AcDbLayerIndex
  3
"Acad"
 90
        0
280
               0
281
               0
  0
CLASS
  1
SPATIAL_INDEX
  2
AcDbSpatialIndex
  3
"Acad"
 90
        0
280
               0
281
               0
  0
CLASS
  1
OBJECT_PTR
  2
CAseDLPNTableRecord
  3
"ASE-LPNTableRecord"
 90
        1
280
               0
281
               0
  0
CLASS
  1
LAYOUT
  2
AcDbLayout
  3
"AutoCAD 2000"
 90
        1
280
               0
281
               0
  0
CLASS
  1
PLOTSETTINGS
  2
AcDbPlotSettings
  3
"AutoCAD 2000"
 90
        1
280
               0
281
               0
  0
CLASS
  1
ACDBDICTIONARYWDFLT
  2
AcDbDictionaryWithDefault
  3
"AutoCAD 2000"
 90
        1
280
               0
281
               0
  0
CLASS
  1
ACDBPLACEHOLDER
  2
AcDbPlaceHolder
  3
"AutoCAD 2000"
 90
        1
280
               0
281
               0
  0
CLASS
  1
VBA_PROJECT
  2
AcDbVbaProject
  3
"acadvba"
 90
        1
280
               0
281
               0
  0
CLASS
  1
WIPEOUT
  2
AcDbWipeout
  3
WipeOut|AutoCAD Express Tool|expresstools@autodesk.com
 90
      127
280
               0
281
               1
  0
CLASS
  1
WIPEOUTVARIABLES
  2
AcDbWipeoutVariables
  3
WipeOut|AutoCAD Express Tool|expresstools@autodesk.com
 90
        0
280
               0
281
               0
  0
CLASS
  1
RTEXT
  2
RText
  3
RText|AutoCAD Express Tool|expresstools@autodesk.com
 90
        0
280
               0
281
               1
  0
CLASS
  1
ARCALIGNEDTEXT
  2
AcDbArcAlignedText
  3
ATEXT|AutoCAD Express Tool|expresstools@autodesk.com
 90
        0
280
               0
281
               1
  0
ENDSEC
  0
SECTION
  2
TABLES
  0
TABLE
  2
VPORT
  5
7
100
AcDbSymbolTable
 70
               1
  0
VPORT
  5
15
100
AcDbSymbolTableRecord
100
AcDbViewportTableRecord
  2
*ACTIVE
 70
               0
 10
0.0
 20
0.0
 11
1.0
 21
1.0
 12
-0.024993896484375
 22
-0.1500015258789063
 13
0.0
 23
0.0
 14
1.0
 24
1.0
 15
0.0
 25
0.0
 16
0.0
 26
0.0
 36
1.0
 17
0.0
 27
0.0
 37
0.0
 40
191.1930030822754
 41
1.7320508075688772
 42
50.0
 43
0.0
 44
0.0
 50
0.0
 51
0.0
 71
               0
 72
             100
 73
               1
 74
               1
 75
               0
 76
               0
 77
               0
 78
               0
  0
ENDTAB
  0
TABLE
  2
LTYPE
  5
4
100
AcDbSymbolTable
 70
               6
  0
LTYPE
  5
11
100
AcDbSymbolTableRecord
100
AcDbLinetypeTableRecord
  2
BYBLOCK
 70
              64
  3

 72
              65
 73
               0
 40
0.0
  0
LTYPE
  5
12
100
AcDbSymbolTableRecord
100
AcDbLinetypeTableRecord
  2
BYLAYER
 70
              64
  3

 72
              65
 73
               0
 40
0.0
  0
LTYPE
  5
13
100
AcDbSymbolTableRecord
100
AcDbLinetypeTableRecord
  2
CONTINUOUS
 70
              64
  3
Solid line
 72
              65
 73
               0
 40
0.0
  0
LTYPE
  5
27
100
AcDbSymbolTableRecord
100
AcDbLinetypeTableRecord
  2
PHANTOM
 70
              64
  3
Phantom ______  __  __  ______  __  __  ______
 72
              65
 73
               6
 40
63.500000000000007
 49
31.75
 74
               0
 49
-6.3499999999999996
 74
               0
 49
6.3499999999999996
 74
               0
 49
-6.3499999999999996
 74
               0
 49
6.3499999999999996
 74
               0
 49
-6.3499999999999996
 74
               0
  0
LTYPE
  5
47
100
AcDbSymbolTableRecord
100
AcDbLinetypeTableRecord
  2
CENTER
 70
              64
  3
Center ____ _ ____ _ ____ _ ____ _ ____ _ ____
 72
              65
 73
               4
 40
50.800000000000004
 49
31.75
 74
               0
 49
-6.3499999999999996
 74
               0
 49
6.3499999999999996
 74
               0
 49
-6.3499999999999996
 74
               0
  0
LTYPE
  5
10B
100
AcDbSymbolTableRecord
100
AcDbLinetypeTableRecord
  2
DASHED
 70
              64
  3
Dashed __ __ __ __ __ __ __ __ __ __ __ __ __ _
 72
              65
 73
               2
 40
19.049999999999997
 49
12.699999999999999
 74
               0
 49
-6.3499999999999996
 74
               0
  0
ENDTAB
  0
TABLE
  2
LAYER
  5
2
100
AcDbSymbolTable
 70
               2
  0
LAYER
  5
14
100
AcDbSymbolTableRecord
100
AcDbLayerTableRecord
  2
0
 70
               0
 62
               7
  6
CONTINUOUS
  0
LAYER
  5
1D
100
AcDbSymbolTableRecord
100
AcDbLayerTableRecord
  2
DEFPOINTS
 70
               0
 62
               7
  6
CONTINUOUS
  0
ENDTAB
  0
TABLE
  2
STYLE
  5
3
100
AcDbSymbolTable
 70
               1
  0
STYLE
  5
17
100
AcDbSymbolTableRecord
100
AcDbTextStyleTableRecord
  2
MX_NOTE_STANDARD
 70
               0
 40
3.2000000476837158
 41
1.0
 50
0.0
 71
               0
 42
3.2000000476837158
  3
txt.shx
  4
extfont.shx
  0
ENDTAB
  0
TABLE
  2
VIEW
  5
5
100
AcDbSymbolTable
 70
               0
  0
ENDTAB
  0
TABLE
  2
UCS
  5
6
100
AcDbSymbolTable
 70
               0
  0
ENDTAB
  0
TABLE
  2
APPID
  5
8
100
AcDbSymbolTable
 70
               1
  0
APPID
  5
16
100
AcDbSymbolTableRecord
100
AcDbRegAppTableRecord
  2
ACAD
 70
               0
  0
ENDTAB
  0
TABLE
  2
DIMSTYLE
  5
9
100
AcDbSymbolTable
 70
               1
  0
DIMSTYLE
105
18
100
AcDbSymbolTableRecord
100
AcDbDimStyleTableRecord
  2
MXDIMSTYLE
 70
               0
  3

  4

  5

  6

  7

 40
1.0
 41
2.5
 42
1.5
 43
3.75
 44
1.5
 45
0.0
 46
0.0
 47
0.0
 48
0.0
 71
               0
 72
               0
 73
               0
 74
               0
 75
               0
 76
               0
 77
               1
 78
               8
140
3.2000000476837158
141
2.5
142
0.0
143
0.0394
144
1.0
145
0.0
146
1.0
147
1.0
170
               0
171
               4
172
               1
173
               0
174
               0
175
               0
176
               0
177
               0
178
               0
270
               2
271
               4
272
               4
273
               8
274
               4
275
               0
280
               0
281
               0
282
               0
283
               1
284
               0
285
               0
286
               0
287
               3
288
               1
340
17
  0
ENDTAB
  0
TABLE
  2
BLOCK_RECORD
  5
1
100
AcDbSymbolTable
 70
              15
  0
BLOCK_RECORD
  5
A
100
AcDbSymbolTableRecord
100
AcDbBlockTableRecord
  2
*MODEL_SPACE
  0
BLOCK_RECORD
  5
B
100
AcDbSymbolTableRecord
100
AcDbBlockTableRecord
  2
*PAPER_SPACE
  0
BLOCK_RECORD
  5
1E
100
AcDbSymbolTableRecord
100
AcDbBlockTableRecord
  2
MS_1
  0
BLOCK_RECORD
  5
1F
100
AcDbSymbolTableRecord
100
AcDbBlockTableRecord
  2
MS_2
  0
BLOCK_RECORD
  5
20
100
AcDbSymbolTableRecord
100
AcDbBlockTableRecord
  2
MS_3
  0
BLOCK_RECORD
  5
21
100
AcDbSymbolTableRecord
100
AcDbBlockTableRecord
  2
MS_4
  0
BLOCK_RECORD
  5
22
100
AcDbSymbolTableRecord
100
AcDbBlockTableRecord
  2
MS_5
  0
BLOCK_RECORD
  5
23
100
AcDbSymbolTableRecord
100
AcDbBlockTableRecord
  2
MS_6
  0
BLOCK_RECORD
  5
24
100
AcDbSymbolTableRecord
100
AcDbBlockTableRecord
  2
MS_7
  0
BLOCK_RECORD
  5
25
100
AcDbSymbolTableRecord
100
AcDbBlockTableRecord
  2
MS_8
  0
BLOCK_RECORD
  5
8D
100
AcDbSymbolTableRecord
100
AcDbBlockTableRecord
  2
*X8
  0
BLOCK_RECORD
  5
127
100
AcDbSymbolTableRecord
100
AcDbBlockTableRecord
  2
*X9
  0
BLOCK_RECORD
  5
16F
100
AcDbSymbolTableRecord
100
AcDbBlockTableRecord
  2
*X10
  0
BLOCK_RECORD
  5
1B5
100
AcDbSymbolTableRecord
100
AcDbBlockTableRecord
  2
*X11
  0
BLOCK_RECORD
  5
270
100
AcDbSymbolTableRecord
100
AcDbBlockTableRecord
  2
*X12
  0
BLOCK_RECORD
  5
2E5
100
AcDbSymbolTableRecord
100
AcDbBlockTableRecord
  2
*X13
  0
BLOCK_RECORD
  5
323
100
AcDbSymbolTableRecord
100
AcDbBlockTableRecord
  2
_OPEN30
  0
ENDTAB
  0
ENDSEC
  0
SECTION
  2
BLOCKS
  0
BLOCK
  5
D
100
AcDbEntity
  8
0
100
AcDbBlockBegin
  2
*MODEL_SPACE
 70
               0
 10
0.0
 20
0.0
 30
0.0
  3
*MODEL_SPACE
  1

  0
ENDBLK
  5
E
100
AcDbEntity
  8
0
100
AcDbBlockEnd
  0
BLOCK
  5
F
100
AcDbEntity
 67
               1
  8
0
100
AcDbBlockBegin
  2
*PAPER_SPACE
 70
               0
 10
0.0
 20
0.0
 30
0.0
  3
*PAPER_SPACE
  1

  0
ENDBLK
  5
10
100
AcDbEntity
 67
               1
  8
0
100
AcDbBlockEnd
  0
BLOCK
  5
26
100
AcDbEntity
  8
0
100
AcDbBlockBegin
  2
MS_1
 70
               0
 10
0.0
 20
0.0
 30
0.0
  3
MS_1
  1

  0
LINE
  5
28
100
AcDbEntity
  8
0
  6
PHANTOM
 62
               3
100
AcDbLine
 10
24.41573440970393
 20
3.0696344960563451
 30
0.0
 11
14.754904172152379
 21
3.0696344960563451
 31
0.0
  0
LINE
  5
29
100
AcDbEntity
  8
0
  6
PHANTOM
 62
               3
100
AcDbLine
 10
24.41573440970393
 20
31.0
 30
0.0
 11
24.41573440970393
 21
3.0696344960563451
 31
0.0
  0
LINE
  5
2A
100
AcDbEntity
  8
0
  6
PHANTOM
 62
               3
100
AcDbLine
 10
14.754904172152379
 20
3.0696344960563451
 30
0.0
 11
14.754904172152379
 21
-31.0
 31
0.0
  0
LINE
  5
2B
100
AcDbEntity
  8
0
  6
CONTINUOUS
 62
               4
100
AcDbLine
 10
33.0
 20
-8.4659379162133632
 30
0.0
 11
40.138268674687176
 21
-8.4659379162133632
 31
0.0
  0
LINE
  5
2C
100
AcDbEntity
  8
0
  6
CONTINUOUS
 62
               4
100
AcDbLine
 10
33.0
 20
-5.7659379104893773
 30
0.0
 11
40.861731487764793
 21
-5.7659379104893773
 31
0.0
  0
LINE
  5
2D
100
AcDbEntity
  8
0
  6
CONTINUOUS
 62
               4
100
AcDbLine
 10
32.0
 20
5.7659379104893844
 30
0.0
 11
40.138268674687168
 21
5.7659379104893844
 31
0.0
  0
LINE
  5
2E
100
AcDbEntity
  8
0
  6
CONTINUOUS
 62
               4
100
AcDbLine
 10
22.500000032859987
 20
8.4659379162133774
 30
0.0
 11
40.861731487764786
 21
8.4659379162133774
 31
0.0
  0
LINE
  5
2F
100
AcDbEntity
  8
0
  6
CONTINUOUS
 62
               4
100
AcDbLine
 10
7.0
 20
9.7322330118045173
 30
0.0
 11
7.0
 21
7.1733500838578399
 31
0.0
  0
LINE
  5
30
100
AcDbEntity
  8
0
  6
CONTINUOUS
 62
               4
100
AcDbLine
 10
22.500000032859987
 20
9.7322330118045173
 30
0.0
 11
22.500000032859987
 21
7.4161354740104208
 31
0.0
  0
LINE
  5
31
100
AcDbEntity
  8
0
  6
CONTINUOUS
 62
               4
100
AcDbLine
 10
33.0
 20
-4.7330951872262688
 30
0.0
 11
33.0
 21
-9.7322330118045102
 31
0.0
  0
LINE
  5
32
100
AcDbEntity
  8
0
  6
CONTINUOUS
 62
               4
100
AcDbLine
 10
17.499999967139757
 20
-7.4161354740104208
 30
0.0
 11
17.499999967139757
 21
-9.7322330118045102
 31
0.0
  0
LINE
  5
33
100
AcDbEntity
  8
0
  6
CONTINUOUS
 62
               4
100
AcDbLine
 10
32.00000001764468
 20
-4.7330951872262688
 30
0.0
 11
33.000000019764684
 21
-4.7330951872262688
 31
0.0
  0
LINE
  5
34
100
AcDbEntity
  8
0
  6
CONTINUOUS
 62
               4
100
AcDbLine
 10
31.999999997879996
 20
-6.4795418114506731
 30
0.0
 11
33.0
 21
-6.4795418114506731
 31
0.0
  0
ELLIPSE
  5
35
100
AcDbEntity
  8
0
  6
CONTINUOUS
 62
               4
100
AcDbEllipse
 10
9.0000000042400359
 20
8.6715728377760968
 30
0.0
 11
-1.25000000265
 21
0.0000000000000002
 31
0.0
210
0.0
220
0.0
230
1.0
 40
0.7071067811865475
 41
0.0
 42
6.2831853071795862
  0
LINE
  5
36
100
AcDbEntity
  8
0
  6
CONTINUOUS
 62
               4
100
AcDbLine
 10
9.2500000047699871
 20
9.5375982433965163
 30
0.0
 11
9.2500000047699871
 21
7.8055474321556702
 31
0.0
  0
LINE
  5
37
100
AcDbEntity
  8
0
  6
CONTINUOUS
 62
               4
100
AcDbLine
 10
8.750000003709971
 20
9.5375982433965163
 30
0.0
 11
8.750000003709971
 21
7.8055474321556702
 31
0.0
  0
ELLIPSE
  5
38
100
AcDbEntity
  8
0
  6
CONTINUOUS
 62
               4
100
AcDbEllipse
 10
19.499999971379765
 20
-8.6715728377760826
 30
0.0
 11
-1.25000000265
 21
0.0000000000000002
 31
0.0
210
0.0
220
0.0
230
1.0
 40
0.7071067811865475
 41
0.0
 42
6.2831853071795862
  0
LINE
  5
39
100
AcDbEntity
  8
0
  6
CONTINUOUS
 62
               4
100
AcDbLine
 10
19.749999971909773
 20
-9.5375982433965021
 30
0.0
 11
19.749999971909773
 21
-7.805547432155663
 31
0.0
  0
LINE
  5
3A
100
AcDbEntity
  8
0
  6
CONTINUOUS
 62
               4
100
AcDbLine
 10
19.249999970849757
 20
-9.5375982433965021
 30
0.0
 11
19.249999970849757
 21
-7.805547432155663
 31
0.0
  0
LINE
  5
3B
100
AcDbEntity
  8
0
  6
CONTINUOUS
 62
             200
100
AcDbLine
 10
39.804332899523672
 20
4.5196726172978217
 30
0.0
 11
41.21330178888897
 21
9.7780161569875332
 31
0.0
  0
LINE
  5
3C
100
AcDbEntity
  8
0
  6
CONTINUOUS
 62
             200
100
AcDbLine
 10
39.804332899523679
 20
-9.7122032094048905
 30
0.0
 11
41.213301788888977
 21
-4.453859669715186
 31
0.0
  0
LINE
  5
3D
100
AcDbEntity
  8
0
  6
CONTINUOUS
 62
               4
100
AcDbLine
 10
7.0000000346271634
 20
9.7322330118045173
 30
0.0
 11
22.500000032859987
 21
9.7322330118045173
 31
0.0
  0
LINE
  5
3E
100
AcDbEntity
  8
0
  6
CONTINUOUS
 62
               4
100
AcDbLine
 10
7.0000000346271634
 20
7.6109126637476621
 30
0.0
 11
22.500000022298906
 21
7.6109126637476621
 31
0.0
  0
LINE
  5
3F
100
AcDbEntity
  8
0
  6
CONTINUOUS
 62
               4
100
AcDbLine
 10
17.499999978835575
 20
-9.7322330118045102
 30
0.0
 11
33.0
 21
-9.7322330118045102
 31
0.0
  0
LINE
  5
40
100
AcDbEntity
  8
0
  6
CONTINUOUS
 62
               4
100
AcDbLine
 10
17.499999978835575
 20
-7.610912663747655
 30
0.0
 11
33.0
 21
-7.610912663747655
 31
0.0
  0
LINE
  5
41
100
AcDbEntity
  8
0
  6
CONTINUOUS
 62
               2
100
AcDbLine
 10
-10.0
 20
1.7000000000000028
 30
0.0
 11
-6.8000000000000114
 21
1.7000000000000028
 31
0.0
  0
LINE
  5
42
100
AcDbEntity
  8
0
  6
CONTINUOUS
 62
               7
100
AcDbLine
 10
-9.7000000000000171
 20
2.0
 30
0.0
 11
-10.0
 21
1.7000000000000028
 31
0.0
  0
LINE
  5
43
100
AcDbEntity
  8
0
  6
CONTINUOUS
 62
               2
100
AcDbLine
 10
-1.0
 20
1.7000000000000028
 30
0.0
 11
-0.4803847577293539
 21
2.0
 31
0.0
  0
LINE
  5
44
100
AcDbEntity
  8
0
  6
CONTINUOUS
 62
               7
100
AcDbLine
 10
-9.7000000000000171
 20
-2.0
 30
0.0
 11
-9.7000000000000171
 21
2.0
 31
0.0
  0
LINE
  5
45
100
AcDbEntity
  8
0
  6
CONTINUOUS
 62
               7
100
AcDbLine
 10
-1.0
 20
-2.0
 30
0.0
 11
-1.0
 21
2.0
 31
0.0
  0
LINE
  5
46
100
AcDbEntity
  8
0
  6
CONTINUOUS
 62
               7
100
AcDbLine
 10
-10.0
 20
-1.7000000000000028
 30
0.0
 11
-10.0
 21
1.7000000000000028
 31
0.0
  0
LINE
  5
48
100
AcDbEntity
  8
0
  6
CENTER
 62
               2
100
AcDbLine
 10
5.0
 20
11.899999999999999
 30
0.0
 11
5.0
 21
5.1000000000000014
 31
0.0
  0
LINE
  5
49
100
AcDbEntity
  8
0
  6
CENTER
 62
               2
100
AcDbLine
 10
1.5999999999999943
 20
8.5
 30
0.0
 11
8.4000000000000057
 21
8.5
 31
0.0
  0
LINE
  5
4A
100
AcDbEntity
  8
0
  6
CONTINUOUS
 62
               7
100
AcDbLine
 10
32.0
 20
11.5
 30
0.0
 11
32.0
 21
8.4659379162133774
 31
0.0
  0
LINE
  5
4B
100
AcDbEntity
  8
0
  6
CONTINUOUS
 62
               7
100
AcDbLine
 10
-9.7000000000000171
 20
2.0
 30
0.0
 11
-6.8000000000000114
 21
2.0
 31
0.0
  0
LINE
  5
4C
100
AcDbEntity
  8
0
  6
CONTINUOUS
 62
               7
100
AcDbLine
 10
0.0
 20
11.5
 30
0.0
 11
0.0
 21
-11.5
 31
0.0
  0
LINE
  5
4D
100
AcDbEntity
  8
0
  6
CONTINUOUS
 62
               7
100
AcDbLine
 10
-0.0000000147648791
 20
11.5
 30
0.0
 11
32.0
 21
11.5
 31
0.0
  0
LINE
  5
4E
100
AcDbEntity
  8
0
  6
CENTER
 62
               2
100
AcDbLine
 10
-11.327718340488786
 20
0.0
 30
0.0
 11
33.239086512929219
 21
0.0
 31
0.0
  0
ARC
  5
4F
100
AcDbEntity
  8
0
  6
CONTINUOUS
 62
               7
100
AcDbCircle
 10
5.0
 20
8.5
 30
0.0
 40
2.4000000000000004
100
AcDbArc
 50
30.892599775499882
 51
333.15295903779526
  0
CIRCLE
  5
50
100
AcDbEntity
  8
0
  6
CONTINUOUS
 62
               7
100
AcDbCircle
 10
5.0
 20
8.5
 30
0.0
 40
1.3499999999999996
  0
LINE
  5
51
100
AcDbEntity
  8
0
  6
CENTER
 62
               2
100
AcDbLine
 10
5.0
 20
-11.899999999999999
 30
0.0
 11
5.0
 21
-5.1000000000000014
 31
0.0
  0
CIRCLE
  5
52
100
AcDbEntity
  8
0
  6
CONTINUOUS
 62
               7
100
AcDbCircle
 10
5.0
 20
-8.5
 30
0.0
 40
2.4000000000000004
  0
CIRCLE
  5
53
100
AcDbEntity
  8
0
  6
CONTINUOUS
 62
               7
100
AcDbCircle
 10
5.0
 20
-8.5
 30
0.0
 40
1.3499999999999996
  0
LINE
  5
54
100
AcDbEntity
  8
0
  6
CENTER
 62
               2
100
AcDbLine
 10
1.5999999999999943
 20
-8.5
 30
0.0
 11
8.4000000000000057
 21
-8.5
 31
0.0
  0
LINE
  5
55
100
AcDbEntity
  8
0
  6
CONTINUOUS
 62
               7
100
AcDbLine
 10
-9.7000000000000171
 20
-2.0
 30
0.0
 11
-6.8000000000000114
 21
-2.0
 31
0.0
  0
LINE
  5
56
100
AcDbEntity
  8
0
  6
CONTINUOUS
 62
               2
100
AcDbLine
 10
-1.0
 20
-1.7000000000000028
 30
0.0
 11
-0.4803847577293539
 21
-2.0
 31
0.0
  0
LINE
  5
57
100
AcDbEntity
  8
0
  6
CONTINUOUS
 62
               7
100
AcDbLine
 10
-9.7000000000000171
 20
-2.0
 30
0.0
 11
-10.0
 21
-1.7000000000000028
 31
0.0
  0
LINE
  5
58
100
AcDbEntity
  8
0
  6
CONTINUOUS
 62
               2
100
AcDbLine
 10
-10.0
 20
-1.7000000000000028
 30
0.0
 11
-6.8000000000000114
 21
-1.7000000000000028
 31
0.0
  0
LINE
  5
59
100
AcDbEntity
  8
0
  6
CONTINUOUS
 62
               7
100
AcDbLine
 10
-0.0000000147648791
 20
-11.5
 30
0.0
 11
32.0
 21
-11.5
 31
0.0
  0
LINE
  5
5A
100
AcDbEntity
  8
0
  6
CONTINUOUS
 62
               7
100
AcDbLine
 10
0.0
 20
9.4493902970812869
 30
0.0
 11
2.7957636098167882
 21
9.4493902970812869
 31
0.0
  0
LINE
  5
5B
100
AcDbEntity
  8
0
  6
CONTINUOUS
 62
               7
100
AcDbLine
 10
0.0
 20
7.4161354740104208
 30
0.0
 11
2.8586831880122503
 21
7.4161354740104208
 31
0.0
  0
LINE
  5
5C
100
AcDbEntity
  8
0
  6
CONTINUOUS
 62
               7
100
AcDbLine
 10
0.0
 20
5.4999999300492668
 30
0.0
 11
32.0
 21
5.4999999300492668
 31
0.0
  0
LINE
  5
5D
100
AcDbEntity
  8
0
  6
CONTINUOUS
 62
               7
100
AcDbLine
 10
22.500000032859987
 20
9.4493902970812869
 30
0.0
 11
32.0
 21
9.4493902970812869
 31
0.0
  0
LINE
  5
5E
100
AcDbEntity
  8
0
  6
CONTINUOUS
 62
               7
100
AcDbLine
 10
7.1413168119877497
 20
7.4161354740104208
 30
0.0
 11
32.0
 21
7.4161354740104208
 31
0.0
  0
LINE
  5
5F
100
AcDbEntity
  8
0
  6
CONTINUOUS
 62
               7
100
AcDbLine
 10
0.0
 20
-5.4999999300492668
 30
0.0
 11
32.0
 21
-5.4999999300492668
 31
0.0
  0
LINE
  5
60
100
AcDbEntity
  8
0
  6
CONTINUOUS
 62
               7
100
AcDbLine
 10
7.2042363901832118
 20
-9.4493902970812869
 30
0.0
 11
17.499999967139757
 21
-9.4493902970812869
 31
0.0
  0
LINE
  5
61
100
AcDbEntity
  8
0
  6
CONTINUOUS
 62
               7
100
AcDbLine
 10
7.1413168119877497
 20
-7.4161354740104208
 30
0.0
 11
32.0
 21
-7.4161354740104208
 31
0.0
  0
LINE
  5
62
100
AcDbEntity
  8
0
  6
CONTINUOUS
 62
               7
100
AcDbLine
 10
0.0
 20
-9.4493902970812869
 30
0.0
 11
2.7957636098167882
 21
-9.4493902970812869
 31
0.0
  0
LINE
  5
63
100
AcDbEntity
  8
0
  6
CONTINUOUS
 62
               7
100
AcDbLine
 10
0.0
 20
-7.4161354740104208
 30
0.0
 11
2.8586831880122503
 21
-7.4161354740104208
 31
0.0
  0
LINE
  5
64
100
AcDbEntity
  8
0
  6
CENTER
 62
               2
100
AcDbLine
 10
10.0
 20
-1.9760956580291094
 30
0.0
 11
10.0
 21
1.9547775518886965
 31
0.0
  0
CIRCLE
  5
65
100
AcDbEntity
  8
0
  6
CONTINUOUS
 62
               2
100
AcDbCircle
 10
10.0
 20
0.0000000000000142
 30
0.0
 40
1.5
  0
CIRCLE
  5
66
100
AcDbEntity
  8
0
  6
CONTINUOUS
 62
               7
100
AcDbCircle
 10
10.0
 20
0.0000000000000142
 30
0.0
 40
1.1999999999999886
  0
LINE
  5
67
100
AcDbEntity
  8
0
  6
CENTER
 62
               2
100
AcDbLine
 10
29.0
 20
1.9547775518886965
 30
0.0
 11
29.0
 21
-1.9760956580291094
 31
0.0
  0
CIRCLE
  5
68
100
AcDbEntity
  8
0
  6
CONTINUOUS
 62
               2
100
AcDbCircle
 10
29.0
 20
0.0000000000000142
 30
0.0
 40
1.5
  0
CIRCLE
  5
69
100
AcDbEntity
  8
0
  6
CONTINUOUS
 62
               7
100
AcDbCircle
 10
29.0
 20
0.0000000000000142
 30
0.0
 40
1.1999999999999886
  0
SPLINE
  5
6A
100
AcDbEntity
  8
0
  6
CONTINUOUS
 62
               7
100
AcDbSpline
210
0.0
220
0.0
230
1.0
 70
               0
 71
               3
 72
               0
 73
               0
 74
               5
 44
0.000001
 12
-0.5262037747144672
 22
-0.850358505264836
 32
0.0
 13
0.5262037632262534
 23
-0.8503585123737688
 33
0.0
 11
-4.0873925373957434
 21
4.0414519297817577
 31
0.0
 11
-4.3132616237683719
 21
3.5570844487105919
 31
0.0
 11
-4.4000000000000057
 21
3.0310889130591789
 31
0.0
 11
-4.3132616270737456
 21
2.5050933992850792
 31
0.0
 11
-4.0873925546021184
 21
2.0207259365011652
 31
0.0
  0
SPLINE
  5
6B
100
AcDbEntity
  8
0
  6
CONTINUOUS
 62
               7
100
AcDbSpline
210
0.0
220
0.0
230
1.0
 70
               0
 71
               3
 72
               0
 73
               0
 74
               5
 44
0.000001
 12
0.5262037747144671
 22
-0.8503585052648361
 32
0.0
 13
-0.5262037632262535
 23
-0.8503585123737687
 33
0.0
 11
-2.3126074626042623
 21
4.0414519297817577
 31
0.0
 11
-2.0867383762316338
 21
3.5570844487105919
 31
0.0
 11
-2.0
 21
3.0310889130591789
 31
0.0
 11
-2.0867383729262601
 21
2.5050933992850792
 31
0.0
 11
-2.3126074453978873
 21
2.0207259365011652
 31
0.0
  0
SPLINE
  5
6C
100
AcDbEntity
  8
0
  6
CONTINUOUS
 62
               7
100
AcDbSpline
210
0.0
220
0.0
230
1.0
 70
               0
 71
               3
 72
               0
 73
               0
 74
               5
 44
0.000001
 12
-0.5262037747144672
 22
0.850358505264836
 32
0.0
 13
0.5262037632262534
 23
0.8503585123737688
 33
0.0
 11
-4.0873925373957434
 21
-4.0414519297817577
 31
0.0
 11
-4.3132616237683719
 21
-3.5570844487105919
 31
0.0
 11
-4.4000000000000057
 21
-3.0310889130591789
 31
0.0
 11
-4.3132616270737456
 21
-2.5050933992850792
 31
0.0
 11
-4.0873925546021184
 21
-2.0207259365011652
 31
0.0
  0
SPLINE
  5
6D
100
AcDbEntity
  8
0
  6
CONTINUOUS
 62
               7
100
AcDbSpline
210
0.0
220
0.0
230
1.0
 70
               0
 71
               3
 72
               0
 73
               0
 74
               5
 44
0.000001
 12
0.5262037747144671
 22
0.8503585052648361
 32
0.0
 13
-0.5262037632262535
 23
0.8503585123737687
 33
0.0
 11
-2.3126074626042623
 21
-4.0414519297817577
 31
0.0
 11
-2.0867383762316338
 21
-3.5570844487105919
 31
0.0
 11
-2.0
 21
-3.0310889130591789
 31
0.0
 11
-2.0867383729262601
 21
-2.5050933992850792
 31
0.0
 11
-2.3126074453978873
 21
-2.0207259365011652
 31
0.0
  0
SPLINE
  5
6E
100
AcDbEntity
  8
0
  6
CONTINUOUS
 62
               7
100
AcDbSpline
210
0.0
220
0.0
230
1.0
 70
               0
 71
               3
 72
               0
 73
               0
 74
               5
 44
0.000001
 12
-0.295576775765892
 22
-0.9553189884158273
 32
0.0
 13
0.2955767757658919
 23
-0.9553189884158273
 33
0.0
 11
-4.0873925546021184
 21
2.0207259365011652
 31
0.0
 11
-4.3192443431715546
 21
1.0229863649462863
 31
0.0
 11
-4.4000000000000057
 21
0.0
 31
0.0
 11
-4.3192443431715546
 21
-1.0229863649462863
 31
0.0
 11
-4.0873925546021184
 21
-2.0207259365011652
 31
0.0
  0
SPLINE
  5
6F
100
AcDbEntity
  8
0
  6
CONTINUOUS
 62
               7
100
AcDbSpline
210
0.0
220
0.0
230
1.0
 70
               0
 71
               3
 72
               0
 73
               0
 74
               5
 44
0.000001
 12
0.2955767757658921
 22
-0.9553189884158273
 32
0.0
 13
-0.295576775765892
 23
-0.9553189884158273
 33
0.0
 11
-2.3126074453978873
 21
2.0207259365011652
 31
0.0
 11
-2.0807556568284515
 21
1.0229863649462863
 31
0.0
 11
-2.0
 21
0.0
 31
0.0
 11
-2.0807556568284515
 21
-1.0229863649462863
 31
0.0
 11
-2.3126074453978873
 21
-2.0207259365011652
 31
0.0
  0
SPLINE
  5
70
100
AcDbEntity
  8
0
  6
CONTINUOUS
 62
               7
100
AcDbSpline
210
0.0
220
0.0
230
1.0
 70
               0
 71
               3
 72
               0
 73
               0
 74
               5
 44
0.000001
 12
-0.295576775765892
 22
-0.9553189884158273
 32
0.0
 13
0.2955767757658919
 23
-0.9553189884158273
 33
0.0
 11
-6.4873925546021241
 21
2.0207259365011652
 31
0.0
 11
-6.7192443431715603
 21
1.0229863649462863
 31
0.0
 11
-6.8000000000000114
 21
0.0
 31
0.0
 11
-6.7192443431715603
 21
-1.0229863649462863
 31
0.0
 11
-6.4873925546021241
 21
-2.0207259365011652
 31
0.0
  0
SPLINE
  5
71
100
AcDbEntity
  8
0
  6
CONTINUOUS
 62
               7
100
AcDbSpline
210
0.0
220
0.0
230
1.0
 70
               0
 71
               3
 72
               0
 73
               0
 74
               5
 44
0.000001
 12
0.2955767757658921
 22
-0.9553189884158273
 32
0.0
 13
-0.295576775765892
 23
-0.9553189884158273
 33
0.0
 11
-4.712607445397893
 21
2.0207259365011652
 31
0.0
 11
-4.4807556568284568
 21
1.0229863649462863
 31
0.0
 11
-4.4000000000000057
 21
0.0
 31
0.0
 11
-4.4807556568284568
 21
-1.0229863649462863
 31
0.0
 11
-4.712607445397893
 21
-2.0207259365011652
 31
0.0
  0
SPLINE
  5
72
100
AcDbEntity
  8
0
  6
CONTINUOUS
 62
               7
100
AcDbSpline
210
0.0
220
0.0
230
1.0
 70
               0
 71
               3
 72
               0
 73
               0
 74
               5
 44
0.000001
 12
-0.5262037747144672
 22
0.850358505264836
 32
0.0
 13
0.5262037632262534
 23
0.8503585123737688
 33
0.0
 11
-6.4873925373957491
 21
-4.0414519297817577
 31
0.0
 11
-6.7132616237683775
 21
-3.5570844487105919
 31
0.0
 11
-6.8000000000000114
 21
-3.0310889130591789
 31
0.0
 11
-6.7132616270737513
 21
-2.5050933992850792
 31
0.0
 11
-6.4873925546021241
 21
-2.0207259365011652
 31
0.0
  0
SPLINE
  5
73
100
AcDbEntity
  8
0
  6
CONTINUOUS
 62
               7
100
AcDbSpline
210
0.0
220
0.0
230
1.0
 70
               0
 71
               3
 72
               0
 73
               0
 74
               5
 44
0.000001
 12
0.5262037747144671
 22
0.8503585052648361
 32
0.0
 13
-0.5262037632262535
 23
0.8503585123737687
 33
0.0
 11
-4.712607462604268
 21
-4.0414519297817577
 31
0.0
 11
-4.4867383762316395
 21
-3.5570844487105919
 31
0.0
 11
-4.4000000000000057
 21
-3.0310889130591789
 31
0.0
 11
-4.4867383729262658
 21
-2.5050933992850792
 31
0.0
 11
-4.712607445397893
 21
-2.0207259365011652
 31
0.0
  0
SPLINE
  5
74
100
AcDbEntity
  8
0
  6
CONTINUOUS
 62
               7
100
AcDbSpline
210
0.0
220
0.0
230
1.0
 70
               0
 71
               3
 72
               0
 73
               0
 74
               5
 44
0.000001
 12
-0.5262037747144672
 22
-0.850358505264836
 32
0.0
 13
0.5262037632262534
 23
-0.8503585123737688
 33
0.0
 11
-6.4873925373957491
 21
4.0414519297817577
 31
0.0
 11
-6.7132616237683775
 21
3.5570844487105919
 31
0.0
 11
-6.8000000000000114
 21
3.0310889130591789
 31
0.0
 11
-6.7132616270737513
 21
2.5050933992850792
 31
0.0
 11
-6.4873925546021241
 21
2.0207259365011652
 31
0.0
  0
SPLINE
  5
75
100
AcDbEntity
  8
0
  6
CONTINUOUS
 62
               7
100
AcDbSpline
210
0.0
220
0.0
230
1.0
 70
               0
 71
               3
 72
               0
 73
               0
 74
               5
 44
0.000001
 12
0.5262037747144671
 22
-0.8503585052648361
 32
0.0
 13
-0.5262037632262535
 23
-0.8503585123737687
 33
0.0
 11
-4.712607462604268
 21
4.0414519297817577
 31
0.0
 11
-4.4867383762316395
 21
3.5570844487105919
 31
0.0
 11
-4.4000000000000057
 21
3.0310889130591789
 31
0.0
 11
-4.4867383729262658
 21
2.5050933992850792
 31
0.0
 11
-4.712607445397893
 21
2.0207259365011652
 31
0.0
  0
LINE
  5
76
100
AcDbEntity
  8
0
  6
CONTINUOUS
 62
               7
100
AcDbLine
 10
-4.4000000000000057
 20
-3.4999999714156758
 30
0.0
 11
-4.4000000000000057
 21
3.4999999689796795
 31
0.0
  0
LINE
  5
77
100
AcDbEntity
  8
0
  6
CONTINUOUS
 62
               7
100
AcDbLine
 10
-4.0873925546021184
 20
4.0414519297817577
 30
0.0
 11
-2.3126074626042623
 21
4.0414519297817577
 31
0.0
  0
LINE
  5
78
100
AcDbEntity
  8
0
  6
CONTINUOUS
 62
               7
100
AcDbLine
 10
-4.0873925546021184
 20
2.0207259365011652
 30
0.0
 11
-2.3126074453978873
 21
2.0207259365011652
 31
0.0
  0
LINE
  5
79
100
AcDbEntity
  8
0
  6
CONTINUOUS
 62
               7
100
AcDbLine
 10
-4.3999999621720036
 20
3.5000000285843242
 30
0.0
 11
-4.0873925546021184
 21
4.0414518999794353
 31
0.0
  0
LINE
  5
7A
100
AcDbEntity
  8
0
  6
CONTINUOUS
 62
               7
100
AcDbLine
 10
-2.0000000378280021
 20
3.5000000285843242
 30
0.0
 11
-2.3126074453978873
 21
4.0414518999794353
 31
0.0
  0
LINE
  5
7B
100
AcDbEntity
  8
0
  6
CONTINUOUS
 62
               7
100
AcDbLine
 10
-2.0
 20
-3.4999999714156758
 30
0.0
 11
-2.0
 21
3.4999999689796795
 31
0.0
  0
LINE
  5
7C
100
AcDbEntity
  8
0
  6
CONTINUOUS
 62
               7
100
AcDbLine
 10
-4.0873925546021184
 20
-4.0414519297817577
 30
0.0
 11
-2.3126074626042623
 21
-4.0414519297817577
 31
0.0
  0
LINE
  5
7D
100
AcDbEntity
  8
0
  6
CONTINUOUS
 62
               7
100
AcDbLine
 10
-4.3999999621720036
 20
-3.5000000285843242
 30
0.0
 11
-4.0873925546021184
 21
-4.0414518999794353
 31
0.0
  0
LINE
  5
7E
100
AcDbEntity
  8
0
  6
CONTINUOUS
 62
               7
100
AcDbLine
 10
-2.0000000378280021
 20
-3.5000000285843242
 30
0.0
 11
-2.3126074453978873
 21
-4.0414518999794353
 31
0.0
  0
LINE
  5
7F
100
AcDbEntity
  8
0
  6
CONTINUOUS
 62
               7
100
AcDbLine
 10
-4.0873925546021184
 20
-2.0207259365011652
 30
0.0
 11
-2.3126074453978873
 21
-2.0207259365011652
 31
0.0
  0
LINE
  5
80
100
AcDbEntity
  8
0
  6
CONTINUOUS
 62
               7
100
AcDbLine
 10
-4.712607445397893
 20
-2.0207259365011652
 30
0.0
 11
-6.4873925546021241
 21
-2.0207259365011652
 31
0.0
  0
LINE
  5
81
100
AcDbEntity
  8
0
  6
CONTINUOUS
 62
               7
100
AcDbLine
 10
-6.7999999621720093
 20
-3.5000000285843242
 30
0.0
 11
-6.4873925546021241
 21
-4.0414518999794353
 31
0.0
  0
LINE
  5
82
100
AcDbEntity
  8
0
  6
CONTINUOUS
 62
               7
100
AcDbLine
 10
-4.4000000378280077
 20
-3.5000000285843242
 30
0.0
 11
-4.712607445397893
 21
-4.0414518999794353
 31
0.0
  0
LINE
  5
83
100
AcDbEntity
  8
0
  6
CONTINUOUS
 62
               7
100
AcDbLine
 10
-4.712607445397893
 20
-4.0414519297817577
 30
0.0
 11
-6.4873925373957491
 21
-4.0414519297817577
 31
0.0
  0
LINE
  5
84
100
AcDbEntity
  8
0
  6
CONTINUOUS
 62
               7
100
AcDbLine
 10
-6.8000000000000114
 20
-3.4999999714156758
 30
0.0
 11
-6.8000000000000114
 21
3.4999999689796795
 31
0.0
  0
LINE
  5
85
100
AcDbEntity
  8
0
  6
CONTINUOUS
 62
               7
100
AcDbLine
 10
-6.7999999621720093
 20
3.5000000285843242
 30
0.0
 11
-6.4873925546021241
 21
4.0414518999794353
 31
0.0
  0
LINE
  5
86
100
AcDbEntity
  8
0
  6
CONTINUOUS
 62
               7
100
AcDbLine
 10
-4.4000000378280077
 20
3.5000000285843242
 30
0.0
 11
-4.712607445397893
 21
4.0414518999794353
 31
0.0
  0
LINE
  5
87
100
AcDbEntity
  8
0
  6
CONTINUOUS
 62
               7
100
AcDbLine
 10
-4.712607445397893
 20
2.0207259365011652
 30
0.0
 11
-6.4873925546021241
 21
2.0207259365011652
 31
0.0
  0
LINE
  5
88
100
AcDbEntity
  8
0
  6
CONTINUOUS
 62
               7
100
AcDbLine
 10
-4.712607445397893
 20
4.0414519297817577
 30
0.0
 11
-6.4873925373957491
 21
4.0414519297817577
 31
0.0
  0
LINE
  5
89
100
AcDbEntity
  8
0
  6
CONTINUOUS
 62
               2
100
AcDbLine
 10
-2.0
 20
1.7000000000000028
 30
0.0
 11
-1.0
 21
1.7000000000000028
 31
0.0
  0
LINE
  5
8A
100
AcDbEntity
  8
0
  6
CONTINUOUS
 62
               7
100
AcDbLine
 10
-2.0
 20
2.0
 30
0.0
 11
0.0
 21
2.0
 31
0.0
  0
LINE
  5
8B
100
AcDbEntity
  8
0
  6
CONTINUOUS
 62
               7
100
AcDbLine
 10
-2.0
 20
-2.0
 30
0.0
 11
0.0
 21
-2.0
 31
0.0
  0
LINE
  5
8C
100
AcDbEntity
  8
0
  6
CONTINUOUS
 62
               2
100
AcDbLine
 10
-2.0
 20
-1.7000000000000028
 30
0.0
 11
-1.0
 21
-1.7000000000000028
 31
0.0
  0
INSERT
  5
96
100
AcDbEntity
  8
0
  6
CONTINUOUS
 62
               7
100
AcDbBlockReference
  2
*X8
 10
0.0
 20
0.0
 30
0.0
  0
LINE
  5
97
100
AcDbEntity
  8
0
  6
CONTINUOUS
 62
               7
100
AcDbLine
 10
32.0
 20
7.4161354740104208
 30
0.0
 11
32.0
 21
-7.4161354740104208
 31
0.0
  0
LINE
  5
98
100
AcDbEntity
  8
0
  6
CONTINUOUS
 62
               7
100
AcDbLine
 10
32.0
 20
-9.7322330118045102
 30
0.0
 11
32.0
 21
-11.5
 31
0.0
  0
ENDBLK
  5
99
100
AcDbEntity
  8
0
100
AcDbBlockEnd
  0
BLOCK
  5
9A
100
AcDbEntity
  8
0
100
AcDbBlockBegin
  2
MS_2
 70
               0
 10
0.0
 20
0.0
 30
0.0
  3
MS_2
  1

  0
LINE
  5
9B
100
AcDbEntity
  8
0
  6
CONTINUOUS
 62
             200
100
AcDbLine
 10
11.734431884203701
 20
6.0926533860669636
 30
0.0
 11
10.674781862721971
 21
5.0330033645852481
 31
0.0
  0
LINE
  5
9C
100
AcDbEntity
  8
0
  6
CONTINUOUS
 62
               4
100
AcDbLine
 10
13.569879061546317
 20
6.5159073031316552
 30
0.0
 11
12.47487370093026
 21
5.4209019425156413
 31
0.0
  0
LINE
  5
9D
100
AcDbEntity
  8
0
  6
CONTINUOUS
 62
               4
100
AcDbLine
 10
11.874843088194154
 20
5.9522421820765175
 30
0.0
 11
10.955604270702906
 21
5.0330033645852481
 31
0.0
  0
LINE
  5
9E
100
AcDbEntity
  8
0
  6
CONTINUOUS
 62
               4
100
AcDbLine
 10
10.248497488017165
 20
5.0330033645852481
 30
0.0
 11
10.955604270702906
 21
5.0330033645852481
 31
0.0
  0
ARC
  5
9F
100
AcDbEntity
  8
0
  6
CONTINUOUS
 62
               4
100
AcDbCircle
 10
11.024293991214904
 20
6.8703972660827475
 30
0.0
 40
2.0506628653391066
100
AcDbArc
 50
225.05843089091513
 51
315.02142384112307
  0
LINE
  5
A0
100
AcDbEntity
  8
0
  6
CONTINUOUS
 62
               4
100
AcDbLine
 10
13.569879061546317
 20
6.5159073031316552
 30
0.0
 11
13.571899366639599
 21
7.293724764085816
 31
0.0
  0
LINE
  5
A1
100
AcDbEntity
  8
0
  6
CONTINUOUS
 62
             200
100
AcDbLine
 10
10.249507640564019
 20
7.5775776297067452
 30
0.0
 11
9.1878373139887799
 21
6.5159073031316552
 31
0.0
  0
LINE
  5
A2
100
AcDbEntity
  8
0
  6
CONTINUOUS
 62
               4
100
AcDbLine
 10
10.670741252535208
 20
9.415045112142657
 30
0.0
 11
9.5757358919193507
 21
8.3200397515266431
 31
0.0
  0
LINE
  5
A3
100
AcDbEntity
  8
0
  6
CONTINUOUS
 62
               4
100
AcDbLine
 10
10.107076131480056
 20
7.7200091387905729
 30
0.0
 11
9.1878373139887799
 21
6.8007703212992681
 31
0.0
  0
LINE
  5
A4
100
AcDbEntity
  8
0
  6
CONTINUOUS
 62
               4
100
AcDbLine
 10
9.1878373139887799
 20
6.8007703212992681
 30
0.0
 11
9.1878373139887799
 21
6.0936635386136544
 31
0.0
  0
ARC
  5
A5
100
AcDbEntity
  8
0
  6
CONTINUOUS
 62
               4
100
AcDbCircle
 10
11.027156565297702
 20
6.8694606944744621
 30
0.0
 40
2.0520237746840961
100
AcDbArc
 50
135.01661649434493
 51
224.98338350565427
  0
LINE
  5
A6
100
AcDbEntity
  8
0
  6
CONTINUOUS
 62
               4
100
AcDbLine
 10
10.955604270702906
 20
5.0330033645852481
 30
0.0
 11
9.1878373139887799
 21
6.8007703212992681
 31
0.0
  0
LINE
  5
A7
100
AcDbEntity
  8
0
  6
CONTINUOUS
 62
               4
100
AcDbLine
 10
12.44052851434256
 20
5.386556755928062
 30
0.0
 11
9.5413907053316223
 21
8.2856945649390568
 31
0.0
  0
LINE
  5
A8
100
AcDbEntity
  8
0
  6
CONTINUOUS
 62
               4
100
AcDbLine
 10
10.248497488017165
 20
5.0330033645852481
 30
0.0
 11
9.1878373139887799
 21
6.0936635386136544
 31
0.0
  0
LINE
  5
A9
100
AcDbEntity
  8
0
  6
CONTINUOUS
 62
               4
100
AcDbLine
 10
13.889087266301516
 20
7.6109126637476621
 30
0.0
 11
11.767766918244547
 21
9.7322330118044889
 31
0.0
  0
LINE
  5
AA
100
AcDbEntity
  8
0
  6
CONTINUOUS
 62
               4
100
AcDbLine
 10
11.767766918244547
 20
9.7322330118044675
 30
0.0
 11
11.450579018582886
 21
9.415045112142657
 31
0.0
  0
LINE
  5
AB
100
AcDbEntity
  8
0
  6
CENTER
 62
             200
100
AcDbLine
 10
13.846924625473122
 20
9.6900703709762084
 30
0.0
 11
8.9334863407043485
 21
4.7766320862072789
 31
0.0
  0
LINE
  5
AC
100
AcDbEntity
  8
0
  6
CONTINUOUS
 62
               4
100
AcDbLine
 10
13.004193635397684
 20
5.9502218769831288
 30
0.0
 11
10.105055826386774
 21
8.849359685994159
 31
0.0
  0
LINE
  5
AD
100
AcDbEntity
  8
0
  6
CONTINUOUS
 62
               4
100
AcDbLine
 10
10.670741252535208
 20
9.415045112142657
 30
0.0
 11
11.450579018582886
 21
9.415045112142657
 31
0.0
  0
LINE
  5
AE
100
AcDbEntity
  8
0
  6
CONTINUOUS
 62
               4
100
AcDbLine
 10
13.889087266301516
 20
7.6109126637476123
 30
0.0
 11
13.571899366639599
 21
7.293724764085816
 31
0.0
  0
ARC
  5
AF
100
AcDbEntity
  8
0
  6
CONTINUOUS
 62
               4
100
AcDbCircle
 10
11.024293991214904
 20
-6.8703972660827617
 30
0.0
 40
2.0506628653391066
100
AcDbArc
 50
44.978576158876109
 51
134.94156910908407
  0
ARC
  5
B0
100
AcDbEntity
  8
0
  6
CONTINUOUS
 62
               4
100
AcDbCircle
 10
11.027156565297702
 20
-6.869460694474455
 30
0.0
 40
2.0520237746840961
100
AcDbArc
 50
135.01661649434493
 51
224.98338350565427
  0
LINE
  5
B1
100
AcDbEntity
  8
0
  6
CONTINUOUS
 62
               4
100
AcDbLine
 10
12.44052851434256
 20
-5.3865567559280478
 30
0.0
 11
9.5413907053316223
 21
-8.2856945649390781
 31
0.0
  0
LINE
  5
B2
100
AcDbEntity
  8
0
  6
CENTER
 62
             200
100
AcDbLine
 10
13.846924625473122
 20
-9.6900703709762013
 30
0.0
 11
8.9334863407043485
 21
-4.7766320862073002
 31
0.0
  0
LINE
  5
B3
100
AcDbEntity
  8
0
  6
CONTINUOUS
 62
               4
100
AcDbLine
 10
13.004193635397684
 20
-5.9502218769831856
 30
0.0
 11
10.105055826386774
 21
-8.8493596859941874
 31
0.0
  0
LINE
  5
B4
100
AcDbEntity
  8
0
  6
CONTINUOUS
 62
               4
100
AcDbLine
 10
10.248497488017165
 20
-5.033003364585241
 30
0.0
 11
9.1878373139887799
 21
-6.0936635386136686
 31
0.0
  0
LINE
  5
B5
100
AcDbEntity
  8
0
  6
CONTINUOUS
 62
               4
100
AcDbLine
 10
10.955604270702906
 20
-5.033003364585241
 30
0.0
 11
9.1878373139887799
 21
-6.8007703212992965
 31
0.0
  0
LINE
  5
B6
100
AcDbEntity
  8
0
  6
CONTINUOUS
 62
               4
100
AcDbLine
 10
9.1878373139887799
 20
-6.8007703212992965
 30
0.0
 11
9.1878373139887799
 21
-6.0936635386136686
 31
0.0
  0
LINE
  5
B7
100
AcDbEntity
  8
0
  6
CONTINUOUS
 62
               4
100
AcDbLine
 10
10.107076131480056
 20
-7.7200091387906014
 30
0.0
 11
9.1878373139887799
 21
-6.8007703212992965
 31
0.0
  0
LINE
  5
B8
100
AcDbEntity
  8
0
  6
CONTINUOUS
 62
             200
100
AcDbLine
 10
10.249507640564019
 20
-7.5775776297067665
 30
0.0
 11
9.1878373139887799
 21
-6.5159073031316481
 31
0.0
  0
LINE
  5
B9
100
AcDbEntity
  8
0
  6
CONTINUOUS
 62
               4
100
AcDbLine
 10
10.248497488017165
 20
-5.033003364585241
 30
0.0
 11
10.955604270702906
 21
-5.033003364585241
 31
0.0
  0
LINE
  5
BA
100
AcDbEntity
  8
0
  6
CONTINUOUS
 62
               4
100
AcDbLine
 10
11.874843088194154
 20
-5.9522421820765743
 30
0.0
 11
10.955604270702906
 21
-5.033003364585241
 31
0.0
  0
LINE
  5
BB
100
AcDbEntity
  8
0
  6
CONTINUOUS
 62
             200
100
AcDbLine
 10
11.734431884203701
 20
-6.0926533860669849
 30
0.0
 11
10.674781862721971
 21
-5.033003364585241
 31
0.0
  0
LINE
  5
BC
100
AcDbEntity
  8
0
  6
CONTINUOUS
 62
               4
100
AcDbLine
 10
10.670741252535208
 20
-9.4150451121426784
 30
0.0
 11
9.5757358919193507
 21
-8.3200397515266644
 31
0.0
  0
LINE
  5
BD
100
AcDbEntity
  8
0
  6
CONTINUOUS
 62
               4
100
AcDbLine
 10
13.889087266301516
 20
-7.610912663747655
 30
0.0
 11
13.571899366639599
 21
-7.2937247640858516
 31
0.0
  0
LINE
  5
BE
100
AcDbEntity
  8
0
  6
CONTINUOUS
 62
               4
100
AcDbLine
 10
10.670741252535208
 20
-9.4150451121426784
 30
0.0
 11
11.450579018582886
 21
-9.4150451121426784
 31
0.0
  0
LINE
  5
BF
100
AcDbEntity
  8
0
  6
CONTINUOUS
 62
               4
100
AcDbLine
 10
11.767766918244547
 20
-9.7322330118045102
 30
0.0
 11
11.450579018582886
 21
-9.4150451121426784
 31
0.0
  0
LINE
  5
C0
100
AcDbEntity
  8
0
  6
CONTINUOUS
 62
               4
100
AcDbLine
 10
13.889087266301516
 20
-7.610912663747655
 30
0.0
 11
11.767766918244547
 21
-9.7322330118045102
 31
0.0
  0
LINE
  5
C1
100
AcDbEntity
  8
0
  6
CONTINUOUS
 62
               4
100
AcDbLine
 10
13.569879061546317
 20
-6.5159073031316481
 30
0.0
 11
13.571899366639599
 21
-7.2937247640858516
 31
0.0
  0
LINE
  5
C2
100
AcDbEntity
  8
0
  6
CONTINUOUS
 62
               4
100
AcDbLine
 10
13.569879061546317
 20
-6.5159073031316481
 30
0.0
 11
12.47487370093026
 21
-5.4209019425156342
 31
0.0
  0
LINE
  5
C3
100
AcDbEntity
  8
0
  6
CONTINUOUS
 62
               7
100
AcDbLine
 10
10.636396070594728
 20
-9.4493902970812869
 30
0.0
 11
9.505025220696254
 21
-8.3180194471828131
 31
0.0
  0
LINE
  5
C4
100
AcDbEntity
  8
0
  6
CONTINUOUS
 62
               7
100
AcDbLine
 10
11.517766968996384
 20
-9.9822329610527234
 30
0.0
 11
9.9999999300490856
 21
-11.5
 31
0.0
  0
LINE
  5
C5
100
AcDbEntity
  8
0
  6
CONTINUOUS
 62
               7
100
AcDbLine
 10
10.636396070594728
 20
-9.4493902970812869
 30
0.0
 11
11.343502851781281
 21
-9.4493902970812869
 31
0.0
  0
ARC
  5
C6
100
AcDbEntity
  8
0
  6
CONTINUOUS
 62
               7
100
AcDbCircle
 10
11.271803091776789
 20
-9.8029436876745493
 30
0.0
 40
0.3007001998472195
100
AcDbArc
 50
-44.866737929198983
 51
44.866737929198038
  0
LINE
  5
C7
100
AcDbEntity
  8
0
  6
CONTINUOUS
 62
               7
100
AcDbLine
 10
11.484924208018597
 20
-9.590811653318589
 30
0.0
 11
11.343502851781281
 21
-9.4493902970812869
 31
0.0
  0
LINE
  5
C8
100
AcDbEntity
  8
0
  6
CONTINUOUS
 62
               7
100
AcDbLine
 10
13.606244551578229
 20
-6.479541816097786
 30
0.0
 11
12.474873701679755
 21
-5.3481709661993122
 31
0.0
  0
LINE
  5
C9
100
AcDbEntity
  8
0
  6
CONTINUOUS
 62
               7
100
AcDbLine
 10
13.606244551578229
 20
-7.186648597284325
 30
0.0
 11
13.606244551578229
 21
-6.479541816097786
 31
0.0
  0
ARC
  5
CA
100
AcDbEntity
  8
0
  6
CONTINUOUS
 62
               7
100
AcDbCircle
 10
13.959797942171505
 20
-7.1166111221065407
 30
0.0
 40
0.2995243519038812
100
AcDbArc
 50
224.90894124989543
 51
315.09105875010232
  0
LINE
  5
CB
100
AcDbEntity
  8
0
  6
CONTINUOUS
 62
               7
100
AcDbLine
 10
13.747665907815545
 20
-7.3280699535216414
 30
0.0
 11
13.606244551578229
 21
-7.186648597284325
 31
0.0
  0
LINE
  5
CC
100
AcDbEntity
  8
0
  6
CONTINUOUS
 62
               7
100
AcDbLine
 10
14.171929976527466
 20
-7.3280699535216414
 30
0.0
 11
16.0
 21
-5.4999999300492703
 31
0.0
  0
ARC
  5
CD
100
AcDbEntity
  8
0
  6
CONTINUOUS
 62
               7
100
AcDbCircle
 10
10.989949461188004
 20
-6.8330952066910484
 30
0.0
 40
2.1000000111152071
100
AcDbArc
 50
44.99999999999995
 51
224.99999999999955
  0
LINE
  5
CE
100
AcDbEntity
  8
0
  6
CONTINUOUS
 62
               7
100
AcDbLine
 10
0.3000000000000114
 20
-11.5
 30
0.0
 11
9.9999999300491993
 21
-11.5
 31
0.0
  0
LINE
  5
CF
100
AcDbEntity
  8
0
  6
CENTER
 62
               2
100
AcDbLine
 10
8.5
 20
-8.5
 30
0.0
 11
3.5
 21
-8.5
 31
0.0
  0
LINE
  5
D0
100
AcDbEntity
  8
0
  6
CONTINUOUS
 62
               7
100
AcDbLine
 10
16.0
 20
5.499999930049416
 30
0.0
 11
16.0
 21
-5.4999999300492632
 31
0.0
  0
CIRCLE
  5
D1
100
AcDbEntity
  8
0
  6
CONTINUOUS
 62
               7
100
AcDbCircle
 10
6.0
 20
0.0
 30
0.0
 40
5.1499999999999844
  0
CIRCLE
  5
D2
100
AcDbEntity
  8
0
  6
CONTINUOUS
 62
               7
100
AcDbCircle
 10
6.0
 20
0.0
 30
0.0
 40
5.5499999999999901
  0
LINE
  5
D3
100
AcDbEntity
  8
0
  6
CONTINUOUS
 62
               7
100
AcDbLine
 10
14.171929976527466
 20
7.3280699535216414
 30
0.0
 11
16.0
 21
5.4999999300492668
 31
0.0
  0
LINE
  5
D4
100
AcDbEntity
  8
0
  6
CONTINUOUS
 62
               7
100
AcDbLine
 10
13.747665907815545
 20
7.3280699535216414
 30
0.0
 11
13.606244551578229
 21
7.186648597284325
 31
0.0
  0
ARC
  5
D5
100
AcDbEntity
  8
0
  6
CONTINUOUS
 62
               7
100
AcDbCircle
 10
13.959797942171505
 20
7.1166111221065407
 30
0.0
 40
0.2995243519038812
100
AcDbArc
 50
44.908941249896863
 51
135.09105875010374
  0
LINE
  5
D6
100
AcDbEntity
  8
0
  6
CONTINUOUS
 62
               7
100
AcDbLine
 10
13.606244551578229
 20
7.186648597284325
 30
0.0
 11
13.606244551578229
 21
6.479541816097786
 31
0.0
  0
LINE
  5
D7
100
AcDbEntity
  8
0
  6
CONTINUOUS
 62
               7
100
AcDbLine
 10
13.606244551578229
 20
6.479541816097786
 30
0.0
 11
12.474873701679755
 21
5.3481709661993122
 31
0.0
  0
ARC
  5
D8
100
AcDbEntity
  8
0
  6
CONTINUOUS
 62
               7
100
AcDbCircle
 10
10.989949461188004
 20
6.8330952066910484
 30
0.0
 40
2.1000000111152071
100
AcDbArc
 50
134.99999999999966
 51
314.99999999999926
  0
LINE
  5
D9
100
AcDbEntity
  8
0
  6
CONTINUOUS
 62
               7
100
AcDbLine
 10
11.484924208018597
 20
9.590811653318589
 30
0.0
 11
11.343502851781281
 21
9.4493902970812869
 31
0.0
  0
ARC
  5
DA
100
AcDbEntity
  8
0
  6
CONTINUOUS
 62
               7
100
AcDbCircle
 10
11.271803091776789
 20
9.8029436876745493
 30
0.0
 40
0.3007001998472195
100
AcDbArc
 50
315.13326207080115
 51
44.866737929199004
  0
LINE
  5
DB
100
AcDbEntity
  8
0
  6
CONTINUOUS
 62
               7
100
AcDbLine
 10
10.636396070594728
 20
9.4493902970812869
 30
0.0
 11
11.343502851781281
 21
9.4493902970812869
 31
0.0
  0
LINE
  5
DC
100
AcDbEntity
  8
0
  6
CONTINUOUS
 62
               7
100
AcDbLine
 10
11.517766968996384
 20
9.9822329610527234
 30
0.0
 11
9.9999999300490856
 21
11.5
 31
0.0
  0
LINE
  5
DD
100
AcDbEntity
  8
0
  6
CONTINUOUS
 62
               7
100
AcDbLine
 10
10.636396070594728
 20
9.4493902970812869
 30
0.0
 11
9.505025220696254
 21
8.3180194471828131
 31
0.0
  0
LINE
  5
DE
100
AcDbEntity
  8
0
  6
CONTINUOUS
 62
               7
100
AcDbLine
 10
0.3000000000000114
 20
11.5
 30
0.0
 11
9.9999999300491993
 21
11.5
 31
0.0
  0
LINE
  5
DF
100
AcDbEntity
  8
0
  6
CENTER
 62
               2
100
AcDbLine
 10
-1.0175191479551984
 20
0.0
 30
0.0
 11
17.240878655828027
 21
0.0
 31
0.0
  0
LINE
  5
E0
100
AcDbEntity
  8
0
  6
CONTINUOUS
 62
               7
100
AcDbLine
 10
0.0
 20
11.199999999999999
 30
0.0
 11
0.0
 21
-11.199999999999999
 31
0.0
  0
LINE
  5
E1
100
AcDbEntity
  8
0
  6
CENTER
 62
               2
100
AcDbLine
 10
6.0
 20
-11.0
 30
0.0
 11
6.0
 21
11.0
 31
0.0
  0
CIRCLE
  5
E2
100
AcDbEntity
  8
0
  6
CONTINUOUS
 62
               2
100
AcDbCircle
 10
6.0
 20
0.0
 30
0.0
 40
1.7000000000000028
  0
CIRCLE
  5
E3
100
AcDbEntity
  8
0
  6
CONTINUOUS
 62
               7
100
AcDbCircle
 10
6.0
 20
0.0
 30
0.0
 40
2.0
  0
CIRCLE
  5
E4
100
AcDbEntity
  8
0
  6
CONTINUOUS
 62
               7
100
AcDbCircle
 10
6.0
 20
0.0
 30
0.0
 40
3.5
  0
LINE
  5
E5
100
AcDbEntity
  8
0
  6
CONTINUOUS
 62
               7
100
AcDbLine
 10
2.5000000147587116
 20
2.0207259559744557
 30
0.0
 11
6.000000069567065
 21
4.0414519297817577
 31
0.0
  0
LINE
  5
E6
100
AcDbEntity
  8
0
  6
CONTINUOUS
 62
               7
100
AcDbLine
 10
2.4999999954188894
 20
-2.0207259224768919
 30
0.0
 11
2.4999999954188894
 21
2.0207260251377193
 31
0.0
  0
LINE
  5
E7
100
AcDbEntity
  8
0
  6
CONTINUOUS
 62
               7
100
AcDbLine
 10
5.9999999806601778
 20
-4.0414518784513476
 30
0.0
 11
2.4999999258518386
 21
-2.0207259046440385
 31
0.0
  0
LINE
  5
E8
100
AcDbEntity
  8
0
  6
CONTINUOUS
 62
               7
100
AcDbLine
 10
9.4999999852413026
 20
-2.0207259559744628
 30
0.0
 11
5.9999999304329492
 21
-4.0414519297817577
 31
0.0
  0
LINE
  5
E9
100
AcDbEntity
  8
0
  6
CONTINUOUS
 62
               7
100
AcDbLine
 10
9.5000000045811248
 20
2.0207259224768848
 30
0.0
 11
9.5000000045811248
 21
-2.0207260251377193
 31
0.0
  0
LINE
  5
EA
100
AcDbEntity
  8
0
  6
CONTINUOUS
 62
               7
100
AcDbLine
 10
6.0000000193398364
 20
4.0414518784513405
 30
0.0
 11
9.5000000741481756
 21
2.0207259046440385
 31
0.0
  0
CIRCLE
  5
EB
100
AcDbEntity
  8
0
  6
CONTINUOUS
 62
               7
100
AcDbCircle
 10
6.0
 20
-8.5
 30
0.0
 40
1.1000000000000001
  0
CIRCLE
  5
EC
100
AcDbEntity
  8
0
  6
CONTINUOUS
 62
               2
100
AcDbCircle
 10
6.0
 20
-8.5
 30
0.0
 40
1.5
  0
LINE
  5
ED
100
AcDbEntity
  8
0
  6
CENTER
 62
               2
100
AcDbLine
 10
8.5
 20
8.5000000000000036
 30
0.0
 11
3.5
 21
8.5
 31
0.0
  0
CIRCLE
  5
EE
100
AcDbEntity
  8
0
  6
CONTINUOUS
 62
               7
100
AcDbCircle
 10
6.0
 20
8.5
 30
0.0
 40
1.1000000000000001
  0
CIRCLE
  5
EF
100
AcDbEntity
  8
0
  6
CONTINUOUS
 62
               2
100
AcDbCircle
 10
6.0
 20
8.5
 30
0.0
 40
1.5
  0
ARC
  5
F0
100
AcDbEntity
  8
0
  6
CONTINUOUS
 62
               7
100
AcDbCircle
 10
0.3000000000000114
 20
11.199999999999999
 30
0.0
 40
0.3
100
AcDbArc
 50
89.999999999999801
 51
179.9999999999996
  0
ARC
  5
F1
100
AcDbEntity
  8
0
  6
CONTINUOUS
 62
               7
100
AcDbCircle
 10
0.3000000000000114
 20
-11.199999999999999
 30
0.0
 40
0.3
100
AcDbArc
 50
179.9999999999996
 51
269.99999999999937
  0
LINE
  5
F2
100
AcDbEntity
  8
0
  6
CENTER
 62
               2
100
AcDbLine
 10
1.5
 20
8.5
 30
0.0
 11
-1.5
 21
8.5
 31
0.0
  0
LINE
  5
F3
100
AcDbEntity
  8
0
  6
CENTER
 62
               2
100
AcDbLine
 10
1.5
 20
-8.5
 30
0.0
 11
-1.5
 21
-8.5
 31
0.0
  0
ENDBLK
  5
F4
100
AcDbEntity
  8
0
100
AcDbBlockEnd
  0
BLOCK
  5
F5
100
AcDbEntity
  8
0
100
AcDbBlockBegin
  2
MS_3
 70
               0
 10
0.0
 20
0.0
 30
0.0
  3
MS_3
  1

  0
LINE
  5
F6
100
AcDbEntity
  8
0
  6
PHANTOM
 62
               3
100
AcDbLine
 10
24.415734409703958
 20
21.0
 30
0.0
 11
24.415734409703958
 21
-5.0
 31
0.0
  0
LINE
  5
F7
100
AcDbEntity
  8
0
  6
CONTINUOUS
 62
               7
100
AcDbLine
 10
0.0
 20
6.0000000699508007
 30
0.0
 11
32.000000014764879
 21
6.0000000699508007
 31
0.0
  0
LINE
  5
F8
100
AcDbEntity
  8
0
  6
CONTINUOUS
 62
               7
100
AcDbLine
 10
0.0
 20
4.4274967083759975
 30
0.0
 11
32.000000014764879
 21
4.4274967083759975
 31
0.0
  0
LINE
  5
F9
100
AcDbEntity
  8
0
  6
CONTINUOUS
 62
               7
100
AcDbLine
 10
0.0
 20
2.3937554484217856
 30
0.0
 11
7.0
 21
2.3937554484217856
 31
0.0
  0
LINE
  5
FA
100
AcDbEntity
  8
0
  6
CONTINUOUS
 62
               7
100
AcDbLine
 10
0.0
 20
2.0402020578285089
 30
0.0
 11
32.000000014764879
 21
2.0402020578285089
 31
0.0
  0
LINE
  5
FB
100
AcDbEntity
  8
0
  6
CONTINUOUS
 62
               7
100
AcDbLine
 10
0.0
 20
0.0
 30
0.0
 11
32.000000014764879
 21
0.0
 31
0.0
  0
LINE
  5
FC
100
AcDbEntity
  8
0
  6
CONTINUOUS
 62
               2
100
AcDbLine
 10
-9.9999999852351209
 20
8.2999999999999972
 30
0.0
 11
-6.7999999852351323
 21
8.2999999999999972
 31
0.0
  0
LINE
  5
FD
100
AcDbEntity
  8
0
  6
CONTINUOUS
 62
               7
100
AcDbLine
 10
-9.699999985235138
 20
8.0
 30
0.0
 11
-9.9999999852351209
 21
8.2999999999999972
 31
0.0
  0
LINE
  5
FE
100
AcDbEntity
  8
0
  6
CONTINUOUS
 62
               2
100
AcDbLine
 10
-0.9999999852351209
 20
8.2999999999999972
 30
0.0
 11
-0.4803847429644748
 21
8.0
 31
0.0
  0
LINE
  5
FF
100
AcDbEntity
  8
0
  6
CONTINUOUS
 62
               7
100
AcDbLine
 10
-9.699999985235138
 20
12.0
 30
0.0
 11
-9.699999985235138
 21
8.0
 31
0.0
  0
LINE
  5
100
100
AcDbEntity
  8
0
  6
CONTINUOUS
 62
               7
100
AcDbLine
 10
-0.9999999852351209
 20
12.0
 30
0.0
 11
-0.9999999852351209
 21
8.0
 31
0.0
  0
LINE
  5
101
100
AcDbEntity
  8
0
  6
CONTINUOUS
 62
               7
100
AcDbLine
 10
-9.9999999852351209
 20
11.700000000000003
 30
0.0
 11
-9.9999999852351209
 21
8.2999999999999972
 31
0.0
  0
LINE
  5
102
100
AcDbEntity
  8
0
  6
CONTINUOUS
 62
               2
100
AcDbLine
 10
-0.9999999852351209
 20
11.700000000000003
 30
0.0
 11
-0.4803847429644748
 21
12.0
 31
0.0
  0
LINE
  5
103
100
AcDbEntity
  8
0
  6
CONTINUOUS
 62
               7
100
AcDbLine
 10
-9.699999985235138
 20
12.0
 30
0.0
 11
-9.9999999852351209
 21
11.700000000000003
 31
0.0
  0
LINE
  5
104
100
AcDbEntity
  8
0
  6
CONTINUOUS
 62
               2
100
AcDbLine
 10
-9.9999999852351209
 20
11.700000000000003
 30
0.0
 11
-6.7999999852351323
 21
11.700000000000003
 31
0.0
  0
LINE
  5
105
100
AcDbEntity
  8
0
  6
CONTINUOUS
 62
               7
100
AcDbLine
 10
-9.699999985235138
 20
12.0
 30
0.0
 11
-6.7999999852351323
 21
12.0
 31
0.0
  0
LINE
  5
106
100
AcDbEntity
  8
0
  6
CENTER
 62
               2
100
AcDbLine
 10
-11.662319490629756
 20
10.0
 30
0.0
 11
33.239086527694099
 21
10.0
 31
0.0
  0
LINE
  5
107
100
AcDbEntity
  8
0
  6
CONTINUOUS
 62
               7
100
AcDbLine
 10
-9.699999985235138
 20
8.0
 30
0.0
 11
-6.7999999852351323
 21
8.0
 31
0.0
  0
LINE
  5
108
100
AcDbEntity
  8
0
  6
CONTINUOUS
 62
               7
100
AcDbLine
 10
0.0
 20
16.0
 30
0.0
 11
32.000000014764879
 21
16.0
 31
0.0
  0
LINE
  5
109
100
AcDbEntity
  8
0
  6
CONTINUOUS
 62
               7
100
AcDbLine
 10
0.0
 20
16.0
 30
0.0
 11
0.0
 21
0.0
 31
0.0
  0
LINE
  5
10A
100
AcDbEntity
  8
0
  6
CONTINUOUS
 62
               7
100
AcDbLine
 10
32.000000014764879
 20
16.0
 30
0.0
 11
32.000000014764879
 21
0.0
 31
0.0
  0
CIRCLE
  5
10C
100
AcDbEntity
  8
0
  6
DASHED
 62
               7
100
AcDbCircle
 10
10.000000014764879
 20
10.0
 30
0.0
 40
1.2
  0
CIRCLE
  5
10D
100
AcDbEntity
  8
0
  6
DASHED
 62
               2
100
AcDbCircle
 10
10.000000014764879
 20
10.0
 30
0.0
 40
1.5
  0
LINE
  5
10E
100
AcDbEntity
  8
0
  6
CENTER
 62
               2
100
AcDbLine
 10
10.000000014764879
 20
7.5
 30
0.0
 11
10.000000014764879
 21
12.189432964916094
 31
0.0
  0
CIRCLE
  5
10F
100
AcDbEntity
  8
0
  6
DASHED
 62
               7
100
AcDbCircle
 10
29.000000014764879
 20
10.0
 30
0.0
 40
1.2
  0
CIRCLE
  5
110
100
AcDbEntity
  8
0
  6
DASHED
 62
               2
100
AcDbCircle
 10
29.000000014764879
 20
10.0
 30
0.0
 40
1.5
  0
LINE
  5
111
100
AcDbEntity
  8
0
  6
CENTER
 62
               2
100
AcDbLine
 10
29.000000014764879
 20
7.5
 30
0.0
 11
29.000000014764879
 21
12.5
 31
0.0
  0
SPLINE
  5
112
100
AcDbEntity
  8
0
  6
CONTINUOUS
 62
               7
100
AcDbSpline
210
0.0
220
0.0
230
1.0
 70
               0
 71
               3
 72
               0
 73
               0
 74
               5
 44
0.000001
 12
-0.3364389663850757
 22
-0.9417052733725887
 32
0.0
 13
0.3364389571584284
 23
-0.9417052766689529
 33
0.0
 11
-4.0873925226308643
 21
13.499999963064312
 31
0.0
 11
-4.318457268529202
 21
12.639236642840407
 31
0.0
 11
-4.3999999852351266
 21
11.749999981532156
 31
0.0
 11
-4.318457277020018
 21
10.860763320980631
 31
0.0
 11
-4.0873925398372393
 21
10.0
 31
0.0
  0
SPLINE
  5
113
100
AcDbEntity
  8
0
  6
CONTINUOUS
 62
               7
100
AcDbSpline
210
0.0
220
0.0
230
1.0
 70
               0
 71
               3
 72
               0
 73
               0
 74
               5
 44
0.000001
 12
0.3364389663850756
 22
-0.9417052733725887
 32
0.0
 13
-0.3364389571584283
 23
-0.941705276668953
 33
0.0
 11
-2.3126074478393832
 21
13.499999963064312
 31
0.0
 11
-2.081542701941046
 21
12.639236642840407
 31
0.0
 11
-1.9999999852351209
 21
11.749999981532156
 31
0.0
 11
-2.0815426934502295
 21
10.860763320980631
 31
0.0
 11
-2.3126074306330082
 21
10.0
 31
0.0
  0
SPLINE
  5
114
100
AcDbEntity
  8
0
  6
CONTINUOUS
 62
               7
100
AcDbSpline
210
0.0
220
0.0
230
1.0
 70
               0
 71
               3
 72
               0
 73
               0
 74
               5
 44
0.000001
 12
0.3364389663850756
 22
0.9417052733725887
 32
0.0
 13
-0.3364389571584283
 23
0.941705276668953
 33
0.0
 11
-2.3126074478393832
 21
6.5000000369356883
 31
0.0
 11
-2.081542701941046
 21
7.360763357159593
 31
0.0
 11
-1.9999999852351209
 21
8.2500000184678441
 31
0.0
 11
-2.0815426934502295
 21
9.1392366790193691
 31
0.0
 11
-2.3126074306330082
 21
10.0
 31
0.0
  0
SPLINE
  5
115
100
AcDbEntity
  8
0
  6
CONTINUOUS
 62
               7
100
AcDbSpline
210
0.0
220
0.0
230
1.0
 70
               0
 71
               3
 72
               0
 73
               0
 74
               5
 44
0.000001
 12
-0.3364389663850757
 22
0.9417052733725887
 32
0.0
 13
0.3364389571584284
 23
0.9417052766689529
 33
0.0
 11
-4.0873925226308643
 21
6.5000000369356883
 31
0.0
 11
-4.318457268529202
 21
7.360763357159593
 31
0.0
 11
-4.3999999852351266
 21
8.2500000184678441
 31
0.0
 11
-4.318457277020018
 21
9.1392366790193691
 31
0.0
 11
-4.0873925398372393
 21
10.0
 31
0.0
  0
SPLINE
  5
116
100
AcDbEntity
  8
0
  6
CONTINUOUS
 62
               7
100
AcDbSpline
210
0.0
220
0.0
230
1.0
 70
               0
 71
               3
 72
               0
 73
               0
 74
               5
 44
0.000001
 12
0.3364389663850756
 22
0.9417052733725887
 32
0.0
 13
-0.3364389571584283
 23
0.941705276668953
 33
0.0
 11
-4.7126074478393889
 21
6.5000000369356883
 31
0.0
 11
-4.4815427019410512
 21
7.360763357159593
 31
0.0
 11
-4.3999999852351266
 21
8.2500000184678441
 31
0.0
 11
-4.4815426934502351
 21
9.1392366790193691
 31
0.0
 11
-4.7126074306330139
 21
10.0
 31
0.0
  0
SPLINE
  5
117
100
AcDbEntity
  8
0
  6
CONTINUOUS
 62
               7
100
AcDbSpline
210
0.0
220
0.0
230
1.0
 70
               0
 71
               3
 72
               0
 73
               0
 74
               5
 44
0.000001
 12
-0.3364389663850757
 22
0.9417052733725887
 32
0.0
 13
0.3364389571584284
 23
0.9417052766689529
 33
0.0
 11
-6.48739252263087
 21
6.5000000369356883
 31
0.0
 11
-6.7184572685292077
 21
7.360763357159593
 31
0.0
 11
-6.7999999852351323
 21
8.2500000184678441
 31
0.0
 11
-6.7184572770200237
 21
9.1392366790193691
 31
0.0
 11
-6.487392539837245
 21
10.0
 31
0.0
  0
SPLINE
  5
118
100
AcDbEntity
  8
0
  6
CONTINUOUS
 62
               7
100
AcDbSpline
210
0.0
220
0.0
230
1.0
 70
               0
 71
               3
 72
               0
 73
               0
 74
               5
 44
0.000001
 12
-0.3364389663850757
 22
-0.9417052733725887
 32
0.0
 13
0.3364389571584284
 23
-0.9417052766689529
 33
0.0
 11
-6.48739252263087
 21
13.499999963064312
 31
0.0
 11
-6.7184572685292077
 21
12.639236642840407
 31
0.0
 11
-6.7999999852351323
 21
11.749999981532156
 31
0.0
 11
-6.7184572770200237
 21
10.860763320980631
 31
0.0
 11
-6.487392539837245
 21
10.0
 31
0.0
  0
SPLINE
  5
119
100
AcDbEntity
  8
0
  6
CONTINUOUS
 62
               7
100
AcDbSpline
210
0.0
220
0.0
230
1.0
 70
               0
 71
               3
 72
               0
 73
               0
 74
               5
 44
0.000001
 12
0.3364389663850756
 22
-0.9417052733725887
 32
0.0
 13
-0.3364389571584283
 23
-0.941705276668953
 33
0.0
 11
-4.7126074478393889
 21
13.499999963064312
 31
0.0
 11
-4.4815427019410512
 21
12.639236642840407
 31
0.0
 11
-4.3999999852351266
 21
11.749999981532156
 31
0.0
 11
-4.4815426934502351
 21
10.860763320980631
 31
0.0
 11
-4.7126074306330139
 21
10.0
 31
0.0
  0
LINE
  5
11A
100
AcDbEntity
  8
0
  6
CONTINUOUS
 62
               7
100
AcDbLine
 10
-4.0873925398372393
 20
10.0
 30
0.0
 11
-2.3126074306330082
 21
10.0
 31
0.0
  0
LINE
  5
11B
100
AcDbEntity
  8
0
  6
CONTINUOUS
 62
               7
100
AcDbLine
 10
-1.9999999852351209
 20
6.5000000285843242
 30
0.0
 11
-1.9999999852351209
 21
13.499999968979679
 31
0.0
  0
LINE
  5
11C
100
AcDbEntity
  8
0
  6
CONTINUOUS
 62
               7
100
AcDbLine
 10
-4.3999999852351266
 20
6.5000000285843242
 30
0.0
 11
-4.3999999852351266
 21
13.499999968979679
 31
0.0
  0
LINE
  5
11D
100
AcDbEntity
  8
0
  6
CONTINUOUS
 62
               7
100
AcDbLine
 10
-4.3999999852351266
 20
13.499999963064312
 30
0.0
 11
-1.9999999852351209
 21
13.499999963064312
 31
0.0
  0
LINE
  5
11E
100
AcDbEntity
  8
0
  6
CONTINUOUS
 62
               7
100
AcDbLine
 10
-4.3999999852351266
 20
6.5000000369356883
 30
0.0
 11
-1.9999999852351209
 21
6.5000000369356883
 31
0.0
  0
LINE
  5
11F
100
AcDbEntity
  8
0
  6
CONTINUOUS
 62
               7
100
AcDbLine
 10
-4.3999999852351266
 20
6.5000000369356883
 30
0.0
 11
-6.7999999852351323
 21
6.5000000369356883
 31
0.0
  0
LINE
  5
120
100
AcDbEntity
  8
0
  6
CONTINUOUS
 62
               7
100
AcDbLine
 10
-4.3999999852351266
 20
13.499999963064312
 30
0.0
 11
-6.7999999852351323
 21
13.499999963064312
 31
0.0
  0
LINE
  5
121
100
AcDbEntity
  8
0
  6
CONTINUOUS
 62
               7
100
AcDbLine
 10
-6.7999999852351323
 20
6.5000000285843242
 30
0.0
 11
-6.7999999852351323
 21
13.499999968979679
 31
0.0
  0
LINE
  5
122
100
AcDbEntity
  8
0
  6
CONTINUOUS
 62
               7
100
AcDbLine
 10
-4.7126074306330139
 20
10.0
 30
0.0
 11
-6.487392539837245
 21
10.0
 31
0.0
  0
LINE
  5
123
100
AcDbEntity
  8
0
  6
CONTINUOUS
 62
               2
100
AcDbLine
 10
-1.9999999852351209
 20
11.700000000000003
 30
0.0
 11
-0.9999999852351209
 21
11.700000000000003
 31
0.0
  0
LINE
  5
124
100
AcDbEntity
  8
0
  6
CONTINUOUS
 62
               7
100
AcDbLine
 10
-1.9999999852351209
 20
12.0
 30
0.0
 11
0.0
 21
12.0
 31
0.0
  0
LINE
  5
125
100
AcDbEntity
  8
0
  6
CONTINUOUS
 62
               2
100
AcDbLine
 10
-1.9999999852351209
 20
8.2999999999999972
 30
0.0
 11
-0.9999999852351209
 21
8.2999999999999972
 31
0.0
  0
LINE
  5
126
100
AcDbEntity
  8
0
  6
CONTINUOUS
 62
               7
100
AcDbLine
 10
-1.9999999852351209
 20
8.0
 30
0.0
 11
0.0
 21
8.0
 31
0.0
  0
INSERT
  5
130
100
AcDbEntity
  8
0
  6
CONTINUOUS
 62
               7
100
AcDbBlockReference
  2
*X9
 10
0.0
 20
0.0
 30
0.0
  0
LINE
  5
131
100
AcDbEntity
  8
0
  6
CONTINUOUS
 62
               4
100
AcDbLine
 10
22.499999999367589
 20
2.1109127404284749
 30
0.0
 11
7.0000000116958176
 21
2.1109127404284749
 31
0.0
  0
LINE
  5
132
100
AcDbEntity
  8
0
  6
CONTINUOUS
 62
               4
100
AcDbLine
 10
22.499999999367589
 20
4.2322330884854438
 30
0.0
 11
7.0000000116958176
 21
4.2322330884854438
 31
0.0
  0
LINE
  5
133
100
AcDbEntity
  8
0
  6
CONTINUOUS
 62
               4
100
AcDbLine
 10
22.499999999367589
 20
3.4772078146004901
 30
0.0
 11
40.138268674687353
 21
3.4772078146004901
 31
0.0
  0
LINE
  5
134
100
AcDbEntity
  8
0
  6
CONTINUOUS
 62
             200
100
AcDbLine
 10
39.777537980520933
 20
2.1309425211969426
 30
0.0
 11
41.186506869886173
 21
7.3892860608866471
 31
0.0
  0
LINE
  5
135
100
AcDbEntity
  8
0
  6
CONTINUOUS
 62
               4
100
AcDbLine
 10
22.499999999367589
 20
4.4274967083759975
 30
0.0
 11
22.499999999367589
 21
2.1109127404284749
 31
0.0
  0
LINE
  5
136
100
AcDbEntity
  8
0
  6
CONTINUOUS
 62
               4
100
AcDbLine
 10
32.000000014764879
 20
5.9772078199004994
 30
0.0
 11
40.808141649758987
 21
5.9772078199004994
 31
0.0
  0
LINE
  5
137
100
AcDbEntity
  8
0
  6
CONTINUOUS
 62
               4
100
AcDbLine
 10
7.0
 20
4.4274967083759975
 30
0.0
 11
7.0
 21
2.1109127404284607
 31
0.0
  0
ELLIPSE
  5
138
100
AcDbEntity
  8
0
  6
CONTINUOUS
 62
               4
100
AcDbEllipse
 10
9.0000000042400075
 20
3.1715728995557555
 30
0.0
 11
-1.25000000265
 21
0.0000000000000002
 31
0.0
210
0.0
220
0.0
230
1.0
 40
0.7071067811865475
 41
0.0
 42
6.2831853071795862
  0
LINE
  5
139
100
AcDbEntity
  8
0
  6
CONTINUOUS
 62
               4
100
AcDbLine
 10
9.2500000047700155
 20
2.305547493935336
 30
0.0
 11
9.2500000047700155
 21
4.0375983051761892
 31
0.0
  0
LINE
  5
13A
100
AcDbEntity
  8
0
  6
CONTINUOUS
 62
               4
100
AcDbLine
 10
8.7500000037099994
 20
2.305547493935336
 30
0.0
 11
8.7500000037099994
 21
4.0375983051761892
 31
0.0
  0
LINE
  5
13B
100
AcDbEntity
  8
0
  6
CONTINUOUS
 62
               7
100
AcDbLine
 10
22.499999999367589
 20
2.3937554484217856
 30
0.0
 11
32.000000014764879
 21
2.3937554484217856
 31
0.0
  0
LINE
  5
13C
100
AcDbEntity
  8
0
  6
CENTER
 62
               2
100
AcDbLine
 10
5.0
 20
14.5
 30
0.0
 11
5.0
 21
17.5
 31
0.0
  0
ENDBLK
  5
13D
100
AcDbEntity
  8
0
100
AcDbBlockEnd
  0
BLOCK
  5
13E
100
AcDbEntity
  8
0
100
AcDbBlockBegin
  2
MS_4
 70
               0
 10
0.0
 20
0.0
 30
0.0
  3
MS_4
  1

  0
LINE
  5
13F
100
AcDbEntity
  8
0
  6
PHANTOM
 62
               3
100
AcDbLine
 10
14.754904172152408
 20
21.0
 30
0.0
 11
14.754904172152408
 21
-5.0
 31
0.0
  0
LINE
  5
140
100
AcDbEntity
  8
0
  6
CONTINUOUS
 62
               7
100
AcDbLine
 10
32.000000014764879
 20
0.0
 30
0.0
 11
32.000000014764879
 21
11.572503291624002
 31
0.0
  0
LINE
  5
141
100
AcDbEntity
  8
0
  6
CONTINUOUS
 62
               7
100
AcDbLine
 10
0.0
 20
0.0
 30
0.0
 11
0.0
 21
16.0
 31
0.0
  0
LINE
  5
142
100
AcDbEntity
  8
0
  6
CONTINUOUS
 62
               7
100
AcDbLine
 10
0.0
 20
0.0
 30
0.0
 11
32.000000014764879
 21
0.0
 31
0.0
  0
LINE
  5
143
100
AcDbEntity
  8
0
  6
CENTER
 62
               2
100
AcDbLine
 10
10.000000014764879
 20
3.5
 30
0.0
 11
10.000000014764879
 21
8.5
 31
0.0
  0
LINE
  5
144
100
AcDbEntity
  8
0
  6
CONTINUOUS
 62
               7
100
AcDbLine
 10
-9.699999985235138
 20
8.0
 30
0.0
 11
-6.7999999852351323
 21
8.0
 31
0.0
  0
LINE
  5
145
100
AcDbEntity
  8
0
  6
CENTER
 62
               2
100
AcDbLine
 10
-11.249170283357671
 20
6.0
 30
0.0
 11
33.239086527694099
 21
6.0
 31
0.0
  0
LINE
  5
146
100
AcDbEntity
  8
0
  6
CONTINUOUS
 62
               7
100
AcDbLine
 10
-9.699999985235138
 20
4.0
 30
0.0
 11
-6.7999999852351323
 21
4.0
 31
0.0
  0
LINE
  5
147
100
AcDbEntity
  8
0
  6
CONTINUOUS
 62
               2
100
AcDbLine
 10
-9.9999999852351209
 20
4.2999999999999972
 30
0.0
 11
-6.7999999852351323
 21
4.2999999999999972
 31
0.0
  0
LINE
  5
148
100
AcDbEntity
  8
0
  6
CONTINUOUS
 62
               7
100
AcDbLine
 10
-9.699999985235138
 20
4.0
 30
0.0
 11
-9.9999999852351209
 21
4.2999999999999972
 31
0.0
  0
LINE
  5
149
100
AcDbEntity
  8
0
  6
CONTINUOUS
 62
               2
100
AcDbLine
 10
-0.9999999852351209
 20
4.2999999999999972
 30
0.0
 11
-0.4803847429644748
 21
4.0
 31
0.0
  0
LINE
  5
14A
100
AcDbEntity
  8
0
  6
CONTINUOUS
 62
               7
100
AcDbLine
 10
-9.9999999852351209
 20
4.2999999999999972
 30
0.0
 11
-9.9999999852351209
 21
7.7000000000000028
 31
0.0
  0
LINE
  5
14B
100
AcDbEntity
  8
0
  6
CONTINUOUS
 62
               7
100
AcDbLine
 10
-0.9999999852351209
 20
4.0
 30
0.0
 11
-0.9999999852351209
 21
8.0
 31
0.0
  0
LINE
  5
14C
100
AcDbEntity
  8
0
  6
CONTINUOUS
 62
               7
100
AcDbLine
 10
-9.699999985235138
 20
4.0
 30
0.0
 11
-9.699999985235138
 21
8.0
 31
0.0
  0
LINE
  5
14D
100
AcDbEntity
  8
0
  6
CONTINUOUS
 62
               2
100
AcDbLine
 10
-0.9999999852351209
 20
7.7000000000000028
 30
0.0
 11
-0.4803847429644748
 21
8.0
 31
0.0
  0
LINE
  5
14E
100
AcDbEntity
  8
0
  6
CONTINUOUS
 62
               7
100
AcDbLine
 10
-9.699999985235138
 20
8.0
 30
0.0
 11
-9.9999999852351209
 21
7.7000000000000028
 31
0.0
  0
LINE
  5
14F
100
AcDbEntity
  8
0
  6
CONTINUOUS
 62
               2
100
AcDbLine
 10
-9.9999999852351209
 20
7.7000000000000028
 30
0.0
 11
-6.7999999852351323
 21
7.7000000000000028
 31
0.0
  0
LINE
  5
150
100
AcDbEntity
  8
0
  6
CONTINUOUS
 62
               7
100
AcDbLine
 10
0.0
 20
16.0
 30
0.0
 11
32.000000014764879
 21
16.0
 31
0.0
  0
LINE
  5
151
100
AcDbEntity
  8
0
  6
CONTINUOUS
 62
               7
100
AcDbLine
 10
0.0
 20
13.959797942171491
 30
0.0
 11
32.000000014764879
 21
13.959797942171491
 31
0.0
  0
LINE
  5
152
100
AcDbEntity
  8
0
  6
CONTINUOUS
 62
               7
100
AcDbLine
 10
0.0
 20
13.606244551578222
 30
0.0
 11
17.499999981904637
 21
13.606244551578222
 31
0.0
  0
LINE
  5
153
100
AcDbEntity
  8
0
  6
CONTINUOUS
 62
               7
100
AcDbLine
 10
0.0
 20
11.572503291624002
 30
0.0
 11
32.000000014764879
 21
11.572503291624002
 31
0.0
  0
LINE
  5
154
100
AcDbEntity
  8
0
  6
CONTINUOUS
 62
               7
100
AcDbLine
 10
0.0
 20
9.9999999300491993
 30
0.0
 11
32.000000014764879
 21
9.9999999300491993
 31
0.0
  0
CIRCLE
  5
155
100
AcDbEntity
  8
0
  6
DASHED
 62
               2
100
AcDbCircle
 10
10.000000014764879
 20
6.0
 30
0.0
 40
1.5
  0
CIRCLE
  5
156
100
AcDbEntity
  8
0
  6
DASHED
 62
               7
100
AcDbCircle
 10
10.000000014764879
 20
6.0
 30
0.0
 40
1.2
  0
CIRCLE
  5
157
100
AcDbEntity
  8
0
  6
DASHED
 62
               7
100
AcDbCircle
 10
29.000000014764879
 20
6.0
 30
0.0
 40
1.2
  0
CIRCLE
  5
158
100
AcDbEntity
  8
0
  6
DASHED
 62
               2
100
AcDbCircle
 10
29.000000014764879
 20
6.0
 30
0.0
 40
1.5
  0
LINE
  5
159
100
AcDbEntity
  8
0
  6
CENTER
 62
               2
100
AcDbLine
 10
29.000000014764879
 20
3.5
 30
0.0
 11
29.000000014764879
 21
8.5
 31
0.0
  0
SPLINE
  5
15A
100
AcDbEntity
  8
0
  6
CONTINUOUS
 62
               7
100
AcDbSpline
210
0.0
220
0.0
230
1.0
 70
               0
 71
               3
 72
               0
 73
               0
 74
               5
 44
0.000001
 12
-0.3364389663850757
 22
-0.9417052733725887
 32
0.0
 13
0.3364389571584284
 23
-0.9417052766689529
 33
0.0
 11
-4.0873925226308643
 21
9.4999999630643117
 31
0.0
 11
-4.318457268529202
 21
8.639236642840407
 31
0.0
 11
-4.3999999852351266
 21
7.7499999815321559
 31
0.0
 11
-4.318457277020018
 21
6.8607633209806309
 31
0.0
 11
-4.0873925398372393
 21
6.0
 31
0.0
  0
SPLINE
  5
15B
100
AcDbEntity
  8
0
  6
CONTINUOUS
 62
               7
100
AcDbSpline
210
0.0
220
0.0
230
1.0
 70
               0
 71
               3
 72
               0
 73
               0
 74
               5
 44
0.000001
 12
0.3364389663850756
 22
-0.9417052733725887
 32
0.0
 13
-0.3364389571584283
 23
-0.941705276668953
 33
0.0
 11
-2.3126074478393832
 21
9.4999999630643117
 31
0.0
 11
-2.081542701941046
 21
8.639236642840407
 31
0.0
 11
-1.9999999852351209
 21
7.7499999815321559
 31
0.0
 11
-2.0815426934502295
 21
6.8607633209806309
 31
0.0
 11
-2.3126074306330082
 21
6.0
 31
0.0
  0
SPLINE
  5
15C
100
AcDbEntity
  8
0
  6
CONTINUOUS
 62
               7
100
AcDbSpline
210
0.0
220
0.0
230
1.0
 70
               0
 71
               3
 72
               0
 73
               0
 74
               5
 44
0.000001
 12
0.3364389663850756
 22
0.9417052733725887
 32
0.0
 13
-0.3364389571584283
 23
0.941705276668953
 33
0.0
 11
-2.3126074478393832
 21
2.5000000369356883
 31
0.0
 11
-2.081542701941046
 21
3.3607633571595934
 31
0.0
 11
-1.9999999852351209
 21
4.2500000184678441
 31
0.0
 11
-2.0815426934502295
 21
5.1392366790193691
 31
0.0
 11
-2.3126074306330082
 21
6.0
 31
0.0
  0
SPLINE
  5
15D
100
AcDbEntity
  8
0
  6
CONTINUOUS
 62
               7
100
AcDbSpline
210
0.0
220
0.0
230
1.0
 70
               0
 71
               3
 72
               0
 73
               0
 74
               5
 44
0.000001
 12
-0.3364389663850757
 22
0.9417052733725887
 32
0.0
 13
0.3364389571584284
 23
0.9417052766689529
 33
0.0
 11
-4.0873925226308643
 21
2.5000000369356883
 31
0.0
 11
-4.318457268529202
 21
3.3607633571595934
 31
0.0
 11
-4.3999999852351266
 21
4.2500000184678441
 31
0.0
 11
-4.318457277020018
 21
5.1392366790193691
 31
0.0
 11
-4.0873925398372393
 21
6.0
 31
0.0
  0
SPLINE
  5
15E
100
AcDbEntity
  8
0
  6
CONTINUOUS
 62
               7
100
AcDbSpline
210
0.0
220
0.0
230
1.0
 70
               0
 71
               3
 72
               0
 73
               0
 74
               5
 44
0.000001
 12
0.3364389663850756
 22
0.9417052733725887
 32
0.0
 13
-0.3364389571584283
 23
0.941705276668953
 33
0.0
 11
-4.7126074478393889
 21
2.5000000369356883
 31
0.0
 11
-4.4815427019410512
 21
3.3607633571595934
 31
0.0
 11
-4.3999999852351266
 21
4.2500000184678441
 31
0.0
 11
-4.4815426934502351
 21
5.1392366790193691
 31
0.0
 11
-4.7126074306330139
 21
6.0
 31
0.0
  0
SPLINE
  5
15F
100
AcDbEntity
  8
0
  6
CONTINUOUS
 62
               7
100
AcDbSpline
210
0.0
220
0.0
230
1.0
 70
               0
 71
               3
 72
               0
 73
               0
 74
               5
 44
0.000001
 12
-0.3364389663850757
 22
0.9417052733725887
 32
0.0
 13
0.3364389571584284
 23
0.9417052766689529
 33
0.0
 11
-6.48739252263087
 21
2.5000000369356883
 31
0.0
 11
-6.7184572685292077
 21
3.3607633571595934
 31
0.0
 11
-6.7999999852351323
 21
4.2500000184678441
 31
0.0
 11
-6.7184572770200237
 21
5.1392366790193691
 31
0.0
 11
-6.487392539837245
 21
6.0
 31
0.0
  0
SPLINE
  5
160
100
AcDbEntity
  8
0
  6
CONTINUOUS
 62
               7
100
AcDbSpline
210
0.0
220
0.0
230
1.0
 70
               0
 71
               3
 72
               0
 73
               0
 74
               5
 44
0.000001
 12
-0.3364389663850757
 22
-0.9417052733725887
 32
0.0
 13
0.3364389571584284
 23
-0.9417052766689529
 33
0.0
 11
-6.48739252263087
 21
9.4999999630643117
 31
0.0
 11
-6.7184572685292077
 21
8.639236642840407
 31
0.0
 11
-6.7999999852351323
 21
7.7499999815321559
 31
0.0
 11
-6.7184572770200237
 21
6.8607633209806309
 31
0.0
 11
-6.487392539837245
 21
6.0
 31
0.0
  0
SPLINE
  5
161
100
AcDbEntity
  8
0
  6
CONTINUOUS
 62
               7
100
AcDbSpline
210
0.0
220
0.0
230
1.0
 70
               0
 71
               3
 72
               0
 73
               0
 74
               5
 44
0.000001
 12
0.3364389663850756
 22
-0.9417052733725887
 32
0.0
 13
-0.3364389571584283
 23
-0.941705276668953
 33
0.0
 11
-4.7126074478393889
 21
9.4999999630643117
 31
0.0
 11
-4.4815427019410512
 21
8.639236642840407
 31
0.0
 11
-4.3999999852351266
 21
7.7499999815321559
 31
0.0
 11
-4.4815426934502351
 21
6.8607633209806309
 31
0.0
 11
-4.7126074306330139
 21
6.0
 31
0.0
  0
LINE
  5
162
100
AcDbEntity
  8
0
  6
CONTINUOUS
 62
               7
100
AcDbLine
 10
-4.0873925398372393
 20
6.0
 30
0.0
 11
-2.3126074306330082
 21
6.0
 31
0.0
  0
LINE
  5
163
100
AcDbEntity
  8
0
  6
CONTINUOUS
 62
               7
100
AcDbLine
 10
-1.9999999852351209
 20
2.5000000285843242
 30
0.0
 11
-1.9999999852351209
 21
9.4999999689796795
 31
0.0
  0
LINE
  5
164
100
AcDbEntity
  8
0
  6
CONTINUOUS
 62
               7
100
AcDbLine
 10
-4.3999999852351266
 20
2.5000000285843242
 30
0.0
 11
-4.3999999852351266
 21
9.4999999689796795
 31
0.0
  0
LINE
  5
165
100
AcDbEntity
  8
0
  6
CONTINUOUS
 62
               7
100
AcDbLine
 10
-4.3999999852351266
 20
9.4999999630643117
 30
0.0
 11
-1.9999999852351209
 21
9.4999999630643117
 31
0.0
  0
LINE
  5
166
100
AcDbEntity
  8
0
  6
CONTINUOUS
 62
               7
100
AcDbLine
 10
-4.3999999852351266
 20
2.5000000369356954
 30
0.0
 11
-1.9999999852351209
 21
2.5000000369356954
 31
0.0
  0
LINE
  5
167
100
AcDbEntity
  8
0
  6
CONTINUOUS
 62
               7
100
AcDbLine
 10
-4.3999999852351266
 20
2.5000000369356954
 30
0.0
 11
-6.7999999852351323
 21
2.5000000369356954
 31
0.0
  0
LINE
  5
168
100
AcDbEntity
  8
0
  6
CONTINUOUS
 62
               7
100
AcDbLine
 10
-4.3999999852351266
 20
9.4999999630643117
 30
0.0
 11
-6.7999999852351323
 21
9.4999999630643117
 31
0.0
  0
LINE
  5
169
100
AcDbEntity
  8
0
  6
CONTINUOUS
 62
               7
100
AcDbLine
 10
-6.7999999852351323
 20
2.5000000285843242
 30
0.0
 11
-6.7999999852351323
 21
9.4999999689796795
 31
0.0
  0
LINE
  5
16A
100
AcDbEntity
  8
0
  6
CONTINUOUS
 62
               7
100
AcDbLine
 10
-4.7126074306330139
 20
6.0
 30
0.0
 11
-6.487392539837245
 21
6.0
 31
0.0
  0
LINE
  5
16B
100
AcDbEntity
  8
0
  6
CONTINUOUS
 62
               7
100
AcDbLine
 10
-1.9999999852351209
 20
8.0
 30
0.0
 11
0.0
 21
8.0
 31
0.0
  0
LINE
  5
16C
100
AcDbEntity
  8
0
  6
CONTINUOUS
 62
               2
100
AcDbLine
 10
-1.9999999852351209
 20
7.7000000000000028
 30
0.0
 11
-0.9999999852351209
 21
7.7000000000000028
 31
0.0
  0
LINE
  5
16D
100
AcDbEntity
  8
0
  6
CONTINUOUS
 62
               7
100
AcDbLine
 10
-1.9999999852351209
 20
4.0
 30
0.0
 11
0.0
 21
4.0
 31
0.0
  0
LINE
  5
16E
100
AcDbEntity
  8
0
  6
CONTINUOUS
 62
               2
100
AcDbLine
 10
-1.9999999852351209
 20
4.2999999999999972
 30
0.0
 11
-0.9999999852351209
 21
4.2999999999999972
 31
0.0
  0
INSERT
  5
177
100
AcDbEntity
  8
0
  6
CONTINUOUS
 62
               7
100
AcDbBlockReference
  2
*X10
 10
0.0
 20
0.0
 30
0.0
  0
LINE
  5
178
100
AcDbEntity
  8
0
  6
CONTINUOUS
 62
               4
100
AcDbLine
 10
32.999999981272225
 20
13.889087266301502
 30
0.0
 11
17.499999993600454
 21
13.889087266301502
 31
0.0
  0
LINE
  5
179
100
AcDbEntity
  8
0
  6
CONTINUOUS
 62
               4
100
AcDbLine
 10
32.999999981272225
 20
11.767766918244533
 30
0.0
 11
17.499999993600454
 21
11.767766918244533
 31
0.0
  0
LINE
  5
17A
100
AcDbEntity
  8
0
  6
CONTINUOUS
 62
               4
100
AcDbLine
 10
32.000000032409559
 20
8.8899494566244073
 30
0.0
 11
33.000000034529563
 21
8.8899494566244073
 31
0.0
  0
LINE
  5
17B
100
AcDbEntity
  8
0
  6
CONTINUOUS
 62
               4
100
AcDbLine
 10
32.000000012644875
 20
10.63639608084884
 30
0.0
 11
33.000000014764879
 21
10.63639608084884
 31
0.0
  0
LINE
  5
17C
100
AcDbEntity
  8
0
  6
CONTINUOUS
 62
               4
100
AcDbLine
 10
33.000000014764879
 20
10.022792180099501
 30
0.0
 11
40.138268674687133
 21
10.022792180099501
 31
0.0
  0
LINE
  5
17D
100
AcDbEntity
  8
0
  6
CONTINUOUS
 62
               4
100
AcDbLine
 10
33.000000014764879
 20
8.8899494566244073
 30
0.0
 11
33.000000014764879
 21
13.889087266301516
 31
0.0
  0
LINE
  5
17E
100
AcDbEntity
  8
0
  6
CONTINUOUS
 62
               4
100
AcDbLine
 10
17.499999981904637
 20
11.572503291624002
 30
0.0
 11
17.499999981904637
 21
13.889087266301516
 31
0.0
  0
ELLIPSE
  5
17F
100
AcDbEntity
  8
0
  6
CONTINUOUS
 62
               4
100
AcDbEllipse
 10
19.499999986144644
 20
12.828427107174221
 30
0.0
 11
-1.25000000265
 21
0.0000000000000002
 31
0.0
210
0.0
220
0.0
230
1.0
 40
0.7071067811865475
 41
0.0
 42
6.2831853071795862
  0
LINE
  5
180
100
AcDbEntity
  8
0
  6
CONTINUOUS
 62
               4
100
AcDbLine
 10
19.749999986674652
 20
13.694452512794641
 30
0.0
 11
19.749999986674652
 21
11.962401701553787
 31
0.0
  0
LINE
  5
181
100
AcDbEntity
  8
0
  6
CONTINUOUS
 62
               4
100
AcDbLine
 10
19.249999985614636
 20
13.694452512794641
 30
0.0
 11
19.249999985614636
 21
11.962401701553787
 31
0.0
  0
LINE
  5
182
100
AcDbEntity
  8
0
  6
CONTINUOUS
 62
             200
100
AcDbLine
 10
39.777537980520826
 20
8.6765268866959531
 30
0.0
 11
41.186506869886067
 21
13.934870426385658
 31
0.0
  0
LINE
  5
183
100
AcDbEntity
  8
0
  6
CONTINUOUS
 62
               4
100
AcDbLine
 10
33.000000014764879
 20
12.52279218539951
 30
0.0
 11
40.808141649758788
 21
12.52279218539951
 31
0.0
  0
LINE
  5
184
100
AcDbEntity
  8
0
  6
CONTINUOUS
 62
               7
100
AcDbLine
 10
32.000000014764879
 20
13.889087266301502
 30
0.0
 11
32.000000014764879
 21
16.0
 31
0.0
  0
LINE
  5
185
100
AcDbEntity
  8
0
  6
CENTER
 62
               2
100
AcDbLine
 10
5.0
 20
1.5
 30
0.0
 11
5.0
 21
-1.5
 31
0.0
  0
ENDBLK
  5
186
100
AcDbEntity
  8
0
100
AcDbBlockEnd
  0
BLOCK
  5
187
100
AcDbEntity
  8
0
100
AcDbBlockBegin
  2
MS_5
 70
               0
 10
0.0
 20
0.0
 30
0.0
  3
MS_5
  1

  0
LINE
  5
188
100
AcDbEntity
  8
0
  6
PHANTOM
 62
               3
100
AcDbLine
 10
12.754904172152379
 20
3.0696344960563451
 30
0.0
 11
12.754904172152379
 21
-18.404584527220628
 31
0.0
  0
LINE
  5
189
100
AcDbEntity
  8
0
  6
PHANTOM
 62
               3
100
AcDbLine
 10
24.41573440970393
 20
3.0696344960563451
 30
0.0
 11
12.754904172152379
 21
3.0696344960563451
 31
0.0
  0
LINE
  5
18A
100
AcDbEntity
  8
0
  6
PHANTOM
 62
               3
100
AcDbLine
 10
24.41573440970393
 20
15.802521489971348
 30
0.0
 11
24.41573440970393
 21
3.0696344960563451
 31
0.0
  0
LINE
  5
18B
100
AcDbEntity
  8
0
  6
CONTINUOUS
 62
               4
100
AcDbLine
 10
8.750000003709971
 20
9.537598243396495
 30
0.0
 11
8.750000003709971
 21
7.8055474321556488
 31
0.0
  0
LINE
  5
18C
100
AcDbEntity
  8
0
  6
CONTINUOUS
 62
               4
100
AcDbLine
 10
9.2500000047699871
 20
9.537598243396495
 30
0.0
 11
9.2500000047699871
 21
7.8055474321556488
 31
0.0
  0
ELLIPSE
  5
18D
100
AcDbEntity
  8
0
  6
CONTINUOUS
 62
               4
100
AcDbEllipse
 10
9.0000000042400359
 20
8.6715728377761039
 30
0.0
 11
-1.25000000265
 21
0.0000000000000002
 31
0.0
210
0.0
220
0.0
230
1.0
 40
0.7071067811865475
 41
0.0
 42
6.2831853071795862
  0
LINE
  5
18E
100
AcDbEntity
  8
0
  6
CONTINUOUS
 62
               4
100
AcDbLine
 10
7.0
 20
9.7322330118044746
 30
0.0
 11
7.0
 21
7.173350083857839
 31
0.0
  0
LINE
  5
18F
100
AcDbEntity
  8
0
  6
CONTINUOUS
 62
               4
100
AcDbLine
 10
22.000000031799999
 20
7.4161354740104208
 30
0.0
 11
22.000000031799999
 21
13.585964889021966
 31
0.0
  0
LINE
  5
190
100
AcDbEntity
  8
0
  6
CONTINUOUS
 62
               4
100
AcDbLine
 10
19.500000026500004
 20
10.686827087904327
 30
0.0
 11
19.500000026500004
 21
11.39393389009588
 31
0.0
  0
LINE
  5
191
100
AcDbEntity
  8
0
  6
CONTINUOUS
 62
               4
100
AcDbLine
 10
21.600000014953878
 20
12.136396011915778
 30
0.0
 11
21.600000014953878
 21
12.843502788849463
 31
0.0
  0
ELLIPSE
  5
192
100
AcDbEntity
  8
0
  6
CONTINUOUS
 62
               4
100
AcDbEllipse
 10
19.500000026500004
 20
12.843502794601392
 30
0.0
 11
2.1000000044519944
 21
0.0
 31
0.0
210
0.0
220
0.0
230
1.0
 40
0.690270905444012
 41
2.2690212382307813
 42
0.8725714153590118
  0
LINE
  5
193
100
AcDbEntity
  8
0
  6
CONTINUOUS
 62
               4
100
AcDbLine
 10
19.500000026500004
 20
10.686827107410259
 30
0.0
 11
22.000000051564683
 21
10.686827107410259
 31
0.0
  0
LINE
  5
194
100
AcDbEntity
  8
0
  6
CONTINUOUS
 62
               4
100
AcDbLine
 10
21.303625156899869
 20
13.58596491642129
 30
0.0
 11
22.000000031799999
 21
13.58596491642129
 31
0.0
  0
LINE
  5
195
100
AcDbEntity
  8
0
  6
CONTINUOUS
 62
               4
100
AcDbLine
 10
17.40000002204809
 20
12.843502794601392
 30
0.0
 11
17.40000002204809
 21
8.6715728377761039
 31
0.0
  0
ELLIPSE
  5
196
100
AcDbEntity
  8
0
  6
CONTINUOUS
 62
               4
100
AcDbEllipse
 10
19.500000026500004
 20
12.136396011915778
 30
0.0
 11
2.0999999884538685
 21
0.0
 31
0.0
210
0.0
220
0.0
230
1.0
 40
0.6902709107026031
 41
4.7123889803846897
 42
0.0
  0
LINE
  5
197
100
AcDbEntity
  8
0
  6
CONTINUOUS
 62
               4
100
AcDbLine
 10
18.030306177714436
 20
8.2826640432357976
 30
0.0
 11
22.000000031799999
 21
8.2826640432357976
 31
0.0
  0
LINE
  5
198
100
AcDbEntity
  8
0
  6
CONTINUOUS
 62
               4
100
AcDbLine
 10
18.030306177714436
 20
7.6109126637477047
 30
0.0
 11
18.030306177714436
 21
8.2826640202350177
 31
0.0
  0
ELLIPSE
  5
199
100
AcDbEntity
  8
0
  6
CONTINUOUS
 62
               4
100
AcDbEllipse
 10
19.50000004626466
 20
8.6715728377761039
 30
0.0
 11
-2.1000000242166501
 21
0.0000000000000003
 31
0.0
210
0.0
220
0.0
230
1.0
 40
0.6902708989473662
 41
0.0
 42
0.7956029495296795
  0
LINE
  5
19A
100
AcDbEntity
  8
0
  6
CONTINUOUS
 62
               4
100
AcDbLine
 10
20.850000029362121
 20
12.843502788849463
 30
0.0
 11
20.850000029362121
 21
15.843502795209467
 31
0.0
  0
LINE
  5
19B
100
AcDbEntity
  8
0
  6
CONTINUOUS
 62
               4
100
AcDbLine
 10
18.150000023638086
 20
12.843502788849463
 30
0.0
 11
18.150000023638086
 21
15.843502795209467
 31
0.0
  0
ELLIPSE
  5
19C
100
AcDbEntity
  8
0
  6
CONTINUOUS
 62
               4
100
AcDbEllipse
 10
19.500000026500004
 20
12.843502794601392
 30
0.0
 11
1.3500000028620016
 21
0.0
 31
0.0
210
0.0
220
0.0
230
1.0
 40
0.7130928703394489
 41
3.1415926535897931
 42
0.0
  0
ELLIPSE
  5
19D
100
AcDbEntity
  8
0
  6
CONTINUOUS
 62
               4
100
AcDbEllipse
 10
19.500000026500004
 20
15.843502800961389
 30
0.0
 11
1.3500000028620016
 21
0.0
 31
0.0
210
0.0
220
0.0
230
1.0
 40
0.7130928703394489
 41
0.0
 42
6.2831853071795862
  0
LINE
  5
19E
100
AcDbEntity
  8
0
  6
CONTINUOUS
 62
               4
100
AcDbLine
 10
14.499999968200029
 20
-7.4161354740104208
 30
0.0
 11
14.499999968200029
 21
-13.585964889021966
 31
0.0
  0
LINE
  5
19F
100
AcDbEntity
  8
0
  6
CONTINUOUS
 62
               4
100
AcDbLine
 10
16.999999973499996
 20
-10.686827087904334
 30
0.0
 11
16.999999973499996
 21
-11.393933890095823
 31
0.0
  0
LINE
  5
1A0
100
AcDbEntity
  8
0
  6
CONTINUOUS
 62
               4
100
AcDbLine
 10
19.099999977952137
 20
-12.843502794601335
 30
0.0
 11
19.099999977952137
 21
-8.6715728377760541
 31
0.0
  0
ELLIPSE
  5
1A1
100
AcDbEntity
  8
0
  6
CONTINUOUS
 62
               4
100
AcDbEllipse
 10
16.999999973499996
 20
-12.136396011915721
 30
0.0
 11
-2.0999999884538685
 21
0.0000000000000003
 31
0.0
210
0.0
220
0.0
230
1.0
 40
0.6902709107026031
 41
4.7123889803846897
 42
0.0
  0
ELLIPSE
  5
1A2
100
AcDbEntity
  8
0
  6
CONTINUOUS
 62
               4
100
AcDbEllipse
 10
16.999999973499996
 20
-15.843502800961332
 30
0.0
 11
-1.3500000028620016
 21
0.0000000000000002
 31
0.0
210
0.0
220
0.0
230
1.0
 40
0.7130928703394489
 41
0.0
 42
6.2831853071795862
  0
ELLIPSE
  5
1A3
100
AcDbEntity
  8
0
  6
CONTINUOUS
 62
               4
100
AcDbEllipse
 10
16.999999973499996
 20
-12.843502794601335
 30
0.0
 11
-1.3500000028620016
 21
0.0000000000000002
 31
0.0
210
0.0
220
0.0
230
1.0
 40
0.7130928703394489
 41
3.1415926535897931
 42
0.0
  0
LINE
  5
1A4
100
AcDbEntity
  8
0
  6
CONTINUOUS
 62
               4
100
AcDbLine
 10
18.34999997636217
 20
-12.843502788849477
 30
0.0
 11
18.34999997636217
 21
-15.84350279520946
 31
0.0
  0
LINE
  5
1A5
100
AcDbEntity
  8
0
  6
CONTINUOUS
 62
               4
100
AcDbLine
 10
15.649999970638106
 20
-12.843502788849477
 30
0.0
 11
15.649999970638106
 21
-15.84350279520946
 31
0.0
  0
LINE
  5
1A6
100
AcDbEntity
  8
0
  6
CONTINUOUS
 62
               4
100
AcDbLine
 10
15.196374843100358
 20
-13.585964916421233
 30
0.0
 11
14.499999968200029
 21
-13.585964916421233
 31
0.0
  0
ELLIPSE
  5
1A7
100
AcDbEntity
  8
0
  6
CONTINUOUS
 62
               4
100
AcDbEllipse
 10
16.999999973499996
 20
-12.843502794601335
 30
0.0
 11
-2.1000000044519944
 21
0.0000000000000003
 31
0.0
210
0.0
220
0.0
230
1.0
 40
0.690270905444012
 41
2.2690212382307813
 42
0.8725714153590118
  0
LINE
  5
1A8
100
AcDbEntity
  8
0
  6
CONTINUOUS
 62
               4
100
AcDbLine
 10
14.899999985046378
 20
-12.136396011915721
 30
0.0
 11
14.899999985046378
 21
-12.843502788849477
 31
0.0
  0
LINE
  5
1A9
100
AcDbEntity
  8
0
  6
CONTINUOUS
 62
               4
100
AcDbLine
 10
16.999999973499996
 20
-10.686827107410252
 30
0.0
 11
14.499999948435573
 21
-10.686827107410252
 31
0.0
  0
LINE
  5
1AA
100
AcDbEntity
  8
0
  6
CONTINUOUS
 62
               4
100
AcDbLine
 10
18.469693822285763
 20
-8.282664043235755
 30
0.0
 11
14.499999968200029
 21
-8.282664043235755
 31
0.0
  0
LINE
  5
1AB
100
AcDbEntity
  8
0
  6
CONTINUOUS
 62
               4
100
AcDbLine
 10
18.469693822285763
 20
-7.6109126637476976
 30
0.0
 11
18.469693822285763
 21
-8.2826640202350319
 31
0.0
  0
ELLIPSE
  5
1AC
100
AcDbEntity
  8
0
  6
CONTINUOUS
 62
               4
100
AcDbEllipse
 10
16.999999953735539
 20
-8.6715728377760541
 30
0.0
 11
2.1000000242166501
 21
0.0
 31
0.0
210
0.0
220
0.0
230
1.0
 40
0.6902708989473662
 41
0.0
 42
0.7956029495296795
  0
LINE
  5
1AD
100
AcDbEntity
  8
0
  6
CONTINUOUS
 62
               4
100
AcDbLine
 10
27.749999996290029
 20
-9.5375982433964452
 30
0.0
 11
27.749999996290029
 21
-7.8055474321556488
 31
0.0
  0
LINE
  5
1AE
100
AcDbEntity
  8
0
  6
CONTINUOUS
 62
               4
100
AcDbLine
 10
27.249999995230041
 20
-9.5375982433964452
 30
0.0
 11
27.249999995230041
 21
-7.8055474321556488
 31
0.0
  0
ELLIPSE
  5
1AF
100
AcDbEntity
  8
0
  6
CONTINUOUS
 62
               4
100
AcDbEllipse
 10
27.499999995759993
 20
-8.6715728377760541
 30
0.0
 11
1.25000000265
 21
0.0
 31
0.0
210
0.0
220
0.0
230
1.0
 40
0.7071067811865475
 41
0.0
 42
6.2831853071795862
  0
LINE
  5
1B0
100
AcDbEntity
  8
0
  6
CONTINUOUS
 62
               4
100
AcDbLine
 10
29.5
 20
-9.7322330118044675
 30
0.0
 11
29.5
 21
-7.4161354740104208
 31
0.0
  0
LINE
  5
1B1
100
AcDbEntity
  8
0
  6
CONTINUOUS
 62
               4
100
AcDbLine
 10
7.0000000346271634
 20
9.7322330118044746
 30
0.0
 11
17.40000002204809
 21
9.7322330118044746
 31
0.0
  0
LINE
  5
1B2
100
AcDbEntity
  8
0
  6
CONTINUOUS
 62
               4
100
AcDbLine
 10
7.0000000346271634
 20
7.6109126637477047
 30
0.0
 11
22.000000031799999
 21
7.6109126637477047
 31
0.0
  0
LINE
  5
1B3
100
AcDbEntity
  8
0
  6
CONTINUOUS
 62
               4
100
AcDbLine
 10
19.100000011634961
 20
-9.7322330118044675
 30
0.0
 11
29.499999965833126
 21
-9.7322330118044675
 31
0.0
  0
LINE
  5
1B4
100
AcDbEntity
  8
0
  6
CONTINUOUS
 62
               4
100
AcDbLine
 10
14.499999991361506
 20
-7.6109126637476976
 30
0.0
 11
29.499999965833126
 21
-7.6109126637476976
 31
0.0
  0
INSERT
  5
1BE
100
AcDbEntity
  8
0
  6
CONTINUOUS
 62
               7
100
AcDbBlockReference
  2
*X11
 10
0.0
 20
0.0
 30
0.0
  0
LINE
  5
1BF
100
AcDbEntity
  8
0
  6
CONTINUOUS
 62
               2
100
AcDbLine
 10
-2.0
 20
-1.7000000000000028
 30
0.0
 11
-1.0
 21
-1.7000000000000028
 31
0.0
  0
LINE
  5
1C0
100
AcDbEntity
  8
0
  6
CONTINUOUS
 62
               7
100
AcDbLine
 10
-2.0
 20
-2.0
 30
0.0
 11
0.0
 21
-2.0
 31
0.0
  0
LINE
  5
1C1
100
AcDbEntity
  8
0
  6
CONTINUOUS
 62
               7
100
AcDbLine
 10
-2.0
 20
2.0
 30
0.0
 11
0.0
 21
2.0
 31
0.0
  0
LINE
  5
1C2
100
AcDbEntity
  8
0
  6
CONTINUOUS
 62
               2
100
AcDbLine
 10
-2.0
 20
1.7000000000000028
 30
0.0
 11
-1.0
 21
1.7000000000000028
 31
0.0
  0
LINE
  5
1C3
100
AcDbEntity
  8
0
  6
CONTINUOUS
 62
               7
100
AcDbLine
 10
-4.712607445397893
 20
4.0414519297817577
 30
0.0
 11
-6.4873925373957491
 21
4.0414519297817577
 31
0.0
  0
LINE
  5
1C4
100
AcDbEntity
  8
0
  6
CONTINUOUS
 62
               7
100
AcDbLine
 10
-4.712607445397893
 20
2.0207259365011652
 30
0.0
 11
-6.4873925546021241
 21
2.0207259365011652
 31
0.0
  0
LINE
  5
1C5
100
AcDbEntity
  8
0
  6
CONTINUOUS
 62
               7
100
AcDbLine
 10
-4.4000000378280077
 20
3.5000000285843242
 30
0.0
 11
-4.712607445397893
 21
4.0414518999794353
 31
0.0
  0
LINE
  5
1C6
100
AcDbEntity
  8
0
  6
CONTINUOUS
 62
               7
100
AcDbLine
 10
-6.7999999621720093
 20
3.5000000285843242
 30
0.0
 11
-6.4873925546021241
 21
4.0414518999794353
 31
0.0
  0
LINE
  5
1C7
100
AcDbEntity
  8
0
  6
CONTINUOUS
 62
               7
100
AcDbLine
 10
-6.8000000000000114
 20
-3.4999999714156758
 30
0.0
 11
-6.8000000000000114
 21
3.4999999689796795
 31
0.0
  0
LINE
  5
1C8
100
AcDbEntity
  8
0
  6
CONTINUOUS
 62
               7
100
AcDbLine
 10
-4.712607445397893
 20
-4.0414519297817577
 30
0.0
 11
-6.4873925373957491
 21
-4.0414519297817577
 31
0.0
  0
LINE
  5
1C9
100
AcDbEntity
  8
0
  6
CONTINUOUS
 62
               7
100
AcDbLine
 10
-4.4000000378280077
 20
-3.5000000285843242
 30
0.0
 11
-4.712607445397893
 21
-4.0414518999794353
 31
0.0
  0
LINE
  5
1CA
100
AcDbEntity
  8
0
  6
CONTINUOUS
 62
               7
100
AcDbLine
 10
-6.7999999621720093
 20
-3.5000000285843242
 30
0.0
 11
-6.4873925546021241
 21
-4.0414518999794353
 31
0.0
  0
LINE
  5
1CB
100
AcDbEntity
  8
0
  6
CONTINUOUS
 62
               7
100
AcDbLine
 10
-4.712607445397893
 20
-2.0207259365011652
 30
0.0
 11
-6.4873925546021241
 21
-2.0207259365011652
 31
0.0
  0
LINE
  5
1CC
100
AcDbEntity
  8
0
  6
CONTINUOUS
 62
               7
100
AcDbLine
 10
-4.0873925546021184
 20
-2.0207259365011652
 30
0.0
 11
-2.3126074453978873
 21
-2.0207259365011652
 31
0.0
  0
LINE
  5
1CD
100
AcDbEntity
  8
0
  6
CONTINUOUS
 62
               7
100
AcDbLine
 10
-2.0000000378280021
 20
-3.5000000285843242
 30
0.0
 11
-2.3126074453978873
 21
-4.0414518999794353
 31
0.0
  0
LINE
  5
1CE
100
AcDbEntity
  8
0
  6
CONTINUOUS
 62
               7
100
AcDbLine
 10
-4.3999999621720036
 20
-3.5000000285843242
 30
0.0
 11
-4.0873925546021184
 21
-4.0414518999794353
 31
0.0
  0
LINE
  5
1CF
100
AcDbEntity
  8
0
  6
CONTINUOUS
 62
               7
100
AcDbLine
 10
-4.0873925546021184
 20
-4.0414519297817577
 30
0.0
 11
-2.3126074626042623
 21
-4.0414519297817577
 31
0.0
  0
LINE
  5
1D0
100
AcDbEntity
  8
0
  6
CONTINUOUS
 62
               7
100
AcDbLine
 10
-2.0
 20
-3.4999999714156758
 30
0.0
 11
-2.0
 21
3.4999999689796795
 31
0.0
  0
LINE
  5
1D1
100
AcDbEntity
  8
0
  6
CONTINUOUS
 62
               7
100
AcDbLine
 10
-2.0000000378280021
 20
3.5000000285843242
 30
0.0
 11
-2.3126074453978873
 21
4.0414518999794353
 31
0.0
  0
LINE
  5
1D2
100
AcDbEntity
  8
0
  6
CONTINUOUS
 62
               7
100
AcDbLine
 10
-4.3999999621720036
 20
3.5000000285843242
 30
0.0
 11
-4.0873925546021184
 21
4.0414518999794353
 31
0.0
  0
LINE
  5
1D3
100
AcDbEntity
  8
0
  6
CONTINUOUS
 62
               7
100
AcDbLine
 10
-4.0873925546021184
 20
2.0207259365011652
 30
0.0
 11
-2.3126074453978873
 21
2.0207259365011652
 31
0.0
  0
LINE
  5
1D4
100
AcDbEntity
  8
0
  6
CONTINUOUS
 62
               7
100
AcDbLine
 10
-4.0873925546021184
 20
4.0414519297817577
 30
0.0
 11
-2.3126074626042623
 21
4.0414519297817577
 31
0.0
  0
LINE
  5
1D5
100
AcDbEntity
  8
0
  6
CONTINUOUS
 62
               7
100
AcDbLine
 10
-4.4000000000000057
 20
-3.4999999714156758
 30
0.0
 11
-4.4000000000000057
 21
3.4999999689796795
 31
0.0
  0
SPLINE
  5
1D6
100
AcDbEntity
  8
0
  6
CONTINUOUS
 62
               7
100
AcDbSpline
210
0.0
220
0.0
230
1.0
 70
               0
 71
               3
 72
               0
 73
               0
 74
               5
 44
0.000001
 12
0.5262037747144671
 22
-0.8503585052648361
 32
0.0
 13
-0.5262037632262535
 23
-0.8503585123737687
 33
0.0
 11
-4.712607462604268
 21
4.0414519297817577
 31
0.0
 11
-4.4867383762316395
 21
3.5570844487105919
 31
0.0
 11
-4.4000000000000057
 21
3.0310889130591789
 31
0.0
 11
-4.4867383729262658
 21
2.5050933992850792
 31
0.0
 11
-4.712607445397893
 21
2.0207259365011652
 31
0.0
  0
SPLINE
  5
1D7
100
AcDbEntity
  8
0
  6
CONTINUOUS
 62
               7
100
AcDbSpline
210
0.0
220
0.0
230
1.0
 70
               0
 71
               3
 72
               0
 73
               0
 74
               5
 44
0.000001
 12
-0.5262037747144672
 22
-0.850358505264836
 32
0.0
 13
0.5262037632262534
 23
-0.8503585123737688
 33
0.0
 11
-6.4873925373957491
 21
4.0414519297817577
 31
0.0
 11
-6.7132616237683775
 21
3.5570844487105919
 31
0.0
 11
-6.8000000000000114
 21
3.0310889130591789
 31
0.0
 11
-6.7132616270737513
 21
2.5050933992850792
 31
0.0
 11
-6.4873925546021241
 21
2.0207259365011652
 31
0.0
  0
SPLINE
  5
1D8
100
AcDbEntity
  8
0
  6
CONTINUOUS
 62
               7
100
AcDbSpline
210
0.0
220
0.0
230
1.0
 70
               0
 71
               3
 72
               0
 73
               0
 74
               5
 44
0.000001
 12
0.5262037747144671
 22
0.8503585052648361
 32
0.0
 13
-0.5262037632262535
 23
0.8503585123737687
 33
0.0
 11
-4.712607462604268
 21
-4.0414519297817577
 31
0.0
 11
-4.4867383762316395
 21
-3.5570844487105919
 31
0.0
 11
-4.4000000000000057
 21
-3.0310889130591789
 31
0.0
 11
-4.4867383729262658
 21
-2.5050933992850792
 31
0.0
 11
-4.712607445397893
 21
-2.0207259365011652
 31
0.0
  0
SPLINE
  5
1D9
100
AcDbEntity
  8
0
  6
CONTINUOUS
 62
               7
100
AcDbSpline
210
0.0
220
0.0
230
1.0
 70
               0
 71
               3
 72
               0
 73
               0
 74
               5
 44
0.000001
 12
-0.5262037747144672
 22
0.850358505264836
 32
0.0
 13
0.5262037632262534
 23
0.8503585123737688
 33
0.0
 11
-6.4873925373957491
 21
-4.0414519297817577
 31
0.0
 11
-6.7132616237683775
 21
-3.5570844487105919
 31
0.0
 11
-6.8000000000000114
 21
-3.0310889130591789
 31
0.0
 11
-6.7132616270737513
 21
-2.5050933992850792
 31
0.0
 11
-6.4873925546021241
 21
-2.0207259365011652
 31
0.0
  0
SPLINE
  5
1DA
100
AcDbEntity
  8
0
  6
CONTINUOUS
 62
               7
100
AcDbSpline
210
0.0
220
0.0
230
1.0
 70
               0
 71
               3
 72
               0
 73
               0
 74
               5
 44
0.000001
 12
0.2955767757658921
 22
-0.9553189884158273
 32
0.0
 13
-0.295576775765892
 23
-0.9553189884158273
 33
0.0
 11
-4.712607445397893
 21
2.0207259365011652
 31
0.0
 11
-4.4807556568284568
 21
1.0229863649462863
 31
0.0
 11
-4.4000000000000057
 21
0.0
 31
0.0
 11
-4.4807556568284568
 21
-1.0229863649462863
 31
0.0
 11
-4.712607445397893
 21
-2.0207259365011652
 31
0.0
  0
SPLINE
  5
1DB
100
AcDbEntity
  8
0
  6
CONTINUOUS
 62
               7
100
AcDbSpline
210
0.0
220
0.0
230
1.0
 70
               0
 71
               3
 72
               0
 73
               0
 74
               5
 44
0.000001
 12
-0.295576775765892
 22
-0.9553189884158273
 32
0.0
 13
0.2955767757658919
 23
-0.9553189884158273
 33
0.0
 11
-6.4873925546021241
 21
2.0207259365011652
 31
0.0
 11
-6.7192443431715603
 21
1.0229863649462863
 31
0.0
 11
-6.8000000000000114
 21
0.0
 31
0.0
 11
-6.7192443431715603
 21
-1.0229863649462863
 31
0.0
 11
-6.4873925546021241
 21
-2.0207259365011652
 31
0.0
  0
SPLINE
  5
1DC
100
AcDbEntity
  8
0
  6
CONTINUOUS
 62
               7
100
AcDbSpline
210
0.0
220
0.0
230
1.0
 70
               0
 71
               3
 72
               0
 73
               0
 74
               5
 44
0.000001
 12
0.2955767757658921
 22
-0.9553189884158273
 32
0.0
 13
-0.295576775765892
 23
-0.9553189884158273
 33
0.0
 11
-2.3126074453978873
 21
2.0207259365011652
 31
0.0
 11
-2.0807556568284515
 21
1.0229863649462863
 31
0.0
 11
-2.0
 21
0.0
 31
0.0
 11
-2.0807556568284515
 21
-1.0229863649462863
 31
0.0
 11
-2.3126074453978873
 21
-2.0207259365011652
 31
0.0
  0
SPLINE
  5
1DD
100
AcDbEntity
  8
0
  6
CONTINUOUS
 62
               7
100
AcDbSpline
210
0.0
220
0.0
230
1.0
 70
               0
 71
               3
 72
               0
 73
               0
 74
               5
 44
0.000001
 12
-0.295576775765892
 22
-0.9553189884158273
 32
0.0
 13
0.2955767757658919
 23
-0.9553189884158273
 33
0.0
 11
-4.0873925546021184
 21
2.0207259365011652
 31
0.0
 11
-4.3192443431715546
 21
1.0229863649462863
 31
0.0
 11
-4.4000000000000057
 21
0.0
 31
0.0
 11
-4.3192443431715546
 21
-1.0229863649462863
 31
0.0
 11
-4.0873925546021184
 21
-2.0207259365011652
 31
0.0
  0
SPLINE
  5
1DE
100
AcDbEntity
  8
0
  6
CONTINUOUS
 62
               7
100
AcDbSpline
210
0.0
220
0.0
230
1.0
 70
               0
 71
               3
 72
               0
 73
               0
 74
               5
 44
0.000001
 12
0.5262037747144671
 22
0.8503585052648361
 32
0.0
 13
-0.5262037632262535
 23
0.8503585123737687
 33
0.0
 11
-2.3126074626042623
 21
-4.0414519297817577
 31
0.0
 11
-2.0867383762316338
 21
-3.5570844487105919
 31
0.0
 11
-2.0
 21
-3.0310889130591789
 31
0.0
 11
-2.0867383729262601
 21
-2.5050933992850792
 31
0.0
 11
-2.3126074453978873
 21
-2.0207259365011652
 31
0.0
  0
SPLINE
  5
1DF
100
AcDbEntity
  8
0
  6
CONTINUOUS
 62
               7
100
AcDbSpline
210
0.0
220
0.0
230
1.0
 70
               0
 71
               3
 72
               0
 73
               0
 74
               5
 44
0.000001
 12
-0.5262037747144672
 22
0.850358505264836
 32
0.0
 13
0.5262037632262534
 23
0.8503585123737688
 33
0.0
 11
-4.0873925373957434
 21
-4.0414519297817577
 31
0.0
 11
-4.3132616237683719
 21
-3.5570844487105919
 31
0.0
 11
-4.4000000000000057
 21
-3.0310889130591789
 31
0.0
 11
-4.3132616270737456
 21
-2.5050933992850792
 31
0.0
 11
-4.0873925546021184
 21
-2.0207259365011652
 31
0.0
  0
SPLINE
  5
1E0
100
AcDbEntity
  8
0
  6
CONTINUOUS
 62
               7
100
AcDbSpline
210
0.0
220
0.0
230
1.0
 70
               0
 71
               3
 72
               0
 73
               0
 74
               5
 44
0.000001
 12
0.5262037747144671
 22
-0.8503585052648361
 32
0.0
 13
-0.5262037632262535
 23
-0.8503585123737687
 33
0.0
 11
-2.3126074626042623
 21
4.0414519297817577
 31
0.0
 11
-2.0867383762316338
 21
3.5570844487105919
 31
0.0
 11
-2.0
 21
3.0310889130591789
 31
0.0
 11
-2.0867383729262601
 21
2.5050933992850792
 31
0.0
 11
-2.3126074453978873
 21
2.0207259365011652
 31
0.0
  0
SPLINE
  5
1E1
100
AcDbEntity
  8
0
  6
CONTINUOUS
 62
               7
100
AcDbSpline
210
0.0
220
0.0
230
1.0
 70
               0
 71
               3
 72
               0
 73
               0
 74
               5
 44
0.000001
 12
-0.5262037747144672
 22
-0.850358505264836
 32
0.0
 13
0.5262037632262534
 23
-0.8503585123737688
 33
0.0
 11
-4.0873925373957434
 21
4.0414519297817577
 31
0.0
 11
-4.3132616237683719
 21
3.5570844487105919
 31
0.0
 11
-4.4000000000000057
 21
3.0310889130591789
 31
0.0
 11
-4.3132616270737456
 21
2.5050933992850792
 31
0.0
 11
-4.0873925546021184
 21
2.0207259365011652
 31
0.0
  0
CIRCLE
  5
1E2
100
AcDbEntity
  8
0
  6
CONTINUOUS
 62
               7
100
AcDbCircle
 10
29.0
 20
0.0000000000000142
 30
0.0
 40
1.1999999999999886
  0
CIRCLE
  5
1E3
100
AcDbEntity
  8
0
  6
CONTINUOUS
 62
               2
100
AcDbCircle
 10
29.0
 20
0.0000000000000142
 30
0.0
 40
1.5
  0
LINE
  5
1E4
100
AcDbEntity
  8
0
  6
CENTER
 62
               2
100
AcDbLine
 10
29.0
 20
1.9547775518886965
 30
0.0
 11
29.0
 21
-1.9760956580291094
 31
0.0
  0
CIRCLE
  5
1E5
100
AcDbEntity
  8
0
  6
CONTINUOUS
 62
               7
100
AcDbCircle
 10
10.0
 20
0.0000000000000142
 30
0.0
 40
1.1999999999999886
  0
CIRCLE
  5
1E6
100
AcDbEntity
  8
0
  6
CONTINUOUS
 62
               2
100
AcDbCircle
 10
10.0
 20
0.0000000000000142
 30
0.0
 40
1.5
  0
LINE
  5
1E7
100
AcDbEntity
  8
0
  6
CENTER
 62
               2
100
AcDbLine
 10
10.0
 20
-1.9760956580291094
 30
0.0
 11
10.0
 21
2.9244568465231211
 31
0.0
  0
LINE
  5
1E8
100
AcDbEntity
  8
0
  6
CONTINUOUS
 62
               7
100
AcDbLine
 10
0.0
 20
-7.4161354740104208
 30
0.0
 11
2.8586831880122503
 21
-7.4161354740104208
 31
0.0
  0
LINE
  5
1E9
100
AcDbEntity
  8
0
  6
CONTINUOUS
 62
               7
100
AcDbLine
 10
0.0
 20
-9.4493902970812869
 30
0.0
 11
2.7957636098167882
 21
-9.4493902970812869
 31
0.0
  0
LINE
  5
1EA
100
AcDbEntity
  8
0
  6
CONTINUOUS
 62
               7
100
AcDbLine
 10
7.1413168119877497
 20
-7.4161354740104208
 30
0.0
 11
32.0
 21
-7.4161354740104208
 31
0.0
  0
LINE
  5
1EB
100
AcDbEntity
  8
0
  6
CONTINUOUS
 62
               7
100
AcDbLine
 10
7.2042363901832118
 20
-9.4493902970812869
 30
0.0
 11
14.499999968200029
 21
-9.4493902970812869
 31
0.0
  0
LINE
  5
1EC
100
AcDbEntity
  8
0
  6
CONTINUOUS
 62
               7
100
AcDbLine
 10
0.0
 20
-5.4999999300492668
 30
0.0
 11
32.0
 21
-5.4999999300492668
 31
0.0
  0
LINE
  5
1ED
100
AcDbEntity
  8
0
  6
CONTINUOUS
 62
               7
100
AcDbLine
 10
7.1413168119877497
 20
7.4161354740104208
 30
0.0
 11
32.0
 21
7.4161354740104208
 31
0.0
  0
LINE
  5
1EE
100
AcDbEntity
  8
0
  6
CONTINUOUS
 62
               7
100
AcDbLine
 10
22.000000031799999
 20
9.4493902970812869
 30
0.0
 11
32.0
 21
9.4493902970812869
 31
0.0
  0
LINE
  5
1EF
100
AcDbEntity
  8
0
  6
CONTINUOUS
 62
               7
100
AcDbLine
 10
0.0
 20
5.4999999300492668
 30
0.0
 11
32.0
 21
5.4999999300492668
 31
0.0
  0
LINE
  5
1F0
100
AcDbEntity
  8
0
  6
CONTINUOUS
 62
               7
100
AcDbLine
 10
0.0
 20
7.4161354740104208
 30
0.0
 11
2.8586831880122503
 21
7.4161354740104208
 31
0.0
  0
LINE
  5
1F1
100
AcDbEntity
  8
0
  6
CONTINUOUS
 62
               7
100
AcDbLine
 10
0.0
 20
9.4493902970812869
 30
0.0
 11
2.7957636098167882
 21
9.4493902970812869
 31
0.0
  0
LINE
  5
1F2
100
AcDbEntity
  8
0
  6
CONTINUOUS
 62
               7
100
AcDbLine
 10
-0.0000000147648791
 20
-11.5
 30
0.0
 11
14.499999968200029
 21
-11.5
 31
0.0
  0
LINE
  5
1F3
100
AcDbEntity
  8
0
  6
CONTINUOUS
 62
               2
100
AcDbLine
 10
-10.0
 20
-1.7000000000000028
 30
0.0
 11
-6.8000000000000114
 21
-1.7000000000000028
 31
0.0
  0
LINE
  5
1F4
100
AcDbEntity
  8
0
  6
CONTINUOUS
 62
               7
100
AcDbLine
 10
-9.7000000000000171
 20
-2.0
 30
0.0
 11
-10.0
 21
-1.7000000000000028
 31
0.0
  0
LINE
  5
1F5
100
AcDbEntity
  8
0
  6
CONTINUOUS
 62
               2
100
AcDbLine
 10
-1.0
 20
-1.7000000000000028
 30
0.0
 11
-0.4803847577293539
 21
-2.0
 31
0.0
  0
LINE
  5
1F6
100
AcDbEntity
  8
0
  6
CONTINUOUS
 62
               7
100
AcDbLine
 10
-9.7000000000000171
 20
-2.0
 30
0.0
 11
-6.8000000000000114
 21
-2.0
 31
0.0
  0
LINE
  5
1F7
100
AcDbEntity
  8
0
  6
CENTER
 62
               2
100
AcDbLine
 10
1.5999999999999943
 20
-8.5
 30
0.0
 11
8.4000000000000057
 21
-8.5
 31
0.0
  0
CIRCLE
  5
1F8
100
AcDbEntity
  8
0
  6
CONTINUOUS
 62
               7
100
AcDbCircle
 10
5.0
 20
-8.5
 30
0.0
 40
1.3499999999999996
  0
CIRCLE
  5
1F9
100
AcDbEntity
  8
0
  6
CONTINUOUS
 62
               7
100
AcDbCircle
 10
5.0
 20
-8.5
 30
0.0
 40
2.4000000000000004
  0
LINE
  5
1FA
100
AcDbEntity
  8
0
  6
CENTER
 62
               2
100
AcDbLine
 10
5.0
 20
-11.899999999999999
 30
0.0
 11
5.0
 21
-5.1000000000000014
 31
0.0
  0
CIRCLE
  5
1FB
100
AcDbEntity
  8
0
  6
CONTINUOUS
 62
               7
100
AcDbCircle
 10
5.0
 20
8.5
 30
0.0
 40
1.3499999999999996
  0
ARC
  5
1FC
100
AcDbEntity
  8
0
  6
CONTINUOUS
 62
               7
100
AcDbCircle
 10
5.0
 20
8.5
 30
0.0
 40
2.4000000000000004
100
AcDbArc
 50
30.892599775498748
 51
333.15295903779531
  0
LINE
  5
1FD
100
AcDbEntity
  8
0
  6
CENTER
 62
               2
100
AcDbLine
 10
-11.327718340488786
 20
0.0
 30
0.0
 11
33.239086512929219
 21
0.0
 31
0.0
  0
LINE
  5
1FE
100
AcDbEntity
  8
0
  6
CONTINUOUS
 62
               7
100
AcDbLine
 10
-0.0000000147648791
 20
11.5
 30
0.0
 11
17.40000002204809
 21
11.5
 31
0.0
  0
LINE
  5
1FF
100
AcDbEntity
  8
0
  6
CONTINUOUS
 62
               7
100
AcDbLine
 10
0.0
 20
11.5
 30
0.0
 11
0.0
 21
-11.5
 31
0.0
  0
LINE
  5
200
100
AcDbEntity
  8
0
  6
CONTINUOUS
 62
               7
100
AcDbLine
 10
-9.7000000000000171
 20
2.0
 30
0.0
 11
-6.8000000000000114
 21
2.0
 31
0.0
  0
LINE
  5
201
100
AcDbEntity
  8
0
  6
CONTINUOUS
 62
               7
100
AcDbLine
 10
32.0
 20
11.5
 30
0.0
 11
32.0
 21
-11.5
 31
0.0
  0
LINE
  5
202
100
AcDbEntity
  8
0
  6
CENTER
 62
               2
100
AcDbLine
 10
1.5999999999999943
 20
8.5
 30
0.0
 11
8.4000000000000057
 21
8.5
 31
0.0
  0
LINE
  5
203
100
AcDbEntity
  8
0
  6
CENTER
 62
               2
100
AcDbLine
 10
5.0
 20
11.899999999999999
 30
0.0
 11
5.0
 21
5.1000000000000014
 31
0.0
  0
LINE
  5
204
100
AcDbEntity
  8
0
  6
CONTINUOUS
 62
               7
100
AcDbLine
 10
-10.0
 20
-1.7000000000000028
 30
0.0
 11
-10.0
 21
1.7000000000000028
 31
0.0
  0
LINE
  5
205
100
AcDbEntity
  8
0
  6
CONTINUOUS
 62
               7
100
AcDbLine
 10
-1.0
 20
-2.0
 30
0.0
 11
-1.0
 21
2.0
 31
0.0
  0
LINE
  5
206
100
AcDbEntity
  8
0
  6
CONTINUOUS
 62
               7
100
AcDbLine
 10
-9.7000000000000171
 20
-2.0
 30
0.0
 11
-9.7000000000000171
 21
2.0
 31
0.0
  0
LINE
  5
207
100
AcDbEntity
  8
0
  6
CONTINUOUS
 62
               2
100
AcDbLine
 10
-1.0
 20
1.7000000000000028
 30
0.0
 11
-0.4803847577293539
 21
2.0
 31
0.0
  0
LINE
  5
208
100
AcDbEntity
  8
0
  6
CONTINUOUS
 62
               7
100
AcDbLine
 10
-9.7000000000000171
 20
2.0
 30
0.0
 11
-10.0
 21
1.7000000000000028
 31
0.0
  0
LINE
  5
209
100
AcDbEntity
  8
0
  6
CONTINUOUS
 62
               2
100
AcDbLine
 10
-10.0
 20
1.7000000000000028
 30
0.0
 11
-6.8000000000000114
 21
1.7000000000000028
 31
0.0
  0
LINE
  5
20A
100
AcDbEntity
  8
0
  6
CONTINUOUS
 62
               7
100
AcDbLine
 10
22.000000031799999
 20
11.5
 30
0.0
 11
32.0
 21
11.5
 31
0.0
  0
LINE
  5
20B
100
AcDbEntity
  8
0
  6
CONTINUOUS
 62
               7
100
AcDbLine
 10
19.099999977952137
 20
-11.5
 30
0.0
 11
32.0
 21
-11.5
 31
0.0
  0
LINE
  5
20C
100
AcDbEntity
  8
0
  6
CONTINUOUS
 62
               7
100
AcDbLine
 10
29.5
 20
-9.4493902970812869
 30
0.0
 11
32.0
 21
-9.4493902970812869
 31
0.0
  0
ENDBLK
  5
20D
100
AcDbEntity
  8
0
100
AcDbBlockEnd
  0
BLOCK
  5
20E
100
AcDbEntity
  8
0
100
AcDbBlockBegin
  2
MS_6
 70
               0
 10
0.0
 20
0.0
 30
0.0
  3
MS_6
  1

  0
LINE
  5
20F
100
AcDbEntity
  8
0
  6
CONTINUOUS
 62
               4
100
AcDbLine
 10
16.053844113518608
 20
-13.790015731525813
 30
0.0
 11
18.425690850270854
 21
-16.161862468277974
 31
0.0
  0
LINE
  5
210
100
AcDbEntity
  8
0
  6
CONTINUOUS
 62
               4
100
AcDbLine
 10
17.963032426769757
 20
-11.880827418274663
 30
0.0
 11
20.059021443382704
 21
-13.976816434887454
 31
0.0
  0
LINE
  5
211
100
AcDbEntity
  8
0
  6
PHANTOM
 62
             200
100
AcDbLine
 10
20.694789272018227
 20
-12.921254080157581
 30
0.0
 11
17.679204231105047
 21
-17.227955845499196
 31
0.0
  0
LINE
  5
212
100
AcDbEntity
  8
0
  6
CONTINUOUS
 62
               4
100
AcDbLine
 10
18.449925960056277
 20
-11.393933884988115
 30
0.0
 11
15.550788145265074
 21
-14.293071699779262
 31
0.0
  0
LINE
  5
213
100
AcDbEntity
  8
0
  6
CONTINUOUS
 62
               4
100
AcDbLine
 10
15.338656118976274
 20
-8.28266404390817
 30
0.0
 11
14.560838653205394
 21
-8.28266404390817
 31
0.0
  0
LINE
  5
214
100
AcDbEntity
  8
0
  6
CONTINUOUS
 62
               4
100
AcDbLine
 10
12.439518293106516
 20
-10.403984379923031
 30
0.0
 11
12.439518305148681
 21
-11.181801857735991
 31
0.0
  0
LINE
  5
215
100
AcDbEntity
  8
0
  6
CONTINUOUS
 62
               4
100
AcDbLine
 10
18.449925954276182
 20
-11.393933890768238
 30
0.0
 11
15.338656110459539
 21
-8.2826640469515667
 31
0.0
  0
LINE
  5
216
100
AcDbEntity
  8
0
  6
CONTINUOUS
 62
               4
100
AcDbLine
 10
15.550788145265074
 20
-14.293071699779262
 30
0.0
 11
12.439518301448373
 21
-11.18180185596259
 31
0.0
  0
LINE
  5
217
100
AcDbEntity
  8
0
  6
CONTINUOUS
 62
               4
100
AcDbLine
 10
13.569879062218604
 20
-6.5159073038040276
 30
0.0
 11
13.571899367311858
 21
-7.2937247647581955
 31
0.0
  0
LINE
  5
218
100
AcDbEntity
  8
0
  6
CONTINUOUS
 62
               4
100
AcDbLine
 10
14.560838646461946
 20
-8.28266404390817
 30
0.0
 11
13.571899367311858
 21
-7.2937247647581955
 31
0.0
  0
LINE
  5
219
100
AcDbEntity
  8
0
  6
CONTINUOUS
 62
               4
100
AcDbLine
 10
12.439518305148681
 20
-10.403984398708531
 30
0.0
 11
11.450579019255144
 21
-9.4150451128150507
 31
0.0
  0
LINE
  5
21A
100
AcDbEntity
  8
0
  6
CONTINUOUS
 62
               4
100
AcDbLine
 10
10.670741253207467
 20
-9.4150451128150507
 30
0.0
 11
11.450579019255144
 21
-9.4150451128150507
 31
0.0
  0
LINE
  5
21B
100
AcDbEntity
  8
0
  6
CONTINUOUS
 62
               4
100
AcDbLine
 10
10.670741253207467
 20
-9.4150451128150507
 30
0.0
 11
9.5757358925916094
 21
-8.3200397521990368
 31
0.0
  0
ARC
  5
21C
100
AcDbEntity
  8
0
  6
CONTINUOUS
 62
               4
100
AcDbCircle
 10
11.024293991887163
 20
-6.8703972667551199
 30
0.0
 40
2.0506628653391066
100
AcDbArc
 50
44.978576158876109
 51
134.94156910908407
  0
ARC
  5
21D
100
AcDbEntity
  8
0
  6
CONTINUOUS
 62
               4
100
AcDbCircle
 10
11.027156565969932
 20
-6.8694606951468273
 30
0.0
 40
2.0520237746840961
100
AcDbArc
 50
135.01661649434493
 51
224.98338350565427
  0
LINE
  5
21E
100
AcDbEntity
  8
0
  6
CENTER
 62
             200
100
AcDbLine
 10
20.236884104953788
 20
-16.080029850456896
 30
0.0
 11
8.9334863413766357
 21
-4.7766320868796868
 31
0.0
  0
LINE
  5
21F
100
AcDbEntity
  8
0
  6
CONTINUOUS
 62
               4
100
AcDbLine
 10
17.742819177370791
 20
-10.686827102302487
 30
0.0
 11
14.843681362579531
 21
-13.585964917093648
 31
0.0
  0
LINE
  5
220
100
AcDbEntity
  8
0
  6
CONTINUOUS
 62
               4
100
AcDbLine
 10
14.560838645789573
 20
8.2826640432357834
 30
0.0
 11
13.571899366639485
 21
7.293724764085816
 31
0.0
  0
LINE
  5
221
100
AcDbEntity
  8
0
  6
CONTINUOUS
 62
               4
100
AcDbLine
 10
10.670741252535095
 20
9.4150451121426784
 30
0.0
 11
11.450579018582772
 21
9.4150451121426784
 31
0.0
  0
LINE
  5
222
100
AcDbEntity
  8
0
  6
CONTINUOUS
 62
               4
100
AcDbLine
 10
13.004193635397627
 20
5.9502218769831288
 30
0.0
 11
10.105055826386689
 21
8.849359685994159
 31
0.0
  0
LINE
  5
223
100
AcDbEntity
  8
0
  6
CENTER
 62
             200
100
AcDbLine
 10
20.236884104281415
 20
16.080029849784466
 30
0.0
 11
8.9334863407042633
 21
4.7766320862073073
 31
0.0
  0
LINE
  5
224
100
AcDbEntity
  8
0
  6
CONTINUOUS
 62
               4
100
AcDbLine
 10
12.439518304476309
 20
10.403984398036094
 30
0.0
 11
11.450579018582772
 21
9.4150451121426784
 31
0.0
  0
LINE
  5
225
100
AcDbEntity
  8
0
  6
CONTINUOUS
 62
               4
100
AcDbLine
 10
13.889087266301431
 20
7.610912663747655
 30
0.0
 11
11.767766918244661
 21
9.7322330118044604
 31
0.0
  0
LINE
  5
226
100
AcDbEntity
  8
0
  6
CONTINUOUS
 62
               4
100
AcDbLine
 10
15.550788144592701
 20
14.293071699106832
 30
0.0
 11
12.439518300776001
 21
11.181801855290153
 31
0.0
  0
LINE
  5
227
100
AcDbEntity
  8
0
  6
CONTINUOUS
 62
               4
100
AcDbLine
 10
18.44992595360381
 20
11.393933890095866
 30
0.0
 11
15.338656109787166
 21
8.2826640462791232
 31
0.0
  0
LINE
  5
228
100
AcDbEntity
  8
0
  6
CONTINUOUS
 62
               4
100
AcDbLine
 10
12.439518292434144
 20
10.403984379250652
 30
0.0
 11
12.439518304476309
 21
11.181801857063554
 31
0.0
  0
LINE
  5
229
100
AcDbEntity
  8
0
  6
CONTINUOUS
 62
               4
100
AcDbLine
 10
15.338656118303902
 20
8.2826640432357834
 30
0.0
 11
14.560838652533022
 21
8.2826640432357834
 31
0.0
  0
LINE
  5
22A
100
AcDbEntity
  8
0
  6
CONTINUOUS
 62
               4
100
AcDbLine
 10
18.449925959383904
 20
11.393933884315686
 30
0.0
 11
15.550788144592701
 21
14.293071699106832
 31
0.0
  0
LINE
  5
22B
100
AcDbEntity
  8
0
  6
PHANTOM
 62
             200
100
AcDbLine
 10
20.694789271345854
 20
12.921254079485152
 30
0.0
 11
17.679204230432674
 21
17.227955844826816
 31
0.0
  0
LINE
  5
22C
100
AcDbEntity
  8
0
  6
CONTINUOUS
 62
               4
100
AcDbLine
 10
17.963032426097385
 20
11.880827417602227
 30
0.0
 11
20.059021442710332
 21
13.976816434215024
 31
0.0
  0
LINE
  5
22D
100
AcDbEntity
  8
0
  6
CONTINUOUS
 62
               4
100
AcDbLine
 10
16.053844112846235
 20
13.790015730853376
 30
0.0
 11
18.425690849598482
 21
16.161862467605545
 31
0.0
  0
LINE
  5
22E
100
AcDbEntity
  8
0
  6
CONTINUOUS
 62
               4
100
AcDbLine
 10
10.248497488017279
 20
5.033003364585241
 30
0.0
 11
9.1878373139886946
 21
6.0936635386136686
 31
0.0
  0
LINE
  5
22F
100
AcDbEntity
  8
0
  6
CONTINUOUS
 62
               4
100
AcDbLine
 10
12.440134557777412
 20
5.3869507124933236
 30
0.0
 11
9.5413907053315654
 21
8.2856945649390781
 31
0.0
  0
LINE
  5
230
100
AcDbEntity
  8
0
  6
CONTINUOUS
 62
               4
100
AcDbLine
 10
10.955604270702793
 20
5.033003364585241
 30
0.0
 11
9.1878373139886946
 21
6.8007703212992325
 31
0.0
  0
ARC
  5
231
100
AcDbEntity
  8
0
  6
CONTINUOUS
 62
               4
100
AcDbCircle
 10
11.02715656529756
 20
6.869460694474455
 30
0.0
 40
2.0520237746840961
100
AcDbArc
 50
135.01661649434493
 51
224.98338350565427
  0
LINE
  5
232
100
AcDbEntity
  8
0
  6
CONTINUOUS
 62
               4
100
AcDbLine
 10
9.1878373139886946
 20
6.8007703212992325
 30
0.0
 11
9.1878373139886946
 21
6.0936635386136686
 31
0.0
  0
LINE
  5
233
100
AcDbEntity
  8
0
  6
CONTINUOUS
 62
               4
100
AcDbLine
 10
10.107076131479943
 20
7.7200091387905587
 30
0.0
 11
9.1878373139886946
 21
6.8007703212992325
 31
0.0
  0
LINE
  5
234
100
AcDbEntity
  8
0
  6
CONTINUOUS
 62
               4
100
AcDbLine
 10
10.670741252535095
 20
9.4150451121426784
 30
0.0
 11
9.575735891919237
 21
8.3200397515266644
 31
0.0
  0
LINE
  5
235
100
AcDbEntity
  8
0
  6
CONTINUOUS
 62
             200
100
AcDbLine
 10
10.249507640563934
 20
7.5775776297067665
 30
0.0
 11
9.1878373139886946
 21
6.515907303131641
 31
0.0
  0
LINE
  5
236
100
AcDbEntity
  8
0
  6
CONTINUOUS
 62
               4
100
AcDbLine
 10
13.569879061546231
 20
6.515907303131641
 30
0.0
 11
13.571899366639485
 21
7.293724764085816
 31
0.0
  0
ARC
  5
237
100
AcDbEntity
  8
0
  6
CONTINUOUS
 62
               4
100
AcDbCircle
 10
11.02429399121479
 20
6.8703972660827475
 30
0.0
 40
2.0506628653391066
100
AcDbArc
 50
225.05843089091513
 51
315.02142384112307
  0
LINE
  5
238
100
AcDbEntity
  8
0
  6
CONTINUOUS
 62
               4
100
AcDbLine
 10
10.248497488017279
 20
5.033003364585241
 30
0.0
 11
10.955604270702793
 21
5.033003364585241
 31
0.0
  0
LINE
  5
239
100
AcDbEntity
  8
0
  6
CONTINUOUS
 62
               4
100
AcDbLine
 10
11.874843088194098
 20
5.9522421820765175
 30
0.0
 11
10.955604270702793
 21
5.033003364585241
 31
0.0
  0
LINE
  5
23A
100
AcDbEntity
  8
0
  6
CONTINUOUS
 62
               4
100
AcDbLine
 10
13.569879061546231
 20
6.515907303131641
 30
0.0
 11
12.474873700930146
 21
5.4209019425156342
 31
0.0
  0
LINE
  5
23B
100
AcDbEntity
  8
0
  6
CONTINUOUS
 62
             200
100
AcDbLine
 10
11.734431884203588
 20
6.0926533860669778
 30
0.0
 11
10.674781862721886
 21
5.033003364585241
 31
0.0
  0
LINE
  5
23C
100
AcDbEntity
  8
0
  6
CONTINUOUS
 62
               4
100
AcDbLine
 10
13.571899367311858
 20
-6.5138869987106318
 30
0.0
 11
12.476894006696057
 21
-5.4188816380946321
 31
0.0
  0
ARC
  5
23D
100
AcDbEntity
  8
0
  6
CONTINUOUS
 62
               7
100
AcDbCircle
 10
0.2999999999999972
 20
-11.199999999999999
 30
0.0
 40
0.3
100
AcDbArc
 50
179.9999999999996
 51
269.99999999999937
  0
ARC
  5
23E
100
AcDbEntity
  8
0
  6
CONTINUOUS
 62
               7
100
AcDbCircle
 10
0.2999999999999972
 20
11.199999999999999
 30
0.0
 40
0.3
100
AcDbArc
 50
89.999999999999801
 51
179.9999999999996
  0
CIRCLE
  5
23F
100
AcDbEntity
  8
0
  6
CONTINUOUS
 62
               2
100
AcDbCircle
 10
6.0
 20
8.5
 30
0.0
 40
1.5
  0
CIRCLE
  5
240
100
AcDbEntity
  8
0
  6
CONTINUOUS
 62
               7
100
AcDbCircle
 10
6.0
 20
8.5
 30
0.0
 40
1.1000000000000001
  0
LINE
  5
241
100
AcDbEntity
  8
0
  6
CENTER
 62
               2
100
AcDbLine
 10
8.5
 20
8.5000000000000036
 30
0.0
 11
3.5
 21
8.5
 31
0.0
  0
CIRCLE
  5
242
100
AcDbEntity
  8
0
  6
CONTINUOUS
 62
               2
100
AcDbCircle
 10
6.0
 20
-8.5
 30
0.0
 40
1.5
  0
CIRCLE
  5
243
100
AcDbEntity
  8
0
  6
CONTINUOUS
 62
               7
100
AcDbCircle
 10
6.0
 20
-8.5
 30
0.0
 40
1.1000000000000001
  0
LINE
  5
244
100
AcDbEntity
  8
0
  6
CONTINUOUS
 62
               7
100
AcDbLine
 10
6.0000000193398364
 20
4.0414518784513405
 30
0.0
 11
9.5000000741481756
 21
2.0207259046440385
 31
0.0
  0
LINE
  5
245
100
AcDbEntity
  8
0
  6
CONTINUOUS
 62
               7
100
AcDbLine
 10
9.5000000045811248
 20
2.0207259224768848
 30
0.0
 11
9.5000000045811106
 21
-2.0207260251377193
 31
0.0
  0
LINE
  5
246
100
AcDbEntity
  8
0
  6
CONTINUOUS
 62
               7
100
AcDbLine
 10
9.4999999852412884
 20
-2.0207259559744628
 30
0.0
 11
5.9999999304329492
 21
-4.0414519297817577
 31
0.0
  0
LINE
  5
247
100
AcDbEntity
  8
0
  6
CONTINUOUS
 62
               7
100
AcDbLine
 10
5.9999999806601636
 20
-4.0414518784513476
 30
0.0
 11
2.4999999258518244
 21
-2.0207259046440385
 31
0.0
  0
LINE
  5
248
100
AcDbEntity
  8
0
  6
CONTINUOUS
 62
               7
100
AcDbLine
 10
2.4999999954188752
 20
-2.0207259224768919
 30
0.0
 11
2.4999999954188894
 21
2.0207260251377193
 31
0.0
  0
LINE
  5
249
100
AcDbEntity
  8
0
  6
CONTINUOUS
 62
               7
100
AcDbLine
 10
2.5000000147587116
 20
2.0207259559744557
 30
0.0
 11
6.0000000695670508
 21
4.0414519297817577
 31
0.0
  0
CIRCLE
  5
24A
100
AcDbEntity
  8
0
  6
CONTINUOUS
 62
               7
100
AcDbCircle
 10
6.0
 20
0.0
 30
0.0
 40
3.5
  0
CIRCLE
  5
24B
100
AcDbEntity
  8
0
  6
CONTINUOUS
 62
               7
100
AcDbCircle
 10
6.0
 20
0.0
 30
0.0
 40
2.0
  0
CIRCLE
  5
24C
100
AcDbEntity
  8
0
  6
CONTINUOUS
 62
               2
100
AcDbCircle
 10
6.0
 20
0.0
 30
0.0
 40
1.7000000000000028
  0
LINE
  5
24D
100
AcDbEntity
  8
0
  6
CENTER
 62
               2
100
AcDbLine
 10
6.0
 20
-11.0
 30
0.0
 11
6.0
 21
11.0
 31
0.0
  0
LINE
  5
24E
100
AcDbEntity
  8
0
  6
CONTINUOUS
 62
               7
100
AcDbLine
 10
0.0
 20
11.199999999999999
 30
0.0
 11
0.0
 21
-11.199999999999999
 31
0.0
  0
LINE
  5
24F
100
AcDbEntity
  8
0
  6
CENTER
 62
               2
100
AcDbLine
 10
-1.0175191479551984
 20
0.0
 30
0.0
 11
17.240878655828027
 21
0.0
 31
0.0
  0
LINE
  5
250
100
AcDbEntity
  8
0
  6
CONTINUOUS
 62
               7
100
AcDbLine
 10
0.2999999999999972
 20
11.5
 30
0.0
 11
9.9999999300491993
 21
11.5
 31
0.0
  0
LINE
  5
251
100
AcDbEntity
  8
0
  6
CONTINUOUS
 62
               7
100
AcDbLine
 10
10.636396070594714
 20
9.4493902970812869
 30
0.0
 11
9.5050252206962398
 21
8.3180194471828131
 31
0.0
  0
LINE
  5
252
100
AcDbEntity
  8
0
  6
CONTINUOUS
 62
               7
100
AcDbLine
 10
11.517766968996369
 20
9.9822329610527234
 30
0.0
 11
9.9999999300490714
 21
11.5
 31
0.0
  0
LINE
  5
253
100
AcDbEntity
  8
0
  6
CONTINUOUS
 62
               7
100
AcDbLine
 10
10.636396070594714
 20
9.4493902970812869
 30
0.0
 11
11.343502851781267
 21
9.4493902970812869
 31
0.0
  0
ARC
  5
254
100
AcDbEntity
  8
0
  6
CONTINUOUS
 62
               7
100
AcDbCircle
 10
11.271803091776775
 20
9.8029436876745493
 30
0.0
 40
0.3007001998472195
100
AcDbArc
 50
315.13326207080115
 51
44.866737929199004
  0
LINE
  5
255
100
AcDbEntity
  8
0
  6
CONTINUOUS
 62
               7
100
AcDbLine
 10
11.484924208018583
 20
9.590811653318589
 30
0.0
 11
11.343502851781267
 21
9.4493902970812869
 31
0.0
  0
ARC
  5
256
100
AcDbEntity
  8
0
  6
CONTINUOUS
 62
               7
100
AcDbCircle
 10
10.98994946118799
 20
6.8330952066910484
 30
0.0
 40
2.1000000111152071
100
AcDbArc
 50
134.99999999999966
 51
314.99999999999926
  0
LINE
  5
257
100
AcDbEntity
  8
0
  6
CONTINUOUS
 62
               7
100
AcDbLine
 10
13.606244551578214
 20
6.479541816097786
 30
0.0
 11
12.474873701679741
 21
5.3481709661993122
 31
0.0
  0
LINE
  5
258
100
AcDbEntity
  8
0
  6
CONTINUOUS
 62
               7
100
AcDbLine
 10
13.606244551578214
 20
7.186648597284325
 30
0.0
 11
13.606244551578214
 21
6.479541816097786
 31
0.0
  0
ARC
  5
259
100
AcDbEntity
  8
0
  6
CONTINUOUS
 62
               7
100
AcDbCircle
 10
13.959797942171491
 20
7.1166111221065407
 30
0.0
 40
0.2995243519038812
100
AcDbArc
 50
44.908941249896863
 51
135.09105875010374
  0
LINE
  5
25A
100
AcDbEntity
  8
0
  6
CONTINUOUS
 62
               7
100
AcDbLine
 10
13.747665907815531
 20
7.3280699535216414
 30
0.0
 11
13.606244551578214
 21
7.186648597284325
 31
0.0
  0
LINE
  5
25B
100
AcDbEntity
  8
0
  6
CONTINUOUS
 62
               7
100
AcDbLine
 10
14.171929976527451
 20
7.3280699535216414
 30
0.0
 11
16.0
 21
5.4999999300492668
 31
0.0
  0
CIRCLE
  5
25C
100
AcDbEntity
  8
0
  6
CONTINUOUS
 62
               7
100
AcDbCircle
 10
6.0
 20
0.0
 30
0.0
 40
5.5499999999999901
  0
CIRCLE
  5
25D
100
AcDbEntity
  8
0
  6
CONTINUOUS
 62
               7
100
AcDbCircle
 10
6.0
 20
0.0
 30
0.0
 40
5.1499999999999844
  0
LINE
  5
25E
100
AcDbEntity
  8
0
  6
CONTINUOUS
 62
               7
100
AcDbLine
 10
16.0
 20
5.499999930049416
 30
0.0
 11
16.0
 21
-5.4999999300492632
 31
0.0
  0
LINE
  5
25F
100
AcDbEntity
  8
0
  6
CENTER
 62
               2
100
AcDbLine
 10
8.5
 20
-8.5
 30
0.0
 11
3.5
 21
-8.5
 31
0.0
  0
LINE
  5
260
100
AcDbEntity
  8
0
  6
CONTINUOUS
 62
               7
100
AcDbLine
 10
0.2999999999999972
 20
-11.5
 30
0.0
 11
9.9999999300491993
 21
-11.5
 31
0.0
  0
ARC
  5
261
100
AcDbEntity
  8
0
  6
CONTINUOUS
 62
               7
100
AcDbCircle
 10
10.98994946118799
 20
-6.8330952066910484
 30
0.0
 40
2.1000000111152071
100
AcDbArc
 50
44.99999999999995
 51
224.99999999999955
  0
LINE
  5
262
100
AcDbEntity
  8
0
  6
CONTINUOUS
 62
               7
100
AcDbLine
 10
14.171929976527451
 20
-7.3280699535216414
 30
0.0
 11
16.0
 21
-5.4999999300492703
 31
0.0
  0
LINE
  5
263
100
AcDbEntity
  8
0
  6
CONTINUOUS
 62
               7
100
AcDbLine
 10
13.747665907815531
 20
-7.3280699535216414
 30
0.0
 11
13.606244551578214
 21
-7.186648597284325
 31
0.0
  0
ARC
  5
264
100
AcDbEntity
  8
0
  6
CONTINUOUS
 62
               7
100
AcDbCircle
 10
13.959797942171491
 20
-7.1166111221065407
 30
0.0
 40
0.2995243519038812
100
AcDbArc
 50
224.90894124989543
 51
315.09105875010232
  0
LINE
  5
265
100
AcDbEntity
  8
0
  6
CONTINUOUS
 62
               7
100
AcDbLine
 10
13.606244551578214
 20
-7.186648597284325
 30
0.0
 11
13.606244551578214
 21
-6.479541816097786
 31
0.0
  0
LINE
  5
266
100
AcDbEntity
  8
0
  6
CONTINUOUS
 62
               7
100
AcDbLine
 10
13.606244551578214
 20
-6.479541816097786
 30
0.0
 11
12.474873701679741
 21
-5.3481709661993122
 31
0.0
  0
LINE
  5
267
100
AcDbEntity
  8
0
  6
CONTINUOUS
 62
               7
100
AcDbLine
 10
11.484924208018583
 20
-9.590811653318589
 30
0.0
 11
11.343502851781267
 21
-9.4493902970812869
 31
0.0
  0
ARC
  5
268
100
AcDbEntity
  8
0
  6
CONTINUOUS
 62
               7
100
AcDbCircle
 10
11.271803091776775
 20
-9.8029436876745493
 30
0.0
 40
0.3007001998472195
100
AcDbArc
 50
-44.866737929198983
 51
44.866737929198038
  0
LINE
  5
269
100
AcDbEntity
  8
0
  6
CONTINUOUS
 62
               7
100
AcDbLine
 10
10.636396070594714
 20
-9.4493902970812869
 30
0.0
 11
11.343502851781267
 21
-9.4493902970812869
 31
0.0
  0
LINE
  5
26A
100
AcDbEntity
  8
0
  6
CONTINUOUS
 62
               7
100
AcDbLine
 10
11.517766968996369
 20
-9.9822329610527234
 30
0.0
 11
9.9999999300490714
 21
-11.5
 31
0.0
  0
LINE
  5
26B
100
AcDbEntity
  8
0
  6
CONTINUOUS
 62
               7
100
AcDbLine
 10
10.636396070594714
 20
-9.4493902970812869
 30
0.0
 11
9.5050252206962398
 21
-8.3180194471828131
 31
0.0
  0
LINE
  5
26C
100
AcDbEntity
  8
0
  6
CENTER
 62
               2
100
AcDbLine
 10
1.5
 20
8.5000000114952954
 30
0.0
 11
-1.5
 21
8.5000000114952954
 31
0.0
  0
LINE
  5
26D
100
AcDbEntity
  8
0
  6
CENTER
 62
               2
100
AcDbLine
 10
1.5
 20
-8.4999999885047046
 30
0.0
 11
-1.5
 21
-8.4999999885047046
 31
0.0
  0
ENDBLK
  5
26E
100
AcDbEntity
  8
0
100
AcDbBlockEnd
  0
BLOCK
  5
26F
100
AcDbEntity
  8
0
100
AcDbBlockBegin
  2
MS_7
 70
               0
 10
0.0
 20
0.0
 30
0.0
  3
MS_7
  1

  0
INSERT
  5
279
100
AcDbEntity
  8
0
  6
CONTINUOUS
 62
               7
100
AcDbBlockReference
  2
*X12
 10
0.0
 20
0.0
 30
0.0
  0
LINE
  5
27A
100
AcDbEntity
  8
0
  6
CONTINUOUS
 62
               7
100
AcDbLine
 10
-1.9999999852351209
 20
8.0
 30
0.0
 11
0.0
 21
8.0
 31
0.0
  0
LINE
  5
27B
100
AcDbEntity
  8
0
  6
CONTINUOUS
 62
               2
100
AcDbLine
 10
-1.9999999852351209
 20
8.2999999999999972
 30
0.0
 11
-0.9999999852351209
 21
8.2999999999999972
 31
0.0
  0
LINE
  5
27C
100
AcDbEntity
  8
0
  6
CONTINUOUS
 62
               7
100
AcDbLine
 10
-1.9999999852351209
 20
12.0
 30
0.0
 11
0.0
 21
12.0
 31
0.0
  0
LINE
  5
27D
100
AcDbEntity
  8
0
  6
CONTINUOUS
 62
               2
100
AcDbLine
 10
-1.9999999852351209
 20
11.700000000000003
 30
0.0
 11
-0.9999999852351209
 21
11.700000000000003
 31
0.0
  0
LINE
  5
27E
100
AcDbEntity
  8
0
  6
CONTINUOUS
 62
               7
100
AcDbLine
 10
-4.7126074306330139
 20
10.0
 30
0.0
 11
-6.487392539837245
 21
10.0
 31
0.0
  0
LINE
  5
27F
100
AcDbEntity
  8
0
  6
CONTINUOUS
 62
               7
100
AcDbLine
 10
-6.7999999852351323
 20
6.5000000285843242
 30
0.0
 11
-6.7999999852351323
 21
13.499999968979679
 31
0.0
  0
LINE
  5
280
100
AcDbEntity
  8
0
  6
CONTINUOUS
 62
               7
100
AcDbLine
 10
-4.3999999852351266
 20
13.499999963064312
 30
0.0
 11
-6.7999999852351323
 21
13.499999963064312
 31
0.0
  0
LINE
  5
281
100
AcDbEntity
  8
0
  6
CONTINUOUS
 62
               7
100
AcDbLine
 10
-4.3999999852351266
 20
6.5000000369356883
 30
0.0
 11
-6.7999999852351323
 21
6.5000000369356883
 31
0.0
  0
LINE
  5
282
100
AcDbEntity
  8
0
  6
CONTINUOUS
 62
               7
100
AcDbLine
 10
-4.3999999852351266
 20
6.5000000369356883
 30
0.0
 11
-1.9999999852351209
 21
6.5000000369356883
 31
0.0
  0
LINE
  5
283
100
AcDbEntity
  8
0
  6
CONTINUOUS
 62
               7
100
AcDbLine
 10
-4.3999999852351266
 20
13.499999963064312
 30
0.0
 11
-1.9999999852351209
 21
13.499999963064312
 31
0.0
  0
LINE
  5
284
100
AcDbEntity
  8
0
  6
CONTINUOUS
 62
               7
100
AcDbLine
 10
-4.3999999852351266
 20
6.5000000285843242
 30
0.0
 11
-4.3999999852351266
 21
13.499999968979679
 31
0.0
  0
LINE
  5
285
100
AcDbEntity
  8
0
  6
CONTINUOUS
 62
               7
100
AcDbLine
 10
-1.9999999852351209
 20
6.5000000285843242
 30
0.0
 11
-1.9999999852351209
 21
13.499999968979679
 31
0.0
  0
LINE
  5
286
100
AcDbEntity
  8
0
  6
CONTINUOUS
 62
               7
100
AcDbLine
 10
-4.0873925398372393
 20
10.0
 30
0.0
 11
-2.3126074306330082
 21
10.0
 31
0.0
  0
SPLINE
  5
287
100
AcDbEntity
  8
0
  6
CONTINUOUS
 62
               7
100
AcDbSpline
210
0.0
220
0.0
230
1.0
 70
               0
 71
               3
 72
               0
 73
               0
 74
               5
 44
0.000001
 12
0.3364389663850756
 22
-0.9417052733725887
 32
0.0
 13
-0.3364389571584283
 23
-0.941705276668953
 33
0.0
 11
-4.7126074478393889
 21
13.499999963064312
 31
0.0
 11
-4.4815427019410512
 21
12.639236642840407
 31
0.0
 11
-4.3999999852351266
 21
11.749999981532156
 31
0.0
 11
-4.4815426934502351
 21
10.860763320980631
 31
0.0
 11
-4.7126074306330139
 21
10.0
 31
0.0
  0
SPLINE
  5
288
100
AcDbEntity
  8
0
  6
CONTINUOUS
 62
               7
100
AcDbSpline
210
0.0
220
0.0
230
1.0
 70
               0
 71
               3
 72
               0
 73
               0
 74
               5
 44
0.000001
 12
-0.3364389663850757
 22
-0.9417052733725887
 32
0.0
 13
0.3364389571584284
 23
-0.9417052766689529
 33
0.0
 11
-6.48739252263087
 21
13.499999963064312
 31
0.0
 11
-6.7184572685292077
 21
12.639236642840407
 31
0.0
 11
-6.7999999852351323
 21
11.749999981532156
 31
0.0
 11
-6.7184572770200237
 21
10.860763320980631
 31
0.0
 11
-6.487392539837245
 21
10.0
 31
0.0
  0
SPLINE
  5
289
100
AcDbEntity
  8
0
  6
CONTINUOUS
 62
               7
100
AcDbSpline
210
0.0
220
0.0
230
1.0
 70
               0
 71
               3
 72
               0
 73
               0
 74
               5
 44
0.000001
 12
-0.3364389663850757
 22
0.9417052733725887
 32
0.0
 13
0.3364389571584284
 23
0.9417052766689529
 33
0.0
 11
-6.48739252263087
 21
6.5000000369356883
 31
0.0
 11
-6.7184572685292077
 21
7.360763357159593
 31
0.0
 11
-6.7999999852351323
 21
8.2500000184678441
 31
0.0
 11
-6.7184572770200237
 21
9.1392366790193691
 31
0.0
 11
-6.487392539837245
 21
10.0
 31
0.0
  0
SPLINE
  5
28A
100
AcDbEntity
  8
0
  6
CONTINUOUS
 62
               7
100
AcDbSpline
210
0.0
220
0.0
230
1.0
 70
               0
 71
               3
 72
               0
 73
               0
 74
               5
 44
0.000001
 12
0.3364389663850756
 22
0.9417052733725887
 32
0.0
 13
-0.3364389571584283
 23
0.941705276668953
 33
0.0
 11
-4.7126074478393889
 21
6.5000000369356883
 31
0.0
 11
-4.4815427019410512
 21
7.360763357159593
 31
0.0
 11
-4.3999999852351266
 21
8.2500000184678441
 31
0.0
 11
-4.4815426934502351
 21
9.1392366790193691
 31
0.0
 11
-4.7126074306330139
 21
10.0
 31
0.0
  0
SPLINE
  5
28B
100
AcDbEntity
  8
0
  6
CONTINUOUS
 62
               7
100
AcDbSpline
210
0.0
220
0.0
230
1.0
 70
               0
 71
               3
 72
               0
 73
               0
 74
               5
 44
0.000001
 12
-0.3364389663850757
 22
0.9417052733725887
 32
0.0
 13
0.3364389571584284
 23
0.9417052766689529
 33
0.0
 11
-4.0873925226308643
 21
6.5000000369356883
 31
0.0
 11
-4.318457268529202
 21
7.360763357159593
 31
0.0
 11
-4.3999999852351266
 21
8.2500000184678441
 31
0.0
 11
-4.318457277020018
 21
9.1392366790193691
 31
0.0
 11
-4.0873925398372393
 21
10.0
 31
0.0
  0
SPLINE
  5
28C
100
AcDbEntity
  8
0
  6
CONTINUOUS
 62
               7
100
AcDbSpline
210
0.0
220
0.0
230
1.0
 70
               0
 71
               3
 72
               0
 73
               0
 74
               5
 44
0.000001
 12
0.3364389663850756
 22
0.9417052733725887
 32
0.0
 13
-0.3364389571584283
 23
0.941705276668953
 33
0.0
 11
-2.3126074478393832
 21
6.5000000369356883
 31
0.0
 11
-2.081542701941046
 21
7.360763357159593
 31
0.0
 11
-1.9999999852351209
 21
8.2500000184678441
 31
0.0
 11
-2.0815426934502295
 21
9.1392366790193691
 31
0.0
 11
-2.3126074306330082
 21
10.0
 31
0.0
  0
SPLINE
  5
28D
100
AcDbEntity
  8
0
  6
CONTINUOUS
 62
               7
100
AcDbSpline
210
0.0
220
0.0
230
1.0
 70
               0
 71
               3
 72
               0
 73
               0
 74
               5
 44
0.000001
 12
0.3364389663850756
 22
-0.9417052733725887
 32
0.0
 13
-0.3364389571584283
 23
-0.941705276668953
 33
0.0
 11
-2.3126074478393832
 21
13.499999963064312
 31
0.0
 11
-2.081542701941046
 21
12.639236642840407
 31
0.0
 11
-1.9999999852351209
 21
11.749999981532156
 31
0.0
 11
-2.0815426934502295
 21
10.860763320980631
 31
0.0
 11
-2.3126074306330082
 21
10.0
 31
0.0
  0
SPLINE
  5
28E
100
AcDbEntity
  8
0
  6
CONTINUOUS
 62
               7
100
AcDbSpline
210
0.0
220
0.0
230
1.0
 70
               0
 71
               3
 72
               0
 73
               0
 74
               5
 44
0.000001
 12
-0.3364389663850757
 22
-0.9417052733725887
 32
0.0
 13
0.3364389571584284
 23
-0.9417052766689529
 33
0.0
 11
-4.0873925226308643
 21
13.499999963064312
 31
0.0
 11
-4.318457268529202
 21
12.639236642840407
 31
0.0
 11
-4.3999999852351266
 21
11.749999981532156
 31
0.0
 11
-4.318457277020018
 21
10.860763320980631
 31
0.0
 11
-4.0873925398372393
 21
10.0
 31
0.0
  0
LINE
  5
28F
100
AcDbEntity
  8
0
  6
CENTER
 62
               2
100
AcDbLine
 10
29.000000014764879
 20
7.5
 30
0.0
 11
29.000000014764879
 21
12.5
 31
0.0
  0
CIRCLE
  5
290
100
AcDbEntity
  8
0
  6
DASHED
 62
               2
100
AcDbCircle
 10
29.000000014764879
 20
10.0
 30
0.0
 40
1.5
  0
CIRCLE
  5
291
100
AcDbEntity
  8
0
  6
DASHED
 62
               7
100
AcDbCircle
 10
29.000000014764879
 20
10.0
 30
0.0
 40
1.2
  0
LINE
  5
292
100
AcDbEntity
  8
0
  6
CENTER
 62
               2
100
AcDbLine
 10
10.000000014764879
 20
7.5
 30
0.0
 11
10.000000014764879
 21
12.189432964916094
 31
0.0
  0
CIRCLE
  5
293
100
AcDbEntity
  8
0
  6
DASHED
 62
               2
100
AcDbCircle
 10
10.000000014764879
 20
10.0
 30
0.0
 40
1.5
  0
CIRCLE
  5
294
100
AcDbEntity
  8
0
  6
DASHED
 62
               7
100
AcDbCircle
 10
10.000000014764879
 20
10.0
 30
0.0
 40
1.2
  0
LINE
  5
295
100
AcDbEntity
  8
0
  6
CONTINUOUS
 62
               7
100
AcDbLine
 10
32.000000014764879
 20
16.0
 30
0.0
 11
32.000000014764879
 21
0.0
 31
0.0
  0
LINE
  5
296
100
AcDbEntity
  8
0
  6
CONTINUOUS
 62
               7
100
AcDbLine
 10
0.0
 20
16.0
 30
0.0
 11
0.0
 21
0.0
 31
0.0
  0
LINE
  5
297
100
AcDbEntity
  8
0
  6
CONTINUOUS
 62
               7
100
AcDbLine
 10
0.0
 20
16.0
 30
0.0
 11
32.000000014764879
 21
16.0
 31
0.0
  0
LINE
  5
298
100
AcDbEntity
  8
0
  6
CONTINUOUS
 62
               7
100
AcDbLine
 10
-9.699999985235138
 20
8.0
 30
0.0
 11
-6.7999999852351323
 21
8.0
 31
0.0
  0
LINE
  5
299
100
AcDbEntity
  8
0
  6
CENTER
 62
               2
100
AcDbLine
 10
-11.662319490629756
 20
10.0
 30
0.0
 11
33.239086527694099
 21
10.0
 31
0.0
  0
LINE
  5
29A
100
AcDbEntity
  8
0
  6
CONTINUOUS
 62
               7
100
AcDbLine
 10
-9.699999985235138
 20
12.0
 30
0.0
 11
-6.7999999852351323
 21
12.0
 31
0.0
  0
LINE
  5
29B
100
AcDbEntity
  8
0
  6
CONTINUOUS
 62
               2
100
AcDbLine
 10
-9.9999999852351209
 20
11.700000000000003
 30
0.0
 11
-6.7999999852351323
 21
11.700000000000003
 31
0.0
  0
LINE
  5
29C
100
AcDbEntity
  8
0
  6
CONTINUOUS
 62
               7
100
AcDbLine
 10
-9.699999985235138
 20
12.0
 30
0.0
 11
-9.9999999852351209
 21
11.700000000000003
 31
0.0
  0
LINE
  5
29D
100
AcDbEntity
  8
0
  6
CONTINUOUS
 62
               2
100
AcDbLine
 10
-0.9999999852351209
 20
11.700000000000003
 30
0.0
 11
-0.4803847429644748
 21
12.0
 31
0.0
  0
LINE
  5
29E
100
AcDbEntity
  8
0
  6
CONTINUOUS
 62
               7
100
AcDbLine
 10
-9.9999999852351209
 20
11.700000000000003
 30
0.0
 11
-9.9999999852351209
 21
8.2999999999999972
 31
0.0
  0
LINE
  5
29F
100
AcDbEntity
  8
0
  6
CONTINUOUS
 62
               7
100
AcDbLine
 10
-0.9999999852351209
 20
12.0
 30
0.0
 11
-0.9999999852351209
 21
8.0
 31
0.0
  0
LINE
  5
2A0
100
AcDbEntity
  8
0
  6
CONTINUOUS
 62
               7
100
AcDbLine
 10
-9.699999985235138
 20
12.0
 30
0.0
 11
-9.699999985235138
 21
8.0
 31
0.0
  0
LINE
  5
2A1
100
AcDbEntity
  8
0
  6
CONTINUOUS
 62
               2
100
AcDbLine
 10
-0.9999999852351209
 20
8.2999999999999972
 30
0.0
 11
-0.4803847429644748
 21
8.0
 31
0.0
  0
LINE
  5
2A2
100
AcDbEntity
  8
0
  6
CONTINUOUS
 62
               7
100
AcDbLine
 10
-9.699999985235138
 20
8.0
 30
0.0
 11
-9.9999999852351209
 21
8.2999999999999972
 31
0.0
  0
LINE
  5
2A3
100
AcDbEntity
  8
0
  6
CONTINUOUS
 62
               2
100
AcDbLine
 10
-9.9999999852351209
 20
8.2999999999999972
 30
0.0
 11
-6.7999999852351323
 21
8.2999999999999972
 31
0.0
  0
LINE
  5
2A4
100
AcDbEntity
  8
0
  6
CONTINUOUS
 62
               7
100
AcDbLine
 10
0.0
 20
0.0
 30
0.0
 11
17.400000022047863
 21
0.0
 31
0.0
  0
LINE
  5
2A5
100
AcDbEntity
  8
0
  6
CONTINUOUS
 62
               7
100
AcDbLine
 10
0.0
 20
2.0402020578285089
 30
0.0
 11
17.400000022047863
 21
2.0402020578285089
 31
0.0
  0
LINE
  5
2A6
100
AcDbEntity
  8
0
  6
CONTINUOUS
 62
               7
100
AcDbLine
 10
0.0
 20
2.3937554484217856
 30
0.0
 11
7.0
 21
2.3937554484217856
 31
0.0
  0
LINE
  5
2A7
100
AcDbEntity
  8
0
  6
CONTINUOUS
 62
               7
100
AcDbLine
 10
0.0
 20
4.4274967083759975
 30
0.0
 11
32.000000014764879
 21
4.4274967083759975
 31
0.0
  0
LINE
  5
2A8
100
AcDbEntity
  8
0
  6
CONTINUOUS
 62
               7
100
AcDbLine
 10
0.0
 20
6.0000000699508007
 30
0.0
 11
32.000000014764879
 21
6.0000000699508007
 31
0.0
  0
LINE
  5
2A9
100
AcDbEntity
  8
0
  6
CONTINUOUS
 62
               4
100
AcDbLine
 10
22.000000031799971
 20
4.4274967083759975
 30
0.0
 11
22.000000031799971
 21
-1.7428191435189575
 31
0.0
  0
LINE
  5
2AA
100
AcDbEntity
  8
0
  6
CONTINUOUS
 62
               4
100
AcDbLine
 10
17.400000022047863
 20
-1.0003570490983833
 30
0.0
 11
17.400000022047863
 21
3.1715729077268975
 31
0.0
  0
LINE
  5
2AB
100
AcDbEntity
  8
0
  6
CONTINUOUS
 62
               4
100
AcDbLine
 10
14.499999994846291
 20
-1.7428191709182812
 30
0.0
 11
14.49999998296488
 21
0.0
 31
0.0
  0
ELLIPSE
  5
2AC
100
AcDbEntity
  8
0
  6
CONTINUOUS
 62
               4
100
AcDbEllipse
 10
17.000000000146258
 20
-1.0003570490983833
 30
0.0
 11
-2.1000000044519944
 21
0.0000000000000003
 31
0.0
210
0.0
220
0.0
230
1.0
 40
0.690270905444012
 41
0.537738676477459
 42
2.1503123661725598
  0
ELLIPSE
  5
2AD
100
AcDbEntity
  8
0
  6
CONTINUOUS
 62
               4
100
AcDbEllipse
 10
17.000000000146258
 20
-4.0003570554583945
 30
0.0
 11
-1.3500000028620016
 21
0.0000000000000002
 31
0.0
210
0.0
220
0.0
230
1.0
 40
0.7130928703394489
 41
0.0
 42
2.7542760733460327
  0
LINE
  5
2AE
100
AcDbEntity
  8
0
  6
CONTINUOUS
 62
               4
100
AcDbLine
 10
15.649999997284368
 20
-2.1107066700456443
 30
0.0
 11
15.649999997284368
 21
-4.0003570497064658
 31
0.0
  0
LINE
  5
2AF
100
AcDbEntity
  8
0
  6
CONTINUOUS
 62
               4
100
AcDbLine
 10
17.000000000146258
 20
-1.7428191709182812
 30
0.0
 11
17.000000000146258
 21
-2.4499259536038949
 31
0.0
  0
LINE
  5
2B0
100
AcDbEntity
  8
0
  6
CONTINUOUS
 62
               4
100
AcDbLine
 10
17.000000000146258
 20
-1.7428191709182812
 30
0.0
 11
14.499999994846291
 21
-1.7428191709182812
 31
0.0
  0
LINE
  5
2B1
100
AcDbEntity
  8
0
  6
CONTINUOUS
 62
               4
100
AcDbLine
 10
19.500000026500004
 20
1.1563186575986748
 30
0.0
 11
19.500000026500004
 21
0.4492118554071283
 31
0.0
  0
LINE
  5
2B2
100
AcDbEntity
  8
0
  6
CONTINUOUS
 62
               4
100
AcDbLine
 10
19.500000026500004
 20
1.1563186380927419
 30
0.0
 11
22.000000051564427
 21
1.1563186380927419
 31
0.0
  0
LINE
  5
2B3
100
AcDbEntity
  8
0
  6
CONTINUOUS
 62
               4
100
AcDbLine
 10
21.600000014953622
 20
-0.2932502664127696
 30
0.0
 11
21.600000014953622
 21
-1.0003570433464546
 31
0.0
  0
LINE
  5
2B4
100
AcDbEntity
  8
0
  6
CONTINUOUS
 62
               4
100
AcDbLine
 10
21.303625156899642
 20
-1.7428191709182812
 30
0.0
 11
22.000000031799971
 21
-1.7428191709182812
 31
0.0
  0
LINE
  5
2B5
100
AcDbEntity
  8
0
  6
CONTINUOUS
 62
               4
100
AcDbLine
 10
20.850000029361894
 20
-1.0003570433464546
 30
0.0
 11
20.850000029361894
 21
-4.0003570497064658
 31
0.0
  0
LINE
  5
2B6
100
AcDbEntity
  8
0
  6
CONTINUOUS
 62
               4
100
AcDbLine
 10
18.15000002363783
 20
-1.0003570433464546
 30
0.0
 11
18.15000002363783
 21
-4.0003570497064658
 31
0.0
  0
ELLIPSE
  5
2B7
100
AcDbEntity
  8
0
  6
CONTINUOUS
 62
               4
100
AcDbEllipse
 10
19.500000026500004
 20
-1.0003570490983833
 30
0.0
 11
1.3500000028620016
 21
0.0
 31
0.0
210
0.0
220
0.0
230
1.0
 40
0.7130928703394489
 41
0.0
 42
3.1415926535897931
  0
ELLIPSE
  5
2B8
100
AcDbEntity
  8
0
  6
CONTINUOUS
 62
               4
100
AcDbEllipse
 10
19.500000026500004
 20
-4.0003570554583945
 30
0.0
 11
1.3500000028620016
 21
0.0
 31
0.0
210
0.0
220
0.0
230
1.0
 40
0.7130928703394489
 41
0.0
 42
6.2831853071795862
  0
ELLIPSE
  5
2B9
100
AcDbEntity
  8
0
  6
CONTINUOUS
 62
               4
100
AcDbEllipse
 10
19.500000026500004
 20
-0.2932502664127696
 30
0.0
 11
2.0999999884538685
 21
0.0
 31
0.0
210
0.0
220
0.0
230
1.0
 40
0.6902709107026031
 41
0.0
 42
1.5707963267948966
  0
ELLIPSE
  5
2BA
100
AcDbEntity
  8
0
  6
CONTINUOUS
 62
               4
100
AcDbEllipse
 10
19.500000026500004
 20
-1.0003570490983833
 30
0.0
 11
2.1000000044519944
 21
0.0
 31
0.0
210
0.0
220
0.0
230
1.0
 40
0.690270905444012
 41
-0.8725714153590118
 42
4.014164068948805
  0
ELLIPSE
  5
2BB
100
AcDbEntity
  8
0
  6
CONTINUOUS
 62
               4
100
AcDbEllipse
 10
19.500000046264461
 20
3.1715729077268975
 30
0.0
 11
-2.1000000242166501
 21
0.0000000000000003
 31
0.0
210
0.0
220
0.0
230
1.0
 40
0.6902708989473662
 41
5.4875823576499068
 42
0.0
  0
LINE
  5
2BC
100
AcDbEntity
  8
0
  6
CONTINUOUS
 62
               4
100
AcDbLine
 10
7.0000000341668738
 20
4.2322330817553535
 30
0.0
 11
22.000000031799971
 21
4.2322330817553535
 31
0.0
  0
LINE
  5
2BD
100
AcDbEntity
  8
0
  6
CONTINUOUS
 62
               4
100
AcDbLine
 10
18.030306177714237
 20
3.5604817022672108
 30
0.0
 11
22.000000031799971
 21
3.5604817022672108
 31
0.0
  0
LINE
  5
2BE
100
AcDbEntity
  8
0
  6
CONTINUOUS
 62
               4
100
AcDbLine
 10
18.030306177714237
 20
4.2322330817553535
 30
0.0
 11
18.030306177714237
 21
3.5604817252679908
 31
0.0
  0
LINE
  5
2BF
100
AcDbEntity
  8
0
  6
CONTINUOUS
 62
               4
100
AcDbLine
 10
8.750000003709971
 20
2.3055475021065064
 30
0.0
 11
8.750000003709971
 21
4.0375983133473454
 31
0.0
  0
LINE
  5
2C0
100
AcDbEntity
  8
0
  6
CONTINUOUS
 62
               4
100
AcDbLine
 10
9.2500000047699587
 20
2.3055475021065064
 30
0.0
 11
9.2500000047699587
 21
4.0375983133473454
 31
0.0
  0
ELLIPSE
  5
2C1
100
AcDbEntity
  8
0
  6
CONTINUOUS
 62
               4
100
AcDbEllipse
 10
9.0000000042400075
 20
3.1715729077268975
 30
0.0
 11
-1.25000000265
 21
0.0000000000000002
 31
0.0
210
0.0
220
0.0
230
1.0
 40
0.7071067811865475
 41
0.0
 42
6.2831853071795862
  0
LINE
  5
2C2
100
AcDbEntity
  8
0
  6
CONTINUOUS
 62
               4
100
AcDbLine
 10
7.0000000341668738
 20
2.110912733698612
 30
0.0
 11
17.400000022047863
 21
2.110912733698612
 31
0.0
  0
LINE
  5
2C3
100
AcDbEntity
  8
0
  6
CONTINUOUS
 62
               4
100
AcDbLine
 10
7.0
 20
2.110912733698612
 30
0.0
 11
7.0
 21
4.4274967083759975
 31
0.0
  0
LINE
  5
2C4
100
AcDbEntity
  8
0
  6
CONTINUOUS
 62
               7
100
AcDbLine
 10
22.000000031799971
 20
2.3937554484217856
 30
0.0
 11
32.000000014764879
 21
2.3937554484217856
 31
0.0
  0
LINE
  5
2C5
100
AcDbEntity
  8
0
  6
CONTINUOUS
 62
               7
100
AcDbLine
 10
22.000000031799971
 20
2.0402020578285089
 30
0.0
 11
32.000000014764879
 21
2.0402020578285089
 31
0.0
  0
LINE
  5
2C6
100
AcDbEntity
  8
0
  6
CONTINUOUS
 62
               7
100
AcDbLine
 10
22.000000031799971
 20
0.0
 30
0.0
 11
32.000000014764879
 21
0.0
 31
0.0
  0
LINE
  5
2C7
100
AcDbEntity
  8
0
  6
CENTER
 62
               2
100
AcDbLine
 10
5.0
 20
14.5
 30
0.0
 11
5.0
 21
17.5
 31
0.0
  0
ENDBLK
  5
2C8
100
AcDbEntity
  8
0
100
AcDbBlockEnd
  0
BLOCK
  5
2C9
100
AcDbEntity
  8
0
100
AcDbBlockBegin
  2
MS_8
 70
               0
 10
0.0
 20
0.0
 30
0.0
  3
MS_8
  1

  0
LINE
  5
2CA
100
AcDbEntity
  8
0
  6
CONTINUOUS
 62
               4
100
AcDbLine
 10
29.500000014764879
 20
13.889087266301388
 30
0.0
 11
29.500000014764879
 21
11.572503291624002
 31
0.0
  0
LINE
  5
2CB
100
AcDbEntity
  8
0
  6
CONTINUOUS
 62
               4
100
AcDbLine
 10
27.750000011054908
 20
13.694452497893494
 30
0.0
 11
27.750000011054908
 21
11.962401686652655
 31
0.0
  0
LINE
  5
2CC
100
AcDbEntity
  8
0
  6
CONTINUOUS
 62
               4
100
AcDbLine
 10
27.25000000999492
 20
13.694452497893494
 30
0.0
 11
27.25000000999492
 21
11.962401686652655
 31
0.0
  0
ELLIPSE
  5
2CD
100
AcDbEntity
  8
0
  6
CONTINUOUS
 62
               4
100
AcDbEllipse
 10
27.500000010524872
 20
12.828427092273103
 30
0.0
 11
1.25000000265
 21
0.0
 31
0.0
210
0.0
220
0.0
230
1.0
 40
0.7071067811865475
 41
0.0
 42
6.2831853071795862
  0
LINE
  5
2CE
100
AcDbEntity
  8
0
  6
CONTINUOUS
 62
               4
100
AcDbLine
 10
14.499999982964908
 20
11.572503291624002
 30
0.0
 11
14.499999982964908
 21
17.742819143518958
 31
0.0
  0
LINE
  5
2CF
100
AcDbEntity
  8
0
  6
CONTINUOUS
 62
               4
100
AcDbLine
 10
19.099999992717017
 20
17.000357049098383
 30
0.0
 11
19.099999992717017
 21
12.828427092273103
 31
0.0
  0
LINE
  5
2D0
100
AcDbEntity
  8
0
  6
CONTINUOUS
 62
               4
100
AcDbLine
 10
18.469693837050642
 20
11.767766918244646
 30
0.0
 11
18.469693837050642
 21
12.439518274732009
 31
0.0
  0
ELLIPSE
  5
2D1
100
AcDbEntity
  8
0
  6
CONTINUOUS
 62
               4
100
AcDbEllipse
 10
16.999999968500418
 20
12.828427092273103
 30
0.0
 11
2.1000000242166501
 21
0.0
 31
0.0
210
0.0
220
0.0
230
1.0
 40
0.6902708989473662
 41
5.4875823576499068
 42
0.0
  0
LINE
  5
2D2
100
AcDbEntity
  8
0
  6
CONTINUOUS
 62
               4
100
AcDbLine
 10
18.469693837050642
 20
12.439518297732789
 30
0.0
 11
14.499999982964908
 21
12.439518297732789
 31
0.0
  0
ELLIPSE
  5
2D3
100
AcDbEntity
  8
0
  6
CONTINUOUS
 62
               4
100
AcDbEllipse
 10
16.999999988264875
 20
17.000357049098383
 30
0.0
 11
-2.1000000044519944
 21
0.0000000000000003
 31
0.0
210
0.0
220
0.0
230
1.0
 40
0.690270905444012
 41
-0.8725714153590118
 42
4.014164068948805
  0
ELLIPSE
  5
2D4
100
AcDbEntity
  8
0
  6
CONTINUOUS
 62
               4
100
AcDbEllipse
 10
16.999999988264875
 20
16.29325026641277
 30
0.0
 11
-2.0999999884538685
 21
0.0000000000000003
 31
0.0
210
0.0
220
0.0
230
1.0
 40
0.6902709107026031
 41
0.0
 42
1.5707963267948966
  0
ELLIPSE
  5
2D5
100
AcDbEntity
  8
0
  6
CONTINUOUS
 62
               4
100
AcDbEllipse
 10
16.999999988264875
 20
20.000357055458394
 30
0.0
 11
-1.3500000028620016
 21
0.0000000000000002
 31
0.0
210
0.0
220
0.0
230
1.0
 40
0.7130928703394489
 41
0.0
 42
6.2831853071795862
  0
ELLIPSE
  5
2D6
100
AcDbEntity
  8
0
  6
CONTINUOUS
 62
               4
100
AcDbEllipse
 10
16.999999988264875
 20
17.000357049098383
 30
0.0
 11
-1.3500000028620016
 21
0.0000000000000002
 31
0.0
210
0.0
220
0.0
230
1.0
 40
0.7130928703394489
 41
0.0
 42
3.1415926535897931
  0
LINE
  5
2D7
100
AcDbEntity
  8
0
  6
CONTINUOUS
 62
               4
100
AcDbLine
 10
18.349999991127049
 20
17.000357043346455
 30
0.0
 11
18.349999991127049
 21
20.000357049706466
 31
0.0
  0
LINE
  5
2D8
100
AcDbEntity
  8
0
  6
CONTINUOUS
 62
               4
100
AcDbLine
 10
15.649999985402985
 20
17.000357043346455
 30
0.0
 11
15.649999985402985
 21
20.000357049706466
 31
0.0
  0
LINE
  5
2D9
100
AcDbEntity
  8
0
  6
CONTINUOUS
 62
               4
100
AcDbLine
 10
15.196374857865237
 20
17.742819170918281
 30
0.0
 11
14.499999982964908
 21
17.742819170918281
 31
0.0
  0
LINE
  5
2DA
100
AcDbEntity
  8
0
  6
CONTINUOUS
 62
               4
100
AcDbLine
 10
14.899999999811257
 20
16.29325026641277
 30
0.0
 11
14.899999999811257
 21
17.000357043346455
 31
0.0
  0
LINE
  5
2DB
100
AcDbEntity
  8
0
  6
CONTINUOUS
 62
               4
100
AcDbLine
 10
16.999999988264875
 20
14.843681361907258
 30
0.0
 11
14.499999963200452
 21
14.843681361907258
 31
0.0
  0
LINE
  5
2DC
100
AcDbEntity
  8
0
  6
CONTINUOUS
 62
               4
100
AcDbLine
 10
16.999999988264875
 20
14.843681342401325
 30
0.0
 11
16.999999988264875
 21
15.550788144592872
 31
0.0
  0
LINE
  5
2DD
100
AcDbEntity
  8
0
  6
CONTINUOUS
 62
               4
100
AcDbLine
 10
29.499999980598005
 20
11.767766918244646
 30
0.0
 11
14.499999982964908
 21
11.767766918244646
 31
0.0
  0
LINE
  5
2DE
100
AcDbEntity
  8
0
  6
CONTINUOUS
 62
               4
100
AcDbLine
 10
29.499999980598005
 20
13.889087266301388
 30
0.0
 11
19.099999992717017
 21
13.889087266301388
 31
0.0
  0
LINE
  5
2DF
100
AcDbEntity
  8
0
  6
CONTINUOUS
 62
               4
100
AcDbLine
 10
19.500000014618621
 20
17.742819170918281
 30
0.0
 11
22.000000019918588
 21
17.742819170918281
 31
0.0
  0
LINE
  5
2E0
100
AcDbEntity
  8
0
  6
CONTINUOUS
 62
               4
100
AcDbLine
 10
19.500000014618621
 20
17.742819170918281
 30
0.0
 11
19.500000014618621
 21
18.449925953603895
 31
0.0
  0
LINE
  5
2E1
100
AcDbEntity
  8
0
  6
CONTINUOUS
 62
               4
100
AcDbLine
 10
20.850000017480511
 20
18.110706670045644
 30
0.0
 11
20.850000017480511
 21
20.000357049706466
 31
0.0
  0
ELLIPSE
  5
2E2
100
AcDbEntity
  8
0
  6
CONTINUOUS
 62
               4
100
AcDbEllipse
 10
19.500000014618621
 20
20.000357055458394
 30
0.0
 11
1.3500000028620016
 21
0.0
 31
0.0
210
0.0
220
0.0
230
1.0
 40
0.7130928703394489
 41
0.0
 42
2.7542760733460367
  0
ELLIPSE
  5
2E3
100
AcDbEntity
  8
0
  6
CONTINUOUS
 62
               4
100
AcDbEllipse
 10
19.500000014618621
 20
17.000357049098383
 30
0.0
 11
2.1000000044519944
 21
0.0
 31
0.0
210
0.0
220
0.0
230
1.0
 40
0.690270905444012
 41
0.5377386764774587
 42
2.1503123661725598
  0
LINE
  5
2E4
100
AcDbEntity
  8
0
  6
CONTINUOUS
 62
               4
100
AcDbLine
 10
22.000000019918588
 20
17.742819170918281
 30
0.0
 11
22.000000031799999
 21
16.0
 31
0.0
  0
INSERT
  5
2ED
100
AcDbEntity
  8
0
  6
CONTINUOUS
 62
               7
100
AcDbBlockReference
  2
*X13
 10
0.0
 20
0.0
 30
0.0
  0
LINE
  5
2EE
100
AcDbEntity
  8
0
  6
CONTINUOUS
 62
               2
100
AcDbLine
 10
-1.9999999852351209
 20
4.2999999999999972
 30
0.0
 11
-0.9999999852351209
 21
4.2999999999999972
 31
0.0
  0
LINE
  5
2EF
100
AcDbEntity
  8
0
  6
CONTINUOUS
 62
               7
100
AcDbLine
 10
-1.9999999852351209
 20
4.0
 30
0.0
 11
0.0
 21
4.0
 31
0.0
  0
LINE
  5
2F0
100
AcDbEntity
  8
0
  6
CONTINUOUS
 62
               2
100
AcDbLine
 10
-1.9999999852351209
 20
7.7000000000000028
 30
0.0
 11
-0.9999999852351209
 21
7.7000000000000028
 31
0.0
  0
LINE
  5
2F1
100
AcDbEntity
  8
0
  6
CONTINUOUS
 62
               7
100
AcDbLine
 10
-1.9999999852351209
 20
8.0
 30
0.0
 11
0.0
 21
8.0
 31
0.0
  0
LINE
  5
2F2
100
AcDbEntity
  8
0
  6
CONTINUOUS
 62
               7
100
AcDbLine
 10
-4.7126074306330139
 20
6.0
 30
0.0
 11
-6.487392539837245
 21
6.0
 31
0.0
  0
LINE
  5
2F3
100
AcDbEntity
  8
0
  6
CONTINUOUS
 62
               7
100
AcDbLine
 10
-6.7999999852351323
 20
2.5000000285843242
 30
0.0
 11
-6.7999999852351323
 21
9.4999999689796795
 31
0.0
  0
LINE
  5
2F4
100
AcDbEntity
  8
0
  6
CONTINUOUS
 62
               7
100
AcDbLine
 10
-4.3999999852351266
 20
9.4999999630643117
 30
0.0
 11
-6.7999999852351323
 21
9.4999999630643117
 31
0.0
  0
LINE
  5
2F5
100
AcDbEntity
  8
0
  6
CONTINUOUS
 62
               7
100
AcDbLine
 10
-4.3999999852351266
 20
2.5000000369356954
 30
0.0
 11
-6.7999999852351323
 21
2.5000000369356954
 31
0.0
  0
LINE
  5
2F6
100
AcDbEntity
  8
0
  6
CONTINUOUS
 62
               7
100
AcDbLine
 10
-4.3999999852351266
 20
2.5000000369356954
 30
0.0
 11
-1.9999999852351209
 21
2.5000000369356954
 31
0.0
  0
LINE
  5
2F7
100
AcDbEntity
  8
0
  6
CONTINUOUS
 62
               7
100
AcDbLine
 10
-4.3999999852351266
 20
9.4999999630643117
 30
0.0
 11
-1.9999999852351209
 21
9.4999999630643117
 31
0.0
  0
LINE
  5
2F8
100
AcDbEntity
  8
0
  6
CONTINUOUS
 62
               7
100
AcDbLine
 10
-4.3999999852351266
 20
2.5000000285843242
 30
0.0
 11
-4.3999999852351266
 21
9.4999999689796795
 31
0.0
  0
LINE
  5
2F9
100
AcDbEntity
  8
0
  6
CONTINUOUS
 62
               7
100
AcDbLine
 10
-1.9999999852351209
 20
2.5000000285843242
 30
0.0
 11
-1.9999999852351209
 21
9.4999999689796795
 31
0.0
  0
LINE
  5
2FA
100
AcDbEntity
  8
0
  6
CONTINUOUS
 62
               7
100
AcDbLine
 10
-4.0873925398372393
 20
6.0
 30
0.0
 11
-2.3126074306330082
 21
6.0
 31
0.0
  0
SPLINE
  5
2FB
100
AcDbEntity
  8
0
  6
CONTINUOUS
 62
               7
100
AcDbSpline
210
0.0
220
0.0
230
1.0
 70
               0
 71
               3
 72
               0
 73
               0
 74
               5
 44
0.000001
 12
0.3364389663850756
 22
-0.9417052733725887
 32
0.0
 13
-0.3364389571584283
 23
-0.941705276668953
 33
0.0
 11
-4.7126074478393889
 21
9.4999999630643117
 31
0.0
 11
-4.4815427019410512
 21
8.639236642840407
 31
0.0
 11
-4.3999999852351266
 21
7.7499999815321559
 31
0.0
 11
-4.4815426934502351
 21
6.8607633209806309
 31
0.0
 11
-4.7126074306330139
 21
6.0
 31
0.0
  0
SPLINE
  5
2FC
100
AcDbEntity
  8
0
  6
CONTINUOUS
 62
               7
100
AcDbSpline
210
0.0
220
0.0
230
1.0
 70
               0
 71
               3
 72
               0
 73
               0
 74
               5
 44
0.000001
 12
-0.3364389663850757
 22
-0.9417052733725887
 32
0.0
 13
0.3364389571584284
 23
-0.9417052766689529
 33
0.0
 11
-6.48739252263087
 21
9.4999999630643117
 31
0.0
 11
-6.7184572685292077
 21
8.639236642840407
 31
0.0
 11
-6.7999999852351323
 21
7.7499999815321559
 31
0.0
 11
-6.7184572770200237
 21
6.8607633209806309
 31
0.0
 11
-6.487392539837245
 21
6.0
 31
0.0
  0
SPLINE
  5
2FD
100
AcDbEntity
  8
0
  6
CONTINUOUS
 62
               7
100
AcDbSpline
210
0.0
220
0.0
230
1.0
 70
               0
 71
               3
 72
               0
 73
               0
 74
               5
 44
0.000001
 12
-0.3364389663850757
 22
0.9417052733725887
 32
0.0
 13
0.3364389571584284
 23
0.9417052766689529
 33
0.0
 11
-6.48739252263087
 21
2.5000000369356883
 31
0.0
 11
-6.7184572685292077
 21
3.3607633571595934
 31
0.0
 11
-6.7999999852351323
 21
4.2500000184678441
 31
0.0
 11
-6.7184572770200237
 21
5.1392366790193691
 31
0.0
 11
-6.487392539837245
 21
6.0
 31
0.0
  0
SPLINE
  5
2FE
100
AcDbEntity
  8
0
  6
CONTINUOUS
 62
               7
100
AcDbSpline
210
0.0
220
0.0
230
1.0
 70
               0
 71
               3
 72
               0
 73
               0
 74
               5
 44
0.000001
 12
0.3364389663850756
 22
0.9417052733725887
 32
0.0
 13
-0.3364389571584283
 23
0.941705276668953
 33
0.0
 11
-4.7126074478393889
 21
2.5000000369356883
 31
0.0
 11
-4.4815427019410512
 21
3.3607633571595934
 31
0.0
 11
-4.3999999852351266
 21
4.2500000184678441
 31
0.0
 11
-4.4815426934502351
 21
5.1392366790193691
 31
0.0
 11
-4.7126074306330139
 21
6.0
 31
0.0
  0
SPLINE
  5
2FF
100
AcDbEntity
  8
0
  6
CONTINUOUS
 62
               7
100
AcDbSpline
210
0.0
220
0.0
230
1.0
 70
               0
 71
               3
 72
               0
 73
               0
 74
               5
 44
0.000001
 12
-0.3364389663850757
 22
0.9417052733725887
 32
0.0
 13
0.3364389571584284
 23
0.9417052766689529
 33
0.0
 11
-4.0873925226308643
 21
2.5000000369356883
 31
0.0
 11
-4.318457268529202
 21
3.3607633571595934
 31
0.0
 11
-4.3999999852351266
 21
4.2500000184678441
 31
0.0
 11
-4.318457277020018
 21
5.1392366790193691
 31
0.0
 11
-4.0873925398372393
 21
6.0
 31
0.0
  0
SPLINE
  5
300
100
AcDbEntity
  8
0
  6
CONTINUOUS
 62
               7
100
AcDbSpline
210
0.0
220
0.0
230
1.0
 70
               0
 71
               3
 72
               0
 73
               0
 74
               5
 44
0.000001
 12
0.3364389663850756
 22
0.9417052733725887
 32
0.0
 13
-0.3364389571584283
 23
0.941705276668953
 33
0.0
 11
-2.3126074478393832
 21
2.5000000369356883
 31
0.0
 11
-2.081542701941046
 21
3.3607633571595934
 31
0.0
 11
-1.9999999852351209
 21
4.2500000184678441
 31
0.0
 11
-2.0815426934502295
 21
5.1392366790193691
 31
0.0
 11
-2.3126074306330082
 21
6.0
 31
0.0
  0
SPLINE
  5
301
100
AcDbEntity
  8
0
  6
CONTINUOUS
 62
               7
100
AcDbSpline
210
0.0
220
0.0
230
1.0
 70
               0
 71
               3
 72
               0
 73
               0
 74
               5
 44
0.000001
 12
0.3364389663850756
 22
-0.9417052733725887
 32
0.0
 13
-0.3364389571584283
 23
-0.941705276668953
 33
0.0
 11
-2.3126074478393832
 21
9.4999999630643117
 31
0.0
 11
-2.081542701941046
 21
8.639236642840407
 31
0.0
 11
-1.9999999852351209
 21
7.7499999815321559
 31
0.0
 11
-2.0815426934502295
 21
6.8607633209806309
 31
0.0
 11
-2.3126074306330082
 21
6.0
 31
0.0
  0
SPLINE
  5
302
100
AcDbEntity
  8
0
  6
CONTINUOUS
 62
               7
100
AcDbSpline
210
0.0
220
0.0
230
1.0
 70
               0
 71
               3
 72
               0
 73
               0
 74
               5
 44
0.000001
 12
-0.3364389663850757
 22
-0.9417052733725887
 32
0.0
 13
0.3364389571584284
 23
-0.9417052766689529
 33
0.0
 11
-4.0873925226308643
 21
9.4999999630643117
 31
0.0
 11
-4.318457268529202
 21
8.639236642840407
 31
0.0
 11
-4.3999999852351266
 21
7.7499999815321559
 31
0.0
 11
-4.318457277020018
 21
6.8607633209806309
 31
0.0
 11
-4.0873925398372393
 21
6.0
 31
0.0
  0
LINE
  5
303
100
AcDbEntity
  8
0
  6
CENTER
 62
               2
100
AcDbLine
 10
29.000000014764879
 20
3.5
 30
0.0
 11
29.000000014764879
 21
8.5
 31
0.0
  0
CIRCLE
  5
304
100
AcDbEntity
  8
0
  6
DASHED
 62
               2
100
AcDbCircle
 10
29.000000014764879
 20
6.0
 30
0.0
 40
1.5
  0
CIRCLE
  5
305
100
AcDbEntity
  8
0
  6
DASHED
 62
               7
100
AcDbCircle
 10
29.000000014764879
 20
6.0
 30
0.0
 40
1.2
  0
CIRCLE
  5
306
100
AcDbEntity
  8
0
  6
DASHED
 62
               7
100
AcDbCircle
 10
10.000000014764879
 20
6.0
 30
0.0
 40
1.2
  0
CIRCLE
  5
307
100
AcDbEntity
  8
0
  6
DASHED
 62
               2
100
AcDbCircle
 10
10.000000014764879
 20
6.0
 30
0.0
 40
1.5
  0
LINE
  5
308
100
AcDbEntity
  8
0
  6
CONTINUOUS
 62
               7
100
AcDbLine
 10
0.0
 20
9.9999999300491993
 30
0.0
 11
32.000000014764879
 21
9.9999999300491993
 31
0.0
  0
LINE
  5
309
100
AcDbEntity
  8
0
  6
CONTINUOUS
 62
               7
100
AcDbLine
 10
0.0
 20
11.572503291624002
 30
0.0
 11
32.000000014764879
 21
11.572503291624002
 31
0.0
  0
LINE
  5
30A
100
AcDbEntity
  8
0
  6
CONTINUOUS
 62
               7
100
AcDbLine
 10
0.0
 20
13.606244551578222
 30
0.0
 11
14.499999982964908
 21
13.606244551578222
 31
0.0
  0
LINE
  5
30B
100
AcDbEntity
  8
0
  6
CONTINUOUS
 62
               7
100
AcDbLine
 10
0.0
 20
13.959797942171491
 30
0.0
 11
14.499999982964908
 21
13.959797942171491
 31
0.0
  0
LINE
  5
30C
100
AcDbEntity
  8
0
  6
CONTINUOUS
 62
               7
100
AcDbLine
 10
0.0
 20
16.0
 30
0.0
 11
14.499999982964908
 21
16.0
 31
0.0
  0
LINE
  5
30D
100
AcDbEntity
  8
0
  6
CONTINUOUS
 62
               2
100
AcDbLine
 10
-9.9999999852351209
 20
7.7000000000000028
 30
0.0
 11
-6.7999999852351323
 21
7.7000000000000028
 31
0.0
  0
LINE
  5
30E
100
AcDbEntity
  8
0
  6
CONTINUOUS
 62
               7
100
AcDbLine
 10
-9.699999985235138
 20
8.0
 30
0.0
 11
-9.9999999852351209
 21
7.7000000000000028
 31
0.0
  0
LINE
  5
30F
100
AcDbEntity
  8
0
  6
CONTINUOUS
 62
               2
100
AcDbLine
 10
-0.9999999852351209
 20
7.7000000000000028
 30
0.0
 11
-0.4803847429644748
 21
8.0
 31
0.0
  0
LINE
  5
310
100
AcDbEntity
  8
0
  6
CONTINUOUS
 62
               7
100
AcDbLine
 10
-9.699999985235138
 20
4.0
 30
0.0
 11
-9.699999985235138
 21
8.0
 31
0.0
  0
LINE
  5
311
100
AcDbEntity
  8
0
  6
CONTINUOUS
 62
               7
100
AcDbLine
 10
-0.9999999852351209
 20
4.0
 30
0.0
 11
-0.9999999852351209
 21
8.0
 31
0.0
  0
LINE
  5
312
100
AcDbEntity
  8
0
  6
CONTINUOUS
 62
               7
100
AcDbLine
 10
-9.9999999852351209
 20
4.2999999999999972
 30
0.0
 11
-9.9999999852351209
 21
7.7000000000000028
 31
0.0
  0
LINE
  5
313
100
AcDbEntity
  8
0
  6
CONTINUOUS
 62
               2
100
AcDbLine
 10
-0.9999999852351209
 20
4.2999999999999972
 30
0.0
 11
-0.4803847429644748
 21
4.0
 31
0.0
  0
LINE
  5
314
100
AcDbEntity
  8
0
  6
CONTINUOUS
 62
               7
100
AcDbLine
 10
-9.699999985235138
 20
4.0
 30
0.0
 11
-9.9999999852351209
 21
4.2999999999999972
 31
0.0
  0
LINE
  5
315
100
AcDbEntity
  8
0
  6
CONTINUOUS
 62
               2
100
AcDbLine
 10
-9.9999999852351209
 20
4.2999999999999972
 30
0.0
 11
-6.7999999852351323
 21
4.2999999999999972
 31
0.0
  0
LINE
  5
316
100
AcDbEntity
  8
0
  6
CONTINUOUS
 62
               7
100
AcDbLine
 10
-9.699999985235138
 20
4.0
 30
0.0
 11
-6.7999999852351323
 21
4.0
 31
0.0
  0
LINE
  5
317
100
AcDbEntity
  8
0
  6
CENTER
 62
               2
100
AcDbLine
 10
-11.249170283357671
 20
6.0
 30
0.0
 11
33.239086527694099
 21
6.0
 31
0.0
  0
LINE
  5
318
100
AcDbEntity
  8
0
  6
CONTINUOUS
 62
               7
100
AcDbLine
 10
-9.699999985235138
 20
8.0
 30
0.0
 11
-6.7999999852351323
 21
8.0
 31
0.0
  0
LINE
  5
319
100
AcDbEntity
  8
0
  6
CENTER
 62
               2
100
AcDbLine
 10
10.000000014764879
 20
3.5
 30
0.0
 11
10.000000014764879
 21
8.5
 31
0.0
  0
LINE
  5
31A
100
AcDbEntity
  8
0
  6
CONTINUOUS
 62
               7
100
AcDbLine
 10
0.0
 20
0.0
 30
0.0
 11
32.000000014764879
 21
0.0
 31
0.0
  0
LINE
  5
31B
100
AcDbEntity
  8
0
  6
CONTINUOUS
 62
               7
100
AcDbLine
 10
0.0
 20
0.0
 30
0.0
 11
0.0
 21
16.0
 31
0.0
  0
LINE
  5
31C
100
AcDbEntity
  8
0
  6
CONTINUOUS
 62
               7
100
AcDbLine
 10
32.000000014764879
 20
0.0
 30
0.0
 11
32.000000014764879
 21
16.0
 31
0.0
  0
LINE
  5
31D
100
AcDbEntity
  8
0
  6
CONTINUOUS
 62
               7
100
AcDbLine
 10
29.500000014764879
 20
13.606244551578222
 30
0.0
 11
32.000000014764879
 21
13.606244551578222
 31
0.0
  0
LINE
  5
31E
100
AcDbEntity
  8
0
  6
CONTINUOUS
 62
               7
100
AcDbLine
 10
19.099999992717017
 20
13.959797942171491
 30
0.0
 11
32.000000014764879
 21
13.959797942171491
 31
0.0
  0
LINE
  5
31F
100
AcDbEntity
  8
0
  6
CONTINUOUS
 62
               7
100
AcDbLine
 10
19.099999992717017
 20
16.0
 30
0.0
 11
32.000000014764879
 21
16.0
 31
0.0
  0
LINE
  5
320
100
AcDbEntity
  8
0
  6
CENTER
 62
               2
100
AcDbLine
 10
5.0
 20
1.5
 30
0.0
 11
5.0
 21
-1.5
 31
0.0
  0
ENDBLK
  5
321
100
AcDbEntity
  8
0
100
AcDbBlockEnd
  0
BLOCK
  5
8E
100
AcDbEntity
  8
0
  6
ByBlock
 62
               0
100
AcDbBlockBegin
  2
*X8
 70
               1
 10
0.0
 20
0.0
 30
0.0
  3
*X8
  1

  0
LINE
  5
8F
100
AcDbEntity
  8
0
  6
ByBlock
 62
               0
100
AcDbLine
 10
10.119692732885158
 20
-1.1940157660996027
 30
0.0
 11
11.194015766099616
 21
-0.1196927328851443
 31
0.0
  0
LINE
  5
90
100
AcDbEntity
  8
0
  6
ByBlock
 62
               0
100
AcDbLine
 10
9.1027086952509606
 20
-0.7967862413607038
 30
0.0
 11
10.796786241360717
 21
0.8972913047490526
 31
0.0
  0
LINE
  5
91
100
AcDbEntity
  8
0
  6
ByBlock
 62
               0
100
AcDbLine
 10
8.8600091787553712
 20
0.374727804516799
 30
0.0
 11
9.6252721954832143
 21
1.1399908212446421
 31
0.0
  0
LINE
  5
92
100
AcDbEntity
  8
0
  6
ByBlock
 62
               0
100
AcDbLine
 10
9.6252721954831699
 20
-1.1399908212445997
 30
0.0
 11
8.8600091787553872
 21
-0.3747278045168172
 31
0.0
  0
LINE
  5
93
100
AcDbEntity
  8
0
  6
ByBlock
 62
               0
100
AcDbLine
 10
10.796786241360703
 20
-0.8972913047490397
 30
0.0
 11
9.1027086952509464
 21
0.7967862413607164
 31
0.0
  0
LINE
  5
94
100
AcDbEntity
  8
0
  6
ByBlock
 62
               0
100
AcDbLine
 10
11.194015766099621
 20
0.1196927328851398
 30
0.0
 11
10.119692732885127
 21
1.1940157660996349
 31
0.0
  0
ENDBLK
  5
95
100
AcDbEntity
  8
0
  6
ByBlock
 62
               0
100
AcDbBlockEnd
  0
BLOCK
  5
128
100
AcDbEntity
  8
0
  6
ByBlock
 62
               0
100
AcDbBlockBegin
  2
*X9
 70
               1
 10
0.0
 20
0.0
 30
0.0
  3
*X9
  1

  0
LINE
  5
129
100
AcDbEntity
  8
0
  6
ByBlock
 62
               0
100
AcDbLine
 10
10.238065201457202
 20
8.8238516390841042
 30
0.0
 11
11.176148375680775
 21
9.7619348133076773
 31
0.0
  0
LINE
  5
12A
100
AcDbEntity
  8
0
  6
ByBlock
 62
               0
100
AcDbLine
 10
9.1514718699585842
 20
9.1514718699585824
 30
0.0
 11
10.848528144806298
 21
10.848528144806295
 31
0.0
  0
LINE
  5
12B
100
AcDbEntity
  8
0
  6
ByBlock
 62
               0
100
AcDbLine
 10
8.8238516613429958
 20
10.23806522371609
 30
0.0
 11
9.7619347910487893
 21
11.176148353421883
 31
0.0
  0
LINE
  5
12C
100
AcDbEntity
  8
0
  6
ByBlock
 62
               0
100
AcDbLine
 10
9.452701621119008
 20
8.9320746897312304
 30
0.0
 11
8.9320747044961095
 21
9.4527016063541289
 31
0.0
  0
LINE
  5
12D
100
AcDbEntity
  8
0
  6
ByBlock
 62
               0
100
AcDbLine
 10
10.742049826924207
 20
9.0569400462991219
 30
0.0
 11
9.056940061064001
 21
10.74204981215933
 31
0.0
  0
LINE
  5
12E
100
AcDbEntity
  8
0
  6
ByBlock
 62
               0
100
AcDbLine
 10
11.199926564472467
 20
10.013276871123956
 30
0.0
 11
10.013276885888835
 21
11.199926549707587
 31
0.0
  0
ENDBLK
  5
12F
100
AcDbEntity
  8
0
  6
ByBlock
 62
               0
100
AcDbBlockEnd
  0
BLOCK
  5
170
100
AcDbEntity
  8
0
  6
ByBlock
 62
               0
100
AcDbBlockBegin
  2
*X10
 70
               1
 10
0.0
 20
0.0
 30
0.0
  3
*X10
  1

  0
LINE
  5
171
100
AcDbEntity
  8
0
  6
ByBlock
 62
               0
100
AcDbLine
 10
10.644828354310297
 20
4.9879741048179156
 30
0.0
 11
11.012025909946964
 21
5.355171660454582
 31
0.0
  0
LINE
  5
172
100
AcDbEntity
  8
0
  6
ByBlock
 62
               0
100
AcDbLine
 10
9.2815100294826163
 20
5.0388693423633315
 30
0.0
 11
10.961130672401547
 21
6.7184899852822619
 31
0.0
  0
LINE
  5
173
100
AcDbEntity
  8
0
  6
ByBlock
 62
               0
100
AcDbLine
 10
8.8003290196621844
 20
5.9719018949159937
 30
0.0
 11
10.028098119848885
 21
7.1996709951026938
 31
0.0
  0
LINE
  5
174
100
AcDbEntity
  8
0
  6
ByBlock
 62
               0
100
AcDbLine
 10
10.597194432646807
 20
4.9591547534572369
 30
0.0
 11
8.9591547682221169
 21
6.5971944178819282
 31
0.0
  0
LINE
  5
175
100
AcDbEntity
  8
0
  6
ByBlock
 62
               0
100
AcDbLine
 10
11.181343156883987
 20
5.789219591593155
 30
0.0
 11
9.789219606358035
 21
7.1813431421191058
 31
0.0
  0
ENDBLK
  5
176
100
AcDbEntity
  8
0
  6
ByBlock
 62
               0
100
AcDbBlockEnd
  0
BLOCK
  5
1B6
100
AcDbEntity
  8
0
  6
ByBlock
 62
               0
100
AcDbBlockBegin
  2
*X11
 70
               1
 10
0.0
 20
0.0
 30
0.0
  3
*X11
  1

  0
LINE
  5
1B7
100
AcDbEntity
  8
0
  6
ByBlock
 62
               0
100
AcDbLine
 10
10.119692732885158
 20
-1.1940157660996027
 30
0.0
 11
11.194015766099616
 21
-0.1196927328851443
 31
0.0
  0
LINE
  5
1B8
100
AcDbEntity
  8
0
  6
ByBlock
 62
               0
100
AcDbLine
 10
9.1027086952509606
 20
-0.7967862413607038
 30
0.0
 11
10.796786241360717
 21
0.8972913047490526
 31
0.0
  0
LINE
  5
1B9
100
AcDbEntity
  8
0
  6
ByBlock
 62
               0
100
AcDbLine
 10
8.8600091787553712
 20
0.374727804516799
 30
0.0
 11
9.6252721954832143
 21
1.1399908212446421
 31
0.0
  0
LINE
  5
1BA
100
AcDbEntity
  8
0
  6
ByBlock
 62
               0
100
AcDbLine
 10
9.6252721954831699
 20
-1.1399908212445997
 30
0.0
 11
8.8600091787553872
 21
-0.3747278045168172
 31
0.0
  0
LINE
  5
1BB
100
AcDbEntity
  8
0
  6
ByBlock
 62
               0
100
AcDbLine
 10
10.796786241360703
 20
-0.8972913047490397
 30
0.0
 11
9.1027086952509464
 21
0.7967862413607164
 31
0.0
  0
LINE
  5
1BC
100
AcDbEntity
  8
0
  6
ByBlock
 62
               0
100
AcDbLine
 10
11.194015766099621
 20
0.1196927328851398
 30
0.0
 11
10.119692732885127
 21
1.1940157660996349
 31
0.0
  0
ENDBLK
  5
1BD
100
AcDbEntity
  8
0
  6
ByBlock
 62
               0
100
AcDbBlockEnd
  0
BLOCK
  5
271
100
AcDbEntity
  8
0
  6
ByBlock
 62
               0
100
AcDbBlockBegin
  2
*X12
 70
               1
 10
0.0
 20
0.0
 30
0.0
  3
*X12
  1

  0
LINE
  5
272
100
AcDbEntity
  8
0
  6
ByBlock
 62
               0
100
AcDbLine
 10
10.238065201457202
 20
8.8238516390841042
 30
0.0
 11
11.176148375680775
 21
9.7619348133076773
 31
0.0
  0
LINE
  5
273
100
AcDbEntity
  8
0
  6
ByBlock
 62
               0
100
AcDbLine
 10
9.1514718699585842
 20
9.1514718699585824
 30
0.0
 11
10.848528144806298
 21
10.848528144806295
 31
0.0
  0
LINE
  5
274
100
AcDbEntity
  8
0
  6
ByBlock
 62
               0
100
AcDbLine
 10
8.8238516613429958
 20
10.23806522371609
 30
0.0
 11
9.7619347910487893
 21
11.176148353421883
 31
0.0
  0
LINE
  5
275
100
AcDbEntity
  8
0
  6
ByBlock
 62
               0
100
AcDbLine
 10
9.452701621119008
 20
8.9320746897312304
 30
0.0
 11
8.9320747044961095
 21
9.4527016063541289
 31
0.0
  0
LINE
  5
276
100
AcDbEntity
  8
0
  6
ByBlock
 62
               0
100
AcDbLine
 10
10.742049826924207
 20
9.0569400462991219
 30
0.0
 11
9.056940061064001
 21
10.74204981215933
 31
0.0
  0
LINE
  5
277
100
AcDbEntity
  8
0
  6
ByBlock
 62
               0
100
AcDbLine
 10
11.199926564472467
 20
10.013276871123956
 30
0.0
 11
10.013276885888835
 21
11.199926549707587
 31
0.0
  0
ENDBLK
  5
278
100
AcDbEntity
  8
0
  6
ByBlock
 62
               0
100
AcDbBlockEnd
  0
BLOCK
  5
2E6
100
AcDbEntity
  8
0
  6
ByBlock
 62
               0
100
AcDbBlockBegin
  2
*X13
 70
               1
 10
0.0
 20
0.0
 30
0.0
  3
*X13
  1

  0
LINE
  5
2E7
100
AcDbEntity
  8
0
  6
ByBlock
 62
               0
100
AcDbLine
 10
10.644828354310297
 20
4.9879741048179156
 30
0.0
 11
11.012025909946964
 21
5.355171660454582
 31
0.0
  0
LINE
  5
2E8
100
AcDbEntity
  8
0
  6
ByBlock
 62
               0
100
AcDbLine
 10
9.2815100294826163
 20
5.0388693423633315
 30
0.0
 11
10.961130672401547
 21
6.7184899852822619
 31
0.0
  0
LINE
  5
2E9
100
AcDbEntity
  8
0
  6
ByBlock
 62
               0
100
AcDbLine
 10
8.8003290196621844
 20
5.9719018949159937
 30
0.0
 11
10.028098119848885
 21
7.1996709951026938
 31
0.0
  0
LINE
  5
2EA
100
AcDbEntity
  8
0
  6
ByBlock
 62
               0
100
AcDbLine
 10
10.597194432646807
 20
4.9591547534572369
 30
0.0
 11
8.9591547682221169
 21
6.5971944178819282
 31
0.0
  0
LINE
  5
2EB
100
AcDbEntity
  8
0
  6
ByBlock
 62
               0
100
AcDbLine
 10
11.181343156883987
 20
5.789219591593155
 30
0.0
 11
9.789219606358035
 21
7.1813431421191058
 31
0.0
  0
ENDBLK
  5
2EC
100
AcDbEntity
  8
0
  6
ByBlock
 62
               0
100
AcDbBlockEnd
  0
BLOCK
  5
324
100
AcDbEntity
  8
0
  6
ByBlock
 62
               0
100
AcDbBlockBegin
  2
_OPEN30
 70
               2
 10
0.0
 20
0.0
 30
0.0
  3
_OPEN30
  1

  0
LINE
  5
325
100
AcDbEntity
  8
0
  6
ByBlock
 62
               0
100
AcDbLine
 10
-1.0
 20
0.267949
 30
0.0
 11
0.0
 21
0.0
 31
0.0
  0
LINE
  5
326
100
AcDbEntity
  8
0
  6
ByBlock
 62
               0
100
AcDbLine
 10
0.0
 20
0.0
 30
0.0
 11
-1.0
 21
-0.267949
 31
0.0
  0
LINE
  5
327
100
AcDbEntity
  8
0
  6
ByBlock
 62
               0
100
AcDbLine
 10
0.0
 20
0.0
 30
0.0
 11
-1.0
 21
0.0
 31
0.0
  0
ENDBLK
  5
328
100
AcDbEntity
  8
0
  6
ByBlock
 62
               0
100
AcDbBlockEnd
  0
ENDSEC
  0
SECTION
  2
ENTITIES
  0
LEADER
  5
322
100
AcDbEntity
  8
0
 62
               2
100
AcDbLeader
  3
MXDIMSTYLE
 73
               3
 74
               0
 75
               0
 40
0.0
 76
               3
 10
88.598933069811693
 20
-51.06994185322732
 30
0.0
 10
95.967951143025516
 20
-63.833455557927039
 30
0.0
 10
100.96795114302552
 20
-63.833455557927039
 30
0.0
 77
               2
1001
ACAD
1000
DSTYLE
1002
{
1070
               6
1000
_OPEN30
1070
               7
1000
_OPEN30
1070
              41
1040
2.77
1070
             173
1070
               1
1002
}
  0
MTEXT
  5
329
100
AcDbEntity
  8
0
 62
               2
100
AcDbMText
 10
95.967951143025516
 20
-60.802205557927039
 30
0.0
 40
2.5
 41
0.0
 71
               4
 72
               1
  1
\A1;-R
  7
MX_NOTE_STANDARD
  0
LEADER
  5
32A
100
AcDbEntity
  8
0
 62
               2
100
AcDbLeader
  3
MXDIMSTYLE
 73
               3
 74
               0
 75
               0
 40
0.0
 76
               3
 10
87.098933069811693
 20
43.528134358125982
 30
0.0
 10
82.343866784685076
 20
51.764150757323108
 30
0.0
 10
77.226957884245337
 20
51.764150757323108
 30
0.0
 77
               2
1001
ACAD
1000
DSTYLE
1002
{
1070
               6
1000
_OPEN30
1070
               7
1000
_OPEN30
1070
              41
1040
2.77
1070
             173
1070
               1
1002
}
  0
MTEXT
  5
32B
100
AcDbEntity
  8
0
 62
               2
100
AcDbMText
 10
77.226957884245337
 20
54.795400757323108
 30
0.0
 40
2.5
 41
0.0
 71
               4
 72
               1
  1
\A1;-L
  7
MX_NOTE_STANDARD
  0
MTEXT
  5
32C
100
AcDbEntity
  8
0
  6
CONTINUOUS
 62
               3
100
AcDbMText
 10
80.749605206345805
 20
19.514360893484827
 30
0.0
 40
3.2000000476837158
 41
0.0
 71
               4
 72
               1
  1
\W1.065;\A1;STRETCH LINE
  7
MX_NOTE_STANDARD
  0
LEADER
  5
32D
100
AcDbEntity
  8
0
 62
               2
100
AcDbLeader
  3
MXDIMSTYLE
 73
               3
 74
               0
 75
               0
 40
0.0
 76
               3
 10
-51.401066930188314
 20
-51.06994185322732
 30
0.0
 10
-44.032048856974477
 20
-63.833455557927039
 30
0.0
 10
-39.032048856974477
 20
-63.833455557927039
 30
0.0
 77
               2
1001
ACAD
1000
DSTYLE
1002
{
1070
               6
1000
_OPEN30
1070
               7
1000
_OPEN30
1070
              41
1040
2.77
1070
             173
1070
               1
1002
}
  0
MTEXT
  5
32E
100
AcDbEntity
  8
0
 62
               2
100
AcDbMText
 10
-44.032048856974477
 20
-60.802205557927039
 30
0.0
 40
2.5
 41
0.0
 71
               4
 72
               1
  1
\A1;-R
  7
MX_NOTE_STANDARD
  0
LEADER
  5
32F
100
AcDbEntity
  8
0
 62
               2
100
AcDbLeader
  3
MXDIMSTYLE
 73
               3
 74
               0
 75
               0
 40
0.0
 76
               3
 10
-52.901066930188307
 20
43.528134358125982
 30
0.0
 10
-57.656133215314924
 20
51.764150757323108
 30
0.0
 10
-62.773042115754663
 20
51.764150757323108
 30
0.0
 77
               2
1001
ACAD
1000
DSTYLE
1002
{
1070
               6
1000
_OPEN30
1070
               7
1000
_OPEN30
1070
              41
1040
2.77
1070
             173
1070
               1
1002
}
  0
MTEXT
  5
330
100
AcDbEntity
  8
0
 62
               2
100
AcDbMText
 10
-62.773042115754663
 20
54.795400757323108
 30
0.0
 40
2.5
 41
0.0
 71
               4
 72
               1
  1
\A1;-L
  7
MX_NOTE_STANDARD
  0
INSERT
  5
331
100
AcDbEntity
  8
0
100
AcDbBlockReference
  2
MS_8
 10
77.848933055046814
 20
-55.770903747550676
 30
0.0
  0
INSERT
  5
332
100
AcDbEntity
  8
0
100
AcDbBlockReference
  2
MS_7
 10
77.848933055046814
 20
32.229096252449324
 30
0.0
  0
INSERT
  5
333
100
AcDbEntity
  8
0
100
AcDbBlockReference
  2
MS_6
 10
31.848933055046842
 20
-3.7709037360554305
 30
0.0
  0
INSERT
  5
334
100
AcDbEntity
  8
0
100
AcDbBlockReference
  2
MS_5
 10
77.848933055046842
 20
-3.7709037360554305
 30
0.0
  0
INSERT
  5
335
100
AcDbEntity
  8
0
100
AcDbBlockReference
  2
MS_4
 10
-62.151066944953186
 20
-55.770903747550676
 30
0.0
  0
INSERT
  5
336
100
AcDbEntity
  8
0
100
AcDbBlockReference
  2
MS_3
 10
-62.151066944953186
 20
32.229096252449324
 30
0.0
  0
INSERT
  5
337
100
AcDbEntity
  8
0
100
AcDbBlockReference
  2
MS_2
 10
-108.15106694495314
 20
-3.7709037475507419
 30
0.0
  0
INSERT
  5
338
100
AcDbEntity
  8
0
100
AcDbBlockReference
  2
MS_1
 10
-62.151066944953158
 20
-3.7709037360554305
 30
0.0
  0
MTEXT
  5
339
100
AcDbEntity
  8
0
  6
CONTINUOUS
 62
               3
100
AcDbMText
 10
-59.250394793654195
 20
60.711839392018234
 30
0.0
 40
3.2000000476837158
 41
0.0
 71
               4
 72
               1
  1
\W1.065;\A1;STRETCH LINE
  7
MX_NOTE_STANDARD
  0
LINE
  5
33A
100
AcDbEntity
  8
0
  6
CONTINUOUS
 62
               7
100
AcDbLine
 10
-133.39999389648437
 20
-89.800003051757812
 30
0.0
 11
-69.399993896484375
 21
-89.800003051757812
 31
0.0
  0
LINE
  5
33B
100
AcDbEntity
  8
0
  6
CONTINUOUS
 62
               7
100
AcDbLine
 10
-133.39999389648437
 20
-77.800003051757812
 30
0.0
 11
-133.39999389648437
 21
-89.800003051757812
 31
0.0
  0
LINE
  5
33C
100
AcDbEntity
  8
0
  6
CONTINUOUS
 62
               7
100
AcDbLine
 10
-133.39999389648437
 20
-83.800003051757813
 30
0.0
 11
-69.399993896484375
 21
-83.800003051757813
 31
0.0
  0
LINE
  5
33D
100
AcDbEntity
  8
0
  6
CONTINUOUS
 62
               7
100
AcDbLine
 10
-133.39999389648437
 20
-77.800003051757812
 30
0.0
 11
-69.399993896484375
 21
-77.800003051757812
 31
0.0
  0
MTEXT
  5
33E
100
AcDbEntity
  8
0
  6
CONTINUOUS
 62
               7
100
AcDbMText
 10
-129.6666606982549
 20
-80.800003051757813
 30
0.0
 40
3.2000000476837158
 41
0.0
 71
               4
 72
               1
  1
\A1;STROKE
  7
MX_NOTE_STANDARD
  0
MTEXT
  5
33F
100
AcDbEntity
  8
0
  6
CONTINUOUS
 62
               7
100
AcDbMText
 10
-131.26666072209676
 20
-86.800003051757813
 30
0.0
 40
3.2000000476837158
 41
0.0
 71
               4
 72
               1
  1
\A1;STRETCH
  7
MX_NOTE_STANDARD
  0
LINE
  5
340
100
AcDbEntity
  8
0
  6
CONTINUOUS
 62
               7
100
AcDbLine
 10
-107.79999389648438
 20
-77.800003051757812
 30
0.0
 11
-107.79999389648438
 21
-89.800003051757812
 31
0.0
  0
LINE
  5
341
100
AcDbEntity
  8
0
  6
CONTINUOUS
 62
               7
100
AcDbLine
 10
-98.199993896484386
 20
-77.800003051757812
 30
0.0
 11
-98.199993896484386
 21
-89.800003051757812
 31
0.0
  0
LINE
  5
342
100
AcDbEntity
  8
0
  6
CONTINUOUS
 62
               7
100
AcDbLine
 10
-88.599993896484378
 20
-77.800003051757812
 30
0.0
 11
-88.599993896484378
 21
-89.800003051757812
 31
0.0
  0
LINE
  5
343
100
AcDbEntity
  8
0
  6
CONTINUOUS
 62
               7
100
AcDbLine
 10
-78.999993896484384
 20
-77.800003051757812
 30
0.0
 11
-78.999993896484384
 21
-89.800003051757812
 31
0.0
  0
LINE
  5
344
100
AcDbEntity
  8
0
  6
CONTINUOUS
 62
               7
100
AcDbLine
 10
-69.399993896484375
 20
-77.800003051757812
 30
0.0
 11
-69.399993896484375
 21
-89.800003051757812
 31
0.0
  0
MTEXT
  5
345
100
AcDbEntity
  8
0
  6
CONTINUOUS
 62
               7
100
AcDbMText
 10
-104.06666057904562
 20
-80.800003051757813
 30
0.0
 40
3.2000000476837158
 41
0.0
 71
               4
 72
               1
  1
\A1;4
  7
MX_NOTE_STANDARD
  0
MTEXT
  5
346
100
AcDbEntity
  8
0
  6
CONTINUOUS
 62
               7
100
AcDbMText
 10
-94.466660579045623
 20
-80.800003051757813
 30
0.0
 40
3.2000000476837158
 41
0.0
 71
               4
 72
               1
  1
\A1;6
  7
MX_NOTE_STANDARD
  0
MTEXT
  5
347
100
AcDbEntity
  8
0
  6
CONTINUOUS
 62
               7
100
AcDbMText
 10
-84.866660579045629
 20
-80.800003051757813
 30
0.0
 40
3.2000000476837158
 41
0.0
 71
               4
 72
               1
  1
\A1;8
  7
MX_NOTE_STANDARD
  0
MTEXT
  5
348
100
AcDbEntity
  8
0
  6
CONTINUOUS
 62
               7
100
AcDbMText
 10
-76.688882822460627
 20
-80.800003051757813
 30
0.0
 40
3.2000000476837158
 41
0.0
 71
               4
 72
               1
  1
\W1.333;\A1;10
  7
MX_NOTE_STANDARD
  0
MTEXT
  5
349
100
AcDbEntity
  8
0
  6
CONTINUOUS
 62
               7
100
AcDbMText
 10
-75.159993895530732
 20
-86.800003051757813
 30
0.0
 40
3.2000000476837158
 41
0.0
 71
               4
 72
               1
  1
\W1.200;\A1;0
  7
MX_NOTE_STANDARD
  0
MTEXT
  5
34A
100
AcDbEntity
  8
0
  6
CONTINUOUS
 62
               7
100
AcDbMText
 10
-86.466660602887487
 20
-86.800003051757813
 30
0.0
 40
3.2000000476837158
 41
0.0
 71
               4
 72
               1
  1
\A1;-2
  7
MX_NOTE_STANDARD
  0
MTEXT
  5
34B
100
AcDbEntity
  8
0
  6
CONTINUOUS
 62
               7
100
AcDbMText
 10
-96.066660602887481
 20
-86.800003051757813
 30
0.0
 40
3.2000000476837158
 41
0.0
 71
               4
 72
               1
  1
\A1;-4
  7
MX_NOTE_STANDARD
  0
MTEXT
  5
34C
100
AcDbEntity
  8
0
  6
CONTINUOUS
 62
               7
100
AcDbMText
 10
-105.66666060288748
 20
-86.800003051757813
 30
0.0
 40
3.2000000476837158
 41
0.0
 71
               4
 72
               1
  1
\A1;-6
  7
MX_NOTE_STANDARD
  0
MTEXT
  5
34D
100
AcDbEntity
  8
0
  6
CONTINUOUS
 62
               7
100
AcDbMText
 10
-120.03194683784572
 20
-74.800003051757813
 30
0.0
 40
3.2000000476837158
 41
0.0
 71
               4
 72
               1
  1
\W1.065;\A1;STRETCH LIST
  7
MX_NOTE_STANDARD
  0
MTEXT
  5
34E
100
AcDbEntity
  8
0
  6
CONTINUOUS
 62
               7
100
AcDbMText
 10
-78.423993985366835
 20
-75.800003051757813
 30
0.0
 40
3.2000000476837158
 41
0.0
 71
               4
 72
               1
  1
\W1.200;\A1;(mm)
  7
MX_NOTE_STANDARD
  0
LINE
  5
34F
100
AcDbEntity
  8
0
  6
CONTINUOUS
 62
               7
100
AcDbLine
 10
-0.024993896484375
 20
84.5
 30
0.0
 11
-0.024993896484375
 21
-84.800003051757813
 31
0.0
  0
MTEXT
  5
350
100
AcDbEntity
  8
0
  6
CONTINUOUS
 62
               7
100
AcDbMText
 10
-130.90186156846724
 20
91.099999904632568
 30
0.0
 40
3.1999998092651367
 41
0.0
 71
               1
 72
               1
  1
\W1.121;\A1;MINIBIT CYLINDER
  7
MX_NOTE_STANDARD
  0
MTEXT
  5
351
100
AcDbEntity
  8
0
  6
CONTINUOUS
 62
               7
100
AcDbMText
 10
8.9609216556878248
 20
74.5
 30
0.0
 40
3.1999998092651367
 41
0.0
 71
               4
 72
               1
  1
\W1.099;\A1;MODEL:MBSAS10*ST(10)-ZE235
  7
MX_NOTE_STANDARD
  0
MTEXT
  5
352
100
AcDbEntity
  8
0
  6
CONTINUOUS
 62
               7
100
AcDbMText
 10
76.108335494995117
 20
68.5
 30
0.0
 40
3.1999998092651367
 41
0.0
 71
               4
 72
               1
  1
\A1;ZE255
  7
MX_NOTE_STANDARD
  0
MTEXT
  5
353
100
AcDbEntity
  8
0
  6
CONTINUOUS
 62
               7
100
AcDbMText
 10
-62.228569271613139
 20
68.5
 30
0.0
 40
3.1999998092651367
 41
0.0
 71
               4
 72
               1
  1
\W1.071;\A1;ZE155
  7
MX_NOTE_STANDARD
  0
MTEXT
  5
354
100
AcDbEntity
  8
0
  6
CONTINUOUS
 62
               7
100
AcDbMText
 10
-129.40570812402453
 20
74.5
 30
0.0
 40
3.1999998092651367
 41
0.0
 71
               4
 72
               1
  1
\W1.114;\A1;MODEL:MBSAS10*ST(10)-ZE135
  7
MX_NOTE_STANDARD
  0
LINE
  5
355
100
AcDbEntity
  8
0
  6
CONTINUOUS
 62
               7
100
AcDbLine
 10
-138.39999389648437
 20
94.5
 30
0.0
 11
138.35000610351562
 21
94.5
 31
0.0
  0
LINE
  5
356
100
AcDbEntity
  8
0
  6
CONTINUOUS
 62
               7
100
AcDbLine
 10
138.35000610351562
 20
94.5
 30
0.0
 11
138.35000610351562
 21
-94.800003051757812
 31
0.0
  0
LINE
  5
357
100
AcDbEntity
  8
0
  6
CONTINUOUS
 62
               7
100
AcDbLine
 10
-138.39999389648437
 20
-94.800003051757812
 30
0.0
 11
138.35000610351562
 21
-94.800003051757812
 31
0.0
  0
LINE
  5
358
100
AcDbEntity
  8
0
  6
CONTINUOUS
 62
               7
100
AcDbLine
 10
-138.39999389648437
 20
94.5
 30
0.0
 11
-138.39999389648437
 21
-94.800003051757812
 31
0.0
  0
LINE
  5
359
100
AcDbEntity
  8
0
  6
CONTINUOUS
 62
               7
100
AcDbLine
 10
73.350006103515625
 20
-84.800003051757813
 30
0.0
 11
138.35000610351562
 21
-84.800003051757813
 31
0.0
  0
LINE
  5
35A
100
AcDbEntity
  8
0
  6
CONTINUOUS
 62
               7
100
AcDbLine
 10
-138.39999389648437
 20
84.5
 30
0.0
 11
-73.399993896484375
 21
84.5
 31
0.0
  0
LINE
  5
35B
100
AcDbEntity
  8
0
  6
CONTINUOUS
 62
               7
100
AcDbLine
 10
73.350006103515625
 20
84.5
 30
0.0
 11
138.35000610351562
 21
84.5
 31
0.0
  0
LINE
  5
35C
100
AcDbEntity
  8
0
  6
CONTINUOUS
 62
               7
100
AcDbLine
 10
73.350006103515625
 20
-84.800003051757813
 30
0.0
 11
73.350006103515625
 21
-94.800003051757812
 31
0.0
  0
LINE
  5
35D
100
AcDbEntity
  8
0
  6
CONTINUOUS
 62
               7
100
AcDbLine
 10
73.350006103515625
 20
94.5
 30
0.0
 11
73.350006103515625
 21
84.5
 31
0.0
  0
LINE
  5
35E
100
AcDbEntity
  8
0
  6
CONTINUOUS
 62
               7
100
AcDbLine
 10
-73.399993896484375
 20
94.5
 30
0.0
 11
-73.399993896484375
 21
84.5
 31
0.0
  0
MTEXT
  5
35F
100
AcDbEntity
  8
0
  6
CONTINUOUS
 62
               7
100
AcDbMText
 10
77.440529363489745
 20
-89.800003051757812
 30
0.0
 40
4.5
 41
0.0
 71
               4
 72
               1
  1
\W1.121;\A1;KOGANEI CORP.
  7
MX_NOTE_STANDARD
  0
MTEXT
  5
360
100
AcDbEntity
  8
0
  6
CONTINUOUS
 62
               7
100
AcDbMText
 10
93.749460369842424
 20
89.5
 30
0.0
 40
3.1999998092651367
 41
0.0
 71
               4
 72
               1
  1
\W1.311;\A1;Ver. 1.0
  7
MX_NOTE_STANDARD
  0
ENDSEC
  0
SECTION
  2
OBJECTS
  0
DICTIONARY
  5
19
100
AcDbDictionary
  3
ACAD_GROUP
350
1A
  3
ACAD_MLINESTYLE
350
1B
  0
DICTIONARY
  5
1A
102
{ACAD_REACTORS
330
19
102
}
100
AcDbDictionary
  0
DICTIONARY
  5
1B
102
{ACAD_REACTORS
330
19
102
}
100
AcDbDictionary
  3
STANDARD
350
1C
  0
MLINESTYLE
  5
1C
102
{ACAD_REACTORS
330
1B
102
}
100
AcDbMlineStyle
  2
Standard
 70
               0
  3

 62
               0
 51
90.0
 52
90.0
 71
               2
 49
0.5
 62
             256
  6
ByLayer
 49
-0.5
 62
             256
  6
ByLayer
  0
ENDSEC
  0
EOF
