  0
SECTION
  2
HEADER
  9
$ACADVER
  1
AC1003
  9
$EXTMIN
 10
-2.81250000E+02
 20
-1.95000000E+02
  9
$EXTMAX
 10
2.82099854E+02
 20
1.95500000E+02
  9
$LIMMIN
 10
-2.81251000E+02
 20
-1.95001000E+02
  9
$LIMMAX
 10
2.82100854E+02
 20
1.95501000E+02
  9
$SNAPUNIT
 10
1
 20
1
  9
$SNAPBASE
 10
0
 20
0
  9
$GRIDMODE
 70
0
  9
$GRIDUNIT
 10
0
 20
0
  9
$LTSCALE
 40
9.38916423E+00
  9
$TEXTSIZE
 40
3.2
  9
$DIMTAD
 70
0
  9
$LUNITS
 70
2
  9
$LUPREC
 70
4
  9
$FILLETRAD
 40
0
  9
$AUNITS
 70
0
  9
$AUPREC
 70
0
  0
ENDSEC
  0
SECTION
  2
TABLES
  0
TABLE
  2
LTYPE
 70
2
  0
LTYPE
  2
CONTINUOUS
 70
64
  3
Solid-Line
 72
65
 73
0
 40
0
  0
LTYPE
  2
DASHED
 70
64
  3
DASHED
 72
65
 73
2
 40
.75
 49
.5
 49
-.25
  0
LTYPE
  2
HIDDEN
 70
64
  3
HIDDEN
 72
65
 73
2
 40
.375
 49
.25
 49
-.125
  0
LTYPE
  2
CENTER
 70
64
  3
CENTER
 72
65
 73
4
 40
2
 49
1.25
 49
-.25
 49
.25
 49
-.25
  0
LTYPE
  2
PHANTOM
 70
64
  3
PHANTOM
 72
65
 73
6
 40
2.5
 49
1.25
 49
-.25
 49
.25
 49
-.25
 49
.25
 49
-.25
  0
ENDTAB
  0
TABLE
  2
LAYER
 70
1
  0
LAYER
  2
0
 70
0
 62
3
  6
CONTINUOUS
 0
ENDTAB
  0
TABLE
  2
STYLE
 70
2
  0
STYLE
  2
MONOTXT
 70
0
 40
0
 41
1
 50
0
 71
0
 42
.2
  3
monotxt
  0
STYLE
  2
BIGFONT
 70
0
 40
0
 41
1
 50
0
 71
0
 42
.2
  3
txt
  4
bigfont
  0
ENDTAB
  0
ENDSEC
  0
SECTION
  2
ENTITIES
  0
LINE
  8
0
 62
7
 10
5.35714256E+01
 20
1.14414996E+01
 11
5.35714256E+01
 21
-3.70585012E+01
  0
LINE
  8
0
 62
7
 10
-3.64285760E+01
 20
1.14414996E+01
 11
-3.64285760E+01
 21
-3.70585012E+01
  0
LINE
  8
0
  6
CENTER
 62
2
 10
8.57142480E+00
 20
1.79414997E+01
 11
8.57142480E+00
 21
-1.55758503E+02
  0
LINE
  8
0
 62
7
 10
-3.49285759E+01
 20
1.29414997E+01
 11
5.20714255E+01
 21
1.29414997E+01
  0
LINE
  8
0
 62
7
 10
-2.99285759E+01
 20
-5.20585014E+01
 11
4.70714255E+01
 21
-5.20585014E+01
  0
LINE
  8
0
 62
7
 10
-3.64285760E+01
 20
1.14414996E+01
 11
-3.49285759E+01
 21
1.29414997E+01
  0
LINE
  8
0
 62
7
 10
5.20714255E+01
 20
1.29414997E+01
 11
5.35714256E+01
 21
1.14414996E+01
  0
LINE
  8
0
 62
7
 10
-3.64285760E+01
 20
-3.70585012E+01
 11
-2.20000043E+01
 21
-3.70585012E+01
  0
LINE
  8
0
 62
7
 10
3.91571396E+01
 20
-3.70585012E+01
 11
5.35714256E+01
 21
-3.70585012E+01
  0
LINE
  8
0
 62
7
 10
-3.09285759E+01
 20
-3.70585012E+01
 11
-3.09285759E+01
 21
-5.10585014E+01
  0
LINE
  8
0
 62
7
 10
4.80714255E+01
 20
-3.70585012E+01
 11
4.80714255E+01
 21
-5.10585014E+01
  0
LINE
  8
0
 62
7
 10
-3.09285759E+01
 20
-5.10585014E+01
 11
-2.99285759E+01
 21
-5.20585014E+01
  0
LINE
  8
0
 62
7
 10
4.80714255E+01
 20
-5.10585014E+01
 11
4.70714255E+01
 21
-5.20585014E+01
  0
LINE
  8
0
 62
7
 10
-3.09285759E+01
 20
-5.10585014E+01
 11
4.80714255E+01
 21
-5.10585014E+01
  0
LINE
  8
0
 62
7
 10
-3.64285760E+01
 20
1.14414996E+01
 11
-1.44000042E+01
 21
1.14414996E+01
  0
LINE
  8
0
 62
7
 10
-3.49285759E+01
 20
1.29414997E+01
 11
-3.49285759E+01
 21
-3.70585012E+01
  0
LINE
  8
0
 62
7
 10
-2.20000043E+01
 20
-3.20585011E+01
 11
-2.20000043E+01
 21
-3.70585012E+01
  0
LINE
  8
0
 62
7
 10
3.91571396E+01
 20
-3.20585011E+01
 11
3.91571396E+01
 21
-3.70585012E+01
  0
LINE
  8
0
 62
7
 10
-2.10000043E+01
 20
-3.10585011E+01
 11
3.81571396E+01
 21
-3.10585011E+01
  0
LINE
  8
0
 62
7
 10
-2.20000043E+01
 20
-3.20585011E+01
 11
-2.10000043E+01
 21
-3.10585011E+01
  0
LINE
  8
0
 62
7
 10
3.91571396E+01
 20
-3.20585011E+01
 11
3.81571396E+01
 21
-3.10585011E+01
  0
LINE
  8
0
 62
7
 10
-2.20000043E+01
 20
-3.20585011E+01
 11
3.91571396E+01
 21
-3.20585011E+01
  0
LINE
  8
0
 62
7
 10
-3.14285759E+01
 20
1.39414997E+01
 11
-3.14285759E+01
 21
1.29414997E+01
  0
LINE
  8
0
 62
7
 10
-3.14285759E+01
 20
1.39414997E+01
 11
-2.04285757E+01
 21
1.39414997E+01
  0
LINE
  8
0
 62
7
 10
-2.94285758E+01
 20
2.94149949E+00
 11
-2.94285758E+01
 21
-2.70585010E+01
  0
LINE
  8
0
 62
7
 10
-1.54285756E+01
 20
2.94149949E+00
 11
-1.54285756E+01
 21
-2.70585010E+01
  0
LINE
  8
0
 62
7
 10
-2.85428615E+01
 20
2.32721376E+00
 11
-2.85428615E+01
 21
-2.64442153E+01
  0
LINE
  8
0
 62
7
 10
-1.63000042E+01
 20
2.32721376E+00
 11
-1.63000042E+01
 21
-2.64442153E+01
  0
LINE
  8
0
 62
7
 10
-2.94285758E+01
 20
2.94149949E+00
 11
-1.54285756E+01
 21
2.94149949E+00
  0
LINE
  8
0
 62
7
 10
-2.94285758E+01
 20
-2.70585010E+01
 11
-1.54285756E+01
 21
-2.70585010E+01
  0
LINE
  8
0
 62
7
 10
-2.85428615E+01
 20
-2.64442153E+01
 11
-1.63000042E+01
 21
-2.64442153E+01
  0
LINE
  8
0
 62
7
 10
-2.85428615E+01
 20
2.32721376E+00
 11
-1.63000042E+01
 21
2.32721376E+00
  0
LINE
  8
0
 62
7
 10
-2.94285758E+01
 20
2.94149949E+00
 11
-2.85428615E+01
 21
2.32721376E+00
  0
LINE
  8
0
 62
7
 10
-1.63000042E+01
 20
2.32721376E+00
 11
-1.54285756E+01
 21
2.94149949E+00
  0
LINE
  8
0
 62
7
 10
-1.63000042E+01
 20
-2.64442153E+01
 11
-1.54285756E+01
 21
-2.70585010E+01
  0
LINE
  8
0
 62
7
 10
-2.85428615E+01
 20
-2.64442153E+01
 11
-2.94285758E+01
 21
-2.70585010E+01
  0
LINE
  8
0
 62
7
 10
3.25714252E+01
 20
2.94149949E+00
 11
3.25714252E+01
 21
-2.70585010E+01
  0
LINE
  8
0
 62
7
 10
3.34571395E+01
 20
2.32721376E+00
 11
3.34571395E+01
 21
-2.64442153E+01
  0
LINE
  8
0
 62
7
 10
4.65714254E+01
 20
2.94149949E+00
 11
3.25714252E+01
 21
2.94149949E+00
  0
LINE
  8
0
 62
7
 10
4.65714254E+01
 20
-2.70585010E+01
 11
3.25714252E+01
 21
-2.70585010E+01
  0
LINE
  8
0
 62
7
 10
4.56999969E+01
 20
-2.64442153E+01
 11
3.34571395E+01
 21
-2.64442153E+01
  0
LINE
  8
0
 62
7
 10
4.56999969E+01
 20
2.32721376E+00
 11
3.34571395E+01
 21
2.32721376E+00
  0
LINE
  8
0
 62
7
 10
3.34571395E+01
 20
2.32721376E+00
 11
3.25714252E+01
 21
2.94149949E+00
  0
LINE
  8
0
 62
7
 10
3.34571395E+01
 20
-2.64442153E+01
 11
3.25714252E+01
 21
-2.70585010E+01
  0
LINE
  8
0
 62
7
 10
5.20714255E+01
 20
1.29414997E+01
 11
5.20714255E+01
 21
-3.70585012E+01
  0
LINE
  8
0
 62
7
 10
4.56999969E+01
 20
-2.64442153E+01
 11
4.65714254E+01
 21
-2.70585010E+01
  0
LINE
  8
0
 62
7
 10
4.65714254E+01
 20
2.94149949E+00
 11
4.56999969E+01
 21
2.32721376E+00
  0
LINE
  8
0
 62
7
 10
4.56999969E+01
 20
2.32721376E+00
 11
4.56999969E+01
 21
-2.64442153E+01
  0
LINE
  8
0
 62
7
 10
4.65714254E+01
 20
2.94149949E+00
 11
4.65714254E+01
 21
-2.70585010E+01
  0
LINE
  8
0
  6
CENTER
 62
2
 10
-5.49285763E+01
 20
-1.20585008E+01
 11
7.20714259E+01
 21
-1.20585008E+01
  0
LINE
  8
0
 62
7
 10
-2.04285757E+01
 20
1.39414997E+01
 11
-2.04285757E+01
 21
1.29414997E+01
  0
LINE
  8
0
  6
PHANTOM
 62
6
 10
6.20714257E+01
 20
7.44149956E+00
 11
6.20714257E+01
 21
-2.90585011E+01
  0
LINE
  8
0
  6
PHANTOM
 62
6
 10
5.70714256E+01
 20
7.44149956E+00
 11
5.70714256E+01
 21
-2.90585011E+01
  0
LINE
  8
0
  6
PHANTOM
 62
6
 10
6.20714257E+01
 20
-4.20585013E+01
 11
5.70714256E+01
 21
-4.20585013E+01
  0
LINE
  8
0
  6
PHANTOM
 62
6
 10
6.20714257E+01
 20
-2.20585009E+01
 11
5.70714256E+01
 21
-2.20585009E+01
  0
LINE
  8
0
  6
PHANTOM
 62
6
 10
6.16428543E+01
 20
-2.20585009E+01
 11
6.16428543E+01
 21
-2.90585011E+01
  0
LINE
  8
0
  6
PHANTOM
 62
6
 10
5.75142828E+01
 20
-2.20585009E+01
 11
5.75142828E+01
 21
-2.90585011E+01
  0
LINE
  8
0
  6
PHANTOM
 62
6
 10
5.75142828E+01
 20
-2.20585009E+01
 11
5.70714256E+01
 21
-2.10585009E+01
  0
LINE
  8
0
  6
PHANTOM
 62
6
 10
6.16428543E+01
 20
-2.20585009E+01
 11
6.20714257E+01
 21
-2.10585009E+01
  0
LINE
  8
0
  6
PHANTOM
 62
6
 10
5.45714256E+01
 20
-3.45585012E+01
 11
6.45714258E+01
 21
-3.45585012E+01
  0
LINE
  8
0
  6
PHANTOM
 62
6
 10
5.45714256E+01
 20
-3.35585011E+01
 11
5.45714256E+01
 21
-3.45585012E+01
  0
LINE
  8
0
  6
PHANTOM
 62
6
 10
6.45714258E+01
 20
-3.35585011E+01
 11
6.45714258E+01
 21
-3.45585012E+01
  0
LINE
  8
0
  6
PHANTOM
 62
6
 10
5.49285684E+01
 20
-3.58585012E+01
 11
6.42285686E+01
 21
-3.58585012E+01
  0
LINE
  8
0
  6
PHANTOM
 62
6
 10
6.42285686E+01
 20
-3.45585012E+01
 11
6.42285686E+01
 21
-3.58585012E+01
  0
LINE
  8
0
  6
PHANTOM
 62
6
 10
5.49285684E+01
 20
-3.45585012E+01
 11
5.49285684E+01
 21
-3.58585012E+01
  0
LINE
  8
0
  6
PHANTOM
 62
6
 10
5.49571399E+01
 20
-4.02013584E+01
 11
5.49571399E+01
 21
-3.62156440E+01
  0
LINE
  8
0
  6
PHANTOM
 62
6
 10
5.55714256E+01
 20
-4.05585013E+01
 11
5.49571399E+01
 21
-4.02013584E+01
  0
LINE
  8
0
  6
PHANTOM
 62
6
 10
5.55714256E+01
 20
-4.05585013E+01
 11
6.35714257E+01
 21
-4.05585013E+01
  0
LINE
  8
0
  6
PHANTOM
 62
6
 10
5.72714256E+01
 20
-4.02013584E+01
 11
5.72714256E+01
 21
-3.62156440E+01
  0
LINE
  8
0
  6
PHANTOM
 62
6
 10
6.18857114E+01
 20
-4.02013584E+01
 11
6.18857114E+01
 21
-3.62156440E+01
  0
LINE
  8
0
  6
PHANTOM
 62
6
 10
6.41999972E+01
 20
-4.02013584E+01
 11
6.41999972E+01
 21
-3.62156440E+01
  0
LINE
  8
0
  6
PHANTOM
 62
6
 10
6.35714257E+01
 20
-4.05585013E+01
 11
6.41999972E+01
 21
-4.02013584E+01
  0
LINE
  8
0
  6
PHANTOM
 62
6
 10
6.35714257E+01
 20
-3.58585012E+01
 11
6.41999972E+01
 21
-3.62156440E+01
  0
LINE
  8
0
  6
PHANTOM
 62
6
 10
5.55714256E+01
 20
-3.58585012E+01
 11
5.49571399E+01
 21
-3.62156440E+01
  0
LINE
  8
0
  6
PHANTOM
 62
6
 10
5.75142828E+01
 20
-4.05585013E+01
 11
5.75142828E+01
 21
-4.20585013E+01
  0
LINE
  8
0
  6
PHANTOM
 62
6
 10
5.70714256E+01
 20
-4.05585013E+01
 11
5.70714256E+01
 21
-4.20585013E+01
  0
LINE
  8
0
  6
PHANTOM
 62
6
 10
6.16428543E+01
 20
-4.05585013E+01
 11
6.16428543E+01
 21
-4.20585013E+01
  0
LINE
  8
0
  6
PHANTOM
 62
6
 10
6.20714257E+01
 20
-4.05585013E+01
 11
6.20714257E+01
 21
-4.20585013E+01
  0
LINE
  8
0
  6
PHANTOM
 62
6
 10
5.35714256E+01
 20
-3.70585012E+01
 11
5.35714256E+01
 21
-8.40585020E+01
  0
LINE
  8
0
  6
PHANTOM
 62
6
 10
5.35714256E+01
 20
-2.90585011E+01
 11
6.55714258E+01
 21
-2.90585011E+01
  0
LINE
  8
0
  6
PHANTOM
 62
6
 10
5.35714256E+01
 20
-3.35585011E+01
 11
6.55714258E+01
 21
-3.35585011E+01
  0
LINE
  8
0
  6
PHANTOM
 62
6
 10
5.35714256E+01
 20
-8.40585020E+01
 11
6.55714258E+01
 21
-8.40585020E+01
  0
LINE
  8
0
  6
PHANTOM
 62
6
 10
6.55714258E+01
 20
-2.90585011E+01
 11
6.55714258E+01
 21
-8.40585020E+01
  0
LINE
  8
0
  6
CENTER
 62
6
 10
5.48285684E+01
 20
-7.40585018E+01
 11
6.43285686E+01
 21
-7.40585018E+01
  0
LINE
  8
0
  6
CENTER
 62
6
 10
5.95714257E+01
 20
1.19414996E+01
 11
5.95714257E+01
 21
-8.60585020E+01
  0
LINE
  8
0
  6
PHANTOM
 62
6
 10
6.23285686E+01
 20
-7.05585018E+01
 11
6.23285686E+01
 21
-7.75585019E+01
  0
LINE
  8
0
  6
PHANTOM
 62
6
 10
5.68285685E+01
 20
-7.05585018E+01
 11
5.68285685E+01
 21
-7.75585019E+01
  0
LINE
  8
0
  6
CENTER
 62
6
 10
5.48285684E+01
 20
-7.75585019E+01
 11
6.43285686E+01
 21
-7.75585019E+01
  0
LINE
  8
0
  6
CENTER
 62
6
 10
5.48285684E+01
 20
-7.05585018E+01
 11
6.43285686E+01
 21
-7.05585018E+01
  0
LINE
  8
0
  6
CENTER
 62
6
 10
5.48285684E+01
 20
-5.25585015E+01
 11
6.43285686E+01
 21
-5.25585015E+01
  0
LINE
  8
0
  6
PHANTOM
 62
6
 10
6.23285686E+01
 20
-5.25585015E+01
 11
6.23285686E+01
 21
-4.55585013E+01
  0
LINE
  8
0
  6
CENTER
 62
6
 10
5.48285684E+01
 20
-4.90585014E+01
 11
6.43285686E+01
 21
-4.90585014E+01
  0
LINE
  8
0
  6
CENTER
 62
6
 10
5.48285684E+01
 20
-4.55585013E+01
 11
6.43285686E+01
 21
-4.55585013E+01
  0
LINE
  8
0
  6
PHANTOM
 62
6
 10
5.68285685E+01
 20
-5.25585015E+01
 11
5.68285685E+01
 21
-4.55585013E+01
  0
LINE
  8
0
  6
PHANTOM
 62
6
 10
-4.49285761E+01
 20
7.44149956E+00
 11
-4.49285761E+01
 21
-2.90585011E+01
  0
LINE
  8
0
  6
PHANTOM
 62
6
 10
-3.99285760E+01
 20
7.44149956E+00
 11
-3.99285760E+01
 21
-2.90585011E+01
  0
LINE
  8
0
  6
PHANTOM
 62
6
 10
-4.49285761E+01
 20
-4.20585013E+01
 11
-3.99285760E+01
 21
-4.20585013E+01
  0
LINE
  8
0
  6
PHANTOM
 62
6
 10
-4.49285761E+01
 20
-2.20585009E+01
 11
-3.99285760E+01
 21
-2.20585009E+01
  0
LINE
  8
0
  6
PHANTOM
 62
6
 10
-4.44857190E+01
 20
-2.20585009E+01
 11
-4.44857190E+01
 21
-2.90585011E+01
  0
LINE
  8
0
  6
PHANTOM
 62
6
 10
-4.03571475E+01
 20
-2.20585009E+01
 11
-4.03571475E+01
 21
-2.90585011E+01
  0
LINE
  8
0
  6
PHANTOM
 62
6
 10
-4.03571475E+01
 20
-2.20585009E+01
 11
-3.99285760E+01
 21
-2.10585009E+01
  0
LINE
  8
0
  6
PHANTOM
 62
6
 10
-4.44857190E+01
 20
-2.20585009E+01
 11
-4.49285761E+01
 21
-2.10585009E+01
  0
LINE
  8
0
  6
PHANTOM
 62
6
 10
-3.74285760E+01
 20
-3.45585012E+01
 11
-4.74285762E+01
 21
-3.45585012E+01
  0
LINE
  8
0
  6
PHANTOM
 62
6
 10
-3.74285760E+01
 20
-3.35585011E+01
 11
-3.74285760E+01
 21
-3.45585012E+01
  0
LINE
  8
0
  6
PHANTOM
 62
6
 10
-4.74285762E+01
 20
-3.35585011E+01
 11
-4.74285762E+01
 21
-3.45585012E+01
  0
LINE
  8
0
  6
PHANTOM
 62
6
 10
-3.77714331E+01
 20
-3.58585012E+01
 11
-4.70714333E+01
 21
-3.58585012E+01
  0
LINE
  8
0
  6
PHANTOM
 62
6
 10
-4.70714333E+01
 20
-3.45585012E+01
 11
-4.70714333E+01
 21
-3.58585012E+01
  0
LINE
  8
0
  6
PHANTOM
 62
6
 10
-3.77714331E+01
 20
-3.45585012E+01
 11
-3.77714331E+01
 21
-3.58585012E+01
  0
LINE
  8
0
  6
PHANTOM
 62
6
 10
-3.78000046E+01
 20
-4.02013584E+01
 11
-3.78000046E+01
 21
-3.62156440E+01
  0
LINE
  8
0
  6
PHANTOM
 62
6
 10
-3.84285760E+01
 20
-4.05585013E+01
 11
-3.78000046E+01
 21
-4.02013584E+01
  0
LINE
  8
0
  6
PHANTOM
 62
6
 10
-3.84285760E+01
 20
-4.05585013E+01
 11
-4.64285761E+01
 21
-4.05585013E+01
  0
LINE
  8
0
  6
PHANTOM
 62
6
 10
-4.01142903E+01
 20
-4.02013584E+01
 11
-4.01142903E+01
 21
-3.62156440E+01
  0
LINE
  8
0
  6
PHANTOM
 62
6
 10
-4.47285761E+01
 20
-4.02013584E+01
 11
-4.47285761E+01
 21
-3.62156440E+01
  0
LINE
  8
0
  6
PHANTOM
 62
6
 10
-4.70428619E+01
 20
-4.02013584E+01
 11
-4.70428619E+01
 21
-3.62156440E+01
  0
LINE
  8
0
  6
PHANTOM
 62
6
 10
-4.64285761E+01
 20
-4.05585013E+01
 11
-4.70428619E+01
 21
-4.02013584E+01
  0
LINE
  8
0
  6
PHANTOM
 62
6
 10
-4.64285761E+01
 20
-3.58585012E+01
 11
-4.70428619E+01
 21
-3.62156440E+01
  0
LINE
  8
0
  6
PHANTOM
 62
6
 10
-3.84285760E+01
 20
-3.58585012E+01
 11
-3.78000046E+01
 21
-3.62156440E+01
  0
LINE
  8
0
  6
PHANTOM
 62
6
 10
-4.03571475E+01
 20
-4.05585013E+01
 11
-4.03571475E+01
 21
-4.20585013E+01
  0
LINE
  8
0
  6
PHANTOM
 62
6
 10
-3.99285760E+01
 20
-4.05585013E+01
 11
-3.99285760E+01
 21
-4.20585013E+01
  0
LINE
  8
0
  6
PHANTOM
 62
6
 10
-4.44857190E+01
 20
-4.05585013E+01
 11
-4.44857190E+01
 21
-4.20585013E+01
  0
LINE
  8
0
  6
PHANTOM
 62
6
 10
-4.49285761E+01
 20
-4.05585013E+01
 11
-4.49285761E+01
 21
-4.20585013E+01
  0
LINE
  8
0
  6
PHANTOM
 62
6
 10
-3.64285760E+01
 20
-2.90585011E+01
 11
-4.84285762E+01
 21
-2.90585011E+01
  0
LINE
  8
0
  6
PHANTOM
 62
6
 10
-3.64285760E+01
 20
-3.70585012E+01
 11
-3.64285760E+01
 21
-8.40585020E+01
  0
LINE
  8
0
  6
PHANTOM
 62
6
 10
-3.64285760E+01
 20
-8.40585020E+01
 11
-4.84285762E+01
 21
-8.40585020E+01
  0
LINE
  8
0
  6
PHANTOM
 62
6
 10
-4.84285762E+01
 20
-2.90585011E+01
 11
-4.84285762E+01
 21
-8.40585020E+01
  0
LINE
  8
0
  6
CENTER
 62
6
 10
-3.76714331E+01
 20
-7.40585018E+01
 11
-4.71714333E+01
 21
-7.40585018E+01
  0
LINE
  8
0
  6
CENTER
 62
6
 10
-4.24285761E+01
 20
1.19414996E+01
 11
-4.24285761E+01
 21
-8.60585020E+01
  0
LINE
  8
0
  6
PHANTOM
 62
6
 10
-4.51714333E+01
 20
-7.05585018E+01
 11
-4.51714333E+01
 21
-7.75585019E+01
  0
LINE
  8
0
  6
PHANTOM
 62
6
 10
-3.96714332E+01
 20
-7.05585018E+01
 11
-3.96714332E+01
 21
-7.75585019E+01
  0
LINE
  8
0
  6
CENTER
 62
6
 10
-3.76714331E+01
 20
-7.75585019E+01
 11
-4.71714333E+01
 21
-7.75585019E+01
  0
LINE
  8
0
  6
CENTER
 62
6
 10
-3.76714331E+01
 20
-7.05585018E+01
 11
-4.71714333E+01
 21
-7.05585018E+01
  0
LINE
  8
0
  6
CENTER
 62
6
 10
-3.76714331E+01
 20
-5.25585015E+01
 11
-4.71714333E+01
 21
-5.25585015E+01
  0
LINE
  8
0
  6
PHANTOM
 62
6
 10
-4.51714333E+01
 20
-5.25585015E+01
 11
-4.51714333E+01
 21
-4.55585013E+01
  0
LINE
  8
0
  6
CENTER
 62
6
 10
-3.76714331E+01
 20
-4.90585014E+01
 11
-4.71714333E+01
 21
-4.90585014E+01
  0
LINE
  8
0
  6
CENTER
 62
6
 10
-3.76714331E+01
 20
-4.55585013E+01
 11
-4.71714333E+01
 21
-4.55585013E+01
  0
LINE
  8
0
  6
PHANTOM
 62
6
 10
-3.96714332E+01
 20
-5.25585015E+01
 11
-3.96714332E+01
 21
-4.55585013E+01
  0
LINE
  8
0
  6
PHANTOM
 62
6
 10
-3.64285760E+01
 20
-3.35585011E+01
 11
-4.84285762E+01
 21
-3.35585011E+01
  0
LINE
  8
0
 62
7
 10
-1.44000042E+01
 20
1.14414996E+01
 11
-1.29000041E+01
 21
1.29414997E+01
  0
LINE
  8
0
 62
7
 10
2.05713898E+00
 20
1.29414997E+01
 11
3.55713900E+00
 21
1.14414996E+01
  0
LINE
  8
0
 62
7
 10
3.55713900E+00
 20
1.14414996E+01
 11
5.35714256E+01
 21
1.14414996E+01
  0
LINE
  8
0
 62
7
 10
2.05713898E+00
 20
1.29414997E+01
 11
3.54285329E+00
 21
-2.96013582E+01
  0
LINE
  8
0
 62
7
 10
-1.43857184E+01
 20
-2.96013582E+01
 11
-1.29000041E+01
 21
1.29414997E+01
  0
LINE
  8
0
 62
7
 10
-3.77143255E+00
 20
2.09414998E+01
 11
-3.77143255E+00
 21
1.52843568E+01
  0
LINE
  8
0
 62
7
 10
-3.92857541E+00
 20
2.04414998E+01
 11
-3.92857541E+00
 21
1.49414997E+01
  0
LINE
  8
0
 62
7
 10
1.89999612E+00
 20
1.52843568E+01
 11
1.19999610E+00
 21
1.52843568E+01
  0
LINE
  8
0
 62
7
 10
-3.92857541E+00
 20
2.04414998E+01
 11
-3.77143255E+00
 21
2.09414998E+01
  0
LINE
  8
0
 62
7
 10
-3.92857541E+00
 20
1.49414997E+01
 11
-3.77143255E+00
 21
1.52843568E+01
  0
LINE
  8
0
 62
7
 10
-1.41428966E+00
 20
1.52843568E+01
 11
-9.28575361E-01
 21
1.49414997E+01
  0
LINE
  8
0
 62
7
 10
-9.28575361E-01
 20
2.04414998E+01
 11
-1.41428966E+00
 21
2.09414998E+01
  0
LINE
  8
0
 62
7
 10
1.19999610E+00
 20
2.04414998E+01
 11
9.14281813E-01
 21
2.09414998E+01
  0
LINE
  8
0
 62
7
 10
2.44285327E+00
 20
2.04414998E+01
 11
2.57142470E+00
 21
2.04414998E+01
  0
LINE
  8
0
 62
7
 10
2.44285327E+00
 20
2.04414998E+01
 11
1.89999612E+00
 21
2.09414998E+01
  0
LINE
  8
0
 62
7
 10
1.19999610E+00
 20
1.49414997E+01
 11
2.44285327E+00
 21
1.49414997E+01
  0
LINE
  8
0
 62
7
 10
-3.92857541E+00
 20
2.04414998E+01
 11
-6.92857546E+00
 21
2.04414998E+01
  0
LINE
  8
0
 62
7
 10
2.44285327E+00
 20
1.49414997E+01
 11
1.89999612E+00
 21
1.52843568E+01
  0
LINE
  8
0
 62
7
 10
-1.41428966E+00
 20
1.52843568E+01
 11
-3.77143255E+00
 21
1.52843568E+01
  0
LINE
  8
0
 62
7
 10
2.07142469E+00
 20
2.09414998E+01
 11
-1.29285756E+01
 21
2.09414998E+01
  0
LINE
  8
0
 62
7
 10
2.57142470E+00
 20
2.04414998E+01
 11
2.57142470E+00
 21
1.29414997E+01
  0
LINE
  8
0
 62
7
 10
-1.34285756E+01
 20
2.04414998E+01
 11
-1.34285756E+01
 21
1.29414997E+01
  0
LINE
  8
0
 62
7
 10
2.07142469E+00
 20
2.09414998E+01
 11
2.57142470E+00
 21
2.04414998E+01
  0
LINE
  8
0
 62
7
 10
-1.34285756E+01
 20
2.04414998E+01
 11
-1.29285756E+01
 21
2.09414998E+01
  0
LINE
  8
0
  6
CENTER
 62
2
 10
-5.42857544E+00
 20
2.39414998E+01
 11
-5.42857544E+00
 21
-3.60585012E+01
  0
LINE
  8
0
 62
7
 10
-6.92857546E+00
 20
1.49414997E+01
 11
-9.91428980E+00
 21
1.49414997E+01
  0
LINE
  8
0
 62
7
 10
-9.91428980E+00
 20
2.04414998E+01
 11
-1.20428613E+01
 21
2.04414998E+01
  0
LINE
  8
0
 62
7
 10
-1.32857184E+01
 20
2.04414998E+01
 11
-1.32857184E+01
 21
1.49414997E+01
  0
LINE
  8
0
 62
7
 10
-1.27428613E+01
 20
2.09414998E+01
 11
-1.27428613E+01
 21
1.52843568E+01
  0
LINE
  8
0
 62
7
 10
-1.20428613E+01
 20
2.04414998E+01
 11
-1.20428613E+01
 21
1.49414997E+01
  0
LINE
  8
0
 62
7
 10
-9.91428980E+00
 20
2.04414998E+01
 11
-9.91428980E+00
 21
1.49414997E+01
  0
LINE
  8
0
 62
7
 10
-9.42857551E+00
 20
2.09414998E+01
 11
-9.42857551E+00
 21
1.52843568E+01
  0
LINE
  8
0
 62
7
 10
-7.07143261E+00
 20
2.09414998E+01
 11
-7.07143261E+00
 21
1.52843568E+01
  0
LINE
  8
0
 62
7
 10
-6.92857546E+00
 20
2.04414998E+01
 11
-6.92857546E+00
 21
1.49414997E+01
  0
LINE
  8
0
 62
7
 10
-1.27428613E+01
 20
1.52843568E+01
 11
-1.20428613E+01
 21
1.52843568E+01
  0
LINE
  8
0
 62
7
 10
-6.92857546E+00
 20
2.04414998E+01
 11
-7.07143261E+00
 21
2.09414998E+01
  0
LINE
  8
0
 62
7
 10
-6.92857546E+00
 20
1.49414997E+01
 11
-7.07143261E+00
 21
1.52843568E+01
  0
LINE
  8
0
 62
7
 10
-9.42857551E+00
 20
1.52843568E+01
 11
-9.91428980E+00
 21
1.49414997E+01
  0
LINE
  8
0
 62
7
 10
-9.91428980E+00
 20
2.04414998E+01
 11
-9.42857551E+00
 21
2.09414998E+01
  0
LINE
  8
0
 62
7
 10
-1.20428613E+01
 20
2.04414998E+01
 11
-1.17571470E+01
 21
2.09414998E+01
  0
LINE
  8
0
 62
7
 10
-1.32857184E+01
 20
1.49414997E+01
 11
-1.27428613E+01
 21
1.52843568E+01
  0
LINE
  8
0
 62
7
 10
-1.32857184E+01
 20
2.04414998E+01
 11
-1.27428613E+01
 21
2.09414998E+01
  0
LINE
  8
0
 62
7
 10
-1.32857184E+01
 20
2.04414998E+01
 11
-1.34285756E+01
 21
2.04414998E+01
  0
LINE
  8
0
 62
7
 10
-9.42857551E+00
 20
1.52843568E+01
 11
-7.07143261E+00
 21
1.52843568E+01
  0
LINE
  8
0
 62
7
 10
-1.20428613E+01
 20
1.49414997E+01
 11
-1.32857184E+01
 21
1.49414997E+01
  0
LINE
  8
0
 62
7
 10
-3.92857541E+00
 20
1.49414997E+01
 11
-9.28575361E-01
 21
1.49414997E+01
  0
LINE
  8
0
 62
7
 10
-9.28575361E-01
 20
2.04414998E+01
 11
1.19999610E+00
 21
2.04414998E+01
  0
LINE
  8
0
 62
7
 10
2.44285327E+00
 20
2.04414998E+01
 11
2.44285327E+00
 21
1.49414997E+01
  0
LINE
  8
0
 62
7
 10
1.89999612E+00
 20
2.09414998E+01
 11
1.89999612E+00
 21
1.52843568E+01
  0
LINE
  8
0
 62
7
 10
1.19999610E+00
 20
2.04414998E+01
 11
1.19999610E+00
 21
1.49414997E+01
  0
LINE
  8
0
 62
7
 10
-9.28575361E-01
 20
2.04414998E+01
 11
-9.28575361E-01
 21
1.49414997E+01
  0
LINE
  8
0
 62
7
 10
-1.41428966E+00
 20
2.09414998E+01
 11
-1.41428966E+00
 21
1.52843568E+01
  0
LINE
  8
0
  6
CENTER
 62
2
 10
1.40714249E+01
 20
3.93843573E+01
 11
1.40714249E+01
 21
7.94149957E+00
  0
LINE
  8
0
 62
7
 10
7.14246558E-02
 20
2.13414998E+01
 11
7.14246558E-02
 21
2.09414998E+01
  0
LINE
  8
0
 62
7
 10
2.80714251E+01
 20
2.13414998E+01
 11
2.80714251E+01
 21
1.43414997E+01
  0
LINE
  8
0
 62
7
 10
1.07142467E+00
 20
2.23414998E+01
 11
7.14246558E-02
 21
2.13414998E+01
  0
LINE
  8
0
 62
7
 10
2.80714251E+01
 20
2.13414998E+01
 11
2.70714251E+01
 21
2.23414998E+01
  0
LINE
  8
0
 62
7
 10
2.70714251E+01
 20
2.23414998E+01
 11
1.07142467E+00
 21
2.23414998E+01
  0
LINE
  8
0
 62
7
 10
6.87142477E+00
 20
2.32414998E+01
 11
6.87142477E+00
 21
2.23414998E+01
  0
LINE
  8
0
 62
7
 10
2.12714250E+01
 20
2.32414998E+01
 11
2.12714250E+01
 21
2.23414998E+01
  0
LINE
  8
0
 62
7
 10
7.07142477E+00
 20
2.32414998E+01
 11
7.12856763E+00
 21
2.94843571E+01
  0
LINE
  8
0
 62
7
 10
2.10714250E+01
 20
2.32414998E+01
 11
2.10285679E+01
 21
2.94843571E+01
  0
LINE
  8
0
 62
7
 10
2.12714250E+01
 20
2.32414998E+01
 11
6.87142477E+00
 21
2.32414998E+01
  0
LINE
  8
0
 62
7
 10
1.25714249E+01
 20
1.63414997E+01
 11
8.41428194E+00
 21
1.63414997E+01
  0
LINE
  8
0
 62
7
 10
1.24428534E+01
 20
1.66272140E+01
 11
8.79999623E+00
 21
1.66272140E+01
  0
LINE
  8
0
 62
7
 10
1.57138943E-01
 20
2.13414998E+01
 11
1.57138943E-01
 21
2.09414998E+01
  0
LINE
  8
0
 62
7
 10
6.71424666E-01
 20
2.18414998E+01
 11
6.71424666E-01
 21
2.09414998E+01
  0
LINE
  8
0
 62
7
 10
1.27142468E+00
 20
2.13414998E+01
 11
1.27142468E+00
 21
2.09414998E+01
  0
LINE
  8
0
 62
7
 10
2.77142470E+00
 20
2.13414998E+01
 11
2.77142470E+00
 21
1.63414997E+01
  0
LINE
  8
0
 62
7
 10
3.28571042E+00
 20
2.18414998E+01
 11
3.28571042E+00
 21
1.66272140E+01
  0
LINE
  8
0
 62
7
 10
5.81428190E+00
 20
2.13414998E+01
 11
5.81428190E+00
 21
1.63414997E+01
  0
LINE
  8
0
 62
7
 10
8.41428194E+00
 20
2.13414998E+01
 11
8.41428194E+00
 21
1.63414997E+01
  0
LINE
  8
0
 62
7
 10
8.79999623E+00
 20
2.18414998E+01
 11
8.79999623E+00
 21
1.66272140E+01
  0
LINE
  8
0
 62
7
 10
1.24428534E+01
 20
2.18414998E+01
 11
1.24428534E+01
 21
1.66272140E+01
  0
LINE
  8
0
 62
7
 10
1.25714249E+01
 20
2.13414998E+01
 11
1.25714249E+01
 21
1.63414997E+01
  0
LINE
  8
0
 62
7
 10
1.55714249E+01
 20
2.13414998E+01
 11
1.25714249E+01
 21
2.13414998E+01
  0
LINE
  8
0
 62
7
 10
1.24428534E+01
 20
2.18414998E+01
 11
8.79999623E+00
 21
2.18414998E+01
  0
LINE
  8
0
 62
7
 10
8.41428194E+00
 20
2.13414998E+01
 11
5.81428190E+00
 21
2.13414998E+01
  0
LINE
  8
0
 62
7
 10
2.77142470E+00
 20
2.13414998E+01
 11
1.27142468E+00
 21
2.13414998E+01
  0
LINE
  8
0
 62
7
 10
5.81428190E+00
 20
1.66272140E+01
 11
3.28571042E+00
 21
1.66272140E+01
  0
LINE
  8
0
 62
7
 10
5.95713904E+00
 20
2.18414998E+01
 11
3.28571042E+00
 21
2.18414998E+01
  0
LINE
  8
0
 62
7
 10
1.25714249E+01
 20
2.13414998E+01
 11
1.24428534E+01
 21
2.18414998E+01
  0
LINE
  8
0
 62
7
 10
1.24428534E+01
 20
1.66272140E+01
 11
1.25714249E+01
 21
1.63414997E+01
  0
LINE
  8
0
 62
7
 10
8.41428194E+00
 20
2.13414998E+01
 11
8.79999623E+00
 21
2.18414998E+01
  0
LINE
  8
0
 62
7
 10
8.79999623E+00
 20
1.66272140E+01
 11
8.41428194E+00
 21
1.63414997E+01
  0
LINE
  8
0
 62
7
 10
5.81428190E+00
 20
2.13414998E+01
 11
5.95713904E+00
 21
2.18414998E+01
  0
LINE
  8
0
 62
7
 10
3.28571042E+00
 20
1.66272140E+01
 11
2.77142470E+00
 21
1.63414997E+01
  0
LINE
  8
0
 62
7
 10
1.27142468E+00
 20
2.13414998E+01
 11
1.65713897E+00
 21
2.18414998E+01
  0
LINE
  8
0
 62
7
 10
2.77142470E+00
 20
2.13414998E+01
 11
3.29999614E+00
 21
2.18414998E+01
  0
LINE
  8
0
 62
7
 10
1.65713897E+00
 20
2.18414998E+01
 11
6.71424666E-01
 21
2.18414998E+01
  0
LINE
  8
0
 62
7
 10
5.81428190E+00
 20
1.63414997E+01
 11
2.77142470E+00
 21
1.63414997E+01
  0
LINE
  8
0
 62
7
 10
1.57138943E-01
 20
2.13414998E+01
 11
7.14246558E-02
 21
2.13414998E+01
  0
LINE
  8
0
 62
7
 10
1.57138943E-01
 20
2.13414998E+01
 11
6.71424666E-01
 21
2.18414998E+01
  0
LINE
  8
0
 62
7
 10
1.55714249E+01
 20
1.63414997E+01
 11
1.97428536E+01
 21
1.63414997E+01
  0
LINE
  8
0
 62
7
 10
1.57142821E+01
 20
1.66272140E+01
 11
1.93571393E+01
 21
1.66272140E+01
  0
LINE
  8
0
 62
7
 10
2.79999966E+01
 20
2.13414998E+01
 11
2.79999966E+01
 21
1.63414997E+01
  0
LINE
  8
0
 62
7
 10
2.74714251E+01
 20
2.18414998E+01
 11
2.74714251E+01
 21
1.66272140E+01
  0
LINE
  8
0
 62
7
 10
2.68857108E+01
 20
2.13414998E+01
 11
2.68857108E+01
 21
1.63414997E+01
  0
LINE
  8
0
 62
7
 10
2.53857108E+01
 20
2.13414998E+01
 11
2.53857108E+01
 21
1.63414997E+01
  0
LINE
  8
0
 62
7
 10
2.48571394E+01
 20
2.18414998E+01
 11
2.48571394E+01
 21
1.66272140E+01
  0
LINE
  8
0
 62
7
 10
2.23428536E+01
 20
2.13414998E+01
 11
2.23428536E+01
 21
1.63414997E+01
  0
LINE
  8
0
 62
7
 10
1.97428536E+01
 20
2.13414998E+01
 11
1.97428536E+01
 21
1.63414997E+01
  0
LINE
  8
0
 62
7
 10
1.93571393E+01
 20
2.18414998E+01
 11
1.93571393E+01
 21
1.66272140E+01
  0
LINE
  8
0
 62
7
 10
1.57142821E+01
 20
2.18414998E+01
 11
1.57142821E+01
 21
1.66272140E+01
  0
LINE
  8
0
 62
7
 10
1.55714249E+01
 20
2.13414998E+01
 11
1.55714249E+01
 21
1.63414997E+01
  0
LINE
  8
0
 62
7
 10
1.57142821E+01
 20
2.18414998E+01
 11
1.93571393E+01
 21
2.18414998E+01
  0
LINE
  8
0
 62
7
 10
1.97428536E+01
 20
2.13414998E+01
 11
2.23428536E+01
 21
2.13414998E+01
  0
LINE
  8
0
 62
7
 10
2.53857108E+01
 20
2.13414998E+01
 11
2.68857108E+01
 21
2.13414998E+01
  0
LINE
  8
0
 62
7
 10
2.21999965E+01
 20
2.18414998E+01
 11
2.48571394E+01
 21
2.18414998E+01
  0
LINE
  8
0
 62
7
 10
1.55714249E+01
 20
2.13414998E+01
 11
1.57142821E+01
 21
2.18414998E+01
  0
LINE
  8
0
 62
7
 10
1.57142821E+01
 20
1.66272140E+01
 11
1.55714249E+01
 21
1.63414997E+01
  0
LINE
  8
0
 62
7
 10
1.97428536E+01
 20
2.13414998E+01
 11
1.93571393E+01
 21
2.18414998E+01
  0
LINE
  8
0
 62
7
 10
2.23428536E+01
 20
2.13414998E+01
 11
2.21999965E+01
 21
2.18414998E+01
  0
LINE
  8
0
 62
7
 10
2.68857108E+01
 20
2.13414998E+01
 11
2.64999965E+01
 21
2.18414998E+01
  0
LINE
  8
0
 62
7
 10
2.53857108E+01
 20
2.13414998E+01
 11
2.48571394E+01
 21
2.18414998E+01
  0
LINE
  8
0
 62
7
 10
2.64999965E+01
 20
2.18414998E+01
 11
2.74714251E+01
 21
2.18414998E+01
  0
LINE
  8
0
 62
7
 10
2.79999966E+01
 20
2.13414998E+01
 11
2.80714251E+01
 21
2.13414998E+01
  0
LINE
  8
0
 62
7
 10
2.79999966E+01
 20
2.13414998E+01
 11
2.74714251E+01
 21
2.18414998E+01
  0
LINE
  8
0
 62
7
 10
1.93571393E+01
 20
1.66272140E+01
 11
1.97428536E+01
 21
1.63414997E+01
  0
LINE
  8
0
 62
7
 10
2.23428536E+01
 20
1.63414997E+01
 11
2.53857108E+01
 21
1.63414997E+01
  0
LINE
  8
0
 62
7
 10
2.23428536E+01
 20
1.66272140E+01
 11
2.48571394E+01
 21
1.66272140E+01
  0
LINE
  8
0
 62
7
 10
2.48571394E+01
 20
1.66272140E+01
 11
2.53857108E+01
 21
1.63414997E+01
  0
LINE
  8
0
 62
7
 10
2.68857108E+01
 20
1.63414997E+01
 11
2.79999966E+01
 21
1.63414997E+01
  0
LINE
  8
0
 62
7
 10
2.68857108E+01
 20
1.66272140E+01
 11
2.74714251E+01
 21
1.66272140E+01
  0
LINE
  8
0
 62
7
 10
2.74714251E+01
 20
1.66272140E+01
 11
2.79999966E+01
 21
1.63414997E+01
  0
LINE
  8
0
 62
7
 10
2.80714251E+01
 20
1.43414997E+01
 11
2.57142470E+00
 21
1.43414997E+01
  0
LINE
  8
0
 62
7
 10
2.75714251E+01
 20
1.43414997E+01
 11
2.75714251E+01
 21
1.29414997E+01
  0
ARC
  8
0
  6
PHANTOM
 62
6
 10
5.61268925E+01
 20
-3.85123926E+01
 40
2.04023559E+00
 50
2.43876715E+02
 51
3.04123657E+02
  0
ARC
  8
0
  6
PHANTOM
 62
6
 10
5.95785685E+01
 20
-3.29157585E+01
 40
7.64217729E+00
 50
2.52428482E+02
 51
2.87571518E+02
  0
ARC
  8
0
  6
PHANTOM
 62
6
 10
6.30301699E+01
 20
-3.85134594E+01
 40
2.03931069E+00
 50
2.35861264E+02
 51
2.96138364E+02
  0
ARC
  8
0
  6
PHANTOM
 62
6
 10
6.30429501E+01
 20
-3.79026039E+01
 40
2.04573577E+00
 50
6.43476524E+01
 51
1.24449759E+02
  0
ARC
  8
0
  6
PHANTOM
 62
6
 10
5.95785685E+01
 20
-4.35012448E+01
 40
7.64217812E+00
 50
7.24284841E+01
 51
1.07571516E+02
  0
ARC
  8
0
  6
PHANTOM
 62
6
 10
5.61141033E+01
 20
-3.79036917E+01
 40
2.04668020E+00
 50
5.55655361E+01
 51
1.15637053E+02
  0
ARC
  8
0
  6
PHANTOM
 62
6
 10
5.95714257E+01
 20
7.44149956E+00
 40
2.50000004E+00
 50
0.00000000E+00
 51
1.80000000E+02
  0
ARC
  8
0
  6
PHANTOM
 62
6
 10
5.95785685E+01
 20
-7.05585018E+01
 40
2.75000005E+00
 50
0.00000000E+00
 51
1.80000000E+02
  0
ARC
  8
0
  6
PHANTOM
 62
6
 10
5.95785685E+01
 20
-7.75585019E+01
 40
2.75000005E+00
 50
1.80000000E+02
 51
0.00000000E+00
  0
ARC
  8
0
  6
PHANTOM
 62
6
 10
5.95785685E+01
 20
-5.25585015E+01
 40
2.75000005E+00
 50
1.80000000E+02
 51
0.00000000E+00
  0
ARC
  8
0
  6
PHANTOM
 62
6
 10
5.95785685E+01
 20
-4.55585013E+01
 40
2.75000005E+00
 50
0.00000000E+00
 51
1.80000000E+02
  0
ARC
  8
0
  6
PHANTOM
 62
6
 10
-4.24214332E+01
 20
-5.25585015E+01
 40
2.75000005E+00
 50
1.80000000E+02
 51
0.00000000E+00
  0
ARC
  8
0
  6
PHANTOM
 62
6
 10
-4.24214332E+01
 20
-4.55585013E+01
 40
2.75000005E+00
 50
0.00000000E+00
 51
1.80000000E+02
  0
ARC
  8
0
  6
PHANTOM
 62
6
 10
-3.89698318E+01
 20
-3.85134588E+01
 40
2.03931123E+00
 50
2.35861273E+02
 51
2.96138355E+02
  0
ARC
  8
0
  6
PHANTOM
 62
6
 10
-4.24214332E+01
 20
-3.29157585E+01
 40
7.64217728E+00
 50
2.52428482E+02
 51
2.87571518E+02
  0
ARC
  8
0
  6
PHANTOM
 62
6
 10
-4.58731093E+01
 20
-3.85123916E+01
 40
2.04023647E+00
 50
2.43876729E+02
 51
3.04123643E+02
  0
ARC
  8
0
  6
PHANTOM
 62
6
 10
-4.58858985E+01
 20
-3.79036927E+01
 40
2.04668110E+00
 50
5.55655507E+01
 51
1.15637039E+02
  0
ARC
  8
0
  6
PHANTOM
 62
6
 10
-4.24214332E+01
 20
-4.35012448E+01
 40
7.64217812E+00
 50
7.24284841E+01
 51
1.07571516E+02
  0
ARC
  8
0
  6
PHANTOM
 62
6
 10
-3.89570516E+01
 20
-3.79026045E+01
 40
2.04573633E+00
 50
6.43476610E+01
 51
1.24449749E+02
  0
ARC
  8
0
  6
PHANTOM
 62
6
 10
-4.24285761E+01
 20
7.44149956E+00
 40
2.50000004E+00
 50
0.00000000E+00
 51
1.80000000E+02
  0
ARC
  8
0
  6
PHANTOM
 62
6
 10
-4.24214332E+01
 20
-7.05585018E+01
 40
2.75000005E+00
 50
0.00000000E+00
 51
1.80000000E+02
  0
ARC
  8
0
  6
PHANTOM
 62
6
 10
-4.24214332E+01
 20
-7.75585019E+01
 40
2.75000005E+00
 50
1.80000000E+02
 51
0.00000000E+00
  0
ARC
  8
0
 62
7
 10
-1.58908518E+01
 20
-2.95525865E+01
 40
1.50592338E+00
 50
2.70195310E+02
 51
3.58144059E+02
  0
ARC
  8
0
 62
7
 10
5.04106690E+00
 20
-2.95597098E+01
 40
1.49879239E+00
 50
1.81592340E+02
 51
2.70068291E+02
  0
ARC
  8
0
 62
7
 10
1.40785678E+01
 20
2.94414825E+01
 40
6.95013236E+00
 50
3.53453626E-01
 51
1.79646546E+02
  0
LINE
  8
0
 62
7
 10
-9.84286123E+00
 20
-1.51258503E+02
 11
2.69999965E+01
 21
-1.51258503E+02
  0
LINE
  8
0
 62
7
 10
-1.13857184E+01
 20
-1.33758503E+02
 11
-1.82857185E+01
 21
-1.33758503E+02
  0
LINE
  8
0
 62
7
 10
-1.13857184E+01
 20
-9.77585022E+01
 11
-1.82857185E+01
 21
-9.77585022E+01
  0
LINE
  8
0
 62
7
 10
-1.13857184E+01
 20
-9.17585021E+01
 11
-1.82857185E+01
 21
-9.17585021E+01
  0
LINE
  8
0
 62
7
 10
-1.82857185E+01
 20
-5.77585015E+01
 11
-1.13857184E+01
 21
-5.77585015E+01
  0
LINE
  8
0
 62
7
 10
4.19999968E+01
 20
-1.36387074E+02
 11
4.27285682E+01
 21
-5.20585014E+01
  0
LINE
  8
0
 62
7
 10
-2.48428615E+01
 20
-1.36387074E+02
 11
-2.53142901E+01
 21
-8.19585020E+01
  0
LINE
  8
0
 62
7
 10
-1.64571471E+01
 20
-5.82585016E+01
 11
-1.13857184E+01
 21
-5.82585016E+01
  0
LINE
  8
0
 62
7
 10
-1.13857184E+01
 20
-9.82585022E+01
 11
-1.64571471E+01
 21
-9.82585022E+01
  0
LINE
  8
0
 62
7
 10
-1.13857184E+01
 20
-9.12585021E+01
 11
-1.64571471E+01
 21
-9.12585021E+01
  0
LINE
  8
0
 62
7
 10
-1.13857184E+01
 20
-1.33258503E+02
 11
-1.64571471E+01
 21
-1.33258503E+02
  0
LINE
  8
0
 62
7
 10
-1.92857185E+01
 20
-9.87585022E+01
 11
-1.92857185E+01
 21
-1.32758503E+02
  0
LINE
  8
0
 62
7
 10
-1.74571471E+01
 20
-9.92585023E+01
 11
-1.74571471E+01
 21
-1.32258503E+02
  0
LINE
  8
0
 62
7
 10
-1.03857184E+01
 20
-9.87585022E+01
 11
-1.03857184E+01
 21
-1.32758503E+02
  0
LINE
  8
0
 62
7
 10
-1.10000041E+01
 20
-1.34258503E+02
 11
-1.85428614E+01
 21
-1.34258503E+02
  0
LINE
  8
0
 62
7
 10
-1.10000041E+01
 20
-1.34758503E+02
 11
-1.91428614E+01
 21
-1.34758503E+02
  0
LINE
  8
0
 62
7
 10
-1.85428614E+01
 20
-5.72585015E+01
 11
-1.10000041E+01
 21
-5.72585015E+01
  0
LINE
  8
0
 62
7
 10
-1.91428614E+01
 20
-5.67585015E+01
 11
-1.10000041E+01
 21
-5.67585015E+01
  0
LINE
  8
0
 62
7
 10
-1.00000041E+01
 20
-5.77585015E+01
 11
-1.00000041E+01
 21
-1.33758503E+02
  0
LINE
  8
0
 62
7
 10
-1.03857184E+01
 20
-5.87585016E+01
 11
-1.03857184E+01
 21
-9.07585021E+01
  0
LINE
  8
0
 62
7
 10
-1.74571471E+01
 20
-5.92585016E+01
 11
-1.74571471E+01
 21
-9.02585021E+01
  0
LINE
  8
0
 62
7
 10
-1.92857185E+01
 20
-5.87585016E+01
 11
-1.92857185E+01
 21
-9.07585021E+01
  0
LINE
  8
0
 62
7
 10
-1.95428614E+01
 20
-5.82585016E+01
 11
-1.95428614E+01
 21
-1.33258503E+02
  0
LINE
  8
0
 62
7
 10
-2.01428614E+01
 20
-5.77585015E+01
 11
-2.01428614E+01
 21
-1.33758503E+02
  0
LINE
  8
0
 62
7
 10
2.85285680E+01
 20
-1.33758503E+02
 11
3.54428538E+01
 21
-1.33758503E+02
  0
LINE
  8
0
 62
7
 10
2.85285680E+01
 20
-9.77585022E+01
 11
3.54428538E+01
 21
-9.77585022E+01
  0
LINE
  8
0
 62
7
 10
2.85285680E+01
 20
-9.17585021E+01
 11
3.54428538E+01
 21
-9.17585021E+01
  0
LINE
  8
0
 62
7
 10
3.54428538E+01
 20
-5.77585015E+01
 11
2.85285680E+01
 21
-5.77585015E+01
  0
LINE
  8
0
 62
7
 10
3.35999967E+01
 20
-5.82585016E+01
 11
2.85285680E+01
 21
-5.82585016E+01
  0
LINE
  8
0
 62
7
 10
2.85285680E+01
 20
-9.82585022E+01
 11
3.35999967E+01
 21
-9.82585022E+01
  0
LINE
  8
0
 62
7
 10
2.85285680E+01
 20
-9.12585021E+01
 11
3.35999967E+01
 21
-9.12585021E+01
  0
LINE
  8
0
 62
7
 10
2.85285680E+01
 20
-1.33258503E+02
 11
3.35999967E+01
 21
-1.33258503E+02
  0
LINE
  8
0
 62
7
 10
3.64428538E+01
 20
-9.87585022E+01
 11
3.64428538E+01
 21
-1.32758503E+02
  0
LINE
  8
0
 62
7
 10
3.45999967E+01
 20
-9.92585023E+01
 11
3.45999967E+01
 21
-1.32258503E+02
  0
LINE
  8
0
 62
7
 10
2.75285680E+01
 20
-9.87585022E+01
 11
2.75285680E+01
 21
-1.32758503E+02
  0
LINE
  8
0
 62
7
 10
2.81571394E+01
 20
-1.34258503E+02
 11
3.56999967E+01
 21
-1.34258503E+02
  0
LINE
  8
0
 62
7
 10
2.81571394E+01
 20
-1.34758503E+02
 11
3.62999967E+01
 21
-1.34758503E+02
  0
LINE
  8
0
 62
7
 10
3.56999967E+01
 20
-5.72585015E+01
 11
2.81571394E+01
 21
-5.72585015E+01
  0
LINE
  8
0
 62
7
 10
3.62999967E+01
 20
-5.67585015E+01
 11
2.81571394E+01
 21
-5.67585015E+01
  0
LINE
  8
0
 62
7
 10
2.71571394E+01
 20
-5.77585015E+01
 11
2.71571394E+01
 21
-1.33758503E+02
  0
LINE
  8
0
 62
7
 10
2.75285680E+01
 20
-5.87585016E+01
 11
2.75285680E+01
 21
-9.07585021E+01
  0
LINE
  8
0
 62
7
 10
3.45999967E+01
 20
-5.92585016E+01
 11
3.45999967E+01
 21
-9.02585021E+01
  0
LINE
  8
0
 62
7
 10
3.64428538E+01
 20
-5.87585016E+01
 11
3.64428538E+01
 21
-9.07585021E+01
  0
LINE
  8
0
 62
7
 10
3.66999967E+01
 20
-5.82585016E+01
 11
3.66999967E+01
 21
-1.33258503E+02
  0
LINE
  8
0
 62
7
 10
3.72999967E+01
 20
-5.77585015E+01
 11
3.72999967E+01
 21
-1.33758503E+02
  0
LINE
  8
0
 62
7
 10
-2.53142901E+01
 20
-8.19585020E+01
 11
-2.81000044E+01
 21
-7.79727876E+01
  0
LINE
  8
0
 62
7
 10
-2.81428615E+01
 20
-7.78013590E+01
 11
-2.82285758E+01
 21
-6.84585017E+01
  0
LINE
  8
0
 62
7
 10
-2.54714329E+01
 20
-6.41299302E+01
 11
-2.82285758E+01
 21
-6.84585017E+01
  0
LINE
  8
0
 62
7
 10
-2.54714329E+01
 20
-6.41299302E+01
 11
-2.55714329E+01
 21
-5.20585014E+01
  0
LINE
  8
0
 62
7
 10
-2.88285758E+01
 20
-5.45727872E+01
 11
-2.82857187E+01
 21
-7.65727876E+01
  0
LINE
  8
0
 62
7
 10
-2.83428615E+01
 20
-5.40585015E+01
 11
-2.72571472E+01
 21
-5.40299301E+01
  0
LINE
  8
0
 62
7
 10
-2.82857187E+01
 20
-7.65727876E+01
 11
-2.81571473E+01
 21
-7.66870733E+01
  0
LINE
  8
0
 62
7
 10
-2.88285758E+01
 20
-5.45727872E+01
 11
-2.83428615E+01
 21
-5.40585015E+01
  0
LINE
  8
0
 62
7
 10
-2.78857187E+01
 20
-5.20585014E+01
 11
-2.78428615E+01
 21
-5.40442158E+01
  0
LINE
  8
0
 62
7
 10
-2.73142901E+01
 20
-5.20585014E+01
 11
-2.72571472E+01
 21
-5.40299301E+01
  0
LINE
  8
0
 62
7
 10
-2.83428615E+01
 20
-5.40585015E+01
 11
-2.80000044E+01
 21
-6.80870732E+01
  0
ARC
  8
0
 62
7
 10
-9.84384267E+00
 20
-1.36258937E+02
 40
1.49995661E+01
 50
1.80489468E+02
 51
2.70000000E+02
  0
ARC
  8
0
 62
7
 10
2.69939059E+01
 20
-1.36251804E+02
 40
1.50067006E+01
 50
2.70023254E+02
 51
3.59483529E+02
  0
ARC
  8
0
 62
7
 10
-1.64569587E+01
 20
-9.92586906E+01
 40
1.00018839E+00
 50
9.00000002E+01
 51
1.79989210E+02
  0
ARC
  8
0
 62
7
 10
-1.13857036E+01
 20
-9.92584874E+01
 40
9.99985194E-01
 50
3.59999150E+02
 51
9.00000002E+01
  0
ARC
  8
0
 62
7
 10
-1.13857101E+01
 20
-9.87584940E+01
 40
9.99991734E-01
 50
3.59999525E+02
 51
9.00000002E+01
  0
ARC
  8
0
 62
7
 10
-1.13857197E+01
 20
-1.32258502E+02
 40
1.00000133E+00
 50
2.70000000E+02
 51
3.59999925E+02
  0
ARC
  8
0
 62
7
 10
-1.13857153E+01
 20
-1.32758506E+02
 40
9.99996965E-01
 50
2.70000000E+02
 51
1.74845095E-04
  0
ARC
  8
0
 62
7
 10
-1.10011168E+01
 20
-1.33257390E+02
 40
1.00111337E+00
 50
2.70063684E+02
 51
3.59936316E+02
  0
ARC
  8
0
 62
7
 10
-1.10011125E+01
 20
-1.33757394E+02
 40
1.00110901E+00
 50
2.70063435E+02
 51
3.59936565E+02
  0
ARC
  8
0
 62
7
 10
-1.64569426E+01
 20
-1.32258298E+02
 40
1.00020452E+00
 50
1.80011714E+02
 51
2.70000000E+02
  0
ARC
  8
0
 62
7
 10
-1.82883639E+01
 20
-9.87558568E+01
 40
9.97358117E-01
 50
8.98480277E+01
 51
1.80151972E+02
  0
ARC
  8
0
 62
7
 10
-1.82883587E+01
 20
-1.32761143E+02
 40
9.97363349E-01
 50
1.79848330E+02
 51
2.70151671E+02
  0
ARC
  8
0
 62
7
 10
-1.85454789E+01
 20
-1.33261120E+02
 40
9.97385934E-01
 50
1.79849634E+02
 51
2.70150366E+02
  0
ARC
  8
0
 62
7
 10
-1.91441440E+01
 20
-1.33759785E+02
 40
9.98718206E-01
 50
1.79926416E+02
 51
2.70073584E+02
  0
ARC
  8
0
 62
7
 10
-1.13857036E+01
 20
-5.92584867E+01
 40
9.99985194E-01
 50
3.59999150E+02
 51
9.00000002E+01
  0
ARC
  8
0
 62
7
 10
-1.13857101E+01
 20
-5.87584933E+01
 40
9.99991734E-01
 50
3.59999525E+02
 51
9.00000002E+01
  0
ARC
  8
0
 62
7
 10
-1.10011007E+01
 20
-5.82595982E+01
 40
1.00109724E+00
 50
6.27630396E-02
 51
8.99372372E+01
  0
ARC
  8
0
 62
7
 10
-1.10010964E+01
 20
-5.77595938E+01
 40
1.00109288E+00
 50
6.25140711E-02
 51
8.99374859E+01
  0
ARC
  8
0
 62
7
 10
-1.64569587E+01
 20
-5.92586899E+01
 40
1.00018839E+00
 50
9.00000002E+01
 51
1.79989210E+02
  0
ARC
  8
0
 62
7
 10
-1.82883639E+01
 20
-5.87558562E+01
 40
9.97358117E-01
 50
8.98480277E+01
 51
1.80151972E+02
  0
ARC
  8
0
 62
7
 10
-1.85454951E+01
 20
-5.82558679E+01
 40
9.97369803E-01
 50
8.98487027E+01
 51
1.80151297E+02
  0
ARC
  8
0
 62
7
 10
-1.91441602E+01
 20
-5.77572028E+01
 40
9.98702075E-01
 50
8.99254882E+01
 51
1.80074512E+02
  0
ARC
  8
0
 62
7
 10
-1.13857153E+01
 20
-9.02585052E+01
 40
9.99996965E-01
 50
2.70000000E+02
 51
1.74845095E-04
  0
ARC
  8
0
 62
7
 10
-1.13857110E+01
 20
-9.07585095E+01
 40
9.99992606E-01
 50
2.70000000E+02
 51
4.24641185E-04
  0
ARC
  8
0
 62
7
 10
-1.64569469E+01
 20
-9.02583020E+01
 40
1.00020016E+00
 50
1.80011464E+02
 51
2.70000000E+02
  0
ARC
  8
0
 62
7
 10
-1.82883630E+01
 20
-9.07611466E+01
 40
9.97358989E-01
 50
1.79848078E+02
 51
2.70151922E+02
  0
ARC
  8
0
 62
7
 10
3.35998301E+01
 20
-9.92586688E+01
 40
1.00016659E+00
 50
9.54126889E-03
 51
9.00000002E+01
  0
ARC
  8
0
 62
7
 10
2.85285750E+01
 20
-9.92585092E+01
 40
1.00000699E+00
 50
9.00000002E+01
 51
1.79999600E+02
  0
ARC
  8
0
 62
7
 10
2.85285815E+01
 20
-9.87585158E+01
 40
1.00001353E+00
 50
9.00000002E+01
 51
1.79999226E+02
  0
ARC
  8
0
 62
7
 10
2.85285911E+01
 20
-1.32258480E+02
 40
1.00002312E+00
 50
1.80001324E+02
 51
2.70000000E+02
  0
ARC
  8
0
 62
7
 10
2.85285867E+01
 20
-1.32758484E+02
 40
1.00001876E+00
 50
1.80001074E+02
 51
2.70000000E+02
  0
ARC
  8
0
 62
7
 10
2.81511487E+01
 20
-1.33264494E+02
 40
9.94027373E-01
 50
1.79654694E+02
 51
2.70345306E+02
  0
ARC
  8
0
 62
7
 10
2.81511443E+01
 20
-1.33764498E+02
 40
9.94023014E-01
 50
1.79654440E+02
 51
2.70345561E+02
  0
ARC
  8
0
 62
7
 10
3.35998140E+01
 20
-1.32258320E+02
 40
1.00018272E+00
 50
2.70000000E+02
 51
3.59989535E+02
  0
ARC
  8
0
 62
7
 10
3.54383717E+01
 20
-9.87629844E+01
 40
1.00449213E+00
 50
2.55658801E-01
 51
8.97443413E+01
  0
ARC
  8
0
 62
7
 10
3.54383665E+01
 20
-1.32754015E+02
 40
1.00449737E+00
 50
2.70255955E+02
 51
3.59744046E+02
  0
ARC
  8
0
 62
7
 10
3.56954867E+01
 20
-1.33253993E+02
 40
1.00452018E+00
 50
2.70257244E+02
 51
3.59742756E+02
  0
ARC
  8
0
 62
7
 10
3.62941422E+01
 20
-1.33752648E+02
 40
1.00587156E+00
 50
2.70333483E+02
 51
3.59666518E+02
  0
ARC
  8
0
 62
7
 10
2.85285750E+01
 20
-5.92585085E+01
 40
1.00000699E+00
 50
9.00000002E+01
 51
1.79999600E+02
  0
ARC
  8
0
 62
7
 10
2.85285815E+01
 20
-5.87585151E+01
 40
1.00001353E+00
 50
9.00000002E+01
 51
1.79999226E+02
  0
ARC
  8
0
 62
7
 10
2.81511325E+01
 20
-5.82524946E+01
 40
9.94011244E-01
 50
8.96537532E+01
 51
1.80346247E+02
  0
ARC
  8
0
 62
7
 10
2.81511281E+01
 20
-5.77524902E+01
 40
9.94006884E-01
 50
8.96534988E+01
 51
1.80346501E+02
  0
ARC
  8
0
 62
7
 10
3.35998301E+01
 20
-5.92586681E+01
 40
1.00016659E+00
 50
9.54126889E-03
 51
9.00000002E+01
  0
ARC
  8
0
 62
7
 10
3.54383717E+01
 20
-5.87629837E+01
 40
1.00449213E+00
 50
2.55658801E-01
 51
8.97443413E+01
  0
ARC
  8
0
 62
7
 10
3.56955027E+01
 20
-5.82629955E+01
 40
1.00450405E+00
 50
2.56332418E-01
 51
8.97436675E+01
  0
ARC
  8
0
 62
7
 10
3.62941582E+01
 20
-5.77643400E+01
 40
1.00585543E+00
 50
3.32574269E-01
 51
8.96674257E+01
  0
ARC
  8
0
 62
7
 10
2.85285867E+01
 20
-9.02584834E+01
 40
1.00001876E+00
 50
1.80001074E+02
 51
2.70000000E+02
  0
ARC
  8
0
 62
7
 10
2.85285824E+01
 20
-9.07584877E+01
 40
1.00001440E+00
 50
1.80000824E+02
 51
2.70000000E+02
  0
ARC
  8
0
 62
7
 10
3.35998183E+01
 20
-9.02583238E+01
 40
1.00017836E+00
 50
2.70000000E+02
 51
3.59989785E+02
  0
ARC
  8
0
 62
7
 10
3.54383708E+01
 20
-9.07540191E+01
 40
1.00449301E+00
 50
2.70255708E+02
 51
3.59744292E+02
  0
ARC
  8
0
 62
7
 10
-2.78520055E+01
 20
-7.78197165E+01
 40
2.91434740E-01
 50
1.76388557E+02
 51
2.11683930E+02
  0
POLYLINE
  8
0
 62
7
 66
1
  0
VERTEX
  8
0
 62
7
 10
-2.54714329E+01
 20
-6.41299302E+01
  0
VERTEX
  8
0
 62
7
 10
-2.52518535E+01
 20
-6.48932274E+01
  0
VERTEX
  8
0
 62
7
 10
-2.50502102E+01
 20
-6.56622413E+01
  0
VERTEX
  8
0
 62
7
 10
-2.48668849E+01
 20
-6.64364584E+01
  0
VERTEX
  8
0
 62
7
 10
-2.47022592E+01
 20
-6.72153646E+01
  0
VERTEX
  8
0
 62
7
 10
-2.45567150E+01
 20
-6.79984463E+01
  0
VERTEX
  8
0
 62
7
 10
-2.44306339E+01
 20
-6.87851895E+01
  0
VERTEX
  8
0
 62
7
 10
-2.43243977E+01
 20
-6.95750805E+01
  0
VERTEX
  8
0
 62
7
 10
-2.42383881E+01
 20
-7.03676054E+01
  0
VERTEX
  8
0
 62
7
 10
-2.41729869E+01
 20
-7.11622504E+01
  0
VERTEX
  8
0
 62
7
 10
-2.41285758E+01
 20
-7.19585018E+01
  0
VERTEX
  8
0
 62
7
 10
-2.41027497E+01
 20
-7.29695350E+01
  0
VERTEX
  8
0
 62
7
 10
-2.41105596E+01
 20
-7.39812642E+01
  0
VERTEX
  8
0
 62
7
 10
-2.41514253E+01
 20
-7.49925089E+01
  0
VERTEX
  8
0
 62
7
 10
-2.42247662E+01
 20
-7.60020889E+01
  0
VERTEX
  8
0
 62
7
 10
-2.43300020E+01
 20
-7.70088235E+01
  0
VERTEX
  8
0
 62
7
 10
-2.44665523E+01
 20
-7.80115324E+01
  0
VERTEX
  8
0
 62
7
 10
-2.46338367E+01
 20
-7.90090352E+01
  0
VERTEX
  8
0
 62
7
 10
-2.48312747E+01
 20
-8.00001513E+01
  0
VERTEX
  8
0
 62
7
 10
-2.50582859E+01
 20
-8.09837004E+01
  0
VERTEX
  8
0
 62
7
 10
-2.53142901E+01
 20
-8.19585020E+01
  0
SEQEND
  8
0
  0
LINE
  8
0
  6
CENTER
 62
2
 10
1.88444498E+02
 20
1.79414997E+01
 11
1.88444498E+02
 21
-1.55758503E+02
  0
LINE
  8
0
 62
7
 10
2.11944498E+02
 20
1.29414997E+01
 11
1.59444497E+02
 21
1.29414997E+01
  0
LINE
  8
0
 62
7
 10
2.26944499E+02
 20
-5.20585014E+01
 11
1.49944497E+02
 21
-5.20585014E+01
  0
LINE
  8
0
 62
7
 10
2.13444498E+02
 20
1.14414996E+01
 11
2.11944498E+02
 21
1.29414997E+01
  0
LINE
  8
0
 62
7
 10
1.64944497E+02
 20
1.29414997E+01
 11
1.63444497E+02
 21
1.14414996E+01
  0
LINE
  8
0
 62
7
 10
2.27944499E+02
 20
-3.20585011E+01
 11
2.27944499E+02
 21
-5.10585014E+01
  0
LINE
  8
0
 62
7
 10
1.48944497E+02
 20
-3.20585011E+01
 11
1.48944497E+02
 21
-5.10585014E+01
  0
LINE
  8
0
 62
7
 10
2.27944499E+02
 20
-5.10585014E+01
 11
2.26944499E+02
 21
-5.20585014E+01
  0
LINE
  8
0
 62
7
 10
1.48944497E+02
 20
-5.10585014E+01
 11
1.49944497E+02
 21
-5.20585014E+01
  0
LINE
  8
0
 62
7
 10
2.27944499E+02
 20
-5.10585014E+01
 11
1.48944497E+02
 21
-5.10585014E+01
  0
LINE
  8
0
 62
7
 10
2.13444498E+02
 20
1.14414996E+01
 11
1.63444497E+02
 21
1.14414996E+01
  0
LINE
  8
0
 62
7
 10
2.26944499E+02
 20
-3.10585011E+01
 11
2.14944498E+02
 21
-3.10585011E+01
  0
LINE
  8
0
 62
7
 10
2.27944499E+02
 20
-3.20585011E+01
 11
2.26944499E+02
 21
-3.10585011E+01
  0
LINE
  8
0
 62
7
 10
1.48944497E+02
 20
-3.20585011E+01
 11
1.49944497E+02
 21
-3.10585011E+01
  0
LINE
  8
0
 62
7
 10
2.27944499E+02
 20
-3.20585011E+01
 11
2.13444498E+02
 21
-3.20585011E+01
  0
LINE
  8
0
 62
7
 10
1.92444498E+02
 20
1.39414997E+01
 11
1.84444498E+02
 21
1.39414997E+01
  0
LINE
  8
0
  6
CENTER
 62
2
 10
2.18444498E+02
 20
-1.20585008E+01
 11
1.53558783E+02
 21
-1.20585008E+01
  0
LINE
  8
0
 62
7
 10
1.84444498E+02
 20
1.39414997E+01
 11
1.84444498E+02
 21
1.29414997E+01
  0
LINE
  8
0
 62
7
 10
1.92444498E+02
 20
1.39414997E+01
 11
1.92444498E+02
 21
1.29414997E+01
  0
LINE
  8
0
 62
7
 10
2.13444498E+02
 20
1.14414996E+01
 11
2.13444498E+02
 21
-3.70585012E+01
  0
LINE
  8
0
 62
7
 10
2.11944498E+02
 20
1.29414997E+01
 11
2.11944498E+02
 21
-3.70585012E+01
  0
LINE
  8
0
 62
7
 10
2.13444498E+02
 20
-3.70585012E+01
 11
1.63444497E+02
 21
-3.70585012E+01
  0
LINE
  8
0
 62
7
 10
1.63444497E+02
 20
1.14414996E+01
 11
1.63444497E+02
 21
-3.70585012E+01
  0
LINE
  8
0
 62
7
 10
1.64944497E+02
 20
1.29414997E+01
 11
1.64944497E+02
 21
-3.70585012E+01
  0
LINE
  8
0
 62
7
 10
1.63444497E+02
 20
-3.20585011E+01
 11
1.48944497E+02
 21
-3.20585011E+01
  0
LINE
  8
0
 62
7
 10
1.61944497E+02
 20
-3.10585011E+01
 11
1.49944497E+02
 21
-3.10585011E+01
  0
LINE
  8
0
  6
PHANTOM
 62
6
 10
2.10444498E+02
 20
-1.20585008E+01
 11
2.10444498E+02
 21
-2.90585011E+01
  0
LINE
  8
0
  6
PHANTOM
 62
6
 10
2.05444498E+02
 20
-1.20585008E+01
 11
2.05444498E+02
 21
-2.90585011E+01
  0
LINE
  8
0
  6
PHANTOM
 62
6
 10
2.10444498E+02
 20
-4.20585013E+01
 11
2.05444498E+02
 21
-4.20585013E+01
  0
LINE
  8
0
  6
PHANTOM
 62
6
 10
2.05444498E+02
 20
-2.20585009E+01
 11
2.10444498E+02
 21
-2.20585009E+01
  0
LINE
  8
0
  6
PHANTOM
 62
6
 10
2.10001641E+02
 20
-2.20585009E+01
 11
2.10444498E+02
 21
-2.10585009E+01
  0
LINE
  8
0
  6
PHANTOM
 62
6
 10
2.10001641E+02
 20
-2.20585009E+01
 11
2.10001641E+02
 21
-2.90585011E+01
  0
LINE
  8
0
  6
PHANTOM
 62
6
 10
2.05873070E+02
 20
-2.20585009E+01
 11
2.05444498E+02
 21
-2.10585009E+01
  0
LINE
  8
0
  6
PHANTOM
 62
6
 10
2.05873070E+02
 20
-2.20585009E+01
 11
2.05873070E+02
 21
-2.90585011E+01
  0
LINE
  8
0
  6
PHANTOM
 62
6
 10
1.61444497E+02
 20
-2.90585011E+01
 11
2.27944499E+02
 21
-2.90585011E+01
  0
LINE
  8
0
  6
PHANTOM
 62
6
 10
1.61444497E+02
 20
-3.35585011E+01
 11
2.27944499E+02
 21
-3.35585011E+01
  0
LINE
  8
0
  6
PHANTOM
 62
6
 10
2.33444499E+02
 20
-3.45585012E+01
 11
2.33444499E+02
 21
-8.40585020E+01
  0
LINE
  8
0
  6
PHANTOM
 62
6
 10
2.28944499E+02
 20
-3.45585012E+01
 11
2.28944499E+02
 21
-8.40585020E+01
  0
LINE
  8
0
  6
PHANTOM
 62
6
 10
2.28944499E+02
 20
-8.40585020E+01
 11
2.33444499E+02
 21
-8.40585020E+01
  0
LINE
  8
0
  6
PHANTOM
 62
6
 10
1.61444497E+02
 20
-2.90585011E+01
 11
1.61444497E+02
 21
-3.35585011E+01
  0
LINE
  8
0
  6
PHANTOM
 62
6
 10
2.12944498E+02
 20
-3.45585012E+01
 11
2.02944498E+02
 21
-3.45585012E+01
  0
LINE
  8
0
  6
PHANTOM
 62
6
 10
2.12944498E+02
 20
-3.35585011E+01
 11
2.12944498E+02
 21
-3.45585012E+01
  0
LINE
  8
0
  6
PHANTOM
 62
6
 10
2.02944498E+02
 20
-3.35585011E+01
 11
2.02944498E+02
 21
-3.45585012E+01
  0
LINE
  8
0
  6
PHANTOM
 62
6
 10
2.12587355E+02
 20
-3.58585012E+01
 11
2.03287355E+02
 21
-3.58585012E+01
  0
LINE
  8
0
  6
PHANTOM
 62
6
 10
2.03287355E+02
 20
-3.45585012E+01
 11
2.03287355E+02
 21
-3.58585012E+01
  0
LINE
  8
0
  6
PHANTOM
 62
6
 10
2.12587355E+02
 20
-3.45585012E+01
 11
2.12587355E+02
 21
-3.58585012E+01
  0
LINE
  8
0
  6
PHANTOM
 62
6
 10
2.10001641E+02
 20
-4.05585013E+01
 11
2.10001641E+02
 21
-4.20585013E+01
  0
LINE
  8
0
  6
PHANTOM
 62
6
 10
2.10444498E+02
 20
-4.05585013E+01
 11
2.10444498E+02
 21
-4.20585013E+01
  0
LINE
  8
0
  6
PHANTOM
 62
6
 10
2.05873070E+02
 20
-4.05585013E+01
 11
2.05873070E+02
 21
-4.20585013E+01
  0
LINE
  8
0
  6
PHANTOM
 62
6
 10
2.05444498E+02
 20
-4.05585013E+01
 11
2.05444498E+02
 21
-4.20585013E+01
  0
LINE
  8
0
  6
PHANTOM
 62
6
 10
1.63944497E+02
 20
-3.35585011E+01
 11
1.63944497E+02
 21
-3.45585012E+01
  0
LINE
  8
0
  6
PHANTOM
 62
6
 10
1.63944497E+02
 20
-3.45585012E+01
 11
1.73944498E+02
 21
-3.45585012E+01
  0
LINE
  8
0
  6
PHANTOM
 62
6
 10
1.64287355E+02
 20
-3.45585012E+01
 11
1.64287355E+02
 21
-3.58585012E+01
  0
LINE
  8
0
  6
PHANTOM
 62
6
 10
1.64287355E+02
 20
-3.58585012E+01
 11
1.73587355E+02
 21
-3.58585012E+01
  0
LINE
  8
0
  6
PHANTOM
 62
6
 10
1.71444498E+02
 20
-4.05585013E+01
 11
1.71444498E+02
 21
-4.20585013E+01
  0
LINE
  8
0
  6
PHANTOM
 62
6
 10
1.71001640E+02
 20
-4.05585013E+01
 11
1.71001640E+02
 21
-4.20585013E+01
  0
LINE
  8
0
  6
PHANTOM
 62
6
 10
1.71444498E+02
 20
-4.20585013E+01
 11
1.66444498E+02
 21
-4.20585013E+01
  0
LINE
  8
0
  6
PHANTOM
 62
6
 10
1.66873069E+02
 20
-4.05585013E+01
 11
1.66873069E+02
 21
-4.20585013E+01
  0
LINE
  8
0
  6
PHANTOM
 62
6
 10
1.66444498E+02
 20
-4.05585013E+01
 11
1.66444498E+02
 21
-4.20585013E+01
  0
LINE
  8
0
  6
PHANTOM
 62
6
 10
1.73587355E+02
 20
-3.45585012E+01
 11
1.73587355E+02
 21
-3.58585012E+01
  0
LINE
  8
0
  6
PHANTOM
 62
6
 10
1.73944498E+02
 20
-3.35585011E+01
 11
1.73944498E+02
 21
-3.45585012E+01
  0
LINE
  8
0
  6
PHANTOM
 62
6
 10
1.64944497E+02
 20
-4.05585013E+01
 11
1.64944497E+02
 21
-3.58585012E+01
  0
LINE
  8
0
  6
PHANTOM
 62
6
 10
1.68944498E+02
 20
-4.02013584E+01
 11
1.68944498E+02
 21
-3.62156440E+01
  0
LINE
  8
0
  6
PHANTOM
 62
6
 10
1.64944497E+02
 20
-4.05585013E+01
 11
1.72944498E+02
 21
-4.05585013E+01
  0
LINE
  8
0
  6
PHANTOM
 62
6
 10
1.72944498E+02
 20
-4.05585013E+01
 11
1.72944498E+02
 21
-3.58585012E+01
  0
LINE
  8
0
  6
PHANTOM
 62
6
 10
2.03944498E+02
 20
-4.05585013E+01
 11
2.03944498E+02
 21
-3.58585012E+01
  0
LINE
  8
0
  6
PHANTOM
 62
6
 10
2.07944498E+02
 20
-4.02013584E+01
 11
2.07944498E+02
 21
-3.62156440E+01
  0
LINE
  8
0
  6
PHANTOM
 62
6
 10
2.11944498E+02
 20
-4.05585013E+01
 11
2.11944498E+02
 21
-3.58585012E+01
  0
LINE
  8
0
  6
PHANTOM
 62
6
 10
2.11944498E+02
 20
-4.05585013E+01
 11
2.03944498E+02
 21
-4.05585013E+01
  0
LINE
  8
0
  6
PHANTOM
 62
6
 10
1.66444498E+02
 20
-1.20585008E+01
 11
1.66444498E+02
 21
-2.90585011E+01
  0
LINE
  8
0
  6
PHANTOM
 62
6
 10
1.66873069E+02
 20
-2.20585009E+01
 11
1.66873069E+02
 21
-2.90585011E+01
  0
LINE
  8
0
  6
PHANTOM
 62
6
 10
1.71444498E+02
 20
-2.20585009E+01
 11
1.66444498E+02
 21
-2.20585009E+01
  0
LINE
  8
0
  6
PHANTOM
 62
6
 10
1.66873069E+02
 20
-2.20585009E+01
 11
1.66444498E+02
 21
-2.10585009E+01
  0
LINE
  8
0
  6
PHANTOM
 62
6
 10
1.71001640E+02
 20
-2.20585009E+01
 11
1.71444498E+02
 21
-2.10585009E+01
  0
LINE
  8
0
  6
PHANTOM
 62
6
 10
1.71444498E+02
 20
-1.20585008E+01
 11
1.71444498E+02
 21
-2.90585011E+01
  0
LINE
  8
0
  6
PHANTOM
 62
6
 10
1.71001640E+02
 20
-2.20585009E+01
 11
1.71001640E+02
 21
-2.90585011E+01
  0
LINE
  8
0
  6
CENTER
 62
2
 10
1.92444498E+02
 20
3.93843573E+01
 11
1.92444498E+02
 21
7.94149957E+00
  0
LINE
  8
0
 62
7
 10
2.05944498E+02
 20
1.43414997E+01
 11
2.05944498E+02
 21
1.29414997E+01
  0
LINE
  8
0
 62
7
 10
1.78444498E+02
 20
2.13414998E+01
 11
1.78444498E+02
 21
1.43414997E+01
  0
LINE
  8
0
 62
7
 10
2.06444498E+02
 20
2.13414998E+01
 11
2.06444498E+02
 21
1.43414997E+01
  0
LINE
  8
0
 62
7
 10
1.79444498E+02
 20
2.23414998E+01
 11
1.78444498E+02
 21
2.13414998E+01
  0
LINE
  8
0
 62
7
 10
2.06444498E+02
 20
2.13414998E+01
 11
2.05444498E+02
 21
2.23414998E+01
  0
LINE
  8
0
 62
7
 10
2.05444498E+02
 20
2.23414998E+01
 11
1.79444498E+02
 21
2.23414998E+01
  0
LINE
  8
0
 62
7
 10
1.85244498E+02
 20
2.32414998E+01
 11
1.85244498E+02
 21
2.23414998E+01
  0
LINE
  8
0
 62
7
 10
1.99644498E+02
 20
2.32414998E+01
 11
1.99644498E+02
 21
2.23414998E+01
  0
LINE
  8
0
 62
7
 10
1.85444498E+02
 20
2.32414998E+01
 11
1.85487355E+02
 21
2.94843571E+01
  0
LINE
  8
0
 62
7
 10
1.99444498E+02
 20
2.32414998E+01
 11
1.99387355E+02
 21
2.94843571E+01
  0
LINE
  8
0
 62
7
 10
1.99644498E+02
 20
2.32414998E+01
 11
1.85244498E+02
 21
2.32414998E+01
  0
LINE
  8
0
 62
7
 10
1.90944498E+02
 20
1.63414997E+01
 11
1.86773069E+02
 21
1.63414997E+01
  0
LINE
  8
0
 62
7
 10
1.90801641E+02
 20
1.66272140E+01
 11
1.87158784E+02
 21
1.66272140E+01
  0
LINE
  8
0
 62
7
 10
1.78515926E+02
 20
2.13414998E+01
 11
1.78515926E+02
 21
1.63414997E+01
  0
LINE
  8
0
 62
7
 10
1.79044498E+02
 20
2.18414998E+01
 11
1.79044498E+02
 21
1.66272140E+01
  0
LINE
  8
0
 62
7
 10
1.79630212E+02
 20
2.13414998E+01
 11
1.79630212E+02
 21
1.63414997E+01
  0
LINE
  8
0
 62
7
 10
1.81130212E+02
 20
2.13414998E+01
 11
1.81130212E+02
 21
1.63414997E+01
  0
LINE
  8
0
 62
7
 10
1.81658783E+02
 20
2.18414998E+01
 11
1.81658783E+02
 21
1.66272140E+01
  0
LINE
  8
0
 62
7
 10
1.84173069E+02
 20
2.13414998E+01
 11
1.84173069E+02
 21
1.63414997E+01
  0
LINE
  8
0
 62
7
 10
1.86773069E+02
 20
2.13414998E+01
 11
1.86773069E+02
 21
1.63414997E+01
  0
LINE
  8
0
 62
7
 10
1.87158784E+02
 20
2.18414998E+01
 11
1.87158784E+02
 21
1.66272140E+01
  0
LINE
  8
0
 62
7
 10
1.90801641E+02
 20
2.18414998E+01
 11
1.90801641E+02
 21
1.66272140E+01
  0
LINE
  8
0
 62
7
 10
1.90944498E+02
 20
2.13414998E+01
 11
1.90944498E+02
 21
1.63414997E+01
  0
LINE
  8
0
 62
7
 10
1.93944498E+02
 20
2.13414998E+01
 11
1.90944498E+02
 21
2.13414998E+01
  0
LINE
  8
0
 62
7
 10
1.90801641E+02
 20
2.18414998E+01
 11
1.87158784E+02
 21
2.18414998E+01
  0
LINE
  8
0
 62
7
 10
1.86773069E+02
 20
2.13414998E+01
 11
1.84173069E+02
 21
2.13414998E+01
  0
LINE
  8
0
 62
7
 10
1.81130212E+02
 20
2.13414998E+01
 11
1.79630212E+02
 21
2.13414998E+01
  0
LINE
  8
0
 62
7
 10
1.84173069E+02
 20
1.66272140E+01
 11
1.81658783E+02
 21
1.66272140E+01
  0
LINE
  8
0
 62
7
 10
1.84315926E+02
 20
2.18414998E+01
 11
1.81658783E+02
 21
2.18414998E+01
  0
LINE
  8
0
 62
7
 10
1.90944498E+02
 20
2.13414998E+01
 11
1.90801641E+02
 21
2.18414998E+01
  0
LINE
  8
0
 62
7
 10
1.90801641E+02
 20
1.66272140E+01
 11
1.90944498E+02
 21
1.63414997E+01
  0
LINE
  8
0
 62
7
 10
1.86773069E+02
 20
2.13414998E+01
 11
1.87158784E+02
 21
2.18414998E+01
  0
LINE
  8
0
 62
7
 10
1.87158784E+02
 20
1.66272140E+01
 11
1.86773069E+02
 21
1.63414997E+01
  0
LINE
  8
0
 62
7
 10
1.84173069E+02
 20
2.13414998E+01
 11
1.84315926E+02
 21
2.18414998E+01
  0
LINE
  8
0
 62
7
 10
1.81658783E+02
 20
1.66272140E+01
 11
1.81130212E+02
 21
1.63414997E+01
  0
LINE
  8
0
 62
7
 10
1.79630212E+02
 20
2.13414998E+01
 11
1.80015926E+02
 21
2.18414998E+01
  0
LINE
  8
0
 62
7
 10
1.81130212E+02
 20
2.13414998E+01
 11
1.81658783E+02
 21
2.18414998E+01
  0
LINE
  8
0
 62
7
 10
1.80015926E+02
 20
2.18414998E+01
 11
1.79044498E+02
 21
2.18414998E+01
  0
LINE
  8
0
 62
7
 10
1.84173069E+02
 20
1.63414997E+01
 11
1.81130212E+02
 21
1.63414997E+01
  0
LINE
  8
0
 62
7
 10
1.78515926E+02
 20
2.13414998E+01
 11
1.78444498E+02
 21
2.13414998E+01
  0
LINE
  8
0
 62
7
 10
1.78515926E+02
 20
2.13414998E+01
 11
1.79044498E+02
 21
2.18414998E+01
  0
LINE
  8
0
 62
7
 10
1.93944498E+02
 20
1.63414997E+01
 11
1.98101641E+02
 21
1.63414997E+01
  0
LINE
  8
0
 62
7
 10
1.94073069E+02
 20
1.66272140E+01
 11
1.97715927E+02
 21
1.66272140E+01
  0
LINE
  8
0
 62
7
 10
2.06358784E+02
 20
2.13414998E+01
 11
2.06358784E+02
 21
1.63414997E+01
  0
LINE
  8
0
 62
7
 10
2.05844498E+02
 20
2.18414998E+01
 11
2.05844498E+02
 21
1.66272140E+01
  0
LINE
  8
0
 62
7
 10
2.05244498E+02
 20
2.13414998E+01
 11
2.05244498E+02
 21
1.63414997E+01
  0
LINE
  8
0
 62
7
 10
2.03744498E+02
 20
2.13414998E+01
 11
2.03744498E+02
 21
1.63414997E+01
  0
LINE
  8
0
 62
7
 10
2.03230212E+02
 20
2.18414998E+01
 11
2.03230212E+02
 21
1.66272140E+01
  0
LINE
  8
0
 62
7
 10
2.00701641E+02
 20
2.13414998E+01
 11
2.00701641E+02
 21
1.63414997E+01
  0
LINE
  8
0
 62
7
 10
1.98101641E+02
 20
2.13414998E+01
 11
1.98101641E+02
 21
1.63414997E+01
  0
LINE
  8
0
 62
7
 10
1.97715927E+02
 20
2.18414998E+01
 11
1.97715927E+02
 21
1.66272140E+01
  0
LINE
  8
0
 62
7
 10
1.94073069E+02
 20
2.18414998E+01
 11
1.94073069E+02
 21
1.66272140E+01
  0
LINE
  8
0
 62
7
 10
1.93944498E+02
 20
2.13414998E+01
 11
1.93944498E+02
 21
1.63414997E+01
  0
LINE
  8
0
 62
7
 10
1.94073069E+02
 20
2.18414998E+01
 11
1.97715927E+02
 21
2.18414998E+01
  0
LINE
  8
0
 62
7
 10
1.98101641E+02
 20
2.13414998E+01
 11
2.00701641E+02
 21
2.13414998E+01
  0
LINE
  8
0
 62
7
 10
2.03744498E+02
 20
2.13414998E+01
 11
2.05244498E+02
 21
2.13414998E+01
  0
LINE
  8
0
 62
7
 10
2.00558784E+02
 20
2.18414998E+01
 11
2.03230212E+02
 21
2.18414998E+01
  0
LINE
  8
0
 62
7
 10
1.93944498E+02
 20
2.13414998E+01
 11
1.94073069E+02
 21
2.18414998E+01
  0
LINE
  8
0
 62
7
 10
1.94073069E+02
 20
1.66272140E+01
 11
1.93944498E+02
 21
1.63414997E+01
  0
LINE
  8
0
 62
7
 10
1.98101641E+02
 20
2.13414998E+01
 11
1.97715927E+02
 21
2.18414998E+01
  0
LINE
  8
0
 62
7
 10
2.00701641E+02
 20
2.13414998E+01
 11
2.00558784E+02
 21
2.18414998E+01
  0
LINE
  8
0
 62
7
 10
2.05244498E+02
 20
2.13414998E+01
 11
2.04858784E+02
 21
2.18414998E+01
  0
LINE
  8
0
 62
7
 10
2.03744498E+02
 20
2.13414998E+01
 11
2.03230212E+02
 21
2.18414998E+01
  0
LINE
  8
0
 62
7
 10
2.04858784E+02
 20
2.18414998E+01
 11
2.05844498E+02
 21
2.18414998E+01
  0
LINE
  8
0
 62
7
 10
2.06358784E+02
 20
2.13414998E+01
 11
2.06444498E+02
 21
2.13414998E+01
  0
LINE
  8
0
 62
7
 10
2.06358784E+02
 20
2.13414998E+01
 11
2.05844498E+02
 21
2.18414998E+01
  0
LINE
  8
0
 62
7
 10
2.06444498E+02
 20
1.43414997E+01
 11
1.78444498E+02
 21
1.43414997E+01
  0
LINE
  8
0
 62
7
 10
1.76301641E+02
 20
2.04414998E+01
 11
1.76444498E+02
 21
2.04414998E+01
  0
LINE
  8
0
 62
7
 10
1.76301641E+02
 20
2.04414998E+01
 11
1.75758783E+02
 21
2.09414998E+01
  0
LINE
  8
0
 62
7
 10
1.75058783E+02
 20
1.49414997E+01
 11
1.76301641E+02
 21
1.49414997E+01
  0
LINE
  8
0
 62
7
 10
1.69944498E+02
 20
2.04414998E+01
 11
1.66944498E+02
 21
2.04414998E+01
  0
LINE
  8
0
 62
7
 10
1.76301641E+02
 20
1.49414997E+01
 11
1.75758783E+02
 21
1.52843568E+01
  0
LINE
  8
0
 62
7
 10
1.72444498E+02
 20
1.52843568E+01
 11
1.70087355E+02
 21
1.52843568E+01
  0
LINE
  8
0
 62
7
 10
1.75944498E+02
 20
2.09414998E+01
 11
1.60944497E+02
 21
2.09414998E+01
  0
LINE
  8
0
 62
7
 10
1.76444498E+02
 20
2.04414998E+01
 11
1.76444498E+02
 21
1.29414997E+01
  0
LINE
  8
0
 62
7
 10
1.60444497E+02
 20
2.04414998E+01
 11
1.60444497E+02
 21
1.29414997E+01
  0
LINE
  8
0
 62
7
 10
1.75944498E+02
 20
2.09414998E+01
 11
1.76444498E+02
 21
2.04414998E+01
  0
LINE
  8
0
 62
7
 10
1.60444497E+02
 20
2.04414998E+01
 11
1.60944497E+02
 21
2.09414998E+01
  0
LINE
  8
0
  6
CENTER
 62
2
 10
1.68444498E+02
 20
2.39414998E+01
 11
1.68444498E+02
 21
9.94149961E+00
  0
LINE
  8
0
 62
7
 10
1.66944498E+02
 20
1.49414997E+01
 11
1.63944497E+02
 21
1.49414997E+01
  0
LINE
  8
0
 62
7
 10
1.63944497E+02
 20
2.04414998E+01
 11
1.61815926E+02
 21
2.04414998E+01
  0
LINE
  8
0
 62
7
 10
1.60573069E+02
 20
2.04414998E+01
 11
1.60573069E+02
 21
1.49414997E+01
  0
LINE
  8
0
 62
7
 10
1.61115926E+02
 20
2.09414998E+01
 11
1.61115926E+02
 21
1.52843568E+01
  0
LINE
  8
0
 62
7
 10
1.61815926E+02
 20
2.04414998E+01
 11
1.61815926E+02
 21
1.49414997E+01
  0
LINE
  8
0
 62
7
 10
1.63944497E+02
 20
2.04414998E+01
 11
1.63944497E+02
 21
1.49414997E+01
  0
LINE
  8
0
 62
7
 10
1.64430212E+02
 20
2.09414998E+01
 11
1.64430212E+02
 21
1.52843568E+01
  0
LINE
  8
0
 62
7
 10
1.66787355E+02
 20
2.09414998E+01
 11
1.66787355E+02
 21
1.52843568E+01
  0
LINE
  8
0
 62
7
 10
1.66944498E+02
 20
2.04414998E+01
 11
1.66944498E+02
 21
1.49414997E+01
  0
LINE
  8
0
 62
7
 10
1.61115926E+02
 20
1.52843568E+01
 11
1.61815926E+02
 21
1.52843568E+01
  0
LINE
  8
0
 62
7
 10
1.66944498E+02
 20
2.04414998E+01
 11
1.66787355E+02
 21
2.09414998E+01
  0
LINE
  8
0
 62
7
 10
1.66944498E+02
 20
1.49414997E+01
 11
1.66787355E+02
 21
1.52843568E+01
  0
LINE
  8
0
 62
7
 10
1.64430212E+02
 20
1.52843568E+01
 11
1.63944497E+02
 21
1.49414997E+01
  0
LINE
  8
0
 62
7
 10
1.63944497E+02
 20
2.04414998E+01
 11
1.64430212E+02
 21
2.09414998E+01
  0
LINE
  8
0
 62
7
 10
1.61815926E+02
 20
2.04414998E+01
 11
1.62101640E+02
 21
2.09414998E+01
  0
LINE
  8
0
 62
7
 10
1.60587355E+02
 20
1.49414997E+01
 11
1.61115926E+02
 21
1.52843568E+01
  0
LINE
  8
0
 62
7
 10
1.60573069E+02
 20
2.04414998E+01
 11
1.61115926E+02
 21
2.09414998E+01
  0
LINE
  8
0
 62
7
 10
1.60573069E+02
 20
2.04414998E+01
 11
1.60444497E+02
 21
2.04414998E+01
  0
LINE
  8
0
 62
7
 10
1.64430212E+02
 20
1.52843568E+01
 11
1.66787355E+02
 21
1.52843568E+01
  0
LINE
  8
0
 62
7
 10
1.61815926E+02
 20
1.49414997E+01
 11
1.60573069E+02
 21
1.49414997E+01
  0
LINE
  8
0
 62
7
 10
1.69944498E+02
 20
1.49414997E+01
 11
1.72930212E+02
 21
1.49414997E+01
  0
LINE
  8
0
 62
7
 10
1.72930212E+02
 20
2.04414998E+01
 11
1.75058783E+02
 21
2.04414998E+01
  0
LINE
  8
0
 62
7
 10
1.76301641E+02
 20
2.04414998E+01
 11
1.76301641E+02
 21
1.49414997E+01
  0
LINE
  8
0
 62
7
 10
1.75758783E+02
 20
2.09414998E+01
 11
1.75758783E+02
 21
1.52843568E+01
  0
LINE
  8
0
 62
7
 10
1.75058783E+02
 20
2.04414998E+01
 11
1.75058783E+02
 21
1.49414997E+01
  0
LINE
  8
0
 62
7
 10
1.72930212E+02
 20
2.04414998E+01
 11
1.72930212E+02
 21
1.49414997E+01
  0
LINE
  8
0
 62
7
 10
1.72444498E+02
 20
2.09414998E+01
 11
1.72444498E+02
 21
1.52843568E+01
  0
LINE
  8
0
 62
7
 10
1.70087355E+02
 20
2.09414998E+01
 11
1.70087355E+02
 21
1.52843568E+01
  0
LINE
  8
0
 62
7
 10
1.69944498E+02
 20
2.04414998E+01
 11
1.69944498E+02
 21
1.49414997E+01
  0
LINE
  8
0
 62
7
 10
1.75758783E+02
 20
1.52843568E+01
 11
1.75058783E+02
 21
1.52843568E+01
  0
LINE
  8
0
 62
7
 10
1.69944498E+02
 20
2.04414998E+01
 11
1.70087355E+02
 21
2.09414998E+01
  0
LINE
  8
0
 62
7
 10
1.69944498E+02
 20
1.49414997E+01
 11
1.70087355E+02
 21
1.52843568E+01
  0
LINE
  8
0
 62
7
 10
1.72444498E+02
 20
1.52843568E+01
 11
1.72930212E+02
 21
1.49414997E+01
  0
LINE
  8
0
 62
7
 10
1.72930212E+02
 20
2.04414998E+01
 11
1.72444498E+02
 21
2.09414998E+01
  0
LINE
  8
0
 62
7
 10
1.75058783E+02
 20
2.04414998E+01
 11
1.74773069E+02
 21
2.09414998E+01
  0
LINE
  8
0
 62
7
 10
1.97715927E+02
 20
1.66272140E+01
 11
1.98101641E+02
 21
1.63414997E+01
  0
LINE
  8
0
 62
7
 10
2.00701641E+02
 20
1.63414997E+01
 11
2.03744498E+02
 21
1.63414997E+01
  0
LINE
  8
0
 62
7
 10
2.00701641E+02
 20
1.66272140E+01
 11
2.03230212E+02
 21
1.66272140E+01
  0
LINE
  8
0
 62
7
 10
2.03230212E+02
 20
1.66272140E+01
 11
2.03744498E+02
 21
1.63414997E+01
  0
LINE
  8
0
 62
7
 10
2.05244498E+02
 20
1.63414997E+01
 11
2.06358784E+02
 21
1.63414997E+01
  0
LINE
  8
0
 62
7
 10
2.05244498E+02
 20
1.66272140E+01
 11
2.05844498E+02
 21
1.66272140E+01
  0
LINE
  8
0
 62
7
 10
2.05844498E+02
 20
1.66272140E+01
 11
2.06358784E+02
 21
1.63414997E+01
  0
LINE
  8
0
 62
7
 10
1.57958783E+02
 20
-2.96013582E+01
 11
1.59444497E+02
 21
1.29414997E+01
  0
LINE
  8
0
 62
7
 10
1.78944498E+02
 20
1.43414997E+01
 11
1.78944498E+02
 21
1.29414997E+01
  0
LINE
  8
0
 62
7
 10
1.79630212E+02
 20
1.66272140E+01
 11
1.79044498E+02
 21
1.66272140E+01
  0
LINE
  8
0
 62
7
 10
1.79044498E+02
 20
1.66272140E+01
 11
1.78515926E+02
 21
1.63414997E+01
  0
LINE
  8
0
 62
7
 10
1.79630212E+02
 20
1.63414997E+01
 11
1.78515926E+02
 21
1.63414997E+01
  0
ARC
  8
0
 62
7
 10
1.61944506E+02
 20
-2.95585098E+01
 40
1.49999131E+00
 50
2.70000000E+02
 51
3.33054002E-04
  0
ARC
  8
0
 62
7
 10
2.14944501E+02
 20
-2.95584989E+01
 40
1.50000221E+00
 50
1.80000083E+02
 51
2.70000000E+02
  0
CIRCLE
  8
0
 62
7
 10
1.88444520E+02
 20
-1.20585008E+01
 40
2.10000001E+01
  0
CIRCLE
  8
0
 62
7
 10
1.88444520E+02
 20
-1.20585008E+01
 40
1.20585008E+01
  0
CIRCLE
  8
0
 62
2
 10
1.88444520E+02
 20
-1.20585008E+01
 40
1.32204998E+01
  0
ARC
  8
0
  6
PHANTOM
 62
6
 10
1.88444498E+02
 20
-1.20585008E+01
 40
1.70000003E+01
 50
0.00000000E+00
 51
1.80000000E+02
  0
ARC
  8
0
  6
PHANTOM
 62
6
 10
1.88444498E+02
 20
-1.20585008E+01
 40
2.20000004E+01
 50
0.00000000E+00
 51
1.80000000E+02
  0
ARC
  8
0
  6
PHANTOM
 62
6
 10
2.27944505E+02
 20
-3.45584946E+01
 40
9.99993478E-01
 50
3.59999625E+02
 51
9.00000002E+01
  0
ARC
  8
0
  6
PHANTOM
 62
6
 10
2.27944505E+02
 20
-3.45584946E+01
 40
5.49999355E+00
 50
3.59999932E+02
 51
9.00000002E+01
  0
ARC
  8
0
  6
PHANTOM
 62
6
 10
1.66944498E+02
 20
-3.47817808E+01
 40
5.77683486E+00
 50
2.49744302E+02
 51
2.90255698E+02
  0
ARC
  8
0
  6
PHANTOM
 62
6
 10
1.70944498E+02
 20
-3.47817808E+01
 40
5.77683486E+00
 50
2.49744302E+02
 51
2.90255698E+02
  0
ARC
  8
0
  6
PHANTOM
 62
6
 10
1.70944498E+02
 20
-4.16352007E+01
 40
5.77681523E+00
 50
6.97442307E+01
 51
1.10255770E+02
  0
ARC
  8
0
  6
PHANTOM
 62
6
 10
1.66944498E+02
 20
-4.16352007E+01
 40
5.77681523E+00
 50
6.97442307E+01
 51
1.10255770E+02
  0
ARC
  8
0
  6
PHANTOM
 62
6
 10
2.05944498E+02
 20
-4.16352007E+01
 40
5.77681523E+00
 50
6.97442307E+01
 51
1.10255770E+02
  0
ARC
  8
0
  6
PHANTOM
 62
6
 10
2.09944498E+02
 20
-4.16352007E+01
 40
5.77681523E+00
 50
6.97442307E+01
 51
1.10255770E+02
  0
ARC
  8
0
  6
PHANTOM
 62
6
 10
2.09944498E+02
 20
-3.47817808E+01
 40
5.77683486E+00
 50
2.49744302E+02
 51
2.90255698E+02
  0
ARC
  8
0
  6
PHANTOM
 62
6
 10
2.05944498E+02
 20
-3.47817808E+01
 40
5.77683486E+00
 50
2.49744302E+02
 51
2.90255698E+02
  0
ARC
  8
0
 62
7
 10
1.92437355E+02
 20
2.94414825E+01
 40
6.95013236E+00
 50
3.53453627E-01
 51
1.79646546E+02
  0
ARC
  8
0
 62
7
 10
1.56459427E+02
 20
-2.95585332E+01
 40
1.49996799E+00
 50
2.70000000E+02
 51
3.58363950E+02
  0
LINE
  8
0
 62
7
 10
2.06858784E+02
 20
-1.51258503E+02
 11
1.70015926E+02
 21
-1.51258503E+02
  0
LINE
  8
0
 62
7
 10
2.08401641E+02
 20
-1.33758503E+02
 11
2.15301641E+02
 21
-1.33758503E+02
  0
LINE
  8
0
 62
7
 10
2.08401641E+02
 20
-9.77585022E+01
 11
2.15301641E+02
 21
-9.77585022E+01
  0
LINE
  8
0
 62
7
 10
2.08401641E+02
 20
-9.17585021E+01
 11
2.15301641E+02
 21
-9.17585021E+01
  0
LINE
  8
0
 62
7
 10
2.15301641E+02
 20
-5.77585015E+01
 11
2.08401641E+02
 21
-5.77585015E+01
  0
LINE
  8
0
 62
7
 10
1.55015926E+02
 20
-1.36387074E+02
 11
1.54287354E+02
 21
-5.20585014E+01
  0
LINE
  8
0
 62
7
 10
2.21858784E+02
 20
-1.36387074E+02
 11
2.22587356E+02
 21
-5.20585014E+01
  0
LINE
  8
0
 62
7
 10
2.13473070E+02
 20
-5.82585016E+01
 11
2.08401641E+02
 21
-5.82585016E+01
  0
LINE
  8
0
 62
7
 10
2.08401641E+02
 20
-9.82585022E+01
 11
2.13473070E+02
 21
-9.82585022E+01
  0
LINE
  8
0
 62
7
 10
2.08401641E+02
 20
-9.12585021E+01
 11
2.13473070E+02
 21
-9.12585021E+01
  0
LINE
  8
0
 62
7
 10
2.08401641E+02
 20
-1.33258503E+02
 11
2.13473070E+02
 21
-1.33258503E+02
  0
LINE
  8
0
 62
7
 10
2.16301641E+02
 20
-9.87585022E+01
 11
2.16301641E+02
 21
-1.32758503E+02
  0
LINE
  8
0
 62
7
 10
2.14473070E+02
 20
-9.92585023E+01
 11
2.14473070E+02
 21
-1.32258503E+02
  0
LINE
  8
0
 62
7
 10
2.07401641E+02
 20
-9.87585022E+01
 11
2.07401641E+02
 21
-1.32758503E+02
  0
LINE
  8
0
 62
7
 10
2.08015927E+02
 20
-1.34258503E+02
 11
2.15558784E+02
 21
-1.34258503E+02
  0
LINE
  8
0
 62
7
 10
2.08015927E+02
 20
-1.34758503E+02
 11
2.16158784E+02
 21
-1.34758503E+02
  0
LINE
  8
0
 62
7
 10
2.15558784E+02
 20
-5.72585015E+01
 11
2.08015927E+02
 21
-5.72585015E+01
  0
LINE
  8
0
 62
7
 10
2.16158784E+02
 20
-5.67585015E+01
 11
2.08015927E+02
 21
-5.67585015E+01
  0
LINE
  8
0
 62
7
 10
2.07015927E+02
 20
-5.77585015E+01
 11
2.07015927E+02
 21
-1.33758503E+02
  0
LINE
  8
0
 62
7
 10
2.07401641E+02
 20
-5.87585016E+01
 11
2.07401641E+02
 21
-9.07585021E+01
  0
LINE
  8
0
 62
7
 10
2.14473070E+02
 20
-5.92585016E+01
 11
2.14473070E+02
 21
-9.02585021E+01
  0
LINE
  8
0
 62
7
 10
2.16301641E+02
 20
-5.87585016E+01
 11
2.16301641E+02
 21
-9.07585021E+01
  0
LINE
  8
0
 62
7
 10
2.16558784E+02
 20
-5.82585016E+01
 11
2.16558784E+02
 21
-1.33258503E+02
  0
LINE
  8
0
 62
7
 10
2.17158784E+02
 20
-5.77585015E+01
 11
2.17158784E+02
 21
-1.33758503E+02
  0
LINE
  8
0
 62
7
 10
1.68487355E+02
 20
-1.33758503E+02
 11
1.61573069E+02
 21
-1.33758503E+02
  0
LINE
  8
0
 62
7
 10
1.68487355E+02
 20
-9.77585022E+01
 11
1.61573069E+02
 21
-9.77585022E+01
  0
LINE
  8
0
 62
7
 10
1.68487355E+02
 20
-9.17585021E+01
 11
1.61573069E+02
 21
-9.17585021E+01
  0
LINE
  8
0
 62
7
 10
1.61573069E+02
 20
-5.77585015E+01
 11
1.68487355E+02
 21
-5.77585015E+01
  0
LINE
  8
0
 62
7
 10
1.63415926E+02
 20
-5.82585016E+01
 11
1.68487355E+02
 21
-5.82585016E+01
  0
LINE
  8
0
 62
7
 10
1.68487355E+02
 20
-9.82585022E+01
 11
1.63415926E+02
 21
-9.82585022E+01
  0
LINE
  8
0
 62
7
 10
1.68487355E+02
 20
-9.12585021E+01
 11
1.63415926E+02
 21
-9.12585021E+01
  0
LINE
  8
0
 62
7
 10
1.68487355E+02
 20
-1.33258503E+02
 11
1.63415926E+02
 21
-1.33258503E+02
  0
LINE
  8
0
 62
7
 10
1.60573069E+02
 20
-9.87585022E+01
 11
1.60573069E+02
 21
-1.32758503E+02
  0
LINE
  8
0
 62
7
 10
1.62415926E+02
 20
-9.92585023E+01
 11
1.62415926E+02
 21
-1.32258503E+02
  0
LINE
  8
0
 62
7
 10
1.69487355E+02
 20
-9.87585022E+01
 11
1.69487355E+02
 21
-1.32758503E+02
  0
LINE
  8
0
 62
7
 10
1.68858783E+02
 20
-1.34258503E+02
 11
1.61315926E+02
 21
-1.34258503E+02
  0
LINE
  8
0
 62
7
 10
1.68858783E+02
 20
-1.34758503E+02
 11
1.60715926E+02
 21
-1.34758503E+02
  0
LINE
  8
0
 62
7
 10
1.61315926E+02
 20
-5.72585015E+01
 11
1.68858783E+02
 21
-5.72585015E+01
  0
LINE
  8
0
 62
7
 10
1.60715926E+02
 20
-5.67585015E+01
 11
1.68858783E+02
 21
-5.67585015E+01
  0
LINE
  8
0
 62
7
 10
1.69858783E+02
 20
-5.77585015E+01
 11
1.69858783E+02
 21
-1.33758503E+02
  0
LINE
  8
0
 62
7
 10
1.69487355E+02
 20
-5.87585016E+01
 11
1.69487355E+02
 21
-9.07585021E+01
  0
LINE
  8
0
 62
7
 10
1.62415926E+02
 20
-5.92585016E+01
 11
1.62415926E+02
 21
-9.02585021E+01
  0
LINE
  8
0
 62
7
 10
1.60573069E+02
 20
-5.87585016E+01
 11
1.60573069E+02
 21
-9.07585021E+01
  0
LINE
  8
0
 62
7
 10
1.60315926E+02
 20
-5.82585016E+01
 11
1.60315926E+02
 21
-1.33258503E+02
  0
LINE
  8
0
 62
7
 10
1.59715926E+02
 20
-5.77585015E+01
 11
1.59715926E+02
 21
-1.33758503E+02
  0
ARC
  8
0
 62
7
 10
2.06859787E+02
 20
-1.36258959E+02
 40
1.49995444E+01
 50
2.69996169E+02
 51
3.59510614E+02
  0
ARC
  8
0
 62
7
 10
1.70022038E+02
 20
-1.36251782E+02
 40
1.50067224E+01
 50
1.80516554E+02
 51
2.69976663E+02
  0
ARC
  8
0
 62
7
 10
2.13472805E+02
 20
-9.92587669E+01
 40
1.00026472E+00
 50
1.51603808E-02
 51
9.00000002E+01
  0
ARC
  8
0
 62
7
 10
2.08401561E+02
 20
-9.92584220E+01
 40
9.99919805E-01
 50
9.00000002E+01
 51
1.80004597E+02
  0
ARC
  8
0
 62
7
 10
2.08401567E+02
 20
-9.87584286E+01
 40
9.99926345E-01
 50
9.00000002E+01
 51
1.80004221E+02
  0
ARC
  8
0
 62
7
 10
2.08401577E+02
 20
-1.32258567E+02
 40
9.99935936E-01
 50
1.79996328E+02
 51
2.70000000E+02
  0
ARC
  8
0
 62
7
 10
2.08401573E+02
 20
-1.32758571E+02
 40
9.99931576E-01
 50
1.79996078E+02
 51
2.70000000E+02
  0
ARC
  8
0
 62
7
 10
2.08016952E+02
 20
-1.33257477E+02
 40
1.00102599E+00
 50
1.80058694E+02
 51
2.69941306E+02
  0
ARC
  8
0
 62
7
 10
2.08016948E+02
 20
-1.33757482E+02
 40
1.00102164E+00
 50
1.80058445E+02
 51
2.69941555E+02
  0
ARC
  8
0
 62
7
 10
2.13472789E+02
 20
-1.32258222E+02
 40
1.00028085E+00
 50
2.70000000E+02
 51
3.59983916E+02
  0
ARC
  8
0
 62
7
 10
2.15304319E+02
 20
-9.87558242E+01
 40
9.97325594E-01
 50
3.59846149E+02
 51
9.01538508E+01
  0
ARC
  8
0
 62
7
 10
2.15304314E+02
 20
-1.32761176E+02
 40
9.97330826E-01
 50
2.69846451E+02
 51
1.53548627E-01
  0
ARC
  8
0
 62
7
 10
2.15561423E+02
 20
-1.33261142E+02
 40
9.97364251E-01
 50
2.69848382E+02
 51
1.51618165E-01
  0
ARC
  8
0
 62
7
 10
2.16160012E+02
 20
-1.33759731E+02
 40
9.98772564E-01
 50
2.69929542E+02
 51
7.04576703E-02
  0
ARC
  8
0
 62
7
 10
2.08401561E+02
 20
-5.92584214E+01
 40
9.99919805E-01
 50
9.00000002E+01
 51
1.80004597E+02
  0
ARC
  8
0
 62
7
 10
2.08401567E+02
 20
-5.87584279E+01
 40
9.99926345E-01
 50
9.00000002E+01
 51
1.80004221E+02
  0
ARC
  8
0
 62
7
 10
2.08016936E+02
 20
-5.82595109E+01
 40
1.00100986E+00
 50
9.00577727E+01
 51
1.79942227E+02
  0
ARC
  8
0
 62
7
 10
2.08016932E+02
 20
-5.77595065E+01
 40
1.00100550E+00
 50
9.00575234E+01
 51
1.79942477E+02
  0
ARC
  8
0
 62
7
 10
2.13472805E+02
 20
-5.92587662E+01
 40
1.00026472E+00
 50
1.51603808E-02
 51
9.00000002E+01
  0
ARC
  8
0
 62
7
 10
2.15304319E+02
 20
-5.87558235E+01
 40
9.97325594E-01
 50
3.59846149E+02
 51
9.01538508E+01
  0
ARC
  8
0
 62
7
 10
2.15561439E+02
 20
-5.82558461E+01
 40
9.97348120E-01
 50
3.59847450E+02
 51
9.01525496E+01
  0
ARC
  8
0
 62
7
 10
2.16160028E+02
 20
-5.77572572E+01
 40
9.98756433E-01
 50
3.59928615E+02
 51
9.00713856E+01
  0
ARC
  8
0
 62
7
 10
2.08401573E+02
 20
-9.02585705E+01
 40
9.99931576E-01
 50
1.79996078E+02
 51
2.70000000E+02
  0
ARC
  8
0
 62
7
 10
2.08401568E+02
 20
-9.07585749E+01
 40
9.99927217E-01
 50
1.79995829E+02
 51
2.70000000E+02
  0
ARC
  8
0
 62
7
 10
2.13472793E+02
 20
-9.02582257E+01
 40
1.00027649E+00
 50
2.70000000E+02
 51
3.59984166E+02
  0
ARC
  8
0
 62
7
 10
2.15304318E+02
 20
-9.07611793E+01
 40
9.97326466E-01
 50
2.69846200E+02
 51
1.53800432E-01
  0
ARC
  8
0
 62
7
 10
1.63416114E+02
 20
-9.92586906E+01
 40
1.00018839E+00
 50
9.00000002E+01
 51
1.79989210E+02
  0
ARC
  8
0
 62
7
 10
1.68487370E+02
 20
-9.92584874E+01
 40
9.99985194E-01
 50
3.59999150E+02
 51
9.00000002E+01
  0
ARC
  8
0
 62
7
 10
1.68487363E+02
 20
-9.87584940E+01
 40
9.99991734E-01
 50
3.59999525E+02
 51
9.00000002E+01
  0
ARC
  8
0
 62
7
 10
1.68487353E+02
 20
-1.32258502E+02
 40
1.00000133E+00
 50
2.70000000E+02
 51
3.59999925E+02
  0
ARC
  8
0
 62
7
 10
1.68487358E+02
 20
-1.32758506E+02
 40
9.99996965E-01
 50
2.70000000E+02
 51
1.74845095E-04
  0
ARC
  8
0
 62
7
 10
1.68864796E+02
 20
-1.33264515E+02
 40
9.94005838E-01
 50
2.69653437E+02
 51
3.46562443E-01
  0
ARC
  8
0
 62
7
 10
1.68864800E+02
 20
-1.33764520E+02
 40
9.94001479E-01
 50
2.69653183E+02
 51
3.46816786E-01
  0
ARC
  8
0
 62
7
 10
1.63416131E+02
 20
-1.32258298E+02
 40
1.00020452E+00
 50
1.80011714E+02
 51
2.70000000E+02
  0
ARC
  8
0
 62
7
 10
1.61577573E+02
 20
-9.87630063E+01
 40
1.00451413E+00
 50
9.02569019E+01
 51
1.79743098E+02
  0
ARC
  8
0
 62
7
 10
1.61577578E+02
 20
-1.32753994E+02
 40
1.00451936E+00
 50
1.80257198E+02
 51
2.69742802E+02
  0
ARC
  8
0
 62
7
 10
1.61320458E+02
 20
-1.33253971E+02
 40
1.00454217E+00
 50
1.80258487E+02
 51
2.69741512E+02
  0
ARC
  8
0
 62
7
 10
1.60721802E+02
 20
-1.33752626E+02
 40
1.00589362E+00
 50
1.80334724E+02
 51
2.69665276E+02
  0
ARC
  8
0
 62
7
 10
1.68487370E+02
 20
-5.92584867E+01
 40
9.99985194E-01
 50
3.59999150E+02
 51
9.00000002E+01
  0
ARC
  8
0
 62
7
 10
1.68487363E+02
 20
-5.87584933E+01
 40
9.99991734E-01
 50
3.59999525E+02
 51
9.00000002E+01
  0
ARC
  8
0
 62
7
 10
1.68864812E+02
 20
-5.82524730E+01
 40
9.93989708E-01
 50
3.59652497E+02
 51
9.03475037E+01
  0
ARC
  8
0
 62
7
 10
1.68864816E+02
 20
-5.77524686E+01
 40
9.93985349E-01
 50
3.59652242E+02
 51
9.03477581E+01
  0
ARC
  8
0
 62
7
 10
1.63416114E+02
 20
-5.92586899E+01
 40
1.00018839E+00
 50
9.00000002E+01
 51
1.79989210E+02
  0
ARC
  8
0
 62
7
 10
1.61577573E+02
 20
-5.87630056E+01
 40
1.00451413E+00
 50
9.02569019E+01
 51
1.79743098E+02
  0
ARC
  8
0
 62
7
 10
1.61320442E+02
 20
-5.82630174E+01
 40
1.00452604E+00
 50
9.02575757E+01
 51
1.79742424E+02
  0
ARC
  8
0
 62
7
 10
1.60721786E+02
 20
-5.77643619E+01
 40
1.00587749E+00
 50
9.03338157E+01
 51
1.79666184E+02
  0
ARC
  8
0
 62
7
 10
1.68487358E+02
 20
-9.02585052E+01
 40
9.99996965E-01
 50
2.70000000E+02
 51
1.74845095E-04
  0
ARC
  8
0
 62
7
 10
1.68487362E+02
 20
-9.07585095E+01
 40
9.99992606E-01
 50
2.70000000E+02
 51
4.24641185E-04
  0
ARC
  8
0
 62
7
 10
1.63416126E+02
 20
-9.02583020E+01
 40
1.00020016E+00
 50
1.80011464E+02
 51
2.70000000E+02
  0
ARC
  8
0
 62
7
 10
1.61577574E+02
 20
-9.07539972E+01
 40
1.00451500E+00
 50
1.80256951E+02
 51
2.69743048E+02
  0
LINE
  8
0
  6
CENTER
 62
2
 10
-5.34285763E+01
 20
1.09370074E+02
 11
7.05714259E+01
 21
1.09370074E+02
  0
LINE
  8
0
 62
7
 10
-3.49285759E+01
 20
8.43700735E+01
 11
-1.29000041E+01
 21
8.43700735E+01
  0
LINE
  8
0
 62
7
 10
-3.49285759E+01
 20
1.34370074E+02
 11
5.20714255E+01
 21
1.34370074E+02
  0
LINE
  8
0
  6
CENTER
 62
2
 10
8.57142480E+00
 20
1.53870075E+02
 11
8.57142480E+00
 21
6.48700732E+01
  0
LINE
  8
0
 62
7
 10
-3.64285760E+01
 20
1.32870074E+02
 11
-3.64285760E+01
 21
8.58700735E+01
  0
LINE
  8
0
 62
7
 10
5.35714256E+01
 20
1.32870074E+02
 11
5.35714256E+01
 21
8.58700735E+01
  0
LINE
  8
0
 62
7
 10
5.20714255E+01
 20
1.34370074E+02
 11
5.20714255E+01
 21
8.43700735E+01
  0
LINE
  8
0
 62
7
 10
-3.49285759E+01
 20
1.34370074E+02
 11
-3.49285759E+01
 21
8.43700735E+01
  0
LINE
  8
0
 62
7
 10
-3.49285759E+01
 20
1.34370074E+02
 11
-3.64285760E+01
 21
1.32870074E+02
  0
LINE
  8
0
 62
7
 10
-3.64285760E+01
 20
8.58700735E+01
 11
-3.49285759E+01
 21
8.43700735E+01
  0
LINE
  8
0
 62
7
 10
5.20714255E+01
 20
8.43700735E+01
 11
5.35714256E+01
 21
8.58700735E+01
  0
LINE
  8
0
 62
7
 10
5.20714255E+01
 20
1.34370074E+02
 11
5.35714256E+01
 21
1.32870074E+02
  0
LINE
  8
0
 62
7
 10
-3.64285760E+01
 20
8.58700735E+01
 11
-1.37142899E+01
 21
8.58700735E+01
  0
LINE
  8
0
 62
7
 10
-3.64285760E+01
 20
1.32870074E+02
 11
5.35714256E+01
 21
1.32870074E+02
  0
LINE
  8
0
 62
7
 10
-3.14285759E+01
 20
1.13370074E+02
 11
-3.14285759E+01
 21
1.05370074E+02
  0
LINE
  8
0
 62
7
 10
-3.14285759E+01
 20
1.13370074E+02
 11
-2.04285757E+01
 21
1.09370074E+02
  0
LINE
  8
0
 62
7
 10
-3.14285759E+01
 20
1.05370074E+02
 11
-2.04285757E+01
 21
1.09370074E+02
  0
LINE
  8
0
  6
PHANTOM
 62
6
 10
6.55714258E+01
 20
1.54370075E+02
 11
6.55714258E+01
 21
8.23700735E+01
  0
LINE
  8
0
  6
PHANTOM
 62
6
 10
5.35714256E+01
 20
1.54370075E+02
 11
6.55714258E+01
 21
1.54370075E+02
  0
LINE
  8
0
  6
PHANTOM
 62
6
 10
5.35714256E+01
 20
8.23700735E+01
 11
6.55714258E+01
 21
8.23700735E+01
  0
LINE
  8
0
  6
PHANTOM
 62
6
 10
5.35714256E+01
 20
1.54370075E+02
 11
5.35714256E+01
 21
1.32870074E+02
  0
LINE
  8
0
  6
PHANTOM
 62
6
 10
5.35714256E+01
 20
8.58700735E+01
 11
5.35714256E+01
 21
8.23700735E+01
  0
LINE
  8
0
  6
PHANTOM
 62
6
 10
6.20714257E+01
 20
1.28870074E+02
 11
6.20714257E+01
 21
8.98700736E+01
  0
LINE
  8
0
  6
PHANTOM
 62
6
 10
5.70714256E+01
 20
1.28870074E+02
 11
5.70714256E+01
 21
8.98700736E+01
  0
LINE
  8
0
  6
PHANTOM
 62
6
 10
5.68285685E+01
 20
9.63700737E+01
 11
5.68285685E+01
 21
8.93700736E+01
  0
LINE
  8
0
  6
PHANTOM
 62
6
 10
6.23285686E+01
 20
9.63700737E+01
 11
6.23285686E+01
 21
8.93700736E+01
  0
LINE
  8
0
  6
PHANTOM
 62
6
 10
5.68285685E+01
 20
1.22370074E+02
 11
5.68285685E+01
 21
1.29370074E+02
  0
LINE
  8
0
  6
PHANTOM
 62
6
 10
6.23285686E+01
 20
1.22370074E+02
 11
6.23285686E+01
 21
1.29370074E+02
  0
LINE
  8
0
  6
PHANTOM
 62
6
 10
-4.84285762E+01
 20
1.54370075E+02
 11
-4.84285762E+01
 21
8.23700735E+01
  0
LINE
  8
0
  6
PHANTOM
 62
6
 10
-3.64285760E+01
 20
1.54370075E+02
 11
-4.84285762E+01
 21
1.54370075E+02
  0
LINE
  8
0
  6
PHANTOM
 62
6
 10
-3.64285760E+01
 20
8.23700735E+01
 11
-4.84285762E+01
 21
8.23700735E+01
  0
LINE
  8
0
  6
PHANTOM
 62
6
 10
-4.49285761E+01
 20
1.28870074E+02
 11
-4.49285761E+01
 21
8.98700736E+01
  0
LINE
  8
0
  6
PHANTOM
 62
6
 10
-3.99285760E+01
 20
1.28870074E+02
 11
-3.99285760E+01
 21
8.98700736E+01
  0
LINE
  8
0
  6
PHANTOM
 62
6
 10
-3.96714332E+01
 20
9.63700737E+01
 11
-3.96714332E+01
 21
8.93700736E+01
  0
LINE
  8
0
  6
PHANTOM
 62
6
 10
-4.51714333E+01
 20
9.63700737E+01
 11
-4.51714333E+01
 21
8.93700736E+01
  0
LINE
  8
0
  6
PHANTOM
 62
6
 10
-3.96714332E+01
 20
1.22370074E+02
 11
-3.96714332E+01
 21
1.29370074E+02
  0
LINE
  8
0
  6
PHANTOM
 62
6
 10
-4.51714333E+01
 20
1.22370074E+02
 11
-4.51714333E+01
 21
1.29370074E+02
  0
LINE
  8
0
  6
PHANTOM
 62
6
 10
-3.64285760E+01
 20
1.54370075E+02
 11
-3.64285760E+01
 21
1.32870074E+02
  0
LINE
  8
0
  6
PHANTOM
 62
6
 10
-3.64285760E+01
 20
8.58700735E+01
 11
-3.64285760E+01
 21
8.23700735E+01
  0
LINE
  8
0
 62
7
 10
-3.42857540E+00
 20
1.14112931E+02
 11
-3.42857540E+00
 21
1.12612931E+02
  0
LINE
  8
0
 62
7
 10
-8.42857549E+00
 20
1.14112931E+02
 11
-8.42857549E+00
 21
1.12612931E+02
  0
LINE
  8
0
 62
7
 10
-8.42857549E+00
 20
1.12612931E+02
 11
-3.42857540E+00
 21
1.12612931E+02
  0
LINE
  8
0
 62
7
 10
-8.42857549E+00
 20
1.14112931E+02
 11
-3.42857540E+00
 21
1.14112931E+02
  0
LINE
  8
0
 62
7
 10
2.87142470E+00
 20
8.58700735E+01
 11
5.35714256E+01
 21
8.58700735E+01
  0
LINE
  8
0
 62
7
 10
2.05713898E+00
 20
8.43700735E+01
 11
5.20714255E+01
 21
8.43700735E+01
  0
LINE
  8
0
 62
7
 10
2.77142470E+00
 20
1.05098645E+02
 11
3.28571042E+00
 21
1.05241502E+02
  0
LINE
  8
0
 62
7
 10
1.27142468E+00
 20
1.07698645E+02
 11
1.65713897E+00
 21
1.08084360E+02
  0
LINE
  8
0
 62
7
 10
1.57138943E-01
 20
1.11870074E+02
 11
6.71424666E-01
 21
1.11727217E+02
  0
LINE
  8
0
 62
7
 10
1.57138943E-01
 20
1.14870074E+02
 11
6.71424666E-01
 21
1.14998645E+02
  0
LINE
  8
0
 62
7
 10
1.27142468E+00
 20
1.19027217E+02
 11
1.65713897E+00
 21
1.18641503E+02
  0
LINE
  8
0
 62
7
 10
2.77142470E+00
 20
1.21627217E+02
 11
3.28571042E+00
 21
1.21484360E+02
  0
LINE
  8
0
 62
7
 10
5.81428190E+00
 20
1.24670074E+02
 11
5.95713904E+00
 21
1.24155788E+02
  0
LINE
  8
0
 62
7
 10
8.41428194E+00
 20
1.26170074E+02
 11
8.79999623E+00
 21
1.25784360E+02
  0
LINE
  8
0
 62
7
 10
1.25714249E+01
 20
1.27284360E+02
 11
1.24428534E+01
 21
1.26770074E+02
  0
LINE
  8
0
 62
7
 10
1.55714249E+01
 20
1.27284360E+02
 11
1.57142821E+01
 21
1.26770074E+02
  0
LINE
  8
0
 62
7
 10
1.97428536E+01
 20
1.26170074E+02
 11
1.93571393E+01
 21
1.25784360E+02
  0
LINE
  8
0
 62
7
 10
2.23428536E+01
 20
1.24670074E+02
 11
2.21999965E+01
 21
1.24155788E+02
  0
LINE
  8
0
 62
7
 10
2.53857108E+01
 20
1.21627217E+02
 11
2.48571394E+01
 21
1.21484360E+02
  0
LINE
  8
0
 62
7
 10
2.68857108E+01
 20
1.19027217E+02
 11
2.64999965E+01
 21
1.18641503E+02
  0
LINE
  8
0
 62
7
 10
2.79999966E+01
 20
1.14870074E+02
 11
2.74714251E+01
 21
1.14998645E+02
  0
LINE
  8
0
 62
7
 10
2.79999966E+01
 20
1.11870074E+02
 11
2.74714251E+01
 21
1.11727217E+02
  0
LINE
  8
0
 62
7
 10
2.68857108E+01
 20
1.07698645E+02
 11
2.64999965E+01
 21
1.08084360E+02
  0
LINE
  8
0
 62
7
 10
2.53857108E+01
 20
1.05112931E+02
 11
2.48571394E+01
 21
1.05241502E+02
  0
LINE
  8
0
 62
7
 10
2.23428536E+01
 20
1.02055788E+02
 11
2.21999965E+01
 21
1.02584360E+02
  0
LINE
  8
0
 62
7
 10
1.97428536E+01
 20
1.00555788E+02
 11
1.93571393E+01
 21
1.00941502E+02
  0
LINE
  8
0
 62
7
 10
1.55714249E+01
 20
9.94415023E+01
 11
1.57142821E+01
 21
9.99700738E+01
  0
LINE
  8
0
 62
7
 10
1.25857106E+01
 20
9.94415023E+01
 11
1.24428534E+01
 21
9.99700738E+01
  0
LINE
  8
0
 62
7
 10
8.41428194E+00
 20
1.00555788E+02
 11
8.79999623E+00
 21
1.00941502E+02
  0
LINE
  8
0
 62
7
 10
5.81428190E+00
 20
1.02055788E+02
 11
5.95713904E+00
 21
1.02584360E+02
  0
LINE
  8
0
  6
CENTER
 62
2
 10
1.40714249E+01
 20
9.63700737E+01
 11
1.40714249E+01
 21
1.30370074E+02
  0
LINE
  8
0
  6
CENTER
 62
2
 10
3.10714252E+01
 20
1.13370074E+02
 11
-2.92857540E+00
 21
1.13370074E+02
  0
LINE
  8
0
 62
7
 10
-1.37143251E+00
 20
9.03700736E+01
 11
1.07142467E+00
 21
9.03700736E+01
  0
LINE
  8
0
 62
7
 10
1.19999610E+00
 20
9.38557879E+01
 11
9.14281813E-01
 21
9.33700736E+01
  0
LINE
  8
0
 62
7
 10
-9.28575361E-01
 20
9.59843594E+01
 11
-1.41428966E+00
 21
9.56986451E+01
  0
LINE
  8
0
 62
7
 10
-3.92857541E+00
 20
9.72272166E+01
 11
-3.77143255E+00
 21
9.66843594E+01
  0
LINE
  8
0
 62
7
 10
-6.92857546E+00
 20
9.72272166E+01
 11
-7.07143261E+00
 21
9.66843594E+01
  0
LINE
  8
0
 62
7
 10
-9.91428980E+00
 20
9.59843594E+01
 11
-9.42857551E+00
 21
9.56986451E+01
  0
LINE
  8
0
 62
7
 10
-1.20428613E+01
 20
9.38557879E+01
 11
-1.17571470E+01
 21
9.33700736E+01
  0
LINE
  8
0
 62
7
 10
-1.32857184E+01
 20
9.08700736E+01
 11
-1.27428613E+01
 21
9.10129308E+01
  0
LINE
  8
0
 62
7
 10
-1.32857184E+01
 20
8.78700736E+01
 11
-1.27428613E+01
 21
8.77129307E+01
  0
LINE
  8
0
 62
7
 10
-1.20428613E+01
 20
8.48700735E+01
 11
-1.17571470E+01
 21
8.53557878E+01
  0
LINE
  8
0
 62
7
 10
-9.91428980E+00
 20
8.27415020E+01
 11
-9.42857551E+00
 21
8.30272163E+01
  0
LINE
  8
0
 62
7
 10
-6.92857546E+00
 20
8.15129306E+01
 11
-7.07143261E+00
 21
8.20415020E+01
  0
LINE
  8
0
 62
7
 10
-3.92857541E+00
 20
8.15129306E+01
 11
-3.77143255E+00
 21
8.20415020E+01
  0
LINE
  8
0
 62
7
 10
-9.28575361E-01
 20
8.27415020E+01
 11
-1.41428966E+00
 21
8.30272163E+01
  0
LINE
  8
0
 62
7
 10
1.19999610E+00
 20
8.48700735E+01
 11
9.14281813E-01
 21
8.53557878E+01
  0
LINE
  8
0
 62
7
 10
-1.37143251E+00
 20
8.83700736E+01
 11
1.07142467E+00
 21
8.83700736E+01
  0
LINE
  8
0
 62
7
 10
-1.19285755E+01
 20
8.83700736E+01
 11
-1.19285755E+01
 21
9.03700736E+01
  0
LINE
  8
0
 62
7
 10
-1.19285755E+01
 20
9.03700736E+01
 11
-9.47143265E+00
 21
9.03700736E+01
  0
LINE
  8
0
 62
7
 10
-1.19285755E+01
 20
8.83700736E+01
 11
-9.47143265E+00
 21
8.83700736E+01
  0
LINE
  8
0
 62
7
 10
2.42856755E+00
 20
8.78700736E+01
 11
1.89999612E+00
 21
8.77272164E+01
  0
LINE
  8
0
 62
7
 10
2.44285327E+00
 20
9.08700736E+01
 11
1.89999612E+00
 21
9.10129308E+01
  0
LINE
  8
0
  6
CENTER
 62
2
 10
-5.42857544E+00
 20
7.83700734E+01
 11
-5.42857544E+00
 21
1.00370074E+02
  0
LINE
  8
0
  6
CENTER
 62
2
 10
-1.64285756E+01
 20
8.93700736E+01
 11
5.57142475E+00
 21
8.93700736E+01
  0
LINE
  8
0
 62
7
 10
-9.47143265E+00
 20
8.70272164E+01
 11
-9.47143265E+00
 21
9.16986450E+01
  0
LINE
  8
0
 62
7
 10
-1.37143251E+00
 20
8.70272164E+01
 11
-1.37143251E+00
 21
9.16986450E+01
  0
LINE
  8
0
 62
7
 10
-1.37143251E+00
 20
9.16986450E+01
 11
-5.42857544E+00
 21
9.40415022E+01
  0
LINE
  8
0
 62
7
 10
-5.42857544E+00
 20
8.46843592E+01
 11
-9.47143265E+00
 21
8.70272164E+01
  0
LINE
  8
0
 62
7
 10
-9.47143265E+00
 20
9.16986450E+01
 11
-5.42857544E+00
 21
9.40415022E+01
  0
LINE
  8
0
 62
7
 10
-5.42857544E+00
 20
8.46843592E+01
 11
-1.37143251E+00
 21
8.70272164E+01
  0
LINE
  8
0
 62
7
 10
1.07142467E+00
 20
8.83700736E+01
 11
1.07142467E+00
 21
9.03700736E+01
  0
ARC
  8
0
 62
7
 10
8.57856766E+00
 20
1.09370052E+02
 40
3.94974707E+01
 50
3.92682897E+01
 51
1.40731710E+02
  0
ARC
  8
0
 62
7
 10
8.57856766E+00
 20
1.09370052E+02
 40
3.84998170E+01
 50
4.04929384E+01
 51
1.39507061E+02
  0
ARC
  8
0
 62
7
 10
8.57856766E+00
 20
1.09370053E+02
 40
3.84997887E+01
 50
2.20492889E+02
 51
3.19507111E+02
  0
ARC
  8
0
 62
7
 10
8.57856766E+00
 20
1.09370053E+02
 40
3.94974431E+01
 50
2.19268241E+02
 51
3.20731759E+02
  0
ARC
  8
0
  6
PHANTOM
 62
6
 10
5.95714257E+01
 20
1.28870074E+02
 40
2.50000004E+00
 50
0.00000000E+00
 51
1.80000000E+02
  0
ARC
  8
0
  6
PHANTOM
 62
6
 10
5.95714257E+01
 20
8.98700736E+01
 40
2.50000004E+00
 50
1.80000000E+02
 51
0.00000000E+00
  0
ARC
  8
0
  6
PHANTOM
 62
6
 10
5.95785685E+01
 20
8.93700736E+01
 40
2.75000005E+00
 50
1.80000000E+02
 51
0.00000000E+00
  0
ARC
  8
0
  6
PHANTOM
 62
6
 10
5.95756623E+01
 20
9.63510269E+01
 40
2.75297221E+00
 50
3.96410888E-01
 51
2.49643561E+01
  0
ARC
  8
0
  6
PHANTOM
 62
6
 10
5.95743967E+01
 20
9.63838173E+01
 40
2.74586265E+00
 50
1.55719422E+02
 51
1.80286779E+02
  0
ARC
  8
0
  6
PHANTOM
 62
6
 10
5.95772819E+01
 20
1.22342908E+02
 40
2.74884764E+00
 50
1.79433755E+02
 51
2.04272253E+02
  0
ARC
  8
0
  6
PHANTOM
 62
6
 10
5.95785685E+01
 20
1.29370074E+02
 40
2.75000005E+00
 50
0.00000000E+00
 51
1.80000000E+02
  0
ARC
  8
0
  6
PHANTOM
 62
6
 10
5.95726164E+01
 20
1.22375365E+02
 40
2.75595723E+00
 50
3.35052382E+02
 51
3.59890003E+02
  0
ARC
  8
0
  6
PHANTOM
 62
6
 10
-4.24227115E+01
 20
1.22342910E+02
 40
2.74885595E+00
 50
1.79433793E+02
 51
2.04272215E+02
  0
ARC
  8
0
  6
PHANTOM
 62
6
 10
-4.24285761E+01
 20
1.28870074E+02
 40
2.50000004E+00
 50
0.00000000E+00
 51
1.80000000E+02
  0
ARC
  8
0
  6
PHANTOM
 62
6
 10
-4.24285761E+01
 20
8.98700736E+01
 40
2.50000004E+00
 50
1.80000000E+02
 51
0.00000000E+00
  0
ARC
  8
0
  6
PHANTOM
 62
6
 10
-4.24214332E+01
 20
8.93700736E+01
 40
2.75000005E+00
 50
1.80000000E+02
 51
0.00000000E+00
  0
ARC
  8
0
  6
PHANTOM
 62
6
 10
-4.24255967E+01
 20
9.63838156E+01
 40
2.74587097E+00
 50
1.55719460E+02
 51
1.80286742E+02
  0
ARC
  8
0
  6
PHANTOM
 62
6
 10
-4.24243312E+01
 20
9.63510288E+01
 40
2.75296388E+00
 50
3.96373162E-01
 51
2.49643938E+01
  0
ARC
  8
0
  6
PHANTOM
 62
6
 10
-4.24273770E+01
 20
1.22375363E+02
 40
2.75594891E+00
 50
3.35052344E+02
 51
3.59890040E+02
  0
ARC
  8
0
  6
PHANTOM
 62
6
 10
-4.24214332E+01
 20
1.29370074E+02
 40
2.75000005E+00
 50
0.00000000E+00
 51
1.80000000E+02
  0
ARC
  8
0
 62
7
 10
-5.42143258E+00
 20
8.93700529E+01
 40
9.00118533E+00
 50
2.02882053E+02
 51
3.37117947E+02
  0
ARC
  8
0
 62
7
 10
1.40552501E+01
 20
1.13386114E+02
 40
1.35004591E+01
 50
3.68591303E+01
 51
5.37255155E+01
  0
ARC
  8
0
 62
7
 10
1.41110566E+01
 20
1.13380752E+02
 40
1.34928446E+01
 50
9.71020011E+01
 51
1.13179966E+02
  0
ARC
  8
0
 62
7
 10
1.40714271E+01
 20
1.13370072E+02
 40
1.34971610E+01
 50
1.26954800E+02
 51
1.43045200E+02
  0
CIRCLE
  8
0
 62
7
 10
1.40714554E+01
 20
1.13370100E+02
 40
6.99999957E+00
  0
ARC
  8
0
 62
7
 10
1.40699174E+01
 20
1.13375862E+02
 40
1.34994012E+01
 50
6.90430770E+00
 51
2.29585266E+01
  0
CIRCLE
  8
0
 62
7
 10
1.40714554E+01
 20
1.13370100E+02
 40
1.40000005E+01
  0
ARC
  8
0
 62
7
 10
1.40451174E+01
 20
1.13377199E+02
 40
1.34964894E+01
 50
6.68222187E+01
 51
8.28958134E+01
  0
CIRCLE
  8
0
 62
7
 10
1.40714554E+01
 20
1.13370100E+02
 40
1.25000002E+01
  0
ARC
  8
0
 62
7
 10
1.40663352E+01
 20
1.13350955E+02
 40
1.35030724E+01
 50
3.37043670E+02
 51
3.53093495E+02
  0
ARC
  8
0
 62
7
 10
1.40714271E+01
 20
1.13370072E+02
 40
1.35057480E+01
 50
3.07003226E+02
 51
3.22996774E+02
  0
ARC
  8
0
 62
7
 10
1.40905335E+01
 20
1.13375202E+02
 40
1.35031120E+01
 50
2.76906528E+02
 51
2.92956306E+02
  0
ARC
  8
0
 62
7
 10
1.40656543E+01
 20
1.13371648E+02
 40
1.34994699E+01
 50
2.47041515E+02
 51
2.63095651E+02
  0
ARC
  8
0
 62
7
 10
1.40496462E+01
 20
1.13391842E+02
 40
1.35014942E+01
 50
2.17132624E+02
 51
2.33174591E+02
  0
ARC
  8
0
 62
7
 10
1.40643673E+01
 20
1.13396400E+02
 40
1.34965582E+01
 50
1.87104228E+02
 51
2.03177740E+02
  0
ARC
  8
0
 62
7
 10
1.40607858E+01
 20
1.13330432E+02
 40
1.34928843E+01
 50
1.56820057E+02
 51
1.72897975E+02
  0
CIRCLE
  8
0
 62
7
 10
-5.42853620E+00
 20
8.93700518E+01
 40
5.99999983E+00
  0
CIRCLE
  8
0
 62
7
 10
-5.42853620E+00
 20
8.93700954E+01
 40
7.99999932E+00
  0
CIRCLE
  8
0
 62
7
 10
-5.42853620E+00
 20
8.93700954E+01
 40
4.05000012E+00
  0
CIRCLE
  8
0
 62
7
 10
-5.42853620E+00
 20
8.93700954E+01
 40
7.50000013E+00
  0
ARC
  8
0
 62
7
 10
3.57148229E+00
 20
1.16370168E+02
 40
3.99407215E+00
 50
1.17941249E+02
 51
2.10050670E+02
  0
LINE
  8
0
 62
4
 10
-2.06167948E+02
 20
4.23607286E+01
 11
-1.91010805E+02
 21
4.23607286E+01
  0
LINE
  8
0
 62
4
 10
-2.06667948E+02
 20
4.28607286E+01
 11
-2.06667948E+02
 21
4.38607286E+01
  0
LINE
  8
0
 62
4
 10
-1.90510805E+02
 20
4.28607286E+01
 11
-1.90510805E+02
 21
4.38607286E+01
  0
LINE
  8
0
 62
4
 10
-1.91010805E+02
 20
4.23607286E+01
 11
-1.90510805E+02
 21
4.28607286E+01
  0
LINE
  8
0
 62
4
 10
-2.06167948E+02
 20
4.23607286E+01
 11
-2.06667948E+02
 21
4.28607286E+01
  0
LINE
  8
0
 62
4
 10
-1.91839376E+02
 20
2.75750141E+01
 11
-2.05339376E+02
 21
2.75750141E+01
  0
LINE
  8
0
 62
4
 10
-1.90839376E+02
 20
4.05750143E+01
 11
-1.90839376E+02
 21
2.85750141E+01
  0
LINE
  8
0
 62
4
 10
-2.06339377E+02
 20
4.05750143E+01
 11
-2.06339377E+02
 21
2.85750141E+01
  0
LINE
  8
0
 62
4
 10
-1.90839376E+02
 20
2.85750141E+01
 11
-1.91839376E+02
 21
2.75750141E+01
  0
LINE
  8
0
 62
4
 10
-2.05339376E+02
 20
2.75750141E+01
 11
-2.06339377E+02
 21
2.85750141E+01
  0
LINE
  8
0
 62
4
 10
-1.91339376E+02
 20
4.10750143E+01
 11
-2.05839376E+02
 21
4.10750143E+01
  0
LINE
  8
0
 62
4
 10
-1.91339376E+02
 20
4.10750143E+01
 11
-1.90839376E+02
 21
4.05750143E+01
  0
LINE
  8
0
 62
4
 10
-2.05839376E+02
 20
4.10750143E+01
 11
-2.06339377E+02
 21
4.05750143E+01
  0
LINE
  8
0
 62
4
 10
-1.92582233E+02
 20
4.23607286E+01
 11
-1.92582233E+02
 21
4.10750143E+01
  0
LINE
  8
0
 62
4
 10
-2.04582234E+02
 20
4.23607286E+01
 11
-2.04582234E+02
 21
4.10750143E+01
  0
LINE
  8
0
 62
6
 10
-2.03839376E+02
 20
4.23607286E+01
 11
-2.03839376E+02
 21
4.10750143E+01
  0
LINE
  8
0
 62
6
 10
-1.93339376E+02
 20
4.23607286E+01
 11
-1.93339376E+02
 21
4.10750143E+01
  0
LINE
  8
0
 62
4
 10
-2.00082234E+02
 20
3.80750142E+01
 11
-2.00082234E+02
 21
2.85750141E+01
  0
LINE
  8
0
 62
4
 10
-1.97082233E+02
 20
3.80750142E+01
 11
-1.97082233E+02
 21
2.85750141E+01
  0
LINE
  8
0
 62
4
 10
-1.96739376E+02
 20
3.77750142E+01
 11
-1.96739376E+02
 21
2.80750141E+01
  0
LINE
  8
0
 62
4
 10
-2.00425091E+02
 20
3.77750142E+01
 11
-2.00425091E+02
 21
2.80750141E+01
  0
LINE
  8
0
 62
4
 10
-2.02239376E+02
 20
3.77750142E+01
 11
-2.02239376E+02
 21
2.80750141E+01
  0
LINE
  8
0
 62
4
 10
-2.02896519E+02
 20
3.80750142E+01
 11
-2.02896519E+02
 21
2.85750141E+01
  0
LINE
  8
0
 62
4
 10
-2.05025091E+02
 20
3.80750142E+01
 11
-2.05025091E+02
 21
2.85750141E+01
  0
LINE
  8
0
 62
4
 10
-2.05596519E+02
 20
3.77750142E+01
 11
-2.05596519E+02
 21
2.80750141E+01
  0
LINE
  8
0
 62
4
 10
-2.06196519E+02
 20
3.80750142E+01
 11
-2.06196519E+02
 21
2.85750141E+01
  0
LINE
  8
0
 62
4
 10
-1.94925091E+02
 20
3.77750142E+01
 11
-1.94925091E+02
 21
2.80750141E+01
  0
LINE
  8
0
 62
4
 10
-1.94267948E+02
 20
3.80750142E+01
 11
-1.94267948E+02
 21
2.85750141E+01
  0
LINE
  8
0
 62
4
 10
-1.92153662E+02
 20
3.80750142E+01
 11
-1.92153662E+02
 21
2.85750141E+01
  0
LINE
  8
0
 62
4
 10
-1.91582233E+02
 20
3.77750142E+01
 11
-1.91582233E+02
 21
2.80750141E+01
  0
LINE
  8
0
 62
4
 10
-1.90982233E+02
 20
3.80750142E+01
 11
-1.90982233E+02
 21
2.85750141E+01
  0
LINE
  8
0
 62
4
 10
-1.90982233E+02
 20
3.80750142E+01
 11
-1.92153662E+02
 21
3.80750142E+01
  0
LINE
  8
0
 62
4
 10
-1.91582233E+02
 20
3.77750142E+01
 11
-1.92153662E+02
 21
3.77750142E+01
  0
LINE
  8
0
 62
4
 10
-1.90839376E+02
 20
2.85750141E+01
 11
-1.90982233E+02
 21
2.85750141E+01
  0
LINE
  8
0
 62
4
 10
-2.00082234E+02
 20
3.80750142E+01
 11
-2.02896519E+02
 21
3.80750142E+01
  0
LINE
  8
0
 62
4
 10
-2.00425091E+02
 20
3.77750142E+01
 11
-2.02239376E+02
 21
3.77750142E+01
  0
LINE
  8
0
 62
4
 10
-1.94267948E+02
 20
3.80750142E+01
 11
-1.97082233E+02
 21
3.80750142E+01
  0
LINE
  8
0
 62
4
 10
-1.94925091E+02
 20
3.77750142E+01
 11
-1.96739376E+02
 21
3.77750142E+01
  0
LINE
  8
0
 62
4
 10
-2.05025091E+02
 20
3.80750142E+01
 11
-2.06196519E+02
 21
3.80750142E+01
  0
LINE
  8
0
 62
4
 10
-2.05025091E+02
 20
3.77750142E+01
 11
-2.05596519E+02
 21
3.77750142E+01
  0
LINE
  8
0
 62
4
 10
-1.97082233E+02
 20
2.85750141E+01
 11
-2.00082234E+02
 21
2.85750141E+01
  0
LINE
  8
0
 62
4
 10
-2.02896519E+02
 20
2.85750141E+01
 11
-2.05025091E+02
 21
2.85750141E+01
  0
LINE
  8
0
 62
4
 10
-2.06196519E+02
 20
2.85750141E+01
 11
-2.06339377E+02
 21
2.85750141E+01
  0
LINE
  8
0
 62
4
 10
-1.92153662E+02
 20
2.85750141E+01
 11
-1.94267948E+02
 21
2.85750141E+01
  0
LINE
  8
0
 62
4
 10
-1.94925091E+02
 20
2.80750141E+01
 11
-1.96739376E+02
 21
2.80750141E+01
  0
LINE
  8
0
 62
4
 10
-1.91582233E+02
 20
2.80750141E+01
 11
-1.90982233E+02
 21
2.85750141E+01
  0
LINE
  8
0
 62
4
 10
-1.94925091E+02
 20
2.80750141E+01
 11
-1.94267948E+02
 21
2.85750141E+01
  0
LINE
  8
0
 62
4
 10
-1.96753662E+02
 20
2.80750141E+01
 11
-1.97082233E+02
 21
2.85750141E+01
  0
LINE
  8
0
 62
4
 10
-2.00082234E+02
 20
2.85750141E+01
 11
-2.00425091E+02
 21
2.80750141E+01
  0
LINE
  8
0
 62
4
 10
-2.02239376E+02
 20
2.80750141E+01
 11
-2.02896519E+02
 21
2.85750141E+01
  0
LINE
  8
0
 62
4
 10
-2.05596519E+02
 20
2.80750141E+01
 11
-2.06196519E+02
 21
2.85750141E+01
  0
LINE
  8
0
 62
4
 10
-2.05596519E+02
 20
3.77750142E+01
 11
-2.06196519E+02
 21
3.80607285E+01
  0
LINE
  8
0
 62
4
 10
-2.02239376E+02
 20
3.77750142E+01
 11
-2.02896519E+02
 21
3.80607285E+01
  0
LINE
  8
0
 62
4
 10
-2.00425091E+02
 20
3.77750142E+01
 11
-2.00082234E+02
 21
3.80750142E+01
  0
LINE
  8
0
 62
4
 10
-1.96739376E+02
 20
3.77750142E+01
 11
-1.97082233E+02
 21
3.80750142E+01
  0
LINE
  8
0
 62
4
 10
-1.94925091E+02
 20
3.77750142E+01
 11
-1.94267948E+02
 21
3.80750142E+01
  0
LINE
  8
0
 62
4
 10
-1.91582233E+02
 20
3.77750142E+01
 11
-1.90982233E+02
 21
3.80750142E+01
  0
LINE
  8
0
 62
4
 10
-1.92153662E+02
 20
2.85750141E+01
 11
-1.92325091E+02
 21
2.80750141E+01
  0
LINE
  8
0
 62
4
 10
-2.05025091E+02
 20
2.85750141E+01
 11
-2.04853662E+02
 21
2.80750141E+01
  0
LINE
  8
0
 62
4
 10
-2.00425091E+02
 20
2.80750141E+01
 11
-2.02239376E+02
 21
2.80750141E+01
  0
LINE
  8
0
 62
4
 10
-1.91582233E+02
 20
2.80750141E+01
 11
-1.92325091E+02
 21
2.80750141E+01
  0
LINE
  8
0
 62
4
 10
-2.04853662E+02
 20
2.80750141E+01
 11
-2.05596519E+02
 21
2.80750141E+01
  0
LINE
  8
0
 62
4
 10
-1.90839376E+02
 20
4.05750143E+01
 11
-2.06339377E+02
 21
4.05750143E+01
  0
LINE
  8
0
 62
4
 10
-2.06667948E+02
 20
4.28607286E+01
 11
-1.90510805E+02
 21
4.28607286E+01
  0
LINE
  8
0
 62
4
 10
-2.06167948E+02
 20
-1.00482131E+02
 11
-1.91010805E+02
 21
-1.00482131E+02
  0
LINE
  8
0
 62
4
 10
-2.06667948E+02
 20
-9.99821310E+01
 11
-2.06667948E+02
 21
-9.89821310E+01
  0
LINE
  8
0
 62
4
 10
-1.90510805E+02
 20
-9.99821310E+01
 11
-1.90510805E+02
 21
-9.89821310E+01
  0
LINE
  8
0
 62
4
 10
-1.91010805E+02
 20
-1.00482131E+02
 11
-1.90510805E+02
 21
-9.99821310E+01
  0
LINE
  8
0
 62
4
 10
-2.06167948E+02
 20
-1.00482131E+02
 11
-2.06667948E+02
 21
-9.99821310E+01
  0
LINE
  8
0
 62
4
 10
-1.91839376E+02
 20
-1.15282131E+02
 11
-2.05339376E+02
 21
-1.15282131E+02
  0
LINE
  8
0
 62
4
 10
-1.90839376E+02
 20
-1.02282131E+02
 11
-1.90839376E+02
 21
-1.14282131E+02
  0
LINE
  8
0
 62
4
 10
-2.06339377E+02
 20
-1.02282131E+02
 11
-2.06339377E+02
 21
-1.14282131E+02
  0
LINE
  8
0
 62
4
 10
-1.90839376E+02
 20
-1.14282131E+02
 11
-1.91839376E+02
 21
-1.15282131E+02
  0
LINE
  8
0
 62
4
 10
-2.05339376E+02
 20
-1.15282131E+02
 11
-2.06339377E+02
 21
-1.14282131E+02
  0
LINE
  8
0
 62
4
 10
-1.91339376E+02
 20
-1.01782131E+02
 11
-2.05839376E+02
 21
-1.01782131E+02
  0
LINE
  8
0
 62
4
 10
-1.91339376E+02
 20
-1.01782131E+02
 11
-1.90839376E+02
 21
-1.02282131E+02
  0
LINE
  8
0
 62
4
 10
-2.05839376E+02
 20
-1.01782131E+02
 11
-2.06339377E+02
 21
-1.02282131E+02
  0
LINE
  8
0
 62
4
 10
-1.92582233E+02
 20
-1.00482131E+02
 11
-1.92582233E+02
 21
-1.01782131E+02
  0
LINE
  8
0
 62
4
 10
-2.04582234E+02
 20
-1.00482131E+02
 11
-2.04582234E+02
 21
-1.01782131E+02
  0
LINE
  8
0
 62
6
 10
-2.03839376E+02
 20
-1.00482131E+02
 11
-2.03839376E+02
 21
-1.01782131E+02
  0
LINE
  8
0
 62
6
 10
-1.93339376E+02
 20
-1.00482131E+02
 11
-1.93339376E+02
 21
-1.01782131E+02
  0
LINE
  8
0
 62
4
 10
-2.00082234E+02
 20
-1.04782131E+02
 11
-2.00082234E+02
 21
-1.14282131E+02
  0
LINE
  8
0
 62
4
 10
-1.97082233E+02
 20
-1.04782131E+02
 11
-1.97082233E+02
 21
-1.14282131E+02
  0
LINE
  8
0
 62
4
 10
-1.96739376E+02
 20
-1.05067845E+02
 11
-1.96739376E+02
 21
-1.14782131E+02
  0
LINE
  8
0
 62
4
 10
-2.00425091E+02
 20
-1.05067845E+02
 11
-2.00425091E+02
 21
-1.14782131E+02
  0
LINE
  8
0
 62
4
 10
-2.02239376E+02
 20
-1.05067845E+02
 11
-2.02239376E+02
 21
-1.14782131E+02
  0
LINE
  8
0
 62
4
 10
-2.02896519E+02
 20
-1.04782131E+02
 11
-2.02896519E+02
 21
-1.14282131E+02
  0
LINE
  8
0
 62
4
 10
-2.05025091E+02
 20
-1.04782131E+02
 11
-2.05025091E+02
 21
-1.14282131E+02
  0
LINE
  8
0
 62
4
 10
-2.05596519E+02
 20
-1.05067845E+02
 11
-2.05596519E+02
 21
-1.14782131E+02
  0
LINE
  8
0
 62
4
 10
-2.06196519E+02
 20
-1.04782131E+02
 11
-2.06196519E+02
 21
-1.14282131E+02
  0
LINE
  8
0
 62
4
 10
-1.94925091E+02
 20
-1.05067845E+02
 11
-1.94925091E+02
 21
-1.14782131E+02
  0
LINE
  8
0
 62
4
 10
-1.94267948E+02
 20
-1.04782131E+02
 11
-1.94267948E+02
 21
-1.14282131E+02
  0
LINE
  8
0
 62
4
 10
-1.92153662E+02
 20
-1.04782131E+02
 11
-1.92153662E+02
 21
-1.14282131E+02
  0
LINE
  8
0
 62
4
 10
-1.91582233E+02
 20
-1.05067845E+02
 11
-1.91582233E+02
 21
-1.14782131E+02
  0
LINE
  8
0
 62
4
 10
-1.90982233E+02
 20
-1.04782131E+02
 11
-1.90982233E+02
 21
-1.14282131E+02
  0
LINE
  8
0
 62
4
 10
-1.90982233E+02
 20
-1.04782131E+02
 11
-1.92153662E+02
 21
-1.04782131E+02
  0
LINE
  8
0
 62
4
 10
-1.91582233E+02
 20
-1.05067845E+02
 11
-1.92153662E+02
 21
-1.05067845E+02
  0
LINE
  8
0
 62
4
 10
-1.90839376E+02
 20
-1.14282131E+02
 11
-1.90982233E+02
 21
-1.14282131E+02
  0
LINE
  8
0
 62
4
 10
-2.00082234E+02
 20
-1.04782131E+02
 11
-2.02896519E+02
 21
-1.04782131E+02
  0
LINE
  8
0
 62
4
 10
-2.00425091E+02
 20
-1.05067845E+02
 11
-2.02239376E+02
 21
-1.05067845E+02
  0
LINE
  8
0
 62
4
 10
-1.94267948E+02
 20
-1.04782131E+02
 11
-1.97082233E+02
 21
-1.04782131E+02
  0
LINE
  8
0
 62
4
 10
-1.94925091E+02
 20
-1.05067845E+02
 11
-1.96739376E+02
 21
-1.05067845E+02
  0
LINE
  8
0
 62
4
 10
-2.05025091E+02
 20
-1.04782131E+02
 11
-2.06196519E+02
 21
-1.04782131E+02
  0
LINE
  8
0
 62
4
 10
-2.05025091E+02
 20
-1.05067845E+02
 11
-2.05596519E+02
 21
-1.05067845E+02
  0
LINE
  8
0
 62
4
 10
-1.97082233E+02
 20
-1.14282131E+02
 11
-2.00082234E+02
 21
-1.14282131E+02
  0
LINE
  8
0
 62
4
 10
-2.02896519E+02
 20
-1.14282131E+02
 11
-2.05025091E+02
 21
-1.14282131E+02
  0
LINE
  8
0
 62
4
 10
-2.06196519E+02
 20
-1.14282131E+02
 11
-2.06339377E+02
 21
-1.14282131E+02
  0
LINE
  8
0
 62
4
 10
-1.92153662E+02
 20
-1.14282131E+02
 11
-1.94267948E+02
 21
-1.14282131E+02
  0
LINE
  8
0
 62
4
 10
-1.94925091E+02
 20
-1.14782131E+02
 11
-1.96739376E+02
 21
-1.14782131E+02
  0
LINE
  8
0
 62
4
 10
-1.91582233E+02
 20
-1.14782131E+02
 11
-1.90982233E+02
 21
-1.14282131E+02
  0
LINE
  8
0
 62
4
 10
-1.94925091E+02
 20
-1.14782131E+02
 11
-1.94267948E+02
 21
-1.14282131E+02
  0
LINE
  8
0
 62
4
 10
-1.96753662E+02
 20
-1.14782131E+02
 11
-1.97082233E+02
 21
-1.14282131E+02
  0
LINE
  8
0
 62
4
 10
-2.00082234E+02
 20
-1.14282131E+02
 11
-2.00425091E+02
 21
-1.14782131E+02
  0
LINE
  8
0
 62
4
 10
-2.02239376E+02
 20
-1.14782131E+02
 11
-2.02896519E+02
 21
-1.14282131E+02
  0
LINE
  8
0
 62
4
 10
-2.05596519E+02
 20
-1.14782131E+02
 11
-2.06196519E+02
 21
-1.14282131E+02
  0
LINE
  8
0
 62
4
 10
-2.05596519E+02
 20
-1.05067845E+02
 11
-2.06196519E+02
 21
-1.04782131E+02
  0
LINE
  8
0
 62
4
 10
-2.02239376E+02
 20
-1.05067845E+02
 11
-2.02910805E+02
 21
-1.04782131E+02
  0
LINE
  8
0
 62
4
 10
-2.00425091E+02
 20
-1.05067845E+02
 11
-2.00082234E+02
 21
-1.04782131E+02
  0
LINE
  8
0
 62
4
 10
-1.96739376E+02
 20
-1.05067845E+02
 11
-1.97082233E+02
 21
-1.04782131E+02
  0
LINE
  8
0
 62
4
 10
-1.94925091E+02
 20
-1.05067845E+02
 11
-1.94267948E+02
 21
-1.04782131E+02
  0
LINE
  8
0
 62
4
 10
-1.91582233E+02
 20
-1.05067845E+02
 11
-1.90982233E+02
 21
-1.04782131E+02
  0
LINE
  8
0
 62
4
 10
-1.92153662E+02
 20
-1.14282131E+02
 11
-1.92325091E+02
 21
-1.14782131E+02
  0
LINE
  8
0
 62
4
 10
-2.05025091E+02
 20
-1.14282131E+02
 11
-2.04853662E+02
 21
-1.14782131E+02
  0
LINE
  8
0
 62
4
 10
-2.00425091E+02
 20
-1.14782131E+02
 11
-2.02239376E+02
 21
-1.14782131E+02
  0
LINE
  8
0
 62
4
 10
-1.91582233E+02
 20
-1.14782131E+02
 11
-1.92325091E+02
 21
-1.14782131E+02
  0
LINE
  8
0
 62
4
 10
-2.04853662E+02
 20
-1.14782131E+02
 11
-2.05596519E+02
 21
-1.14782131E+02
  0
LINE
  8
0
 62
4
 10
-1.90839376E+02
 20
-1.02282131E+02
 11
-2.06339377E+02
 21
-1.02282131E+02
  0
LINE
  8
0
 62
4
 10
-1.92582233E+02
 20
-1.16782131E+02
 11
-2.04582234E+02
 21
-1.16782131E+02
  0
LINE
  8
0
 62
4
 10
-1.92082233E+02
 20
-1.16282131E+02
 11
-1.92082233E+02
 21
-1.15282131E+02
  0
LINE
  8
0
 62
4
 10
-2.05082234E+02
 20
-1.16282131E+02
 11
-2.05082234E+02
 21
-1.15282131E+02
  0
LINE
  8
0
 62
4
 10
-2.05082234E+02
 20
-1.16282131E+02
 11
-2.04582234E+02
 21
-1.16782131E+02
  0
LINE
  8
0
 62
4
 10
-1.92582233E+02
 20
-1.16782131E+02
 11
-1.92082233E+02
 21
-1.16282131E+02
  0
LINE
  8
0
 62
4
 10
-1.95767948E+02
 20
-1.23782131E+02
 11
-2.01410805E+02
 21
-1.23782131E+02
  0
LINE
  8
0
 62
4
 10
-2.01839376E+02
 20
-1.21382131E+02
 11
-2.01839376E+02
 21
-1.21182131E+02
  0
LINE
  8
0
 62
4
 10
-1.95339376E+02
 20
-1.21382131E+02
 11
-1.95339376E+02
 21
-1.21182131E+02
  0
LINE
  8
0
 62
4
 10
-1.95339376E+02
 20
-1.21182131E+02
 11
-2.01839376E+02
 21
-1.21182131E+02
  0
LINE
  8
0
 62
4
 10
-1.95339376E+02
 20
-1.18582131E+02
 11
-2.01839376E+02
 21
-1.18582131E+02
  0
LINE
  8
0
 62
4
 10
-1.95339376E+02
 20
-1.18782131E+02
 11
-2.01839376E+02
 21
-1.18782131E+02
  0
LINE
  8
0
 62
4
 10
-1.95339376E+02
 20
-1.21382131E+02
 11
-2.01839376E+02
 21
-1.21382131E+02
  0
LINE
  8
0
 62
4
 10
-2.01839376E+02
 20
-1.18782131E+02
 11
-2.01839376E+02
 21
-1.18582131E+02
  0
LINE
  8
0
 62
4
 10
-1.95339376E+02
 20
-1.18782131E+02
 11
-1.95339376E+02
 21
-1.18582131E+02
  0
LINE
  8
0
 62
4
 10
-2.01839376E+02
 20
-1.18782131E+02
 11
-2.01410805E+02
 21
-1.21182131E+02
  0
LINE
  8
0
 62
4
 10
-2.01839376E+02
 20
-1.21382131E+02
 11
-2.01410805E+02
 21
-1.23782131E+02
  0
LINE
  8
0
 62
4
 10
-1.95339376E+02
 20
-1.21382131E+02
 11
-1.95767948E+02
 21
-1.23782131E+02
  0
LINE
  8
0
 62
4
 10
-1.95339376E+02
 20
-1.18782131E+02
 11
-1.95767948E+02
 21
-1.21182131E+02
  0
LINE
  8
0
 62
4
 10
-1.95739376E+02
 20
-1.18582131E+02
 11
-1.95739376E+02
 21
-1.16782131E+02
  0
LINE
  8
0
 62
4
 10
-2.01439376E+02
 20
-1.18582131E+02
 11
-2.01439376E+02
 21
-1.16782131E+02
  0
LINE
  8
0
 62
4
 10
-2.05082234E+02
 20
-1.16282131E+02
 11
-1.92082233E+02
 21
-1.16282131E+02
  0
LINE
  8
0
 62
4
 10
-2.06667948E+02
 20
-9.99821310E+01
 11
-1.90510805E+02
 21
-9.99821310E+01
  0
LINE
  8
0
 62
2
 10
-2.32219848E+02
 20
-5.99689594E+01
 11
-1.65116649E+02
 21
-7.79492073E+01
  0
LINE
  8
0
 62
2
 10
-2.32219848E+02
 20
8.28739002E+01
 11
-1.65116649E+02
 21
6.48936523E+01
  0
TEXT
  8
0
 62
7
 10
7.60211444E+01
 20
-7.27199037E+00
 40
6.30000019E+00
  1
OUT
 41
1.00000000E+00
  7
MONOTXT
  0
TEXT
  8
0
 62
7
 10
-7.28288577E+01
 20
-7.27199037E+00
 40
6.30000019E+00
  1
IN
 41
1.00000000E+00
  7
MONOTXT
  0
LINE
  8
0
  6
CENTER
 62
2
 10
-1.98582234E+02
 20
7.88607292E+01
 11
-1.98582234E+02
 21
1.88935852E+01
  0
LINE
  8
0
 62
7
 10
-1.80167947E+02
 20
4.38607286E+01
 11
-2.16996520E+02
 21
4.38607286E+01
  0
LINE
  8
0
 62
7
 10
-1.78625090E+02
 20
6.13607289E+01
 11
-1.71725090E+02
 21
6.13607289E+01
  0
LINE
  8
0
 62
7
 10
-2.31996520E+02
 20
5.87321574E+01
 11
-2.32219848E+02
 21
8.28739002E+01
  0
LINE
  8
0
 62
7
 10
-1.65167947E+02
 20
5.87321574E+01
 11
-1.65116649E+02
 21
6.48936523E+01
  0
LINE
  8
0
 62
7
 10
-1.78625090E+02
 20
6.18607289E+01
 11
-1.73553662E+02
 21
6.18607289E+01
  0
LINE
  8
0
 62
7
 10
-1.70725090E+02
 20
6.63964296E+01
 11
-1.70725090E+02
 21
6.23607289E+01
  0
LINE
  8
0
 62
7
 10
-1.72553662E+02
 20
6.68863938E+01
 11
-1.72553662E+02
 21
6.28607289E+01
  0
LINE
  8
0
 62
7
 10
-1.79625090E+02
 20
6.87811774E+01
 11
-1.79625090E+02
 21
6.23607289E+01
  0
LINE
  8
0
 62
7
 10
-1.79010805E+02
 20
6.08607289E+01
 11
-1.71467947E+02
 21
6.08607289E+01
  0
LINE
  8
0
 62
7
 10
-1.79010805E+02
 20
6.03607289E+01
 11
-1.70867947E+02
 21
6.03607289E+01
  0
LINE
  8
0
 62
7
 10
-1.80010805E+02
 20
6.88845292E+01
 11
-1.80010805E+02
 21
6.13607289E+01
  0
LINE
  8
0
 62
7
 10
-1.70467947E+02
 20
6.63275283E+01
 11
-1.70467947E+02
 21
6.18607289E+01
  0
LINE
  8
0
 62
7
 10
-1.69867947E+02
 20
6.61667588E+01
 11
-1.69867947E+02
 21
6.13607289E+01
  0
LINE
  8
0
 62
7
 10
-2.18539377E+02
 20
6.13607289E+01
 11
-2.25453663E+02
 21
6.13607289E+01
  0
LINE
  8
0
 62
7
 10
-2.18539377E+02
 20
6.18607289E+01
 11
-2.23610805E+02
 21
6.18607289E+01
  0
LINE
  8
0
 62
7
 10
-2.26453663E+02
 20
8.13288555E+01
 11
-2.26453663E+02
 21
6.23607289E+01
  0
LINE
  8
0
 62
7
 10
-2.24610805E+02
 20
8.08350634E+01
 11
-2.24610805E+02
 21
6.28607289E+01
  0
LINE
  8
0
 62
7
 10
-2.17539377E+02
 20
7.89402798E+01
 11
-2.17539377E+02
 21
6.23607289E+01
  0
LINE
  8
0
 62
7
 10
-2.18167948E+02
 20
6.08607289E+01
 11
-2.25710805E+02
 21
6.08607289E+01
  0
LINE
  8
0
 62
7
 10
-2.18167948E+02
 20
6.03607289E+01
 11
-2.26310805E+02
 21
6.03607289E+01
  0
LINE
  8
0
 62
7
 10
-2.17167948E+02
 20
7.88407558E+01
 11
-2.17167948E+02
 21
6.13607289E+01
  0
LINE
  8
0
 62
7
 10
-2.26710805E+02
 20
8.13977567E+01
 11
-2.26710805E+02
 21
6.18607289E+01
  0
LINE
  8
0
 62
7
 10
-2.27310805E+02
 20
8.15585263E+01
 11
-2.27310805E+02
 21
6.13607289E+01
  0
ARC
  8
0
 62
7
 10
-1.80170289E+02
 20
5.88636465E+01
 40
1.50029181E+01
 50
2.70008943E+02
 51
3.59497840E+02
  0
ARC
  8
0
 62
7
 10
-2.16994055E+02
 20
5.88637707E+01
 40
1.50030423E+01
 50
1.80502630E+02
 51
2.69990587E+02
  0
ARC
  8
0
 62
7
 10
-1.78621778E+02
 20
6.28640411E+01
 40
1.00331766E+00
 50
1.80189146E+02
 51
2.69810853E+02
  0
ARC
  8
0
 62
7
 10
-1.78621783E+02
 20
6.23640367E+01
 40
1.00331327E+00
 50
1.80188897E+02
 51
2.69811103E+02
  0
ARC
  8
0
 62
7
 10
-1.79006407E+02
 20
6.18651270E+01
 40
1.00440775E+00
 50
1.80250888E+02
 51
2.69749112E+02
  0
ARC
  8
0
 62
7
 10
-1.79006411E+02
 20
6.13651227E+01
 40
1.00440336E+00
 50
1.80250640E+02
 51
2.69749360E+02
  0
ARC
  8
0
 62
7
 10
-1.73557270E+02
 20
6.28643370E+01
 40
1.00361460E+00
 50
2.70205985E+02
 51
3.59794016E+02
  0
ARC
  8
0
 62
7
 10
-1.71725755E+02
 20
6.23613934E+01
 40
1.00066471E+00
 50
2.70000000E+02
 51
3.59961954E+02
  0
ARC
  8
0
 62
7
 10
-1.71468656E+02
 20
6.18614377E+01
 40
1.00070901E+00
 50
2.70000000E+02
 51
3.59959420E+02
  0
ARC
  8
0
 62
7
 10
-1.70870051E+02
 20
6.13628331E+01
 40
1.00210639E+00
 50
2.70120307E+02
 51
3.59879693E+02
  0
ARC
  8
0
 62
7
 10
-2.18542685E+02
 20
6.28640368E+01
 40
1.00331330E+00
 50
2.70188899E+02
 51
3.59811101E+02
  0
ARC
  8
0
 62
7
 10
-2.18542680E+02
 20
6.23640324E+01
 40
1.00330891E+00
 50
2.70188650E+02
 51
3.59811350E+02
  0
ARC
  8
0
 62
7
 10
-2.18165241E+02
 20
6.18580220E+01
 40
9.97296736E-01
 50
2.69844482E+02
 51
1.55517690E-01
  0
ARC
  8
0
 62
7
 10
-2.18165237E+02
 20
6.13580176E+01
 40
9.97292347E-01
 50
2.69844229E+02
 51
1.55771215E-01
  0
ARC
  8
0
 62
7
 10
-2.23607193E+02
 20
6.28643414E+01
 40
1.00361896E+00
 50
1.80206232E+02
 51
2.69793768E+02
  0
ARC
  8
0
 62
7
 10
-2.25445749E+02
 20
6.23686429E+01
 40
1.00794502E+00
 50
1.80449866E+02
 51
2.69550134E+02
  0
ARC
  8
0
 62
7
 10
-2.25702847E+02
 20
6.18686874E+01
 40
1.00798988E+00
 50
1.80452376E+02
 51
2.69547625E+02
  0
ARC
  8
0
 62
7
 10
-2.26301561E+02
 20
6.13699728E+01
 40
1.00928627E+00
 50
1.80524772E+02
 51
2.69475228E+02
  0
LINE
  8
0
  6
CENTER
 62
2
 10
-1.98582234E+02
 20
-6.55249875E+01
 11
-1.98582234E+02
 21
-1.30264358E+02
  0
LINE
  8
0
 62
7
 10
-1.80167947E+02
 20
-9.89821310E+01
 11
-2.17010805E+02
 21
-9.89821310E+01
  0
LINE
  8
0
 62
7
 10
-1.78625090E+02
 20
-8.14821307E+01
 11
-1.71725090E+02
 21
-8.14821307E+01
  0
LINE
  8
0
 62
7
 10
-2.31996520E+02
 20
-8.41107021E+01
 11
-2.32219848E+02
 21
-5.99689594E+01
  0
LINE
  8
0
 62
7
 10
-1.65167947E+02
 20
-8.41107021E+01
 11
-1.65116649E+02
 21
-7.79492073E+01
  0
LINE
  8
0
 62
7
 10
-1.78625090E+02
 20
-8.09821307E+01
 11
-1.73553662E+02
 21
-8.09821307E+01
  0
LINE
  8
0
 62
7
 10
-1.70725090E+02
 20
-7.64464300E+01
 11
-1.70725090E+02
 21
-8.04821306E+01
  0
LINE
  8
0
 62
7
 10
-1.72553662E+02
 20
-7.59564658E+01
 11
-1.72553662E+02
 21
-7.99821306E+01
  0
LINE
  8
0
 62
7
 10
-1.79625090E+02
 20
-7.40616822E+01
 11
-1.79625090E+02
 21
-8.04821306E+01
  0
LINE
  8
0
 62
7
 10
-1.79010805E+02
 20
-8.19821307E+01
 11
-1.71467947E+02
 21
-8.19821307E+01
  0
LINE
  8
0
 62
7
 10
-1.79010805E+02
 20
-8.24821307E+01
 11
-1.70867947E+02
 21
-8.24821307E+01
  0
LINE
  8
0
 62
7
 10
-1.80010805E+02
 20
-7.39583303E+01
 11
-1.80010805E+02
 21
-8.14821307E+01
  0
LINE
  8
0
 62
7
 10
-1.70467947E+02
 20
-7.65153312E+01
 11
-1.70467947E+02
 21
-8.09821307E+01
  0
LINE
  8
0
 62
7
 10
-1.69867947E+02
 20
-7.66761008E+01
 11
-1.69867947E+02
 21
-8.14821307E+01
  0
LINE
  8
0
 62
7
 10
-2.18539377E+02
 20
-8.14821307E+01
 11
-2.25453663E+02
 21
-8.14821307E+01
  0
LINE
  8
0
 62
7
 10
-2.18539377E+02
 20
-8.09821307E+01
 11
-2.23610805E+02
 21
-8.09821307E+01
  0
LINE
  8
0
 62
7
 10
-2.26453663E+02
 20
-6.15140041E+01
 11
-2.26453663E+02
 21
-8.04821306E+01
  0
LINE
  8
0
 62
7
 10
-2.24610805E+02
 20
-6.20077961E+01
 11
-2.24610805E+02
 21
-7.99821306E+01
  0
LINE
  8
0
 62
7
 10
-2.17539377E+02
 20
-6.39025797E+01
 11
-2.17539377E+02
 21
-8.04821306E+01
  0
LINE
  8
0
 62
7
 10
-2.18167948E+02
 20
-8.19821307E+01
 11
-2.25710805E+02
 21
-8.19821307E+01
  0
LINE
  8
0
 62
7
 10
-2.18167948E+02
 20
-8.24821307E+01
 11
-2.26310805E+02
 21
-8.24821307E+01
  0
LINE
  8
0
 62
7
 10
-2.17167948E+02
 20
-6.40021037E+01
 11
-2.17167948E+02
 21
-8.14821307E+01
  0
LINE
  8
0
 62
7
 10
-2.26710805E+02
 20
-6.14451028E+01
 11
-2.26710805E+02
 21
-8.09821307E+01
  0
LINE
  8
0
 62
7
 10
-2.27310805E+02
 20
-6.12843333E+01
 11
-2.27310805E+02
 21
-8.14821307E+01
  0
ARC
  8
0
 62
7
 10
-1.80163146E+02
 20
-8.39864175E+01
 40
1.49957142E+01
 50
2.69981656E+02
 51
3.59525126E+02
  0
ARC
  8
0
 62
7
 10
-2.17001314E+02
 20
-8.39864127E+01
 40
1.49957213E+01
 50
1.80474891E+02
 51
2.69963734E+02
  0
ARC
  8
0
 62
7
 10
-1.78628920E+02
 20
-7.99859602E+01
 40
9.96177852E-01
 50
1.79779742E+02
 51
2.70220258E+02
  0
ARC
  8
0
 62
7
 10
-1.78628924E+02
 20
-8.04859645E+01
 40
9.96173525E-01
 50
1.79779491E+02
 51
2.70220509E+02
  0
ARC
  8
0
 62
7
 10
-1.79013540E+02
 20
-8.09848665E+01
 40
9.97267924E-01
 50
1.79842818E+02
 51
2.70157182E+02
  0
ARC
  8
0
 62
7
 10
-1.79013545E+02
 20
-8.14848708E+01
 40
9.97263597E-01
 50
1.79842568E+02
 51
2.70157432E+02
  0
ARC
  8
0
 62
7
 10
-1.73550130E+02
 20
-7.99856621E+01
 40
9.96474794E-01
 50
2.69796945E+02
 51
2.03055182E-01
  0
ARC
  8
0
 62
7
 10
-1.71718594E+02
 20
-8.04886268E+01
 40
9.93525084E-01
 50
2.69625369E+02
 51
3.74631549E-01
  0
ARC
  8
0
 62
7
 10
-1.71461496E+02
 20
-8.09885823E+01
 40
9.93569296E-01
 50
2.69627952E+02
 51
3.72048491E-01
  0
ARC
  8
0
 62
7
 10
-1.70862901E+02
 20
-8.14871768E+01
 40
9.94966650E-01
 50
2.69709412E+02
 51
2.90587737E-01
  0
ARC
  8
0
 62
7
 10
-2.18535543E+02
 20
-7.99859645E+01
 40
9.96173493E-01
 50
2.69779489E+02
 51
2.20510718E-01
  0
ARC
  8
0
 62
7
 10
-2.18535538E+02
 20
-8.04859689E+01
 40
9.96169166E-01
 50
2.69779239E+02
 51
2.20761493E-01
  0
ARC
  8
0
 62
7
 10
-2.18158056E+02
 20
-8.09920226E+01
 40
9.90157471E-01
 50
2.69427589E+02
 51
5.72410931E-01
  0
ARC
  8
0
 62
7
 10
-2.18158052E+02
 20
-8.14920270E+01
 40
9.90153145E-01
 50
2.69427334E+02
 51
5.72666305E-01
  0
ARC
  8
0
 62
7
 10
-2.23614332E+02
 20
-7.99856577E+01
 40
9.96479156E-01
 50
1.79797197E+02
 51
2.70202802E+02
  0
ARC
  8
0
 62
7
 10
-2.25452857E+02
 20
-8.04813254E+01
 40
1.00080555E+00
 50
1.80046098E+02
 51
2.70000000E+02
  0
ARC
  8
0
 62
7
 10
-2.25710076E+02
 20
-8.09814016E+01
 40
1.00072933E+00
 50
1.80041741E+02
 51
2.70000000E+02
  0
ARC
  8
0
 62
7
 10
-2.26308661E+02
 20
-8.14799860E+01
 40
1.00214696E+00
 50
1.80122616E+02
 51
2.69877384E+02
  0
TEXT
  8
0
 62
7
 10
-1.83124271E+02
 20
-1.39589823E+02
 40
6.30000019E+00
  1
-F2
 41
1.00000000E+00
  7
MONOTXT
  0
TEXT
  8
0
 62
7
 10
-1.79974271E+02
 20
3.25303631E+00
 40
6.30000019E+00
  1
-D
 41
1.00000000E+00
  7
MONOTXT
  0
TEXT
  8
0
 62
7
 10
-2.67600562E+02
 20
1.57350000E+02
 40
6.30000019E+00
  1
MODEL:LN650-06
 41
1.00000000E+00
  7
MONOTXT
  0
TEXT
  8
0
 62
7
 10
-2.29800561E+02
 20
1.47350000E+02
 40
6.30000019E+00
  1
LN651-06
 41
1.00000000E+00
  7
MONOTXT
  0
TEXT
  8
0
 62
7
 10
-2.37060938E+02
 20
1.78350000E+02
 40
6.30000019E+00
  1
LUBRICATOR
 41
1.00000000E+00
  7
MONOTXT
  0
LINE
  8
0
 62
7
 10
-1.31250000E+02
 20
1.95500000E+02
 11
-1.31250000E+02
 21
1.75500000E+02
  0
TEXT
  8
0
 62
7
 10
-2.78010939E+02
 20
1.86350000E+02
 40
6.30000019E+00
  1
F.R.L.LARGE FLOW SERIES
 41
1.05504587E+00
  7
MONOTXT
  0
LINE
  8
0
 62
7
 10
-2.81250000E+02
 20
1.75500000E+02
 11
-1.31250000E+02
 21
1.75500000E+02
  0
LINE
  8
0
 62
7
 10
2.82099854E+02
 20
1.95500000E+02
 11
2.82099854E+02
 21
-1.95000000E+02
  0
LINE
  8
0
 62
7
 10
-2.81250000E+02
 20
1.95500000E+02
 11
2.82099854E+02
 21
1.95500000E+02
  0
LINE
  8
0
 62
7
 10
-2.81250000E+02
 20
1.95500000E+02
 11
-2.81250000E+02
 21
-1.95000000E+02
  0
LINE
  8
0
 62
7
 10
-2.81250000E+02
 20
-1.95000000E+02
 11
2.82099854E+02
 21
-1.95000000E+02
  0
LINE
  8
0
 62
7
 10
1.62099976E+02
 20
-1.75000000E+02
 11
1.62099976E+02
 21
-1.95000000E+02
  0
LINE
  8
0
 62
7
 10
1.62099976E+02
 20
-1.75000000E+02
 11
2.82099854E+02
 21
-1.75000000E+02
  0
LINE
  8
0
 62
7
 10
1.62099976E+02
 20
1.75500000E+02
 11
2.82099854E+02
 21
1.75500000E+02
  0
LINE
  8
0
 62
7
 10
1.62099976E+02
 20
1.95500000E+02
 11
1.62099976E+02
 21
1.75500000E+02
  0
TEXT
  8
0
 62
7
 10
1.97799694E+02
 20
1.82350000E+02
 40
6.30000019E+00
  1
Ver. 1.0
 41
1.08108108E+00
  7
MONOTXT
  0
TEXT
  8
0
 62
7
 10
1.69885289E+02
 20
-1.89500000E+02
 40
9.00000000E+00
  1
KOGANEI CORP.
 41
1.04838710E+00
  7
MONOTXT
  0
ENDSEC
  0
EOF
