  0
SECTION
  2
HEADER
  0
ENDSEC
  0
SECTION
  2
TABLES
  0
TABLE
  2
LTYPE
 70
     4
  0
LTYPE
  2
CONTINUOUS
 70
    64
  3
Solid line
 72
    65
 73
     0
 40
0.000000
  0
LTYPE
  2
DASHED
 70
    64
  3
__ __ __ __ __ __ __ __ __ __ __ __ __ __ __
 72
    65
 73
     2
 40
3.500000
 49
2.000000
 49
-1.500000
  0
LTYPE
  2
CENTER
 70
    64
  3
____ _ ____ _ ____ _ ____ _ ____ _ ____ _ ____
 72
    65
 73
     4
 40
17.500000
 49
13.000000
 49
-1.500000
 49
1.500000
 49
-1.500000
  0
LTYPE
  2
PHANTOM
 70
    64
  3
_____ _ _ _____ _ _ _____ _ _ _____ _ _ ____  
 72
    65
 73
     6
 40
15.500000
 49
8.000000
 49
-1.500000
 49
1.500000
 49
-1.500000
 49
1.500000
 49
-1.500000
  0
LTYPE
  2
DASHED1
 70
    64
  3
__ __ __ __ __ __ __ __ __ __ __ __ __ __ __
 72
    65
 73
     2
 40
1.500000
 49
1.000000
 49
-0.500000
  0
LTYPE
  2
DASHED2
 70
    64
  3
__ __ __ __ __ __ __ __ __ __ __ __ __ __ __
 72
    65
 73
     2
 40
3.500000
 49
2.500000
 49
-1.000000
  0
LTYPE
  2
DASHED3
 70
    64
  3
__ __ __ __ __ __ __ __ __ __ __ __ __ __ __
 72
    65
 73
     2
 40
6.000000
 49
4.000000
 49
-2.000000
  0
LTYPE
  2
DASHED4
 70
    64
  3
__ __ __ __ __ __ __ __ __ __ __ __ __ __ __
 72
    65
 73
     2
 40
12.000000
 49
10.000000
 49
-2.000000
  0
LTYPE
  2
DASHED5
 70
    64
  3
__ __ __ __ __ __ __ __ __ __ __ __ __ __ __
 72
    65
 73
     2
 40
17.000000
 49
15.000000
 49
-2.000000
  0
LTYPE
  2
DASHED6
 70
    64
  3
__ __ __ __ __ __ __ __ __ __ __ __ __ __ __
 72
    65
 73
     2
 40
29.000000
 49
27.000000
 49
-2.000000
  0
LTYPE
  2
PHANTOM1
 70
    64
  3
_____ _ _ _____ _ _ _____ _ _ _____ _ _ ____  
 72
    65
 73
     6
 40
31.000000
 49
25.000000
 49
-1.500000
 49
1.000000
 49
-1.000000
 49
1.000000
 49
-1.500000
  0
LTYPE
  2
PHANTOM2
 70
    64
  3
_____ _ _ _____ _ _ _____ _ _ _____ _ _ ____  
 72
    65
 73
     6
 40
36.000000
 49
27.000000
 49
-1.500000
 49
2.500000
 49
-1.000000
 49
2.500000
 49
-1.500000
  0
LTYPE
  2
PHANTOM3
 70
    64
  3
_____ _ _ _____ _ _ _____ _ _ _____ _ _ ____  
 72
    65
 73
     6
 40
78.000000
 49
64.000000
 49
-2.000000
 49
4.000000
 49
-2.000000
 49
4.000000
 49
-2.000000
  0
LTYPE
  2
CENTER1
 70
    64
  3
____ _ ____ _ ____ _ ____ _ ____ _ ____ _ ____
 72
    65
 73
     4
 40
19.000000
 49
14.000000
 49
-1.000000
 49
3.000000
 49
-1.000000
  0
LTYPE
  2
CENTER2
 70
    64
  3
____ _ ____ _ ____ _ ____ _ ____ _ ____ _ ____
 72
    65
 73
     4
 40
28.500000
 49
25.000000
 49
-1.000000
 49
1.500000
 49
-1.000000
  0
LTYPE
  2
CENTER3
 70
    64
  3
____ _ ____ _ ____ _ ____ _ ____ _ ____ _ ____
 72
    65
 73
     4
 40
31.500000
 49
27.000000
 49
-1.000000
 49
2.500000
 49
-1.000000
  0
LTYPE
  2
CENTER4
 70
    64
  3
____ _ ____ _ ____ _ ____ _ ____ _ ____ _ ____
 72
    65
 73
     4
 40
50.000000
 49
45.000000
 49
-1.000000
 49
3.000000
 49
-1.000000
  0
LTYPE
  2
CENTER5
 70
    64
  3
____ _ ____ _ ____ _ ____ _ ____ _ ____ _ ____
 72
    65
 73
     4
 40
100.000000
 49
92.000000
 49
-2.000000
 49
4.000000
 49
-2.000000
  0
LTYPE
  2
SBK1
 70
    64
  3
______ _ _ _ ______ _ _ _ ______ _ _ _ _____  
 72
    65
 73
     8
 40
60.500000
 49
45.000000
 49
-2.000000
 49
2.500000
 49
-2.000000
 49
2.500000
 49
-2.000000
 49
2.500000
 49
-2.000000
  0
LTYPE
  2
SBK2
 70
    64
  3
______ _ _ _ ______ _ _ _ ______ _ _ _ _____  
 72
    65
 73
     8
 40
84.000000
 49
64.000000
 49
-2.000000
 49
4.000000
 49
-2.000000
 49
4.000000
 49
-2.000000
 49
4.000000
 49
-2.000000
  0
LTYPE
  2
STCH
 70
    64
  3
__ __ __ __ __ __ __ __ __ __ __ __ __ __ __
 72
    65
 73
     2
 40
3.000000
 49
1.000000
 49
-2.000000
  0
LTYPE
  2
MTCH
 70
    64
  3
_____ _ _ _____ _ _ _____ _ _ _____ _ _ ____  
 72
    65
 73
     6
 40
80.000000
 49
66.000000
 49
-2.000000
 49
4.000000
 49
-2.000000
 49
4.000000
 49
-2.000000
  0
ENDTAB
  0
TABLE
  2
LAYER
 70
     1
  0
LAYER
  2
0
 70
     0
 62
     7
  6
CONTINUOUS
  0
ENDTAB
  0
TABLE
  2
STYLE
 70
     1
  0
STYLE
  2
STANDARD
 70
     0
 40
0.000000
 41
1.000000
 50
0.000000
 71
     0
 42
0.200000
  3
txt
  4
BIGFONT
  0
ENDTAB
  0
TABLE
  2
VIEW
 70
     0
  0
ENDTAB
  0
ENDSEC
  0
SECTION
  2
BLOCKS
  0
ENDSEC
  0
SECTION
  2
ENTITIES
  0
LINE
  8
0
 62
     4
 10
-99.179993
 20
-152.769989
 11
-99.179993
 21
-154.269989
  0
LINE
  8
0
 62
     4
 10
-83.679993
 20
-152.769989
 11
-83.679993
 21
-154.269989
  0
LINE
  8
0
 62
     4
 10
-85.429993
 20
-159.269989
 11
-84.179993
 21
-159.269989
  0
LINE
  8
0
 62
     4
 10
-95.429993
 20
-159.269989
 11
-92.929993
 21
-159.269989
  0
LINE
  8
0
 62
     1
 10
-86.229996
 20
-154.769989
 11
-86.229996
 21
-156.269989
  0
LINE
  8
0
 62
     1
 10
-96.629990
 20
-154.769989
 11
-96.629990
 21
-156.269989
  0
LINE
  8
0
 62
     4
 10
-97.429993
 20
-154.769989
 11
-97.429993
 21
-156.269989
  0
LINE
  8
0
 62
     4
 10
-85.429993
 20
-154.769989
 11
-85.429993
 21
-156.269989
  0
LINE
  8
0
 62
     4
 10
-83.679993
 20
-156.769989
 11
-83.679993
 21
-168.769989
  0
LINE
  8
0
 62
     4
 10
-99.179993
 20
-156.769989
 11
-99.179993
 21
-168.769989
  0
LINE
  8
0
 62
     4
 10
-99.179993
 20
-156.769989
 11
-83.679993
 21
-156.769989
  0
LINE
  8
0
 62
     4
 10
-98.679993
 20
-154.769989
 11
-84.179993
 21
-154.769989
  0
LINE
  8
0
 62
     4
 10
-84.179993
 20
-156.269989
 11
-83.680000
 21
-156.769989
  0
LINE
  8
0
 62
     4
 10
-98.679985
 20
-156.269989
 11
-99.179985
 21
-156.769989
  0
LINE
  8
0
 62
     4
 10
-84.179985
 20
-159.269989
 11
-84.679985
 21
-159.769989
  0
LINE
  8
0
 62
     4
 10
-84.679993
 20
-159.769989
 11
-85.429993
 21
-159.769989
  0
LINE
  8
0
 62
     4
 10
-87.429993
 20
-159.269989
 11
-87.929985
 21
-159.769989
  0
LINE
  8
0
 62
     4
 10
-89.929993
 20
-159.269989
 11
-89.429993
 21
-159.769989
  0
LINE
  8
0
 62
     4
 10
-87.929993
 20
-159.769989
 11
-89.429993
 21
-159.769989
  0
LINE
  8
0
 62
     4
 10
-87.929993
 20
-159.769989
 11
-87.929993
 21
-169.269989
  0
LINE
  8
0
 62
     4
 10
-87.429993
 20
-159.269989
 11
-87.429993
 21
-168.769989
  0
LINE
  8
0
 62
     4
 10
-85.429993
 20
-159.269989
 11
-85.429993
 21
-168.769989
  0
LINE
  8
0
 62
     4
 10
-84.179993
 20
-159.269989
 11
-84.179993
 21
-168.769989
  0
LINE
  8
0
 62
     4
 10
-84.679993
 20
-159.769989
 11
-84.679993
 21
-169.269989
  0
LINE
  8
0
 62
     4
 10
-84.179985
 20
-168.769974
 11
-84.679985
 21
-169.269974
  0
LINE
  8
0
 62
     4
 10
-84.679993
 20
-169.269989
 11
-85.929993
 21
-169.269989
  0
LINE
  8
0
 62
     4
 10
-85.429993
 20
-168.769989
 11
-85.930000
 21
-169.269989
  0
LINE
  8
0
 62
     4
 10
-85.429993
 20
-168.769989
 11
-87.429993
 21
-168.769989
  0
LINE
  8
0
 62
     4
 10
-87.429993
 20
-168.769989
 11
-87.929985
 21
-169.269974
  0
LINE
  8
0
 62
     4
 10
-87.929993
 20
-169.269989
 11
-89.429993
 21
-169.269989
  0
LINE
  8
0
 62
     4
 10
-89.929993
 20
-168.769989
 11
-89.429993
 21
-169.269989
  0
LINE
  8
0
 62
     4
 10
-89.429993
 20
-159.769989
 11
-89.429993
 21
-169.269989
  0
LINE
  8
0
 62
     4
 10
-98.679985
 20
-168.769989
 11
-98.179985
 21
-169.269989
  0
LINE
  8
0
 62
     4
 10
-97.429993
 20
-168.769989
 11
-95.429993
 21
-168.769989
  0
LINE
  8
0
 62
     4
 10
-98.679985
 20
-159.269989
 11
-98.179985
 21
-159.769989
  0
LINE
  8
0
 62
     4
 10
-98.179993
 20
-159.769989
 11
-98.179993
 21
-169.269989
  0
LINE
  8
0
 62
     4
 10
-94.929993
 20
-169.269989
 11
-93.429993
 21
-169.269989
  0
LINE
  8
0
 62
     4
 10
-95.429993
 20
-168.769989
 11
-94.929993
 21
-169.269989
  0
LINE
  8
0
 62
     4
 10
-94.929993
 20
-159.769989
 11
-93.429993
 21
-159.769989
  0
LINE
  8
0
 62
     4
 10
-97.429993
 20
-168.769989
 11
-96.929993
 21
-169.269989
  0
LINE
  8
0
 62
     4
 10
-92.929993
 20
-159.269989
 11
-93.429993
 21
-159.769989
  0
LINE
  8
0
 62
     4
 10
-95.429993
 20
-159.269989
 11
-94.929993
 21
-159.769989
  0
LINE
  8
0
 62
     4
 10
-94.929993
 20
-159.769989
 11
-94.929993
 21
-169.269989
  0
LINE
  8
0
 62
     4
 10
-98.179993
 20
-159.769989
 11
-97.429993
 21
-159.769989
  0
LINE
  8
0
 62
     4
 10
-97.429993
 20
-159.269989
 11
-97.429993
 21
-168.769989
  0
LINE
  8
0
 62
     4
 10
-92.929993
 20
-168.769989
 11
-89.929993
 21
-168.769989
  0
LINE
  8
0
 62
     4
 10
-92.929993
 20
-168.769989
 11
-93.429993
 21
-169.269989
  0
LINE
  8
0
 62
     4
 10
-98.179993
 20
-169.269989
 11
-96.929993
 21
-169.269989
  0
LINE
  8
0
 62
     4
 10
-95.429993
 20
-159.269989
 11
-95.429993
 21
-168.769989
  0
LINE
  8
0
 62
     4
 10
-98.679993
 20
-159.269989
 11
-98.679993
 21
-168.769989
  0
LINE
  8
0
 62
     4
 10
-93.429993
 20
-159.769989
 11
-93.429993
 21
-169.269989
  0
LINE
  8
0
 62
     4
 10
-89.929993
 20
-159.269989
 11
-87.429993
 21
-159.269989
  0
LINE
  8
0
 62
     4
 10
-98.679993
 20
-159.269989
 11
-97.429993
 21
-159.269989
  0
LINE
  8
0
 62
     4
 10
-92.929993
 20
-159.269989
 11
-92.929993
 21
-168.769989
  0
LINE
  8
0
 62
     4
 10
-89.929993
 20
-159.269989
 11
-89.929993
 21
-168.769989
  0
LINE
  8
0
 62
     4
 10
-83.679993
 20
-168.769989
 11
-84.679993
 21
-169.769989
  0
LINE
  8
0
 62
     4
 10
-99.179977
 20
-168.769989
 11
-98.179977
 21
-169.769989
  0
LINE
  8
0
 62
     4
 10
-98.179993
 20
-169.769989
 11
-84.679993
 21
-169.769989
  0
LINE
  8
0
 62
     4
 10
-98.679993
 20
-156.269989
 11
-84.179993
 21
-156.269989
  0
LINE
  8
0
 62
     4
 10
-99.179993
 20
-154.269989
 11
-98.679993
 21
-154.769989
  0
LINE
  8
0
 62
     4
 10
-84.179993
 20
-154.769989
 11
-83.679993
 21
-154.269989
  0
LINE
  8
0
 62
     4
 10
-198.929993
 20
-178.269989
 11
-201.429993
 21
-178.269989
  0
LINE
  8
0
 62
     4
 10
-203.929993
 20
-178.269989
 11
-201.429993
 21
-178.269989
  0
LINE
  8
0
 62
     4
 10
-195.429993
 20
-159.269989
 11
-194.179993
 21
-159.269989
  0
LINE
  8
0
 62
     4
 10
-205.429993
 20
-159.269989
 11
-202.929993
 21
-159.269989
  0
LINE
  8
0
 62
     4
 10
-207.429993
 20
-170.569977
 11
-206.729980
 21
-171.269989
  0
LINE
  8
0
 62
     4
 10
-206.729996
 20
-171.269989
 11
-196.129990
 21
-171.269989
  0
LINE
  8
0
 62
     4
 10
-198.179993
 20
-173.269989
 11
-201.429993
 21
-173.269989
  0
LINE
  8
0
 62
     4
 10
-198.929977
 20
-175.769989
 11
-198.179977
 21
-173.269989
  0
LINE
  8
0
 62
     4
 10
-198.179993
 20
-175.769989
 11
-201.429993
 21
-175.769989
  0
LINE
  8
0
 62
     4
 10
-203.929977
 20
-175.769989
 11
-204.679977
 21
-173.269989
  0
LINE
  8
0
 62
     4
 10
-204.679993
 20
-173.269989
 11
-201.429993
 21
-173.269989
  0
LINE
  8
0
 62
     4
 10
-204.679993
 20
-175.769989
 11
-201.429993
 21
-175.769989
  0
LINE
  8
0
 62
     4
 10
-195.429993
 20
-169.769989
 11
-195.429993
 21
-170.569977
  0
LINE
  8
0
 62
     4
 10
-207.429993
 20
-169.769989
 11
-207.429993
 21
-170.569977
  0
LINE
  8
0
 62
     4
 10
-194.179993
 20
-154.769989
 11
-193.679993
 21
-154.269989
  0
LINE
  8
0
 62
     4
 10
-209.179993
 20
-154.269989
 11
-208.679993
 21
-154.769989
  0
LINE
  8
0
 62
     1
 10
-196.229996
 20
-154.769989
 11
-196.229996
 21
-156.269989
  0
LINE
  8
0
 62
     1
 10
-206.629990
 20
-154.769989
 11
-206.629990
 21
-156.269989
  0
LINE
  8
0
 62
     4
 10
-207.429993
 20
-154.769989
 11
-207.429993
 21
-156.269989
  0
LINE
  8
0
 62
     4
 10
-195.429993
 20
-154.769989
 11
-195.429993
 21
-156.269989
  0
LINE
  8
0
 62
     4
 10
-193.679993
 20
-156.769989
 11
-193.679993
 21
-168.769989
  0
LINE
  8
0
 62
     4
 10
-209.179993
 20
-156.769989
 11
-209.179993
 21
-168.769989
  0
LINE
  8
0
 62
     4
 10
-209.179993
 20
-156.769989
 11
-193.679993
 21
-156.769989
  0
LINE
  8
0
 62
     4
 10
-208.679993
 20
-154.769989
 11
-194.179993
 21
-154.769989
  0
LINE
  8
0
 62
     4
 10
-198.929993
 20
-171.269989
 11
-198.929993
 21
-173.269989
  0
LINE
  8
0
 62
     4
 10
-203.929993
 20
-171.269989
 11
-203.929993
 21
-173.269989
  0
LINE
  8
0
 62
     4
 10
-194.179993
 20
-156.269989
 11
-193.679993
 21
-156.769989
  0
LINE
  8
0
 62
     4
 10
-208.679977
 20
-156.269974
 11
-209.179993
 21
-156.769989
  0
LINE
  8
0
 62
     4
 10
-194.179993
 20
-159.269989
 11
-194.679993
 21
-159.769989
  0
LINE
  8
0
 62
     4
 10
-194.679993
 20
-159.769989
 11
-195.429993
 21
-159.769989
  0
LINE
  8
0
 62
     4
 10
-197.429993
 20
-159.269989
 11
-197.929993
 21
-159.769989
  0
LINE
  8
0
 62
     4
 10
-199.929993
 20
-159.269989
 11
-199.429977
 21
-159.769989
  0
LINE
  8
0
 62
     4
 10
-197.929993
 20
-159.769989
 11
-199.429993
 21
-159.769989
  0
LINE
  8
0
 62
     4
 10
-197.929993
 20
-159.769989
 11
-197.929993
 21
-169.269989
  0
LINE
  8
0
 62
     4
 10
-197.429993
 20
-159.269989
 11
-197.429993
 21
-168.769989
  0
LINE
  8
0
 62
     4
 10
-195.429993
 20
-159.269989
 11
-195.429993
 21
-168.769989
  0
LINE
  8
0
 62
     4
 10
-194.179993
 20
-159.269989
 11
-194.179993
 21
-168.769989
  0
LINE
  8
0
 62
     4
 10
-194.679993
 20
-159.769989
 11
-194.679993
 21
-169.269989
  0
LINE
  8
0
 62
     4
 10
-194.179977
 20
-168.769974
 11
-194.679993
 21
-169.269989
  0
LINE
  8
0
 62
     4
 10
-194.679993
 20
-169.269989
 11
-195.929993
 21
-169.269989
  0
LINE
  8
0
 62
     4
 10
-195.429993
 20
-168.769989
 11
-195.929993
 21
-169.269989
  0
LINE
  8
0
 62
     4
 10
-195.429993
 20
-168.769989
 11
-197.429993
 21
-168.769989
  0
LINE
  8
0
 62
     4
 10
-197.429993
 20
-168.770004
 11
-197.929993
 21
-169.269989
  0
LINE
  8
0
 62
     4
 10
-197.929993
 20
-169.269989
 11
-199.429993
 21
-169.269989
  0
LINE
  8
0
 62
     4
 10
-199.929993
 20
-168.769989
 11
-199.429993
 21
-169.269989
  0
LINE
  8
0
 62
     4
 10
-199.429993
 20
-159.769989
 11
-199.429993
 21
-169.269989
  0
LINE
  8
0
 62
     4
 10
-208.679977
 20
-168.769974
 11
-208.179977
 21
-169.269974
  0
LINE
  8
0
 62
     4
 10
-207.429993
 20
-168.769989
 11
-205.429993
 21
-168.769989
  0
LINE
  8
0
 62
     4
 10
-208.679993
 20
-159.269989
 11
-208.179993
 21
-159.769989
  0
LINE
  8
0
 62
     4
 10
-208.179993
 20
-159.769989
 11
-208.179993
 21
-169.269989
  0
LINE
  8
0
 62
     4
 10
-204.929993
 20
-169.269989
 11
-203.429993
 21
-169.269989
  0
LINE
  8
0
 62
     4
 10
-205.429977
 20
-168.769974
 11
-204.929977
 21
-169.269974
  0
LINE
  8
0
 62
     4
 10
-204.929993
 20
-159.769989
 11
-203.429993
 21
-159.769989
  0
LINE
  8
0
 62
     4
 10
-207.429977
 20
-168.769974
 11
-206.929977
 21
-169.269974
  0
LINE
  8
0
 62
     4
 10
-202.929993
 20
-159.269989
 11
-203.429993
 21
-159.769989
  0
LINE
  8
0
 62
     4
 10
-205.429993
 20
-159.269989
 11
-204.929993
 21
-159.769989
  0
LINE
  8
0
 62
     4
 10
-204.929993
 20
-159.769989
 11
-204.929993
 21
-169.269989
  0
LINE
  8
0
 62
     4
 10
-208.179993
 20
-159.769989
 11
-207.429993
 21
-159.769989
  0
LINE
  8
0
 62
     4
 10
-207.429993
 20
-159.269989
 11
-207.429993
 21
-168.769989
  0
LINE
  8
0
 62
     4
 10
-202.929993
 20
-168.769989
 11
-199.929993
 21
-168.769989
  0
LINE
  8
0
 62
     4
 10
-202.929993
 20
-168.769989
 11
-203.429993
 21
-169.269989
  0
LINE
  8
0
 62
     4
 10
-208.179993
 20
-169.269989
 11
-206.929993
 21
-169.269989
  0
LINE
  8
0
 62
     4
 10
-205.429993
 20
-159.269989
 11
-205.429993
 21
-168.769989
  0
LINE
  8
0
 62
     4
 10
-208.679993
 20
-159.269989
 11
-208.679993
 21
-168.769989
  0
LINE
  8
0
 62
     4
 10
-203.429993
 20
-159.769989
 11
-203.429993
 21
-169.269989
  0
LINE
  8
0
 62
     4
 10
-199.929993
 20
-159.269989
 11
-197.429993
 21
-159.269989
  0
LINE
  8
0
 62
     4
 10
-208.679993
 20
-159.269989
 11
-207.429993
 21
-159.269989
  0
LINE
  8
0
 62
     4
 10
-202.929993
 20
-159.269989
 11
-202.929993
 21
-168.769989
  0
LINE
  8
0
 62
     4
 10
-199.929993
 20
-159.269989
 11
-199.929993
 21
-168.769989
  0
LINE
  8
0
 62
     4
 10
-193.679977
 20
-168.769974
 11
-194.679993
 21
-169.769989
  0
LINE
  8
0
 62
     4
 10
-209.179993
 20
-168.769989
 11
-208.179993
 21
-169.769989
  0
LINE
  8
0
 62
     4
 10
-208.179993
 20
-169.769989
 11
-194.679993
 21
-169.769989
  0
LINE
  8
0
 62
     4
 10
-208.679993
 20
-156.269989
 11
-194.179993
 21
-156.269989
  0
LINE
  8
0
 62
     4
 10
-207.429993
 20
-170.569977
 11
-195.429993
 21
-170.569977
  0
LINE
  8
0
 62
     4
 10
-195.429993
 20
-170.569977
 11
-196.129990
 21
-171.269974
  0
LINE
  8
0
 62
     4
 10
-209.179993
 20
-152.769989
 11
-209.179993
 21
-154.269989
  0
LINE
  8
0
 62
     4
 10
-193.679993
 20
-152.769989
 11
-193.679993
 21
-154.269989
  0
LINE
  8
0
 62
     4
 10
-203.929993
 20
-178.269974
 11
-204.679993
 21
-175.769974
  0
LINE
  8
0
 62
     4
 10
-198.929993
 20
-178.269958
 11
-198.179993
 21
-175.769958
  0
LINE
  8
0
  6
CENTER
 62
     2
 10
-5.932480
 20
122.247742
 11
34.067520
 21
122.247742
  0
LINE
  8
0
  6
CENTER
 62
     2
 10
-17.932480
 20
98.247742
 11
7.067520
 21
98.247742
  0
LINE
  8
0
  6
CENTER
 62
     2
 10
-5.432480
 20
110.747742
 11
-5.432480
 21
85.747742
  0
LINE
  8
0
  6
CENTER
 62
     2
 10
14.067520
 20
142.247742
 11
14.067520
 21
102.247742
  0
LINE
  8
0
 10
2.497513
 20
99.247742
 11
48.567520
 21
99.247742
  0
LINE
  8
0
 10
2.567520
 20
98.247742
 11
47.567520
 21
98.247742
  0
LINE
  8
0
 10
-30.432476
 20
98.247742
 11
-31.432478
 21
99.247742
  0
LINE
  8
0
 10
47.567520
 20
98.247742
 11
48.567513
 21
99.247742
  0
LINE
  8
0
 10
48.567513
 20
137.247757
 11
47.567528
 21
138.247742
  0
LINE
  8
0
 10
-31.432474
 20
137.247742
 11
-30.432478
 21
138.247742
  0
LINE
  8
0
 10
48.567520
 20
137.247742
 11
48.567520
 21
99.247742
  0
LINE
  8
0
 10
47.567520
 20
138.247742
 11
47.567520
 21
98.247742
  0
LINE
  8
0
 10
-31.432480
 20
137.247742
 11
-31.432480
 21
99.247742
  0
LINE
  8
0
 10
-30.432480
 20
138.247742
 11
-30.432480
 21
98.247742
  0
LINE
  8
0
 10
-30.432480
 20
138.247742
 11
47.567520
 21
138.247742
  0
LINE
  8
0
 10
-31.432480
 20
137.247742
 11
48.567520
 21
137.247742
  0
LINE
  8
0
 10
-30.432480
 20
98.247742
 11
-13.432480
 21
98.247742
  0
LINE
  8
0
 10
-31.432480
 20
99.247742
 11
-13.372482
 21
99.247742
  0
LINE
  8
0
  6
CENTER
 62
     2
 10
-35.722481
 20
118.247742
 11
53.087509
 21
118.247742
  0
LINE
  8
0
  6
CENTER
 62
     2
 10
8.567520
 20
163.247742
 11
8.567520
 21
73.247742
  0
LINE
  8
0
 10
149.067444
 20
29.029964
 11
150.267441
 21
29.029964
  0
LINE
  8
0
 10
150.267456
 20
29.029966
 11
149.767456
 21
28.529966
  0
LINE
  8
0
 10
148.567459
 20
28.529966
 11
149.567459
 21
29.529966
  0
LINE
  8
0
 10
169.767441
 20
30.529964
 11
169.767441
 21
29.529964
  0
LINE
  8
0
 10
155.367447
 20
30.529964
 11
155.367447
 21
29.529964
  0
LINE
  8
0
 10
155.367447
 20
30.529964
 11
169.767441
 21
30.529964
  0
LINE
  8
0
 10
169.517441
 20
36.579967
 11
169.517441
 21
30.529964
  0
LINE
  8
0
 10
155.617447
 20
36.579967
 11
155.617447
 21
30.529964
  0
LINE
  8
0
 10
151.767441
 20
29.029972
 11
151.267441
 21
28.529978
  0
LINE
  8
0
 10
154.817444
 20
29.029964
 11
151.767441
 21
29.029964
  0
LINE
  8
0
 10
154.817444
 20
29.029972
 11
154.317444
 21
28.529974
  0
LINE
  8
0
 10
156.907440
 20
28.529964
 11
154.317444
 21
28.529964
  0
LINE
  8
0
 10
157.407440
 20
29.029972
 11
156.907440
 21
28.529972
  0
LINE
  8
0
 10
160.567444
 20
29.029964
 11
157.407440
 21
29.029964
  0
LINE
  8
0
 10
161.067429
 20
28.529961
 11
160.567429
 21
29.029961
  0
LINE
  8
0
 10
162.567444
 20
28.529964
 11
161.067444
 21
28.529964
  0
LINE
  8
0
 10
174.867447
 20
29.029970
 11
175.367447
 21
28.529970
  0
LINE
  8
0
 10
174.867432
 20
29.029964
 11
176.067444
 21
29.029964
  0
LINE
  8
0
 10
173.367432
 20
29.029966
 11
173.867432
 21
28.529966
  0
LINE
  8
0
 10
170.317444
 20
29.029978
 11
170.817444
 21
28.529976
  0
LINE
  8
0
 10
173.867447
 20
28.529964
 11
175.367432
 21
28.529964
  0
LINE
  8
0
 10
170.317444
 20
29.029964
 11
173.367447
 21
29.029964
  0
LINE
  8
0
 10
168.227448
 20
28.529964
 11
170.817444
 21
28.529964
  0
LINE
  8
0
 10
167.727448
 20
29.029978
 11
168.227448
 21
28.529976
  0
LINE
  8
0
 10
164.567444
 20
29.029964
 11
167.727448
 21
29.029964
  0
LINE
  8
0
 10
164.067444
 20
28.529966
 11
164.567444
 21
29.029966
  0
LINE
  8
0
 10
162.567444
 20
28.529964
 11
164.067444
 21
28.529964
  0
LINE
  8
0
 10
175.567444
 20
29.529964
 11
176.567444
 21
28.529963
  0
LINE
  8
0
 10
149.567444
 20
29.529964
 11
175.567444
 21
29.529964
  0
LINE
  8
0
 10
151.267441
 20
28.529964
 11
149.767441
 21
28.529964
  0
LINE
  8
0
 10
149.067444
 20
23.529966
 11
148.567444
 21
23.029966
  0
LINE
  8
0
 10
149.767441
 20
23.029964
 11
148.567444
 21
23.029964
  0
LINE
  8
0
 10
149.767441
 20
23.529964
 11
149.067444
 21
23.529964
  0
LINE
  8
0
 10
151.767441
 20
23.529972
 11
151.267441
 21
23.029976
  0
LINE
  8
0
 10
154.317444
 20
23.029964
 11
151.267441
 21
23.029964
  0
LINE
  8
0
 10
154.317444
 20
23.529964
 11
151.767441
 21
23.529964
  0
LINE
  8
0
 10
157.407440
 20
23.529972
 11
156.907440
 21
23.029970
  0
LINE
  8
0
 10
161.067444
 20
23.029964
 11
156.907440
 21
23.029964
  0
LINE
  8
0
 10
160.567444
 20
23.529964
 11
157.407440
 21
23.529964
  0
LINE
  8
0
 10
161.067444
 20
23.029966
 11
160.567444
 21
23.529966
  0
LINE
  8
0
 10
176.067444
 20
23.529972
 11
176.567444
 21
23.029970
  0
LINE
  8
0
 10
175.367432
 20
23.529964
 11
176.067444
 21
23.529964
  0
LINE
  8
0
 10
173.367416
 20
23.529961
 11
173.867432
 21
23.029961
  0
LINE
  8
0
 10
175.367432
 20
23.029964
 11
176.567444
 21
23.029964
  0
LINE
  8
0
 10
170.817444
 20
23.529964
 11
173.367447
 21
23.529964
  0
LINE
  8
0
 10
164.067444
 20
23.029964
 11
164.567444
 21
23.529966
  0
LINE
  8
0
 10
167.727432
 20
23.529972
 11
168.227432
 21
23.029970
  0
LINE
  8
0
 10
170.817444
 20
23.029964
 11
173.867447
 21
23.029964
  0
LINE
  8
0
 10
164.567444
 20
23.529964
 11
167.727448
 21
23.529964
  0
LINE
  8
0
 10
164.067444
 20
23.029964
 11
168.227448
 21
23.029964
  0
LINE
  8
0
 10
131.957458
 20
19.229977
 11
130.567444
 21
19.229977
  0
LINE
  8
0
 10
131.957458
 20
19.729977
 11
131.067444
 21
19.729977
  0
LINE
  8
0
 10
131.957458
 20
25.229977
 11
131.957458
 21
19.229977
  0
LINE
  8
0
 10
132.457443
 20
25.729980
 11
131.957443
 21
25.229980
  0
LINE
  8
0
 10
134.077454
 20
25.229977
 11
131.957458
 21
25.229977
  0
LINE
  8
0
 10
134.577438
 20
25.729969
 11
134.077438
 21
25.229975
  0
LINE
  8
0
 10
134.077454
 20
25.229977
 11
134.077454
 21
19.229977
  0
LINE
  8
0
 10
134.577454
 20
19.729969
 11
134.077454
 21
19.229967
  0
LINE
  8
0
 10
134.577454
 20
25.729977
 11
134.577454
 21
19.729977
  0
LINE
  8
0
 10
137.067444
 20
19.229977
 11
134.077454
 21
19.229977
  0
LINE
  8
0
 10
137.067444
 20
19.229979
 11
136.567444
 21
19.729980
  0
LINE
  8
0
 10
136.567444
 20
19.729977
 11
134.577454
 21
19.729977
  0
LINE
  8
0
 10
137.067444
 20
25.229977
 11
137.067444
 21
19.229977
  0
LINE
  8
0
 10
136.567444
 20
25.729977
 11
136.567444
 21
19.729977
  0
LINE
  8
0
 10
137.067459
 20
25.229967
 11
136.567444
 21
25.729971
  0
LINE
  8
0
 10
138.567444
 20
25.229977
 11
137.067444
 21
25.229977
  0
LINE
  8
0
 10
146.067459
 20
19.729961
 11
146.567444
 21
19.229969
  0
LINE
  8
0
 10
146.067444
 20
25.729963
 11
146.567444
 21
25.229963
  0
LINE
  8
0
 10
130.567459
 20
25.229963
 11
131.067459
 21
25.729963
  0
LINE
  8
0
 10
146.067444
 20
25.729977
 11
146.067444
 21
19.729977
  0
LINE
  8
0
 10
145.187439
 20
19.729977
 11
146.067444
 21
19.729977
  0
LINE
  8
0
 10
145.187439
 20
19.229977
 11
146.567444
 21
19.229977
  0
LINE
  8
0
 10
144.687439
 20
25.729975
 11
145.187439
 21
25.229975
  0
LINE
  8
0
 10
142.567459
 20
19.729975
 11
143.067444
 21
19.229973
  0
LINE
  8
0
 10
142.567444
 20
25.729975
 11
143.067444
 21
25.229975
  0
LINE
  8
0
 10
143.067444
 20
25.229977
 11
145.187439
 21
25.229977
  0
LINE
  8
0
 10
142.567444
 20
25.729977
 11
142.567444
 21
19.729977
  0
LINE
  8
0
 10
140.067444
 20
19.229973
 11
140.567444
 21
19.729975
  0
LINE
  8
0
 10
140.067459
 20
25.229963
 11
140.567459
 21
25.729963
  0
LINE
  8
0
 10
145.187439
 20
25.229977
 11
145.187439
 21
19.229977
  0
LINE
  8
0
 10
143.067444
 20
25.229977
 11
143.067444
 21
19.229977
  0
LINE
  8
0
 10
140.567444
 20
19.729977
 11
142.567444
 21
19.729977
  0
LINE
  8
0
 10
140.567444
 20
25.729977
 11
140.567444
 21
19.729977
  0
LINE
  8
0
 10
140.067444
 20
19.229977
 11
143.067444
 21
19.229977
  0
LINE
  8
0
 10
140.067444
 20
25.229977
 11
140.067444
 21
19.229977
  0
LINE
  8
0
 10
130.567444
 20
25.229977
 11
130.567444
 21
17.729977
  0
LINE
  8
0
 10
138.567444
 20
25.229977
 11
140.067444
 21
25.229977
  0
LINE
  8
0
 10
131.067444
 20
25.729977
 11
146.067444
 21
25.729977
  0
LINE
  8
0
 10
131.067444
 20
25.729977
 11
131.067444
 21
19.729977
  0
LINE
  8
0
 10
146.567444
 20
25.229977
 11
146.567444
 21
17.729977
  0
LINE
  8
0
 10
131.067444
 20
19.729975
 11
130.567444
 21
19.229973
  0
LINE
  8
0
 10
148.567444
 20
21.529964
 11
176.567444
 21
21.529964
  0
LINE
  8
0
 10
149.067444
 20
20.829967
 11
149.067444
 21
17.729977
  0
LINE
  8
0
 10
176.067444
 20
20.829967
 11
176.067444
 21
17.729977
  0
LINE
  8
0
 10
129.567444
 20
16.729977
 11
129.567444
 21
-13.270024
  0
LINE
  8
0
 10
177.567444
 20
17.729971
 11
178.567444
 21
16.729977
  0
LINE
  8
0
 10
138.567444
 20
16.729977
 11
139.567444
 21
17.729971
  0
LINE
  8
0
 10
181.567444
 20
-11.270024
 11
179.567444
 21
-11.270024
  0
LINE
  8
0
 10
181.567444
 20
-11.270024
 11
181.567444
 21
-13.270024
  0
LINE
  8
0
 10
180.567444
 20
-10.270023
 11
181.567459
 21
-11.270025
  0
LINE
  8
0
 10
180.567444
 20
-10.270024
 11
179.567444
 21
-10.270024
  0
LINE
  8
0
 10
136.567444
 20
-10.270022
 11
135.567444
 21
-11.270023
  0
LINE
  8
0
 10
135.567444
 20
-11.270024
 11
137.567444
 21
-11.270024
  0
LINE
  8
0
 10
136.567444
 20
-10.270024
 11
137.567444
 21
-10.270024
  0
LINE
  8
0
 10
135.567444
 20
-11.270024
 11
135.567444
 21
-13.270024
  0
LINE
  8
0
 10
119.737457
 20
-33.270023
 11
197.397430
 21
-33.270023
  0
LINE
  8
0
 10
197.397446
 20
-33.270027
 11
196.327438
 21
-34.270027
  0
LINE
  8
0
 10
119.737450
 20
-33.270016
 11
120.807449
 21
-34.270016
  0
LINE
  8
0
 10
197.097443
 20
-13.270020
 11
198.067429
 21
-14.230022
  0
LINE
  8
0
 10
179.567444
 20
-13.270024
 11
197.097443
 21
-13.270024
  0
LINE
  8
0
 10
120.007446
 20
-13.270024
 11
137.567444
 21
-13.270024
  0
LINE
  8
0
 10
177.567444
 20
17.729977
 11
177.567444
 21
-14.270024
  0
LINE
  8
0
 10
139.567444
 20
17.729977
 11
139.567444
 21
-14.270024
  0
LINE
  8
0
 10
138.567444
 20
16.729977
 11
178.567444
 21
16.729977
  0
LINE
  8
0
 10
197.397446
 20
-33.270012
 11
198.067444
 21
-14.230024
  0
LINE
  8
0
 10
120.807449
 20
-34.270023
 11
196.327438
 21
-34.270023
  0
LINE
  8
0
 10
138.567444
 20
16.729977
 11
138.567444
 21
-12.270024
  0
LINE
  8
0
 10
178.567444
 20
16.729977
 11
178.567444
 21
-14.270024
  0
LINE
  8
0
 10
130.567444
 20
17.729977
 11
177.567444
 21
17.729977
  0
LINE
  8
0
  6
CENTER
 62
     2
 10
125.967453
 20
1.729976
 11
182.897430
 21
1.729976
  0
LINE
  8
0
  6
CENTER
 62
     2
 10
158.567444
 20
21.669964
 11
158.567444
 21
-136.910019
  0
LINE
  8
0
 10
176.987442
 20
-133.460007
 11
140.157455
 21
-133.460007
  0
LINE
  8
0
 10
125.157455
 20
-118.590012
 11
124.417458
 21
-34.270016
  0
LINE
  8
0
 10
129.857452
 20
-39.970020
 11
129.857452
 21
-115.960014
  0
LINE
  8
0
 10
130.447449
 20
-40.470020
 11
130.447449
 21
-115.460014
  0
LINE
  8
0
 10
130.707458
 20
-40.970020
 11
130.707458
 21
-72.970024
  0
LINE
  8
0
 10
132.547455
 20
-41.470020
 11
132.547455
 21
-72.470024
  0
LINE
  8
0
 10
139.617447
 20
-40.970020
 11
139.617447
 21
-72.970024
  0
LINE
  8
0
 10
139.997452
 20
-39.970020
 11
139.997452
 21
-115.960014
  0
LINE
  8
0
 10
130.857452
 20
-38.970020
 11
138.997452
 21
-38.970020
  0
LINE
  8
0
 10
131.447449
 20
-39.470020
 11
138.997452
 21
-39.470020
  0
LINE
  8
0
 10
138.997452
 20
-116.960014
 11
130.857452
 21
-116.960014
  0
LINE
  8
0
 10
138.997452
 20
-116.460014
 11
131.447449
 21
-116.460014
  0
LINE
  8
0
 10
139.617447
 20
-80.970024
 11
139.617447
 21
-114.960014
  0
LINE
  8
0
 10
132.547455
 20
-81.470024
 11
132.547455
 21
-114.460014
  0
LINE
  8
0
 10
130.707458
 20
-80.970024
 11
130.707458
 21
-114.960014
  0
LINE
  8
0
 10
138.617447
 20
-115.460014
 11
133.547455
 21
-115.460014
  0
LINE
  8
0
 10
138.617447
 20
-73.470024
 11
133.547455
 21
-73.470024
  0
LINE
  8
0
 10
138.617447
 20
-80.470024
 11
133.547455
 21
-80.470024
  0
LINE
  8
0
 10
133.547455
 20
-40.470020
 11
138.617447
 21
-40.470020
  0
LINE
  8
0
 10
131.707458
 20
-39.970020
 11
138.617447
 21
-39.970020
  0
LINE
  8
0
 10
138.617447
 20
-73.970024
 11
131.707458
 21
-73.970024
  0
LINE
  8
0
 10
138.617447
 20
-79.970024
 11
131.707458
 21
-79.970024
  0
LINE
  8
0
 10
138.617447
 20
-115.960014
 11
131.707458
 21
-115.960014
  0
LINE
  8
0
 10
191.987442
 20
-118.590019
 11
192.727448
 21
-34.270012
  0
LINE
  8
0
 10
187.287430
 20
-39.970020
 11
187.287430
 21
-115.960014
  0
LINE
  8
0
 10
186.687439
 20
-40.470020
 11
186.687439
 21
-115.460014
  0
LINE
  8
0
 10
186.437439
 20
-40.970020
 11
186.437439
 21
-72.970024
  0
LINE
  8
0
 10
184.597443
 20
-41.470020
 11
184.597443
 21
-72.470024
  0
LINE
  8
0
 10
177.527435
 20
-40.970020
 11
177.527435
 21
-72.970024
  0
LINE
  8
0
 10
177.147430
 20
-39.970020
 11
177.147430
 21
-115.960014
  0
LINE
  8
0
 10
186.287430
 20
-38.970020
 11
178.147430
 21
-38.970020
  0
LINE
  8
0
 10
185.687439
 20
-39.470020
 11
178.147430
 21
-39.470020
  0
LINE
  8
0
 10
178.147430
 20
-116.960014
 11
186.287430
 21
-116.960014
  0
LINE
  8
0
 10
178.147430
 20
-116.460014
 11
185.687439
 21
-116.460014
  0
LINE
  8
0
 10
177.527435
 20
-80.970024
 11
177.527435
 21
-114.960014
  0
LINE
  8
0
 10
184.597443
 20
-81.470024
 11
184.597443
 21
-114.460014
  0
LINE
  8
0
 10
186.437439
 20
-80.970024
 11
186.437439
 21
-114.960014
  0
LINE
  8
0
 10
178.527435
 20
-115.460014
 11
183.597443
 21
-115.460014
  0
LINE
  8
0
 10
178.527435
 20
-73.470024
 11
183.597443
 21
-73.470024
  0
LINE
  8
0
 10
178.527435
 20
-80.470024
 11
183.597443
 21
-80.470024
  0
LINE
  8
0
 10
183.597443
 20
-40.470020
 11
178.527435
 21
-40.470020
  0
LINE
  8
0
 10
185.437439
 20
-39.970020
 11
178.527435
 21
-39.970020
  0
LINE
  8
0
 10
178.527435
 20
-73.970024
 11
185.437439
 21
-73.970024
  0
LINE
  8
0
 10
178.527435
 20
-79.970024
 11
185.437439
 21
-79.970024
  0
LINE
  8
0
 10
178.527435
 20
-115.960014
 11
185.437439
 21
-115.960014
  0
LINE
  8
0
  6
CENTER
 62
     2
 10
162.567444
 20
45.649975
 11
162.567444
 21
15.199975
  0
LINE
  8
0
  6
CENTER
 62
     2
 10
138.567444
 20
27.509975
 11
138.567444
 21
15.409975
  0
LINE
  8
0
 10
148.567444
 20
28.529964
 11
148.567444
 21
21.529964
  0
LINE
  8
0
 10
176.567444
 20
28.529964
 11
176.567444
 21
21.529964
  0
LINE
  8
0
 10
164.067444
 20
28.529964
 11
164.067444
 21
23.029964
  0
LINE
  8
0
 10
168.227448
 20
28.529964
 11
168.227448
 21
23.029964
  0
LINE
  8
0
 10
170.817444
 20
28.529964
 11
170.817444
 21
23.029964
  0
LINE
  8
0
 10
173.867447
 20
28.529964
 11
173.867447
 21
23.029964
  0
LINE
  8
0
 10
175.367432
 20
28.529964
 11
175.367432
 21
23.029964
  0
LINE
  8
0
 10
164.567444
 20
29.029964
 11
164.567444
 21
23.529964
  0
LINE
  8
0
 10
167.727448
 20
29.029964
 11
167.727448
 21
23.529964
  0
LINE
  8
0
 10
173.367447
 20
29.029964
 11
173.367447
 21
23.529964
  0
LINE
  8
0
 10
176.067444
 20
29.029964
 11
176.067444
 21
23.529964
  0
LINE
  8
0
 10
161.067444
 20
28.529964
 11
161.067444
 21
23.029964
  0
LINE
  8
0
 10
160.567444
 20
29.029964
 11
160.567444
 21
23.529964
  0
LINE
  8
0
 10
157.407440
 20
29.029964
 11
157.407440
 21
23.529964
  0
LINE
  8
0
 10
156.907440
 20
28.529964
 11
156.907440
 21
23.029964
  0
LINE
  8
0
 10
154.317444
 20
28.529964
 11
154.317444
 21
23.029964
  0
LINE
  8
0
 10
151.767441
 20
29.029964
 11
151.767441
 21
23.529964
  0
LINE
  8
0
 10
151.267441
 20
28.529964
 11
151.267441
 21
23.029964
  0
LINE
  8
0
 10
149.067444
 20
29.029964
 11
149.067444
 21
23.529964
  0
LINE
  8
0
 10
149.767441
 20
28.529964
 11
149.767441
 21
23.029964
  0
LINE
  8
0
 10
119.067444
 20
-14.270024
 11
198.067444
 21
-14.270024
  0
LINE
  8
0
 10
119.737457
 20
-33.270023
 11
119.067459
 21
-14.260023
  0
LINE
  8
0
 10
119.067451
 20
-14.260024
 11
120.007446
 21
-13.270022
  0
LINE
  8
0
 10
-30.272501
 20
-33.270020
 11
-29.202496
 21
-34.270023
  0
LINE
  8
0
 10
-31.432495
 20
16.729971
 11
-30.432495
 21
17.729971
  0
LINE
  8
0
 10
-30.432495
 20
17.729973
 11
-30.432495
 21
-14.270028
  0
LINE
  8
0
 10
-30.272495
 20
-33.270020
 11
-30.932495
 21
-14.270020
  0
LINE
  8
0
 10
-31.432495
 20
16.729973
 11
-31.432495
 21
-14.270028
  0
LINE
  8
0
  6
CENTER
 62
     2
 10
8.567505
 20
34.599968
 11
8.567505
 21
-135.750031
  0
LINE
  8
0
 10
43.567505
 20
-8.270028
 11
33.567505
 21
-8.270028
  0
LINE
  8
0
 10
42.567505
 20
-7.270028
 11
34.567505
 21
-7.270028
  0
LINE
  8
0
 10
42.567505
 20
10.729972
 11
42.567505
 21
-7.270028
  0
LINE
  8
0
 10
34.567505
 20
10.729972
 11
34.567505
 21
-7.270028
  0
LINE
  8
0
 10
33.567505
 20
11.729972
 11
33.567505
 21
-8.270028
  0
LINE
  8
0
 10
42.567505
 20
10.729972
 11
34.567505
 21
10.729972
  0
LINE
  8
0
 10
43.567505
 20
11.729972
 11
43.567505
 21
-8.270028
  0
LINE
  8
0
 10
43.567505
 20
11.729972
 11
33.567505
 21
11.729972
  0
LINE
  8
0
 10
-25.432495
 20
-7.270028
 11
-17.432495
 21
-7.270028
  0
LINE
  8
0
 10
-17.432495
 20
10.729972
 11
-17.432495
 21
-7.270028
  0
LINE
  8
0
 10
-25.432495
 20
10.729972
 11
-17.432495
 21
10.729972
  0
LINE
  8
0
 10
-25.432495
 20
10.729972
 11
-25.432495
 21
-7.270028
  0
LINE
  8
0
 10
-26.432495
 20
-8.270028
 11
-16.432495
 21
-8.270028
  0
LINE
  8
0
 10
-26.432495
 20
11.729972
 11
-16.432495
 21
11.729972
  0
LINE
  8
0
 10
-16.432495
 20
11.729972
 11
-16.432495
 21
-8.270028
  0
LINE
  8
0
 10
-26.432495
 20
11.729972
 11
-26.432495
 21
-8.270028
  0
LINE
  8
0
 10
-19.252495
 20
18.429970
 11
-19.252495
 21
17.729973
  0
LINE
  8
0
 10
-28.012497
 20
18.429970
 11
-28.012497
 21
17.729973
  0
LINE
  8
0
 10
-28.012497
 20
18.429970
 11
-19.252495
 21
18.429970
  0
LINE
  8
0
 10
-12.052505
 20
19.229973
 11
-13.432495
 21
19.229973
  0
LINE
  8
0
 10
-12.052505
 20
19.729973
 11
-12.932495
 21
19.729973
  0
LINE
  8
0
 10
-12.052505
 20
25.229973
 11
-12.052505
 21
19.229973
  0
LINE
  8
0
 10
-11.552505
 20
25.729961
 11
-12.052505
 21
25.229961
  0
LINE
  8
0
 10
-9.932495
 20
25.229973
 11
-12.052505
 21
25.229973
  0
LINE
  8
0
 10
-9.432503
 20
25.729963
 11
-9.932503
 21
25.229963
  0
LINE
  8
0
 10
-9.932495
 20
25.229973
 11
-9.932495
 21
19.229973
  0
LINE
  8
0
 10
-9.432496
 20
19.729973
 11
-9.932496
 21
19.229971
  0
LINE
  8
0
 10
-9.432495
 20
25.729973
 11
-9.432495
 21
19.729973
  0
LINE
  8
0
 10
-6.932495
 20
19.229973
 11
-9.932495
 21
19.229973
  0
LINE
  8
0
 10
-6.932505
 20
19.229963
 11
-7.432505
 21
19.729961
  0
LINE
  8
0
 10
-7.432495
 20
19.729973
 11
-9.432495
 21
19.729973
  0
LINE
  8
0
 10
-6.932495
 20
25.229973
 11
-6.932495
 21
19.229973
  0
LINE
  8
0
 10
-7.432495
 20
25.729973
 11
-7.432495
 21
19.729973
  0
LINE
  8
0
 10
-6.932502
 20
25.229963
 11
-7.432502
 21
25.729965
  0
LINE
  8
0
 10
-5.432495
 20
25.229973
 11
-6.932495
 21
25.229973
  0
LINE
  8
0
 10
2.067495
 20
19.729961
 11
2.567495
 21
19.229963
  0
LINE
  8
0
 10
2.067499
 20
25.729965
 11
2.567498
 21
25.229965
  0
LINE
  8
0
 10
-13.432498
 20
25.229967
 11
-12.932499
 21
25.729965
  0
LINE
  8
0
 10
2.067505
 20
25.729973
 11
2.067505
 21
19.729973
  0
LINE
  8
0
 10
1.177490
 20
19.729973
 11
2.067505
 21
19.729973
  0
LINE
  8
0
 10
1.177490
 20
19.229973
 11
2.567505
 21
19.229973
  0
LINE
  8
0
 10
0.677497
 20
25.729967
 11
1.177497
 21
25.229965
  0
LINE
  8
0
 10
-1.442498
 20
19.729971
 11
-0.942498
 21
19.229969
  0
LINE
  8
0
 10
-1.442506
 20
25.729963
 11
-0.942506
 21
25.229963
  0
LINE
  8
0
 10
-0.942505
 20
25.229973
 11
1.177490
 21
25.229973
  0
LINE
  8
0
 10
-1.442505
 20
25.729973
 11
-1.442505
 21
19.729973
  0
LINE
  8
0
 10
-3.932504
 20
19.229963
 11
-3.432503
 21
19.729965
  0
LINE
  8
0
 10
-3.932500
 20
25.229967
 11
-3.432499
 21
25.729969
  0
LINE
  8
0
 10
1.177490
 20
25.229973
 11
1.177490
 21
19.229973
  0
LINE
  8
0
 10
-0.942505
 20
25.229973
 11
-0.942505
 21
19.229973
  0
LINE
  8
0
 10
-3.432495
 20
19.729973
 11
-1.442505
 21
19.729973
  0
LINE
  8
0
 10
-3.432495
 20
25.729973
 11
-3.432495
 21
19.729973
  0
LINE
  8
0
 10
-3.932495
 20
19.229973
 11
-0.942505
 21
19.229973
  0
LINE
  8
0
 10
-3.932495
 20
25.229973
 11
-3.932495
 21
19.229973
  0
LINE
  8
0
 10
-13.432495
 20
25.229973
 11
-13.432495
 21
17.729973
  0
LINE
  8
0
 10
-5.432495
 20
25.229973
 11
-3.932495
 21
25.229973
  0
LINE
  8
0
 10
-12.932495
 20
25.729973
 11
2.067505
 21
25.729973
  0
LINE
  8
0
 10
-12.932495
 20
25.729973
 11
-12.932495
 21
19.729973
  0
LINE
  8
0
 10
2.567505
 20
25.229973
 11
2.567505
 21
17.729973
  0
LINE
  8
0
 10
-12.932504
 20
19.729967
 11
-13.432504
 21
19.229965
  0
LINE
  8
0
 10
0.567505
 20
29.029961
 11
1.757492
 21
29.029961
  0
LINE
  8
0
 10
21.267502
 20
30.529961
 11
21.267502
 21
29.529961
  0
LINE
  8
0
 10
6.867493
 20
30.529961
 11
6.867493
 21
29.529961
  0
LINE
  8
0
 10
6.867493
 20
30.529961
 11
21.267502
 21
30.529961
  0
LINE
  8
0
 10
21.017502
 20
36.579964
 11
21.017502
 21
30.529961
  0
LINE
  8
0
 10
7.117493
 20
36.579964
 11
7.117493
 21
30.529961
  0
LINE
  8
0
 10
1.257492
 20
28.529961
 11
1.257492
 21
25.729973
  0
LINE
  8
0
 10
0.567505
 20
29.029961
 11
0.567505
 21
25.729973
  0
LINE
  8
0
 10
1.757503
 20
29.029972
 11
1.257503
 21
28.529972
  0
LINE
  8
0
 10
2.757492
 20
28.529961
 11
1.257492
 21
28.529961
  0
LINE
  8
0
 10
3.257498
 20
29.029968
 11
2.757498
 21
28.529966
  0
LINE
  8
0
 10
2.757492
 20
28.529961
 11
2.757492
 21
23.029961
  0
LINE
  8
0
 10
3.257502
 20
23.529970
 11
2.757500
 21
23.029968
  0
LINE
  8
0
 10
3.257492
 20
29.029961
 11
3.257492
 21
23.529961
  0
LINE
  8
0
 10
5.807495
 20
23.029961
 11
2.757492
 21
23.029961
  0
LINE
  8
0
 10
5.807495
 20
23.529961
 11
3.257492
 21
23.529961
  0
LINE
  8
0
 10
5.807495
 20
28.529961
 11
5.807495
 21
23.029961
  0
LINE
  8
0
 10
6.307495
 20
29.029961
 11
3.257492
 21
29.029961
  0
LINE
  8
0
 10
6.307500
 20
29.029968
 11
5.807500
 21
28.529968
  0
LINE
  8
0
 10
8.897503
 20
23.529972
 11
8.397502
 21
23.029972
  0
LINE
  8
0
 10
8.397491
 20
28.529961
 11
5.807495
 21
28.529961
  0
LINE
  8
0
 10
8.397491
 20
28.529961
 11
8.397491
 21
23.029961
  0
LINE
  8
0
 10
8.897491
 20
29.029961
 11
8.897491
 21
23.529961
  0
LINE
  8
0
 10
8.897500
 20
29.029966
 11
8.397500
 21
28.529968
  0
LINE
  8
0
 10
12.067505
 20
29.029961
 11
8.897491
 21
29.029961
  0
LINE
  8
0
 10
12.567505
 20
23.029961
 11
8.397491
 21
23.029961
  0
LINE
  8
0
 10
12.067505
 20
23.529961
 11
8.897491
 21
23.529961
  0
LINE
  8
0
 10
12.567498
 20
23.029978
 11
12.067504
 21
23.529972
  0
LINE
  8
0
 10
12.067505
 20
29.029961
 11
12.067505
 21
23.529961
  0
LINE
  8
0
 10
12.567505
 20
28.529961
 11
12.567505
 21
23.029961
  0
LINE
  8
0
 10
12.567501
 20
28.529970
 11
12.067502
 21
29.029968
  0
LINE
  8
0
 10
14.067505
 20
28.529961
 11
12.567505
 21
28.529961
  0
LINE
  8
0
 10
27.567493
 20
23.529968
 11
28.067493
 21
23.029966
  0
LINE
  8
0
 10
26.867493
 20
23.529961
 11
27.567505
 21
23.529961
  0
LINE
  8
0
 10
27.567505
 20
29.029961
 11
27.567505
 21
23.529961
  0
LINE
  8
0
 10
24.867493
 20
23.529976
 11
25.367493
 21
23.029976
  0
LINE
  8
0
 10
26.867493
 20
23.029961
 11
28.067505
 21
23.029961
  0
LINE
  8
0
 10
26.367487
 20
29.029976
 11
26.867487
 21
28.529974
  0
LINE
  8
0
 10
26.367493
 20
29.029961
 11
27.567505
 21
29.029961
  0
LINE
  8
0
 10
24.867495
 20
29.029974
 11
25.367495
 21
28.529972
  0
LINE
  8
0
 10
21.817490
 20
29.029972
 11
22.317492
 21
28.529970
  0
LINE
  8
0
 10
25.367493
 20
28.529961
 11
26.867493
 21
28.529961
  0
LINE
  8
0
 10
24.867493
 20
29.029961
 11
24.867493
 21
23.529961
  0
LINE
  8
0
 10
22.317505
 20
23.529961
 11
24.867493
 21
23.529961
  0
LINE
  8
0
 10
21.817505
 20
29.029961
 11
24.867493
 21
29.029961
  0
LINE
  8
0
 10
19.727493
 20
28.529961
 11
22.317505
 21
28.529961
  0
LINE
  8
0
 10
15.567491
 20
23.029966
 11
16.067492
 21
23.529968
  0
LINE
  8
0
 10
19.227493
 20
23.529978
 11
19.727493
 21
23.029978
  0
LINE
  8
0
 10
19.227493
 20
29.029974
 11
19.727493
 21
28.529972
  0
LINE
  8
0
 10
16.067505
 20
29.029961
 11
19.227493
 21
29.029961
  0
LINE
  8
0
 10
15.567503
 20
28.529970
 11
16.067505
 21
29.029974
  0
LINE
  8
0
 10
14.067505
 20
28.529961
 11
15.567505
 21
28.529961
  0
LINE
  8
0
 10
19.227493
 20
29.029961
 11
19.227493
 21
23.529961
  0
LINE
  8
0
 10
22.317505
 20
23.029961
 11
25.367493
 21
23.029961
  0
LINE
  8
0
 10
16.067505
 20
29.029961
 11
16.067505
 21
23.529961
  0
LINE
  8
0
 10
16.067505
 20
23.529961
 11
19.227493
 21
23.529961
  0
LINE
  8
0
 10
15.567505
 20
23.029961
 11
19.727493
 21
23.029961
  0
LINE
  8
0
 10
26.867493
 20
28.529961
 11
26.867493
 21
23.029961
  0
LINE
  8
0
 10
25.367493
 20
28.529961
 11
25.367493
 21
23.029961
  0
LINE
  8
0
 10
22.317505
 20
28.529961
 11
22.317505
 21
23.029961
  0
LINE
  8
0
 10
19.727493
 20
28.529961
 11
19.727493
 21
23.029961
  0
LINE
  8
0
 10
15.567505
 20
28.529961
 11
15.567505
 21
23.029961
  0
LINE
  8
0
 10
27.067493
 20
29.529964
 11
28.067495
 21
28.529964
  0
LINE
  8
0
 10
0.067500
 20
28.529968
 11
1.067502
 21
29.529968
  0
LINE
  8
0
 10
28.067505
 20
28.529961
 11
28.067505
 21
21.529961
  0
LINE
  8
0
 10
0.067505
 20
28.529961
 11
0.067505
 21
25.729973
  0
LINE
  8
0
 10
1.067505
 20
29.529961
 11
27.067505
 21
29.529961
  0
LINE
  8
0
 10
27.567505
 20
20.829964
 11
27.567505
 21
18.729973
  0
LINE
  8
0
 10
2.567505
 20
21.529961
 11
28.067505
 21
21.529961
  0
LINE
  8
0
  6
CENTER
 62
     2
 10
14.067505
 20
45.239967
 11
14.067505
 21
14.579971
  0
LINE
  8
0
 10
3.567505
 20
16.729973
 11
48.567505
 21
16.729973
  0
LINE
  8
0
 10
3.567505
 20
16.729973
 11
3.567505
 21
-13.270028
  0
LINE
  8
0
 10
-14.432495
 20
16.729973
 11
-14.432495
 21
-13.270028
  0
LINE
  8
0
  6
CENTER
 62
     2
 10
-5.432495
 20
27.929970
 11
-5.432495
 21
-16.350014
  0
LINE
  8
0
 10
18.567493
 20
-10.270020
 11
19.567495
 21
-11.270021
  0
LINE
  8
0
 10
3.567505
 20
-11.270028
 11
19.567505
 21
-11.270028
  0
LINE
  8
0
 10
19.567505
 20
-11.270028
 11
19.567505
 21
-13.270028
  0
LINE
  8
0
 10
3.567505
 20
-10.270028
 11
18.567505
 21
-10.270028
  0
LINE
  8
0
 10
47.397488
 20
-33.270027
 11
46.327496
 21
-34.270023
  0
LINE
  8
0
 10
47.397495
 20
-33.270016
 11
48.067493
 21
-14.270028
  0
LINE
  8
0
 10
43.107494
 20
-14.270040
 11
41.567490
 21
-13.270037
  0
LINE
  8
0
 10
-25.972504
 20
-14.270014
 11
-24.432505
 21
-13.270016
  0
LINE
  8
0
 10
47.567493
 20
17.729979
 11
48.567493
 21
16.729977
  0
LINE
  8
0
 10
47.567505
 20
17.729973
 11
47.567505
 21
-14.270028
  0
LINE
  8
0
 10
-24.432495
 20
-13.270028
 11
41.567505
 21
-13.270028
  0
LINE
  8
0
 10
48.567505
 20
16.729973
 11
48.567505
 21
-14.270028
  0
LINE
  8
0
 10
-9.842499
 20
-133.460022
 11
26.987503
 21
-133.460022
  0
LINE
  8
0
 10
-10.002502
 20
-39.970024
 11
-10.002502
 21
-115.960014
  0
LINE
  8
0
 10
-20.152496
 20
-39.970024
 11
-20.152496
 21
-115.960014
  0
LINE
  8
0
 10
-25.472496
 20
-46.340023
 11
-25.582497
 21
-34.270016
  0
LINE
  8
0
 10
-28.352495
 20
-36.270023
 11
-28.002497
 21
-50.300022
  0
LINE
  8
0
 10
-28.292498
 20
-58.780025
 11
-28.172497
 21
-58.900024
  0
LINE
  8
0
 10
-25.472494
 20
-46.340015
 11
-28.242493
 21
-50.670017
  0
LINE
  8
0
 10
-28.162495
 20
-60.020023
 11
-28.242496
 21
-50.670021
  0
LINE
  8
0
 10
-25.322495
 20
-64.170021
 11
-28.102495
 21
-60.190025
  0
LINE
  8
0
 10
-19.552496
 20
-40.470024
 11
-19.552496
 21
-115.460014
  0
LINE
  8
0
 10
-19.292496
 20
-40.970024
 11
-19.292496
 21
-72.970024
  0
LINE
  8
0
 10
-17.462496
 20
-41.470024
 11
-17.462496
 21
-72.470024
  0
LINE
  8
0
 10
-10.392502
 20
-40.970024
 11
-10.392502
 21
-72.970024
  0
LINE
  8
0
 10
-11.002502
 20
-116.960014
 11
-19.152496
 21
-116.960014
  0
LINE
  8
0
 10
-11.002502
 20
-116.460014
 11
-18.552496
 21
-116.460014
  0
LINE
  8
0
 10
-10.392502
 20
-80.970024
 11
-10.392502
 21
-114.960014
  0
LINE
  8
0
 10
-17.462496
 20
-81.470024
 11
-17.462496
 21
-114.460014
  0
LINE
  8
0
 10
-19.292496
 20
-80.970024
 11
-19.292496
 21
-114.960014
  0
LINE
  8
0
 10
-11.392502
 20
-115.460014
 11
-16.462496
 21
-115.460014
  0
LINE
  8
0
 10
-11.392502
 20
-73.470024
 11
-16.462496
 21
-73.470024
  0
LINE
  8
0
 10
-11.392502
 20
-80.470024
 11
-16.462496
 21
-80.470024
  0
LINE
  8
0
 10
-16.462496
 20
-40.470024
 11
-11.392502
 21
-40.470024
  0
LINE
  8
0
 10
-24.842497
 20
-118.590004
 11
-25.322496
 21
-64.170029
  0
LINE
  8
0
 10
-11.392502
 20
-73.970024
 11
-18.292496
 21
-73.970024
  0
LINE
  8
0
 10
-11.392502
 20
-79.970024
 11
-18.292496
 21
-79.970024
  0
LINE
  8
0
 10
-11.392502
 20
-115.960014
 11
-18.292496
 21
-115.960014
  0
LINE
  8
0
 10
-19.152496
 20
-38.970024
 11
-11.002502
 21
-38.970024
  0
LINE
  8
0
 10
-18.552496
 20
-39.470024
 11
-11.002502
 21
-39.470024
  0
LINE
  8
0
 10
-18.292496
 20
-39.970024
 11
-11.392502
 21
-39.970024
  0
LINE
  8
0
 10
-27.892496
 20
-34.270016
 11
-27.852495
 21
-36.260014
  0
LINE
  8
0
 10
-27.322496
 20
-34.270016
 11
-27.272495
 21
-36.250023
  0
LINE
  8
0
 10
-28.352495
 20
-36.270023
 11
-27.272495
 21
-36.250023
  0
LINE
  8
0
 10
41.987503
 20
-118.590019
 11
42.717503
 21
-34.270027
  0
LINE
  8
0
 10
36.427490
 20
-80.970024
 11
36.427490
 21
-114.960014
  0
LINE
  8
0
 10
34.597504
 20
-81.470024
 11
34.597504
 21
-114.460014
  0
LINE
  8
0
 10
27.527496
 20
-80.970024
 11
27.527496
 21
-114.960014
  0
LINE
  8
0
 10
27.137497
 20
-39.970024
 11
27.137497
 21
-115.960014
  0
LINE
  8
0
 10
36.687500
 20
-40.470024
 11
36.687500
 21
-115.460014
  0
LINE
  8
0
 10
37.287491
 20
-39.970024
 11
37.287491
 21
-115.960014
  0
LINE
  8
0
 10
36.427490
 20
-40.970024
 11
36.427490
 21
-72.970024
  0
LINE
  8
0
 10
34.597504
 20
-41.470024
 11
34.597504
 21
-72.470024
  0
LINE
  8
0
 10
27.527496
 20
-40.970024
 11
27.527496
 21
-72.970024
  0
LINE
  8
0
 10
28.527496
 20
-73.470024
 11
33.597504
 21
-73.470024
  0
LINE
  8
0
 10
28.527496
 20
-80.470024
 11
33.597504
 21
-80.470024
  0
LINE
  8
0
 10
28.527496
 20
-73.970024
 11
35.427490
 21
-73.970024
  0
LINE
  8
0
 10
28.527496
 20
-79.970024
 11
35.427490
 21
-79.970024
  0
LINE
  8
0
 10
36.287491
 20
-38.970024
 11
28.137497
 21
-38.970024
  0
LINE
  8
0
 10
35.687500
 20
-39.470024
 11
28.137497
 21
-39.470024
  0
LINE
  8
0
 10
28.137497
 20
-116.960014
 11
36.287491
 21
-116.960014
  0
LINE
  8
0
 10
28.137497
 20
-116.460014
 11
35.687500
 21
-116.460014
  0
LINE
  8
0
 10
28.527496
 20
-115.460014
 11
33.597504
 21
-115.460014
  0
LINE
  8
0
 10
33.597504
 20
-40.470024
 11
28.527496
 21
-40.470024
  0
LINE
  8
0
 10
35.427490
 20
-39.970024
 11
28.527496
 21
-39.970024
  0
LINE
  8
0
 10
28.527496
 20
-115.960014
 11
35.427490
 21
-115.960014
  0
LINE
  8
0
 10
-28.832497
 20
-36.790009
 11
-28.352497
 21
-36.270012
  0
LINE
  8
0
 10
-28.832499
 20
-36.790012
 11
-28.292498
 21
-58.780033
  0
LINE
  8
0
 10
-30.432495
 20
17.729973
 11
47.567505
 21
17.729973
  0
LINE
  8
0
 10
-31.432495
 20
-14.270028
 11
48.567505
 21
-14.270028
  0
LINE
  8
0
 10
-29.202496
 20
-34.270027
 11
46.327499
 21
-34.270027
  0
LINE
  8
0
 10
-31.432495
 20
16.729973
 11
-14.432495
 21
16.729973
  0
LINE
  8
0
 10
-30.242496
 20
-33.270027
 11
47.397491
 21
-33.270027
  0
LINE
  8
0
  6
CENTER
 62
     2
 10
-44.157394
 20
1.729972
 11
60.098419
 21
1.729972
  0
LINE
  8
0
  6
CENTER
 62
     2
 10
-201.429993
 20
-118.359985
 11
-201.429993
 21
-179.809998
  0
LINE
  8
0
 10
-220.229996
 20
-152.769989
 11
-182.629990
 21
-152.769989
  0
LINE
  8
0
 10
-235.229996
 20
-113.709991
 11
-235.229996
 21
-137.769989
  0
LINE
  8
0
 10
-167.629990
 20
-131.819992
 11
-167.629990
 21
-137.769989
  0
LINE
  8
0
 62
     2
 10
-235.229980
 20
-113.709999
 11
-167.629990
 21
-131.819992
  0
LINE
  8
0
 10
-220.000000
 20
-117.790100
 11
-220.000000
 21
-135.269989
  0
LINE
  8
0
 10
-230.149994
 20
-115.070923
 11
-230.149994
 21
-135.269989
  0
LINE
  8
0
 10
-229.549988
 20
-115.231659
 11
-229.549988
 21
-134.769989
  0
LINE
  8
0
 10
-220.389999
 20
-117.685623
 11
-220.389999
 21
-134.269989
  0
LINE
  8
0
 10
-227.459991
 20
-115.791565
 11
-227.459991
 21
-133.769989
  0
LINE
  8
0
 10
-229.289993
 20
-115.301315
 11
-229.289993
 21
-134.269989
  0
LINE
  8
0
 10
-221.389999
 20
-135.269989
 11
-228.289993
 21
-135.269989
  0
LINE
  8
0
 10
-221.389999
 20
-134.769989
 11
-226.459991
 21
-134.769989
  0
LINE
  8
0
 10
-221.000000
 20
-135.769989
 11
-228.549988
 21
-135.769989
  0
LINE
  8
0
 10
-221.000000
 20
-136.269989
 11
-229.149994
 21
-136.269989
  0
LINE
  8
0
 10
-173.569992
 20
-130.228668
 11
-173.569992
 21
-134.269989
  0
LINE
  8
0
 10
-175.399994
 20
-129.738419
 11
-175.399994
 21
-133.769989
  0
LINE
  8
0
 10
-182.469986
 20
-127.844360
 11
-182.469986
 21
-134.269989
  0
LINE
  8
0
 10
-182.859985
 20
-127.739883
 11
-182.859985
 21
-135.269989
  0
LINE
  8
0
 10
-173.309998
 20
-130.298325
 11
-173.309998
 21
-134.769989
  0
LINE
  8
0
 10
-172.709991
 20
-130.459061
 11
-172.709991
 21
-135.269989
  0
LINE
  8
0
 10
-181.469986
 20
-135.269989
 11
-174.569992
 21
-135.269989
  0
LINE
  8
0
 10
-181.469986
 20
-134.769989
 11
-176.399994
 21
-134.769989
  0
LINE
  8
0
 10
-181.859985
 20
-135.769989
 11
-174.309998
 21
-135.769989
  0
LINE
  8
0
 10
-181.859985
 20
-136.269989
 11
-173.709991
 21
-136.269989
  0
LINE
  8
0
  6
CENTER
 62
     2
 10
-91.429993
 20
-118.189987
 11
-91.429993
 21
-172.049988
  0
LINE
  8
0
 10
-110.229996
 20
-152.769989
 11
-72.629990
 21
-152.769989
  0
LINE
  8
0
 10
-125.229996
 20
-113.709991
 11
-125.229996
 21
-137.769989
  0
LINE
  8
0
 10
-57.629990
 20
-131.819992
 11
-57.629990
 21
-137.769989
  0
LINE
  8
0
 62
     2
 10
-125.229996
 20
-113.709991
 11
-57.629982
 21
-131.819992
  0
LINE
  8
0
 10
-110.000000
 20
-117.790100
 11
-110.000000
 21
-135.269989
  0
LINE
  8
0
 10
-120.149994
 20
-115.070923
 11
-120.149994
 21
-135.269989
  0
LINE
  8
0
 10
-119.549988
 20
-115.231659
 11
-119.549988
 21
-134.769989
  0
LINE
  8
0
 10
-110.389999
 20
-117.685623
 11
-110.389999
 21
-134.269989
  0
LINE
  8
0
 10
-117.459991
 20
-115.791565
 11
-117.459991
 21
-133.769989
  0
LINE
  8
0
 10
-119.289993
 20
-115.301315
 11
-119.289993
 21
-134.269989
  0
LINE
  8
0
 10
-111.389999
 20
-135.269989
 11
-118.289993
 21
-135.269989
  0
LINE
  8
0
 10
-111.389999
 20
-134.769989
 11
-116.459991
 21
-134.769989
  0
LINE
  8
0
 10
-111.000000
 20
-135.769989
 11
-118.549988
 21
-135.769989
  0
LINE
  8
0
 10
-111.000000
 20
-136.269989
 11
-119.149994
 21
-136.269989
  0
LINE
  8
0
 10
-63.569992
 20
-130.228668
 11
-63.569992
 21
-134.269989
  0
LINE
  8
0
 10
-65.399994
 20
-129.738419
 11
-65.399994
 21
-133.769989
  0
LINE
  8
0
 10
-72.469986
 20
-127.844360
 11
-72.469986
 21
-134.269989
  0
LINE
  8
0
 10
-72.859985
 20
-127.739883
 11
-72.859985
 21
-135.269989
  0
LINE
  8
0
 10
-63.309998
 20
-130.298325
 11
-63.309998
 21
-134.769989
  0
LINE
  8
0
 10
-62.709991
 20
-130.459061
 11
-62.709991
 21
-135.269989
  0
LINE
  8
0
 10
-71.469986
 20
-135.269989
 11
-64.569992
 21
-135.269989
  0
LINE
  8
0
 10
-71.469986
 20
-134.769989
 11
-66.399994
 21
-134.769989
  0
LINE
  8
0
 10
-71.859985
 20
-135.769989
 11
-64.309998
 21
-135.769989
  0
LINE
  8
0
 10
-71.859985
 20
-136.269989
 11
-63.709991
 21
-136.269989
  0
LINE
  8
0
 10
-281.250000
 20
195.500000
 11
282.099854
 21
195.500000
  0
LINE
  8
0
 10
-281.250000
 20
195.500000
 11
-281.250000
 21
-195.000000
  0
LINE
  8
0
 10
282.099854
 20
195.500000
 11
282.099854
 21
-195.000000
  0
LINE
  8
0
 10
-281.250000
 20
-195.000000
 11
282.099854
 21
-195.000000
  0
LINE
  8
0
 10
162.099976
 20
-175.000000
 11
162.099976
 21
-195.000000
  0
LINE
  8
0
 10
162.099976
 20
-175.000000
 11
282.099854
 21
-175.000000
  0
LINE
  8
0
 10
162.099976
 20
175.500000
 11
282.099854
 21
175.500000
  0
LINE
  8
0
 10
-281.250000
 20
175.500000
 11
-161.250000
 21
175.500000
  0
LINE
  8
0
 10
162.099976
 20
195.500000
 11
162.099976
 21
175.500000
  0
LINE
  8
0
 10
-161.250000
 20
195.500000
 11
-161.250000
 21
175.500000
  0
ARC
  8
0
 10
8.562515
 20
118.247742
 40
39.502197
 50
210.417770
 51
329.582275
  0
ARC
  8
0
 10
8.562515
 20
118.247742
 40
38.531982
 50
211.268524
 51
328.731506
  0
CIRCLE
  8
0
 10
-5.432480
 20
98.247742
 40
8.000008
  0
CIRCLE
  8
0
 10
-5.432480
 20
98.247757
 40
7.500000
  0
CIRCLE
  8
0
 10
14.067490
 20
122.247726
 40
13.999985
  0
CIRCLE
  8
0
 10
14.067505
 20
122.247726
 40
12.999985
  0
CIRCLE
  8
0
 10
14.067520
 20
122.247757
 40
6.949997
  0
ARC
  8
0
 10
8.562515
 20
118.247742
 40
38.531982
 50
31.268503
 51
148.731476
  0
ARC
  8
0
 10
8.562515
 20
118.247742
 40
39.502201
 50
30.417747
 51
149.582230
  0
ARC
  8
0
 10
162.567444
 20
36.579967
 40
6.949997
 50
0.000000
 51
179.999969
  0
CIRCLE
  8
0
 62
     2
 10
158.567444
 20
1.729976
 40
10.477500
  0
CIRCLE
  8
0
 10
158.567444
 20
1.729976
 40
9.315500
  0
ARC
  8
0
 10
175.367432
 20
20.829967
 40
0.699997
 50
0.000312
 51
90.000000
  0
ARC
  8
0
 10
149.767441
 20
20.829967
 40
0.700003
 50
90.000000
 51
179.999695
  0
ARC
  8
0
 10
130.567444
 20
16.729977
 40
1.000000
 50
90.000000
 51
180.000000
  0
CIRCLE
  8
0
 10
158.567444
 20
1.729976
 40
13.500000
  0
ARC
  8
0
 10
179.567444
 20
-10.270024
 40
1.000000
 50
180.000061
 51
270.000000
  0
ARC
  8
0
 10
179.567444
 20
-9.270024
 40
1.000000
 50
180.000061
 51
270.000000
  0
ARC
  8
0
 10
137.567444
 20
-10.270024
 40
1.000000
 50
270.000000
 51
0.000000
  0
ARC
  8
0
 10
137.567444
 20
-9.270024
 40
1.000000
 50
270.000000
 51
0.000000
  0
ARC
  8
0
 10
179.567444
 20
-12.270024
 40
1.000000
 50
180.000061
 51
270.000000
  0
ARC
  8
0
 10
137.567444
 20
-12.270024
 40
1.000000
 50
270.000000
 51
0.000000
  0
ARC
  8
0
 10
131.714767
 20
-72.962700
 40
1.007336
 50
180.416168
 51
269.584290
  0
ARC
  8
0
 10
133.551910
 20
-72.465569
 40
1.004465
 50
180.254150
 51
269.745850
  0
ARC
  8
0
 10
138.613495
 20
-72.966057
 40
1.003968
 50
270.226410
 51
359.774017
  0
ARC
  8
0
 10
138.613495
 20
-72.466057
 40
1.003968
 50
270.226410
 51
359.774017
  0
ARC
  8
0
 10
130.853638
 20
-39.966206
 40
0.996189
 50
89.780594
 51
180.219620
  0
ARC
  8
0
 10
131.447327
 20
-40.469883
 40
0.999866
 50
89.992134
 51
180.007645
  0
ARC
  8
0
 10
131.705856
 20
-40.968433
 40
0.998414
 50
89.908936
 51
180.091064
  0
ARC
  8
0
 10
133.542969
 20
-41.465534
 40
0.995535
 50
89.742691
 51
180.257523
  0
ARC
  8
0
 10
139.004181
 20
-39.963291
 40
0.993294
 50
359.612274
 51
90.388153
  0
ARC
  8
0
 10
139.004181
 20
-40.463291
 40
0.993294
 50
359.612274
 51
90.388153
  0
ARC
  8
0
 10
138.622421
 20
-40.965046
 40
0.995038
 50
359.714020
 51
90.286430
  0
ARC
  8
0
 10
138.622421
 20
-41.465046
 40
0.995038
 50
359.714020
 51
90.286430
  0
ARC
  8
0
 10
130.857559
 20
-115.959923
 40
1.000107
 50
180.005676
 51
269.993866
  0
ARC
  8
0
 10
131.451218
 20
-115.456245
 40
1.003776
 50
180.215561
 51
269.784882
  0
ARC
  8
0
 10
131.709778
 20
-114.957695
 40
1.002322
 50
180.132584
 51
269.867432
  0
ARC
  8
0
 10
131.705856
 20
-80.968422
 40
0.998407
 50
89.908928
 51
180.091064
  0
ARC
  8
0
 10
133.546890
 20
-114.460579
 40
0.999451
 50
179.968079
 51
270.031494
  0
ARC
  8
0
 10
139.000244
 20
-115.962807
 40
0.997212
 50
269.839569
 51
0.160438
  0
ARC
  8
0
 10
139.000244
 20
-115.462807
 40
0.997212
 50
269.839569
 51
0.160438
  0
ARC
  8
0
 10
138.618500
 20
-114.961067
 40
0.998955
 50
269.940491
 51
0.059949
  0
ARC
  8
0
 10
138.618500
 20
-114.461067
 40
0.998955
 50
269.940491
 51
0.059949
  0
ARC
  8
0
 10
138.622421
 20
-80.965050
 40
0.995038
 50
359.713562
 51
90.286430
  0
ARC
  8
0
 10
138.622421
 20
-81.465050
 40
0.995038
 50
359.713562
 51
90.286430
  0
ARC
  8
0
 10
133.542969
 20
-81.465538
 40
0.995532
 50
89.741814
 51
180.257751
  0
ARC
  8
0
 10
140.157852
 20
-118.459053
 40
15.000969
 50
180.500290
 51
269.998535
  0
ARC
  8
0
 10
185.433289
 20
-72.965874
 40
1.004159
 50
270.236816
 51
359.763184
  0
ARC
  8
0
 10
183.596039
 20
-72.468620
 40
1.001405
 50
270.080322
 51
359.919678
  0
ARC
  8
0
 10
178.534470
 20
-72.962990
 40
1.007059
 50
180.400208
 51
269.599792
  0
ARC
  8
0
 10
178.534470
 20
-72.462990
 40
1.007059
 50
180.400208
 51
269.599792
  0
ARC
  8
0
 10
186.294342
 20
-39.963108
 40
0.993112
 50
359.601196
 51
90.398788
  0
ARC
  8
0
 10
185.695770
 20
-40.461689
 40
0.991704
 50
359.518860
 51
90.481346
  0
ARC
  8
0
 10
185.442215
 20
-40.965229
 40
0.995236
 50
359.724823
 51
90.274956
  0
ARC
  8
0
 10
183.604980
 20
-41.462467
 40
0.992476
 50
359.563965
 51
90.436043
  0
ARC
  8
0
 10
178.143784
 20
-39.966358
 40
0.996356
 50
89.790283
 51
180.209930
  0
ARC
  8
0
 10
178.143784
 20
-40.466358
 40
0.996356
 50
89.790283
 51
180.209930
  0
ARC
  8
0
 10
178.525574
 20
-40.968143
 40
0.998133
 50
89.892265
 51
180.107300
  0
ARC
  8
0
 10
178.525574
 20
-41.468143
 40
0.998133
 50
89.892265
 51
180.107300
  0
ARC
  8
0
 10
186.290421
 20
-115.963005
 40
0.997021
 50
269.829010
 51
0.171428
  0
ARC
  8
0
 10
185.691833
 20
-115.464409
 40
0.995615
 50
269.747101
 51
0.252898
  0
ARC
  8
0
 10
185.438293
 20
-114.960884
 40
0.999146
 50
269.950989
 51
0.049001
  0
ARC
  8
0
 10
185.442215
 20
-80.965233
 40
0.995236
 50
359.724609
 51
90.274956
  0
ARC
  8
0
 10
183.601059
 20
-114.463631
 40
0.996390
 50
269.792053
 51
0.207952
  0
ARC
  8
0
 10
178.147705
 20
-115.959755
 40
1.000259
 50
180.015289
 51
269.985138
  0
ARC
  8
0
 10
178.147705
 20
-115.459755
 40
1.000259
 50
180.015289
 51
269.985138
  0
ARC
  8
0
 10
178.529480
 20
-114.957970
 40
1.002047
 50
180.116913
 51
269.883087
  0
ARC
  8
0
 10
178.529480
 20
-114.457970
 40
1.002047
 50
180.116913
 51
269.883087
  0
ARC
  8
0
 10
178.525558
 20
-80.968147
 40
0.998133
 50
89.892265
 51
180.107300
  0
ARC
  8
0
 10
178.525558
 20
-81.468147
 40
0.998133
 50
89.892265
 51
180.107300
  0
ARC
  8
0
 10
183.604996
 20
-81.462471
 40
0.992476
 50
359.563965
 51
90.436043
  0
ARC
  8
0
 10
176.990189
 20
-118.462227
 40
14.997795
 50
269.989502
 51
359.511780
  0
ARC
  8
0
 10
26.867493
 20
20.829964
 40
0.700003
 50
0.000312
 51
89.999687
  0
ARC
  8
0
 10
14.067505
 20
36.579964
 40
6.950001
 50
0.000000
 51
179.999969
  0
ARC
  8
0
 10
28.567505
 20
18.729973
 40
1.000000
 50
180.000000
 51
270.000000
  0
ARC
  8
0
 10
2.567505
 20
16.729973
 40
1.000000
 50
0.000000
 51
89.999985
  0
ARC
  8
0
 10
-13.432495
 20
16.729973
 40
1.000000
 50
90.000000
 51
180.000000
  0
ARC
  8
0
 10
-11.384109
 20
-40.961632
 40
0.991649
 50
359.515320
 51
90.484573
  0
ARC
  8
0
 10
-10.997375
 20
-40.464897
 40
0.994884
 50
359.704529
 51
90.295372
  0
ARC
  8
0
 10
-18.295685
 20
-40.966835
 40
0.996816
 50
89.816696
 51
180.183304
  0
ARC
  8
0
 10
-18.554230
 20
-40.468285
 40
0.998266
 50
89.900383
 51
180.099625
  0
ARC
  8
0
 10
-27.855343
 20
-60.007195
 40
0.307419
 50
182.389557
 51
216.490448
  0
ARC
  8
0
 10
-18.286768
 20
-72.964287
 40
1.005742
 50
180.326416
 51
269.673798
  0
ARC
  8
0
 10
-16.454643
 20
-72.462166
 40
1.007883
 50
180.446289
 51
269.553589
  0
ARC
  8
0
 10
-11.393082
 20
-72.969444
 40
1.000572
 50
270.032990
 51
359.967224
  0
ARC
  8
0
 10
-11.393082
 20
-72.469444
 40
1.000572
 50
270.032990
 51
359.967224
  0
ARC
  8
0
 10
-16.463539
 20
-41.468971
 40
0.998955
 50
89.940048
 51
180.059952
  0
ARC
  8
0
 10
-11.384109
 20
-41.461632
 40
0.991649
 50
359.515320
 51
90.484573
  0
ARC
  8
0
 10
-19.148973
 20
-115.956505
 40
1.003527
 50
180.201248
 51
269.798981
  0
ARC
  8
0
 10
-18.550320
 20
-115.457848
 40
1.002179
 50
180.124313
 51
269.875580
  0
ARC
  8
0
 10
-18.291767
 20
-114.959297
 40
1.000729
 50
180.041931
 51
269.958282
  0
ARC
  8
0
 10
-18.295687
 20
-80.966835
 40
0.996816
 50
89.816582
 51
180.183304
  0
ARC
  8
0
 10
-16.459631
 20
-114.457161
 40
1.002867
 50
180.163895
 51
269.836334
  0
ARC
  8
0
 10
-11.001297
 20
-115.961220
 40
0.998795
 50
269.930908
 51
0.069150
  0
ARC
  8
0
 10
-11.001297
 20
-115.461220
 40
0.998795
 50
269.930908
 51
0.069150
  0
ARC
  8
0
 10
-11.388046
 20
-114.964470
 40
0.995562
 50
269.743958
 51
0.255985
  0
ARC
  8
0
 10
-11.388046
 20
-114.464470
 40
0.995562
 50
269.743958
 51
0.255985
  0
ARC
  8
0
 10
-11.384109
 20
-80.961632
 40
0.991645
 50
359.515106
 51
90.484741
  0
ARC
  8
0
 10
-11.384109
 20
-81.461632
 40
0.991645
 50
359.515106
 51
90.484741
  0
ARC
  8
0
 10
-16.463543
 20
-81.468971
 40
0.998955
 50
89.939835
 51
180.059952
  0
ARC
  8
0
 10
-9.843689
 20
-118.460655
 40
14.999370
 50
180.494217
 51
270.004547
  0
ARC
  8
0
 10
-19.152880
 20
-39.969643
 40
0.999615
 50
89.977913
 51
180.022079
  0
ARC
  8
0
 10
-10.997375
 20
-39.964897
 40
0.994884
 50
359.704529
 51
90.295372
  0
ARC
  8
0
 10
28.524109
 20
-41.466637
 40
0.996622
 50
89.805473
 51
180.194519
  0
ARC
  8
0
 10
28.524109
 20
-40.966637
 40
0.996622
 50
89.805473
 51
180.194519
  0
ARC
  8
0
 10
33.603561
 20
-41.463966
 40
0.993961
 50
359.650818
 51
90.349197
  0
ARC
  8
0
 10
35.435684
 20
-40.961830
 40
0.991844
 50
359.526886
 51
90.473129
  0
ARC
  8
0
 10
35.426727
 20
-72.969246
 40
1.000771
 50
270.043884
 51
359.955872
  0
ARC
  8
0
 10
33.594620
 20
-72.467140
 40
1.002888
 50
270.164764
 51
359.835236
  0
ARC
  8
0
 10
28.533035
 20
-72.964485
 40
1.005548
 50
180.315170
 51
269.684723
  0
ARC
  8
0
 10
28.533035
 20
-72.464485
 40
1.005548
 50
180.315170
 51
269.684723
  0
ARC
  8
0
 10
35.435699
 20
-80.961830
 40
0.991840
 50
359.526642
 51
90.473351
  0
ARC
  8
0
 10
28.524109
 20
-80.966637
 40
0.996618
 50
89.805252
 51
180.194748
  0
ARC
  8
0
 10
28.524109
 20
-81.466637
 40
0.996618
 50
89.805252
 51
180.194748
  0
ARC
  8
0
 10
33.603561
 20
-81.463951
 40
0.993957
 50
359.650360
 51
90.349419
  0
ARC
  8
0
 10
36.292892
 20
-39.964622
 40
0.994613
 50
359.688843
 51
90.311165
  0
ARC
  8
0
 10
35.694244
 20
-40.463280
 40
0.993279
 50
359.610962
 51
90.389046
  0
ARC
  8
0
 10
28.137390
 20
-39.969902
 40
0.999889
 50
89.993660
 51
180.006332
  0
ARC
  8
0
 10
28.137390
 20
-40.469902
 40
0.999889
 50
89.993660
 51
180.006332
  0
ARC
  8
0
 10
36.288971
 20
-115.961494
 40
0.998529
 50
269.915283
 51
0.084491
  0
ARC
  8
0
 10
35.690308
 20
-115.462837
 40
0.997189
 50
269.838257
 51
0.161757
  0
ARC
  8
0
 10
35.431747
 20
-114.964272
 40
0.995752
 50
269.755249
 51
0.244961
  0
ARC
  8
0
 10
33.599625
 20
-114.462151
 40
0.997874
 50
269.877777
 51
0.122220
  0
ARC
  8
0
 10
28.141296
 20
-115.956230
 40
1.003801
 50
180.216431
 51
269.783447
  0
ARC
  8
0
 10
28.141296
 20
-115.456230
 40
1.003801
 50
180.216431
 51
269.783447
  0
ARC
  8
0
 10
28.528030
 20
-114.959480
 40
1.000532
 50
180.030579
 51
269.969513
  0
ARC
  8
0
 10
28.528030
 20
-114.459480
 40
1.000532
 50
180.030579
 51
269.969513
  0
ARC
  8
0
 10
26.988663
 20
-118.460625
 40
14.999397
 50
269.995605
 51
359.505737
  0
ARC
  8
0
 10
-220.231247
 20
-137.771255
 40
14.998734
 50
179.995163
 51
270.004791
  0
ARC
  8
0
 10
-182.631226
 20
-137.768753
 40
15.001236
 50
270.004791
 51
359.995270
  0
ARC
  8
0
 10
-221.385544
 20
-133.774445
 40
0.995554
 50
269.743561
 51
0.256426
  0
ARC
  8
0
 10
-221.385544
 20
-134.274445
 40
0.995554
 50
269.743561
 51
0.256426
  0
ARC
  8
0
 10
-220.998795
 20
-134.771194
 40
0.998795
 50
269.930847
 51
0.069150
  0
ARC
  8
0
 10
-220.998795
 20
-135.271194
 40
0.998795
 50
269.930847
 51
0.069150
  0
ARC
  8
0
 10
-226.457123
 20
-133.767120
 40
1.002873
 50
180.163895
 51
269.836121
  0
ARC
  8
0
 10
-228.289261
 20
-134.269257
 40
1.000733
 50
180.041931
 51
269.958069
  0
ARC
  8
0
 10
-228.547821
 20
-134.767822
 40
1.002184
 50
180.124741
 51
269.875244
  0
ARC
  8
0
 10
-229.146469
 20
-135.266464
 40
1.003531
 50
180.201248
 51
269.798767
  0
ARC
  8
0
 10
-181.469452
 20
-133.769455
 40
1.000534
 50
180.030579
 51
269.969421
  0
ARC
  8
0
 10
-181.469452
 20
-134.269455
 40
1.000534
 50
180.030579
 51
269.969421
  0
ARC
  8
0
 10
-181.856201
 20
-134.766205
 40
1.003807
 50
180.216873
 51
269.783142
  0
ARC
  8
0
 10
-181.856201
 20
-135.266205
 40
1.003807
 50
180.216873
 51
269.783142
  0
ARC
  8
0
 10
-176.397858
 20
-133.772125
 40
0.997866
 50
269.877350
 51
0.122659
  0
ARC
  8
0
 10
-174.565735
 20
-134.274246
 40
0.995752
 50
269.755035
 51
0.244961
  0
ARC
  8
0
 10
-174.307175
 20
-134.772812
 40
0.997196
 50
269.838684
 51
0.161317
  0
ARC
  8
0
 10
-173.708511
 20
-135.271469
 40
0.998521
 50
269.915070
 51
0.084929
  0
ARC
  8
0
 10
-110.231247
 20
-137.771255
 40
14.998741
 50
179.995163
 51
270.004761
  0
ARC
  8
0
 10
-72.631226
 20
-137.768753
 40
15.001236
 50
270.004791
 51
359.995270
  0
ARC
  8
0
 10
-111.385544
 20
-133.774445
 40
0.995554
 50
269.744019
 51
0.256424
  0
ARC
  8
0
 10
-111.385544
 20
-134.274445
 40
0.995554
 50
269.744019
 51
0.256424
  0
ARC
  8
0
 10
-110.998795
 20
-134.771194
 40
0.998795
 50
269.930847
 51
0.069150
  0
ARC
  8
0
 10
-110.998795
 20
-135.271194
 40
0.998795
 50
269.930847
 51
0.069150
  0
ARC
  8
0
 10
-116.457123
 20
-133.767120
 40
1.002865
 50
180.163895
 51
269.836548
  0
ARC
  8
0
 10
-118.289261
 20
-134.269257
 40
1.000725
 50
180.041931
 51
269.958069
  0
ARC
  8
0
 10
-118.547821
 20
-134.767822
 40
1.002177
 50
180.124756
 51
269.875702
  0
ARC
  8
0
 10
-119.146469
 20
-135.266464
 40
1.003531
 50
180.201248
 51
269.798767
  0
ARC
  8
0
 10
-71.469452
 20
-133.769455
 40
1.000534
 50
180.030579
 51
269.969421
  0
ARC
  8
0
 10
-71.469452
 20
-134.269455
 40
1.000534
 50
180.030579
 51
269.969421
  0
ARC
  8
0
 10
-71.856201
 20
-134.766205
 40
1.003799
 50
180.216873
 51
269.783569
  0
ARC
  8
0
 10
-71.856201
 20
-135.266205
 40
1.003799
 50
180.216873
 51
269.783569
  0
ARC
  8
0
 10
-66.397858
 20
-133.772125
 40
0.997866
 50
269.877777
 51
0.122658
  0
ARC
  8
0
 10
-64.565735
 20
-134.274246
 40
0.995752
 50
269.755035
 51
0.244961
  0
ARC
  8
0
 10
-64.307175
 20
-134.772812
 40
0.997196
 50
269.838257
 51
0.161318
  0
ARC
  8
0
 10
-63.708511
 20
-135.271469
 40
0.998521
 50
269.915283
 51
0.084929
  0
POLYLINE
  8
0
 66
     1
  0
VERTEX
  8
0
 10
-25.472496
 20
-46.340019
  0
VERTEX
  8
0
 10
-25.201551
 20
-47.280525
  0
VERTEX
  8
0
 10
-24.959866
 20
-48.209015
  0
VERTEX
  8
0
 10
-24.747587
 20
-49.136963
  0
VERTEX
  8
0
 10
-24.564863
 20
-50.075836
  0
VERTEX
  8
0
 10
-24.411844
 20
-51.037109
  0
VERTEX
  8
0
 10
-24.288679
 20
-52.032253
  0
VERTEX
  8
0
 10
-24.195513
 20
-53.072731
  0
VERTEX
  8
0
 10
-24.132496
 20
-54.170021
  0
VERTEX
  8
0
 10
-24.107719
 20
-55.089096
  0
VERTEX
  8
0
 10
-24.110958
 20
-56.008835
  0
VERTEX
  8
0
 10
-24.141737
 20
-56.928349
  0
VERTEX
  8
0
 10
-24.199583
 20
-57.846756
  0
VERTEX
  8
0
 10
-24.284021
 20
-58.763165
  0
VERTEX
  8
0
 10
-24.394577
 20
-59.676689
  0
VERTEX
  8
0
 10
-24.530775
 20
-60.586445
  0
VERTEX
  8
0
 10
-24.692141
 20
-61.491543
  0
VERTEX
  8
0
 10
-24.878199
 20
-62.391094
  0
VERTEX
  8
0
 10
-25.088474
 20
-63.284218
  0
VERTEX
  8
0
 10
-25.322495
 20
-64.170021
  0
SEQEND
  0
TEXT
  8
0
 10
199.400253
 20
180.830002
 40
6.300000
  1
Ｖｅｒ．２．０
 50
0.000000
 41
0.833333
 51
0.000000
  7
STANDARD
  0
TEXT
  8
0
 10
-253.399719
 20
180.830002
 40
6.300000
  1
LUBRICATOR
 50
0.000000
 41
1.052632
 51
0.000000
  7
STANDARD
  0
TEXT
  8
0
 10
-256.000000
 20
157.720001
 40
6.300000
  1
MODEL:L600-04
 50
0.000000
 41
1.052632
 51
0.000000
  7
STANDARD
  0
TEXT
  8
0
 10
-236.883392
 20
-106.520142
 40
6.300000
  1
OPTION:-F2
 50
0.000000
 41
1.052632
 51
0.000000
  7
STANDARD
  0
TEXT
  8
0
 10
-123.113213
 20
-105.698181
 40
6.300000
  1
OPTION:-D
 50
0.000000
 41
1.052632
 51
0.000000
  7
STANDARD
  0
TEXT
  8
0
 10
59.589569
 20
2.729964
 40
6.300000
  1
OUT
 50
0.000000
 41
1.052632
 51
0.000000
  7
STANDARD
  0
TEXT
  8
0
 10
-59.454956
 20
2.729981
 40
6.300000
  1
IN
 50
0.000000
 41
1.052632
 51
0.000000
  7
STANDARD
  0
TEXT
  8
0
 10
167.564667
 20
-192.100006
 40
9.000000
  1
KOGANEI CORP.
 50
0.000000
 41
1.052632
 51
0.000000
  7
STANDARD
  0
LINE
  8
0
 10
83.567505
 20
1.729964
 11
58.567505
 21
1.729964
  0
LINE
  8
0
 10
83.567505
 20
1.729964
 11
80.669724
 21
2.506421
  0
LINE
  8
0
 10
83.567505
 20
1.729964
 11
80.669731
 21
0.953507
  0
LINE
  8
0
 10
-41.432495
 20
1.729972
 11
-66.432495
 21
1.729972
  0
LINE
  8
0
 10
-41.432495
 20
1.729972
 11
-44.330273
 21
2.506429
  0
LINE
  8
0
 10
-41.432495
 20
1.729972
 11
-44.330273
 21
0.953515
  0
ENDSEC
  0
EOF
