  0
SECTION
  2
HEADER
  0
ENDSEC
  0
SECTION
  2
TABLES
  0
TABLE
  2
LTYPE
 70
     4
  0
LTYPE
  2
CONTINUOUS
 70
    64
  3
Solid line
 72
    65
 73
     0
 40
0.000000
  0
LTYPE
  2
DASHED
 70
    64
  3
__ __ __ __ __ __ __ __ __ __ __ __ __ __ __
 72
    65
 73
     2
 40
3.500000
 49
2.000000
 49
-1.500000
  0
LTYPE
  2
CENTER
 70
    64
  3
____ _ ____ _ ____ _ ____ _ ____ _ ____ _ ____
 72
    65
 73
     4
 40
17.500000
 49
13.000000
 49
-1.500000
 49
1.500000
 49
-1.500000
  0
LTYPE
  2
PHANTOM
 70
    64
  3
_____ _ _ _____ _ _ _____ _ _ _____ _ _ ____  
 72
    65
 73
     6
 40
15.500000
 49
8.000000
 49
-1.500000
 49
1.500000
 49
-1.500000
 49
1.500000
 49
-1.500000
  0
LTYPE
  2
DASHED1
 70
    64
  3
__ __ __ __ __ __ __ __ __ __ __ __ __ __ __
 72
    65
 73
     2
 40
1.500000
 49
1.000000
 49
-0.500000
  0
LTYPE
  2
DASHED2
 70
    64
  3
__ __ __ __ __ __ __ __ __ __ __ __ __ __ __
 72
    65
 73
     2
 40
3.500000
 49
2.500000
 49
-1.000000
  0
LTYPE
  2
DASHED3
 70
    64
  3
__ __ __ __ __ __ __ __ __ __ __ __ __ __ __
 72
    65
 73
     2
 40
6.000000
 49
4.000000
 49
-2.000000
  0
LTYPE
  2
DASHED4
 70
    64
  3
__ __ __ __ __ __ __ __ __ __ __ __ __ __ __
 72
    65
 73
     2
 40
12.000000
 49
10.000000
 49
-2.000000
  0
LTYPE
  2
DASHED5
 70
    64
  3
__ __ __ __ __ __ __ __ __ __ __ __ __ __ __
 72
    65
 73
     2
 40
17.000000
 49
15.000000
 49
-2.000000
  0
LTYPE
  2
DASHED6
 70
    64
  3
__ __ __ __ __ __ __ __ __ __ __ __ __ __ __
 72
    65
 73
     2
 40
29.000000
 49
27.000000
 49
-2.000000
  0
LTYPE
  2
PHANTOM1
 70
    64
  3
_____ _ _ _____ _ _ _____ _ _ _____ _ _ ____  
 72
    65
 73
     6
 40
31.000000
 49
25.000000
 49
-1.500000
 49
1.000000
 49
-1.000000
 49
1.000000
 49
-1.500000
  0
LTYPE
  2
PHANTOM2
 70
    64
  3
_____ _ _ _____ _ _ _____ _ _ _____ _ _ ____  
 72
    65
 73
     6
 40
36.000000
 49
27.000000
 49
-1.500000
 49
2.500000
 49
-1.000000
 49
2.500000
 49
-1.500000
  0
LTYPE
  2
PHANTOM3
 70
    64
  3
_____ _ _ _____ _ _ _____ _ _ _____ _ _ ____  
 72
    65
 73
     6
 40
78.000000
 49
64.000000
 49
-2.000000
 49
4.000000
 49
-2.000000
 49
4.000000
 49
-2.000000
  0
LTYPE
  2
CENTER1
 70
    64
  3
____ _ ____ _ ____ _ ____ _ ____ _ ____ _ ____
 72
    65
 73
     4
 40
19.000000
 49
14.000000
 49
-1.000000
 49
3.000000
 49
-1.000000
  0
LTYPE
  2
CENTER2
 70
    64
  3
____ _ ____ _ ____ _ ____ _ ____ _ ____ _ ____
 72
    65
 73
     4
 40
28.500000
 49
25.000000
 49
-1.000000
 49
1.500000
 49
-1.000000
  0
LTYPE
  2
CENTER3
 70
    64
  3
____ _ ____ _ ____ _ ____ _ ____ _ ____ _ ____
 72
    65
 73
     4
 40
31.500000
 49
27.000000
 49
-1.000000
 49
2.500000
 49
-1.000000
  0
LTYPE
  2
CENTER4
 70
    64
  3
____ _ ____ _ ____ _ ____ _ ____ _ ____ _ ____
 72
    65
 73
     4
 40
50.000000
 49
45.000000
 49
-1.000000
 49
3.000000
 49
-1.000000
  0
LTYPE
  2
CENTER5
 70
    64
  3
____ _ ____ _ ____ _ ____ _ ____ _ ____ _ ____
 72
    65
 73
     4
 40
100.000000
 49
92.000000
 49
-2.000000
 49
4.000000
 49
-2.000000
  0
LTYPE
  2
SBK1
 70
    64
  3
______ _ _ _ ______ _ _ _ ______ _ _ _ _____  
 72
    65
 73
     8
 40
60.500000
 49
45.000000
 49
-2.000000
 49
2.500000
 49
-2.000000
 49
2.500000
 49
-2.000000
 49
2.500000
 49
-2.000000
  0
LTYPE
  2
SBK2
 70
    64
  3
______ _ _ _ ______ _ _ _ ______ _ _ _ _____  
 72
    65
 73
     8
 40
84.000000
 49
64.000000
 49
-2.000000
 49
4.000000
 49
-2.000000
 49
4.000000
 49
-2.000000
 49
4.000000
 49
-2.000000
  0
LTYPE
  2
STCH
 70
    64
  3
__ __ __ __ __ __ __ __ __ __ __ __ __ __ __
 72
    65
 73
     2
 40
3.000000
 49
1.000000
 49
-2.000000
  0
LTYPE
  2
MTCH
 70
    64
  3
_____ _ _ _____ _ _ _____ _ _ _____ _ _ ____  
 72
    65
 73
     6
 40
80.000000
 49
66.000000
 49
-2.000000
 49
4.000000
 49
-2.000000
 49
4.000000
 49
-2.000000
  0
ENDTAB
  0
TABLE
  2
LAYER
 70
     1
  0
LAYER
  2
0
 70
     0
 62
     7
  6
CONTINUOUS
  0
ENDTAB
  0
TABLE
  2
STYLE
 70
     1
  0
STYLE
  2
STANDARD
 70
     0
 40
0.000000
 41
1.000000
 50
0.000000
 71
     0
 42
0.200000
  3
txt
  4
BIGFONT
  0
ENDTAB
  0
TABLE
  2
VIEW
 70
     0
  0
ENDTAB
  0
ENDSEC
  0
SECTION
  2
BLOCKS
  0
ENDSEC
  0
SECTION
  2
ENTITIES
  0
LINE
  8
0
 62
     4
 10
-59.463661
 20
-110.209175
 11
-61.963661
 21
-110.209175
  0
LINE
  8
0
 62
     4
 10
-67.463661
 20
-110.209175
 11
-64.963661
 21
-110.209175
  0
LINE
  8
0
 62
     4
 10
-56.213657
 20
-105.709175
 11
-55.713657
 21
-105.209175
  0
LINE
  8
0
 62
     4
 10
-71.213661
 20
-105.209175
 11
-70.713661
 21
-105.709175
  0
LINE
  8
0
 62
     1
 10
-58.263660
 20
-105.709175
 11
-58.263660
 21
-107.209175
  0
LINE
  8
0
 62
     1
 10
-68.663658
 20
-105.709175
 11
-68.663658
 21
-107.209175
  0
LINE
  8
0
 62
     4
 10
-69.463661
 20
-105.709175
 11
-69.463661
 21
-107.209175
  0
LINE
  8
0
 62
     4
 10
-57.463661
 20
-105.709175
 11
-57.463661
 21
-107.209175
  0
LINE
  8
0
 62
     4
 10
-55.713661
 20
-107.709175
 11
-55.713661
 21
-119.709175
  0
LINE
  8
0
 62
     4
 10
-71.213661
 20
-107.709175
 11
-71.213661
 21
-119.709175
  0
LINE
  8
0
 62
     4
 10
-71.213661
 20
-107.709175
 11
-55.713661
 21
-107.709175
  0
LINE
  8
0
 62
     4
 10
-70.713661
 20
-105.709175
 11
-56.213661
 21
-105.709175
  0
LINE
  8
0
 62
     4
 10
-56.213661
 20
-107.209175
 11
-55.713661
 21
-107.709175
  0
LINE
  8
0
 62
     4
 10
-70.713661
 20
-107.209175
 11
-71.213661
 21
-107.709167
  0
LINE
  8
0
 62
     4
 10
-56.213661
 20
-110.209175
 11
-56.713661
 21
-110.709175
  0
LINE
  8
0
 62
     4
 10
-56.713661
 20
-110.709175
 11
-57.463661
 21
-110.709175
  0
LINE
  8
0
 62
     4
 10
-59.463661
 20
-110.209175
 11
-59.963661
 21
-110.709175
  0
LINE
  8
0
 62
     4
 10
-61.963661
 20
-110.209175
 11
-61.463661
 21
-110.709175
  0
LINE
  8
0
 62
     4
 10
-56.213661
 20
-110.209175
 11
-57.463661
 21
-110.209175
  0
LINE
  8
0
 62
     4
 10
-59.963661
 20
-110.709175
 11
-61.463661
 21
-110.709175
  0
LINE
  8
0
 62
     4
 10
-59.963661
 20
-110.709175
 11
-59.963661
 21
-120.209167
  0
LINE
  8
0
 62
     4
 10
-59.463661
 20
-110.209175
 11
-59.463661
 21
-119.709175
  0
LINE
  8
0
 62
     4
 10
-57.463661
 20
-110.209175
 11
-57.463661
 21
-119.709175
  0
LINE
  8
0
 62
     4
 10
-56.213661
 20
-110.209175
 11
-56.213661
 21
-119.709175
  0
LINE
  8
0
 62
     4
 10
-56.713661
 20
-110.709175
 11
-56.713661
 21
-120.209167
  0
LINE
  8
0
 62
     4
 10
-56.213661
 20
-119.709175
 11
-56.713661
 21
-120.209175
  0
LINE
  8
0
 62
     4
 10
-56.713661
 20
-120.209167
 11
-57.963661
 21
-120.209167
  0
LINE
  8
0
 62
     4
 10
-57.463661
 20
-119.709175
 11
-57.963661
 21
-120.209175
  0
LINE
  8
0
 62
     4
 10
-57.463661
 20
-119.709175
 11
-59.463661
 21
-119.709175
  0
LINE
  8
0
 62
     4
 10
-59.463661
 20
-119.709175
 11
-59.963661
 21
-120.209175
  0
LINE
  8
0
 62
     4
 10
-59.963661
 20
-120.209167
 11
-61.463661
 21
-120.209167
  0
LINE
  8
0
 62
     4
 10
-61.963661
 20
-119.709175
 11
-61.463661
 21
-120.209175
  0
LINE
  8
0
 62
     4
 10
-61.463661
 20
-110.709175
 11
-61.463661
 21
-120.209167
  0
LINE
  8
0
 62
     4
 10
-70.713661
 20
-119.709167
 11
-70.213661
 21
-120.209167
  0
LINE
  8
0
 62
     4
 10
-69.463661
 20
-119.709175
 11
-67.463661
 21
-119.709175
  0
LINE
  8
0
 62
     4
 10
-70.713661
 20
-110.209175
 11
-70.213661
 21
-110.709175
  0
LINE
  8
0
 62
     4
 10
-70.213661
 20
-110.709175
 11
-70.213661
 21
-120.209167
  0
LINE
  8
0
 62
     4
 10
-66.963661
 20
-120.209167
 11
-65.463661
 21
-120.209167
  0
LINE
  8
0
 62
     4
 10
-67.463661
 20
-119.709175
 11
-66.963661
 21
-120.209175
  0
LINE
  8
0
 62
     4
 10
-66.963661
 20
-110.709175
 11
-65.463661
 21
-110.709175
  0
LINE
  8
0
 62
     4
 10
-69.463661
 20
-119.709175
 11
-68.963661
 21
-120.209175
  0
LINE
  8
0
 62
     4
 10
-64.963661
 20
-110.209175
 11
-65.463661
 21
-110.709175
  0
LINE
  8
0
 62
     4
 10
-67.463661
 20
-110.209175
 11
-66.963661
 21
-110.709175
  0
LINE
  8
0
 62
     4
 10
-66.963661
 20
-110.709175
 11
-66.963661
 21
-120.209167
  0
LINE
  8
0
 62
     4
 10
-70.213661
 20
-110.709175
 11
-69.463661
 21
-110.709175
  0
LINE
  8
0
 62
     4
 10
-69.463661
 20
-110.209175
 11
-69.463661
 21
-119.709175
  0
LINE
  8
0
 62
     4
 10
-64.963661
 20
-119.709175
 11
-61.963661
 21
-119.709175
  0
LINE
  8
0
 62
     4
 10
-64.963661
 20
-119.709175
 11
-65.463669
 21
-120.209175
  0
LINE
  8
0
 62
     4
 10
-70.213661
 20
-120.209167
 11
-68.963661
 21
-120.209167
  0
LINE
  8
0
 62
     4
 10
-67.463661
 20
-110.209175
 11
-67.463661
 21
-119.709175
  0
LINE
  8
0
 62
     4
 10
-70.713661
 20
-110.209175
 11
-70.713661
 21
-119.709175
  0
LINE
  8
0
 62
     4
 10
-65.463661
 20
-110.709175
 11
-65.463661
 21
-120.209167
  0
LINE
  8
0
 62
     4
 10
-70.713661
 20
-110.209175
 11
-69.463661
 21
-110.209175
  0
LINE
  8
0
 62
     4
 10
-64.963661
 20
-110.209175
 11
-64.963661
 21
-119.709175
  0
LINE
  8
0
 62
     4
 10
-61.963661
 20
-110.209175
 11
-61.963661
 21
-119.709175
  0
LINE
  8
0
 62
     4
 10
-55.713669
 20
-119.709167
 11
-56.713669
 21
-120.709167
  0
LINE
  8
0
 62
     4
 10
-71.213654
 20
-119.709167
 11
-70.213654
 21
-120.709167
  0
LINE
  8
0
 62
     4
 10
-70.213661
 20
-120.709167
 11
-56.713661
 21
-120.709167
  0
LINE
  8
0
 62
     4
 10
-70.713661
 20
-107.209175
 11
-56.213661
 21
-107.209175
  0
LINE
  8
0
 62
     4
 10
-55.713661
 20
-103.709991
 11
-55.713661
 21
-105.209175
  0
LINE
  8
0
 62
     4
 10
-71.213661
 20
-103.709175
 11
-71.213661
 21
-105.209175
  0
LINE
  8
0
 62
     4
 10
-143.459991
 20
-110.209991
 11
-145.959991
 21
-110.209991
  0
LINE
  8
0
 62
     4
 10
-151.459991
 20
-110.209991
 11
-148.959991
 21
-110.209991
  0
LINE
  8
0
 62
     4
 10
-153.459991
 20
-121.509995
 11
-152.759979
 21
-122.209991
  0
LINE
  8
0
 62
     4
 10
-152.759995
 20
-122.209991
 11
-142.159988
 21
-122.209991
  0
LINE
  8
0
 62
     4
 10
-144.209991
 20
-124.209991
 11
-147.459991
 21
-124.209991
  0
LINE
  8
0
 62
     4
 10
-144.959991
 20
-126.709976
 11
-144.209991
 21
-124.209976
  0
LINE
  8
0
 62
     4
 10
-144.959991
 20
-129.209976
 11
-144.209991
 21
-126.709976
  0
LINE
  8
0
 62
     4
 10
-144.209991
 20
-126.709991
 11
-147.459991
 21
-126.709991
  0
LINE
  8
0
 62
     4
 10
-149.959991
 20
-126.709984
 11
-150.709991
 21
-124.209984
  0
LINE
  8
0
 62
     4
 10
-149.959991
 20
-129.209976
 11
-150.709991
 21
-126.709984
  0
LINE
  8
0
 62
     4
 10
-150.709991
 20
-124.209991
 11
-147.459991
 21
-124.209991
  0
LINE
  8
0
 62
     4
 10
-150.709991
 20
-126.709991
 11
-147.459991
 21
-126.709991
  0
LINE
  8
0
 62
     4
 10
-141.459991
 20
-120.709991
 11
-141.459991
 21
-121.509979
  0
LINE
  8
0
 62
     4
 10
-153.459991
 20
-120.709991
 11
-153.459991
 21
-121.509979
  0
LINE
  8
0
 62
     4
 10
-140.209991
 20
-105.709991
 11
-139.709991
 21
-105.209991
  0
LINE
  8
0
 62
     4
 10
-155.209991
 20
-105.209984
 11
-154.709991
 21
-105.709984
  0
LINE
  8
0
 62
     1
 10
-142.259995
 20
-105.709991
 11
-142.259995
 21
-107.209991
  0
LINE
  8
0
 62
     1
 10
-152.659988
 20
-105.709991
 11
-152.659988
 21
-107.209991
  0
LINE
  8
0
 62
     4
 10
-153.459991
 20
-105.709991
 11
-153.459991
 21
-107.209991
  0
LINE
  8
0
 62
     4
 10
-141.459991
 20
-105.709991
 11
-141.459991
 21
-107.209991
  0
LINE
  8
0
 62
     4
 10
-139.709991
 20
-107.709991
 11
-139.709991
 21
-119.709991
  0
LINE
  8
0
 62
     4
 10
-155.209991
 20
-107.709991
 11
-155.209991
 21
-119.709991
  0
LINE
  8
0
 62
     4
 10
-155.209991
 20
-107.709991
 11
-139.709991
 21
-107.709991
  0
LINE
  8
0
 62
     4
 10
-154.709991
 20
-105.709991
 11
-140.209991
 21
-105.709991
  0
LINE
  8
0
 62
     4
 10
-144.959991
 20
-122.209991
 11
-144.959991
 21
-124.209991
  0
LINE
  8
0
 62
     4
 10
-144.959991
 20
-129.209976
 11
-147.459991
 21
-129.209976
  0
LINE
  8
0
 62
     4
 10
-149.959991
 20
-122.209991
 11
-149.959991
 21
-124.209991
  0
LINE
  8
0
 62
     4
 10
-149.959991
 20
-129.209976
 11
-147.459991
 21
-129.209976
  0
LINE
  8
0
 62
     4
 10
-140.209991
 20
-107.209991
 11
-139.709991
 21
-107.709991
  0
LINE
  8
0
 62
     4
 10
-154.709991
 20
-107.209991
 11
-155.209991
 21
-107.709991
  0
LINE
  8
0
 62
     4
 10
-140.209991
 20
-110.209991
 11
-140.709991
 21
-110.709991
  0
LINE
  8
0
 62
     4
 10
-140.709991
 20
-110.709991
 11
-141.459991
 21
-110.709991
  0
LINE
  8
0
 62
     4
 10
-143.459991
 20
-110.209991
 11
-143.959991
 21
-110.709991
  0
LINE
  8
0
 62
     4
 10
-145.959991
 20
-110.209984
 11
-145.459991
 21
-110.709984
  0
LINE
  8
0
 62
     4
 10
-140.209991
 20
-110.209991
 11
-141.459991
 21
-110.209991
  0
LINE
  8
0
 62
     4
 10
-143.959991
 20
-110.709991
 11
-145.459991
 21
-110.709991
  0
LINE
  8
0
 62
     4
 10
-143.959991
 20
-110.709991
 11
-143.959991
 21
-120.209991
  0
LINE
  8
0
 62
     4
 10
-143.459991
 20
-110.209991
 11
-143.459991
 21
-119.709991
  0
LINE
  8
0
 62
     4
 10
-141.459991
 20
-110.209991
 11
-141.459991
 21
-119.709991
  0
LINE
  8
0
 62
     4
 10
-140.209991
 20
-110.209991
 11
-140.209991
 21
-119.709991
  0
LINE
  8
0
 62
     4
 10
-140.709991
 20
-110.709991
 11
-140.709991
 21
-120.209991
  0
LINE
  8
0
 62
     4
 10
-140.209991
 20
-119.709991
 11
-140.709991
 21
-120.209991
  0
LINE
  8
0
 62
     4
 10
-140.709991
 20
-120.209991
 11
-141.959991
 21
-120.209991
  0
LINE
  8
0
 62
     4
 10
-141.459991
 20
-119.709991
 11
-141.959991
 21
-120.209991
  0
LINE
  8
0
 62
     4
 10
-141.459991
 20
-119.709991
 11
-143.459991
 21
-119.709991
  0
LINE
  8
0
 62
     4
 10
-143.459991
 20
-119.709991
 11
-143.959991
 21
-120.209991
  0
LINE
  8
0
 62
     4
 10
-143.959991
 20
-120.209991
 11
-145.459991
 21
-120.209991
  0
LINE
  8
0
 62
     4
 10
-145.959991
 20
-119.709984
 11
-145.459991
 21
-120.209984
  0
LINE
  8
0
 62
     4
 10
-145.459991
 20
-110.709991
 11
-145.459991
 21
-120.209991
  0
LINE
  8
0
 62
     4
 10
-154.709991
 20
-119.709991
 11
-154.209991
 21
-120.209991
  0
LINE
  8
0
 62
     4
 10
-153.459991
 20
-119.709991
 11
-151.459991
 21
-119.709991
  0
LINE
  8
0
 62
     4
 10
-154.709991
 20
-110.209991
 11
-154.209991
 21
-110.709991
  0
LINE
  8
0
 62
     4
 10
-154.209991
 20
-110.709991
 11
-154.209991
 21
-120.209991
  0
LINE
  8
0
 62
     4
 10
-150.959991
 20
-120.209991
 11
-149.459991
 21
-120.209991
  0
LINE
  8
0
 62
     4
 10
-151.459991
 20
-119.709991
 11
-150.959991
 21
-120.209991
  0
LINE
  8
0
 62
     4
 10
-150.959991
 20
-110.709991
 11
-149.459991
 21
-110.709991
  0
LINE
  8
0
 62
     4
 10
-153.459991
 20
-119.709991
 11
-152.959991
 21
-120.209991
  0
LINE
  8
0
 62
     4
 10
-148.959991
 20
-110.209984
 11
-149.459991
 21
-110.709984
  0
LINE
  8
0
 62
     4
 10
-151.459991
 20
-110.209991
 11
-150.959991
 21
-110.709991
  0
LINE
  8
0
 62
     4
 10
-150.959991
 20
-110.709991
 11
-150.959991
 21
-120.209991
  0
LINE
  8
0
 62
     4
 10
-154.209991
 20
-110.709991
 11
-153.459991
 21
-110.709991
  0
LINE
  8
0
 62
     4
 10
-153.459991
 20
-110.209991
 11
-153.459991
 21
-119.709991
  0
LINE
  8
0
 62
     4
 10
-148.959991
 20
-119.709991
 11
-145.959991
 21
-119.709991
  0
LINE
  8
0
 62
     4
 10
-148.959991
 20
-119.709984
 11
-149.459991
 21
-120.209991
  0
LINE
  8
0
 62
     4
 10
-154.209991
 20
-120.209991
 11
-152.959991
 21
-120.209991
  0
LINE
  8
0
 62
     4
 10
-151.459991
 20
-110.209991
 11
-151.459991
 21
-119.709991
  0
LINE
  8
0
 62
     4
 10
-154.709991
 20
-110.209991
 11
-154.709991
 21
-119.709991
  0
LINE
  8
0
 62
     4
 10
-149.459991
 20
-110.709991
 11
-149.459991
 21
-120.209991
  0
LINE
  8
0
 62
     4
 10
-154.709991
 20
-110.209991
 11
-153.459991
 21
-110.209991
  0
LINE
  8
0
 62
     4
 10
-148.959991
 20
-110.209991
 11
-148.959991
 21
-119.709991
  0
LINE
  8
0
 62
     4
 10
-145.959991
 20
-110.209991
 11
-145.959991
 21
-119.709991
  0
LINE
  8
0
 62
     4
 10
-139.709991
 20
-119.709984
 11
-140.709991
 21
-120.709984
  0
LINE
  8
0
 62
     4
 10
-155.209991
 20
-119.709984
 11
-154.209991
 21
-120.709984
  0
LINE
  8
0
 62
     4
 10
-154.209991
 20
-120.709991
 11
-140.709991
 21
-120.709991
  0
LINE
  8
0
 62
     4
 10
-154.709991
 20
-107.209991
 11
-140.209991
 21
-107.209991
  0
LINE
  8
0
 62
     4
 10
-153.459991
 20
-121.509979
 11
-141.459991
 21
-121.509979
  0
LINE
  8
0
 62
     4
 10
-141.460007
 20
-121.509987
 11
-142.160004
 21
-122.209976
  0
LINE
  8
0
 62
     4
 10
-155.209991
 20
-103.709991
 11
-155.209991
 21
-105.209991
  0
LINE
  8
0
 62
     4
 10
-139.709991
 20
-103.709991
 11
-139.709991
 21
-105.209991
  0
LINE
  8
0
  6
CENTER
 62
     2
 10
-17.463654
 20
73.249283
 11
2.536346
 21
73.249283
  0
LINE
  8
0
  6
CENTER
 62
     2
 10
-5.463654
 20
88.249283
 11
29.536346
 21
88.249283
  0
LINE
  8
0
  6
CENTER
 62
     2
 10
12.036346
 20
105.749283
 11
12.036346
 21
70.749283
  0
LINE
  8
0
  6
CENTER
 62
     2
 10
-7.463654
 20
83.249283
 11
-7.463654
 21
63.249283
  0
LINE
  8
0
 10
0.536346
 20
73.249283
 11
38.036346
 21
73.249283
  0
LINE
  8
0
 10
0.466339
 20
72.249283
 11
37.036346
 21
72.249283
  0
LINE
  8
0
 10
12.036346
 20
102.249283
 11
37.036346
 21
102.249283
  0
LINE
  8
0
 10
17.226334
 20
101.249283
 11
38.036346
 21
101.249283
  0
LINE
  8
0
 10
38.036339
 20
73.249275
 11
37.036335
 21
72.249275
  0
LINE
  8
0
 10
37.036339
 20
102.249290
 11
38.036339
 21
101.249290
  0
LINE
  8
0
 10
-24.963655
 20
73.249283
 11
-23.963654
 21
72.249283
  0
LINE
  8
0
 10
-24.963655
 20
101.249283
 11
-23.963654
 21
102.249283
  0
LINE
  8
0
 10
-24.963654
 20
101.249283
 11
-24.963654
 21
73.249283
  0
LINE
  8
0
 10
-23.963654
 20
102.249283
 11
-23.963654
 21
72.249283
  0
LINE
  8
0
 10
38.036346
 20
101.249283
 11
38.036346
 21
73.249283
  0
LINE
  8
0
 10
37.036346
 20
102.249283
 11
37.036346
 21
72.249283
  0
LINE
  8
0
 10
-23.963654
 20
102.249283
 11
12.036346
 21
102.249283
  0
LINE
  8
0
 10
-24.963654
 20
101.249283
 11
6.836334
 21
101.249283
  0
LINE
  8
0
 10
-23.963654
 20
72.249283
 11
-15.403654
 21
72.249283
  0
LINE
  8
0
 10
-24.963654
 20
73.249283
 11
-15.463654
 21
73.249283
  0
LINE
  8
0
  6
CENTER
 62
     2
 10
6.536346
 20
124.699280
 11
6.536346
 21
49.799286
  0
LINE
  8
0
  6
CENTER
 62
     2
 10
-33.803654
 20
87.249283
 11
50.786346
 21
87.249283
  0
LINE
  8
0
 10
111.006348
 20
-103.499191
 11
142.066345
 21
-103.499191
  0
LINE
  8
0
 10
105.036346
 20
31.290802
 11
105.036346
 21
25.290802
  0
LINE
  8
0
 10
105.036354
 20
25.290794
 11
104.536354
 21
24.790794
  0
LINE
  8
0
 10
105.926361
 20
24.790802
 11
104.536346
 21
24.790802
  0
LINE
  8
0
 10
105.926361
 20
25.290802
 11
105.036346
 21
25.290802
  0
LINE
  8
0
 10
105.926361
 20
30.790802
 11
105.926361
 21
24.790802
  0
LINE
  8
0
 10
106.426353
 20
31.290796
 11
105.926346
 21
30.790796
  0
LINE
  8
0
 10
108.046356
 20
30.790802
 11
105.926361
 21
30.790802
  0
LINE
  8
0
 10
108.546349
 20
31.290794
 11
108.046349
 21
30.790792
  0
LINE
  8
0
 10
108.046356
 20
30.790802
 11
108.046356
 21
24.790802
  0
LINE
  8
0
 10
108.546349
 20
25.290792
 11
108.046356
 21
24.790798
  0
LINE
  8
0
 10
108.546356
 20
31.290802
 11
108.546356
 21
25.290802
  0
LINE
  8
0
 10
111.036346
 20
24.790802
 11
108.046356
 21
24.790802
  0
LINE
  8
0
 10
111.036354
 20
24.790800
 11
110.536346
 21
25.290804
  0
LINE
  8
0
 10
110.536346
 20
25.290802
 11
108.546356
 21
25.290802
  0
LINE
  8
0
 10
111.036346
 20
30.790802
 11
111.036346
 21
24.790802
  0
LINE
  8
0
 10
110.536346
 20
31.290802
 11
110.536346
 21
25.290802
  0
LINE
  8
0
 10
111.036346
 20
30.790804
 11
110.536346
 21
31.290804
  0
LINE
  8
0
 10
114.036346
 20
30.790802
 11
111.036346
 21
30.790802
  0
LINE
  8
0
 10
104.536346
 20
30.790798
 11
105.036346
 21
31.290798
  0
LINE
  8
0
 10
104.536346
 20
30.790802
 11
104.536346
 21
23.290802
  0
LINE
  8
0
 10
114.036346
 20
30.790802
 11
115.236343
 21
30.790802
  0
LINE
  8
0
 10
105.036346
 20
31.290802
 11
114.536346
 21
31.290802
  0
LINE
  8
0
 10
134.736343
 20
32.290802
 11
134.736343
 21
31.290802
  0
LINE
  8
0
 10
120.336349
 20
32.290802
 11
120.336349
 21
31.290802
  0
LINE
  8
0
 10
120.336349
 20
32.290802
 11
134.736343
 21
32.290802
  0
LINE
  8
0
 10
114.036346
 20
25.290804
 11
113.536346
 21
24.790802
  0
LINE
  8
0
 10
114.736343
 20
24.790802
 11
113.536346
 21
24.790802
  0
LINE
  8
0
 10
114.736343
 20
25.290802
 11
114.036346
 21
25.290802
  0
LINE
  8
0
 10
114.736343
 20
30.290802
 11
114.736343
 21
24.790802
  0
LINE
  8
0
 10
114.036346
 20
30.790802
 11
114.036346
 21
25.290802
  0
LINE
  8
0
 10
115.236351
 20
30.790802
 11
114.736351
 21
30.290800
  0
LINE
  8
0
 10
116.236343
 20
30.290802
 11
114.736343
 21
30.290802
  0
LINE
  8
0
 10
116.736351
 20
30.790794
 11
116.236351
 21
30.290792
  0
LINE
  8
0
 10
116.236343
 20
30.290802
 11
116.236343
 21
24.790802
  0
LINE
  8
0
 10
116.736351
 20
25.290794
 11
116.236351
 21
24.790794
  0
LINE
  8
0
 10
116.736343
 20
30.790802
 11
116.736343
 21
25.290802
  0
LINE
  8
0
 10
119.286346
 20
24.790802
 11
116.236343
 21
24.790802
  0
LINE
  8
0
 10
119.286346
 20
25.290802
 11
116.736343
 21
25.290802
  0
LINE
  8
0
 10
119.286346
 20
30.290802
 11
119.286346
 21
24.790802
  0
LINE
  8
0
 10
119.786346
 20
30.790802
 11
116.736343
 21
30.790802
  0
LINE
  8
0
 10
119.786354
 20
30.790792
 11
119.286346
 21
30.290792
  0
LINE
  8
0
 10
122.376343
 20
25.290806
 11
121.876343
 21
24.790806
  0
LINE
  8
0
 10
121.876343
 20
30.290802
 11
119.286346
 21
30.290802
  0
LINE
  8
0
 10
121.876343
 20
30.290802
 11
121.876343
 21
24.790802
  0
LINE
  8
0
 10
122.376343
 20
30.790802
 11
122.376343
 21
25.290802
  0
LINE
  8
0
 10
122.376343
 20
30.790796
 11
121.876343
 21
30.290794
  0
LINE
  8
0
 10
125.536346
 20
30.790802
 11
122.376343
 21
30.790802
  0
LINE
  8
0
 10
126.036346
 20
24.790802
 11
121.876343
 21
24.790802
  0
LINE
  8
0
 10
125.536346
 20
25.290802
 11
122.376343
 21
25.290802
  0
LINE
  8
0
 10
126.036346
 20
24.790806
 11
125.536346
 21
25.290800
  0
LINE
  8
0
 10
125.536346
 20
30.790802
 11
125.536346
 21
25.290802
  0
LINE
  8
0
 10
126.036346
 20
30.290802
 11
126.036346
 21
24.790802
  0
LINE
  8
0
 10
126.036339
 20
30.290798
 11
125.536346
 21
30.790792
  0
LINE
  8
0
 10
127.536346
 20
30.290802
 11
126.036346
 21
30.290802
  0
LINE
  8
0
 10
141.036331
 20
25.290794
 11
141.536331
 21
24.790794
  0
LINE
  8
0
 10
140.336349
 20
25.290802
 11
141.036346
 21
25.290802
  0
LINE
  8
0
 10
141.036346
 20
30.790802
 11
141.036346
 21
25.290802
  0
LINE
  8
0
 10
138.336349
 20
25.290800
 11
138.836349
 21
24.790800
  0
LINE
  8
0
 10
140.336349
 20
24.790802
 11
141.536346
 21
24.790802
  0
LINE
  8
0
 10
139.836349
 20
30.790802
 11
140.336349
 21
30.290806
  0
LINE
  8
0
 10
139.836349
 20
30.790802
 11
141.036346
 21
30.790802
  0
LINE
  8
0
 10
138.336334
 20
30.790796
 11
138.836334
 21
30.290794
  0
LINE
  8
0
 10
135.286346
 20
30.790800
 11
135.786346
 21
30.290798
  0
LINE
  8
0
 10
138.836349
 20
30.290802
 11
140.336349
 21
30.290802
  0
LINE
  8
0
 10
138.336349
 20
30.790802
 11
138.336349
 21
25.290802
  0
LINE
  8
0
 10
135.786346
 20
25.290802
 11
138.336349
 21
25.290802
  0
LINE
  8
0
 10
135.286346
 20
30.790802
 11
138.336349
 21
30.790802
  0
LINE
  8
0
 10
133.196350
 20
30.290802
 11
135.786346
 21
30.290802
  0
LINE
  8
0
 10
129.036346
 20
24.790800
 11
129.536346
 21
25.290800
  0
LINE
  8
0
 10
132.696335
 20
25.290800
 11
133.196335
 21
24.790800
  0
LINE
  8
0
 10
132.696335
 20
30.790796
 11
133.196335
 21
30.290794
  0
LINE
  8
0
 10
129.536346
 20
30.790802
 11
132.696350
 21
30.790802
  0
LINE
  8
0
 10
129.036346
 20
30.290800
 11
129.536346
 21
30.790802
  0
LINE
  8
0
 10
127.536346
 20
30.290802
 11
129.036346
 21
30.290802
  0
LINE
  8
0
 10
132.696350
 20
30.790802
 11
132.696350
 21
25.290802
  0
LINE
  8
0
 10
135.786346
 20
24.790802
 11
138.836349
 21
24.790802
  0
LINE
  8
0
 10
129.536346
 20
30.790802
 11
129.536346
 21
25.290802
  0
LINE
  8
0
 10
129.536346
 20
25.290802
 11
132.696350
 21
25.290802
  0
LINE
  8
0
 10
129.036346
 20
24.790802
 11
133.196350
 21
24.790802
  0
LINE
  8
0
 10
140.336349
 20
30.290802
 11
140.336349
 21
24.790802
  0
LINE
  8
0
 10
138.836349
 20
30.290802
 11
138.836349
 21
24.790802
  0
LINE
  8
0
 10
135.786346
 20
30.290802
 11
135.786346
 21
24.790802
  0
LINE
  8
0
 10
133.196350
 20
30.290802
 11
133.196350
 21
24.790802
  0
LINE
  8
0
 10
129.036346
 20
30.290802
 11
129.036346
 21
24.790802
  0
LINE
  8
0
 10
140.536346
 20
31.290804
 11
141.536346
 21
30.290804
  0
LINE
  8
0
 10
113.536346
 20
30.290798
 11
114.536346
 21
31.290798
  0
LINE
  8
0
 10
141.536346
 20
30.290802
 11
141.536346
 21
23.290802
  0
LINE
  8
0
 10
113.536346
 20
30.290802
 11
113.536346
 21
23.290802
  0
LINE
  8
0
 10
114.536346
 20
31.290802
 11
140.536346
 21
31.290802
  0
LINE
  8
0
 10
114.036346
 20
23.290802
 11
114.036346
 21
20.290802
  0
LINE
  8
0
 10
141.036346
 20
23.290802
 11
141.036346
 21
19.790802
  0
LINE
  8
0
 10
104.336349
 20
23.290802
 11
104.336349
 21
-2.709197
  0
LINE
  8
0
  6
CENTER
 62
     2
 10
112.536346
 20
33.270798
 11
112.536346
 21
21.890802
  0
LINE
  8
0
 10
104.336349
 20
23.290802
 11
141.536346
 21
23.290802
  0
LINE
  8
0
 10
140.536346
 20
20.290802
 11
140.536346
 21
-3.709197
  0
LINE
  8
0
 10
111.536346
 20
19.290802
 11
141.536346
 21
19.290802
  0
LINE
  8
0
 10
112.536346
 20
20.290802
 11
112.536346
 21
-3.709197
  0
LINE
  8
0
 10
140.536331
 20
20.290796
 11
141.536331
 21
19.290800
  0
LINE
  8
0
 10
111.536354
 20
19.290794
 11
112.536354
 21
20.290796
  0
LINE
  8
0
 10
95.536346
 20
-20.709198
 11
157.536346
 21
-20.709198
  0
LINE
  8
0
 10
141.536346
 20
-2.709197
 11
156.536346
 21
-2.709197
  0
LINE
  8
0
 10
95.536354
 20
-3.709190
 11
96.536354
 21
-2.709188
  0
LINE
  8
0
 10
96.536346
 20
-21.709194
 11
95.536354
 21
-20.709200
  0
LINE
  8
0
 10
157.536346
 20
-20.709202
 11
156.536346
 21
-21.709202
  0
LINE
  8
0
 10
156.536331
 20
-2.709187
 11
157.536331
 21
-3.709188
  0
LINE
  8
0
 10
96.536346
 20
-2.709197
 11
111.536346
 21
-2.709197
  0
LINE
  8
0
 10
112.536346
 20
20.290802
 11
140.536346
 21
20.290802
  0
LINE
  8
0
 10
111.536346
 20
19.290802
 11
111.536346
 21
-3.709197
  0
LINE
  8
0
 10
141.536346
 20
19.290802
 11
141.536346
 21
-3.709197
  0
LINE
  8
0
 10
95.536346
 20
-3.709197
 11
157.536346
 21
-3.709197
  0
LINE
  8
0
 10
96.536346
 20
-21.709198
 11
156.536346
 21
-21.709198
  0
LINE
  8
0
 10
157.536346
 20
-3.709197
 11
157.536346
 21
-20.709198
  0
LINE
  8
0
 10
95.536346
 20
-3.709197
 11
95.536346
 21
-20.709198
  0
LINE
  8
0
  6
CENTER
 62
     2
 10
102.566360
 20
8.290803
 11
143.336334
 21
8.290803
  0
LINE
  8
0
 10
105.176361
 20
-26.009186
 11
111.886345
 21
-26.009186
  0
LINE
  8
0
 10
105.176361
 20
-86.999191
 11
111.886345
 21
-86.999191
  0
LINE
  8
0
 10
105.756348
 20
-26.509186
 11
111.886345
 21
-26.509186
  0
LINE
  8
0
 10
104.176361
 20
-27.009186
 11
104.176361
 21
-85.999191
  0
LINE
  8
0
 10
105.016357
 20
-28.009186
 11
105.016357
 21
-53.009186
  0
LINE
  8
0
 10
106.836349
 20
-28.509186
 11
106.836349
 21
-52.509186
  0
LINE
  8
0
 10
112.486343
 20
-28.009186
 11
112.486343
 21
-53.009186
  0
LINE
  8
0
 10
112.886345
 20
-27.009186
 11
112.886345
 21
-85.999191
  0
LINE
  8
0
 10
105.756348
 20
-86.499191
 11
111.886345
 21
-86.499191
  0
LINE
  8
0
 10
104.756348
 20
-27.509186
 11
104.756348
 21
-85.499191
  0
LINE
  8
0
 10
105.016357
 20
-59.009186
 11
105.016357
 21
-84.999191
  0
LINE
  8
0
 10
106.836349
 20
-59.509186
 11
106.836349
 21
-84.499191
  0
LINE
  8
0
 10
112.486343
 20
-59.009186
 11
112.486343
 21
-84.999191
  0
LINE
  8
0
 10
106.016357
 20
-85.999191
 11
111.486343
 21
-85.999191
  0
LINE
  8
0
 10
106.016357
 20
-58.009186
 11
111.486343
 21
-58.009186
  0
LINE
  8
0
 10
106.016357
 20
-54.009186
 11
111.486343
 21
-54.009186
  0
LINE
  8
0
 10
106.016357
 20
-27.009186
 11
111.486343
 21
-27.009186
  0
LINE
  8
0
 10
107.836349
 20
-85.499191
 11
111.486343
 21
-85.499191
  0
LINE
  8
0
 10
107.836349
 20
-27.509186
 11
111.486343
 21
-27.509186
  0
LINE
  8
0
 10
107.836349
 20
-53.509186
 11
111.486343
 21
-53.509186
  0
LINE
  8
0
 10
107.836349
 20
-58.509186
 11
111.486343
 21
-58.509186
  0
LINE
  8
0
 10
147.906342
 20
-26.009186
 11
141.186340
 21
-26.009186
  0
LINE
  8
0
 10
147.906342
 20
-86.999191
 11
141.186340
 21
-86.999191
  0
LINE
  8
0
 10
147.316345
 20
-26.509186
 11
141.186340
 21
-26.509186
  0
LINE
  8
0
 10
148.906342
 20
-27.009186
 11
148.906342
 21
-85.999191
  0
LINE
  8
0
 10
148.056335
 20
-28.009186
 11
148.056335
 21
-53.009186
  0
LINE
  8
0
 10
146.246338
 20
-28.509186
 11
146.246338
 21
-52.509186
  0
LINE
  8
0
 10
140.586349
 20
-28.009186
 11
140.586349
 21
-53.009186
  0
LINE
  8
0
 10
140.186340
 20
-27.009186
 11
140.186340
 21
-85.999191
  0
LINE
  8
0
 10
147.316345
 20
-86.499191
 11
141.186340
 21
-86.499191
  0
LINE
  8
0
 10
148.316345
 20
-27.509186
 11
148.316345
 21
-85.499191
  0
LINE
  8
0
 10
148.056335
 20
-59.009186
 11
148.056335
 21
-84.999191
  0
LINE
  8
0
 10
146.246338
 20
-59.509186
 11
146.246338
 21
-84.499191
  0
LINE
  8
0
 10
140.586349
 20
-59.009186
 11
140.586349
 21
-84.999191
  0
LINE
  8
0
 10
147.056335
 20
-85.999191
 11
141.586349
 21
-85.999191
  0
LINE
  8
0
 10
147.056335
 20
-58.009186
 11
141.586349
 21
-58.009186
  0
LINE
  8
0
 10
147.056335
 20
-54.009186
 11
141.586349
 21
-54.009186
  0
LINE
  8
0
 10
147.056335
 20
-27.009186
 11
141.586349
 21
-27.009186
  0
LINE
  8
0
 10
145.246338
 20
-85.499191
 11
141.586349
 21
-85.499191
  0
LINE
  8
0
 10
145.246338
 20
-27.509186
 11
141.586349
 21
-27.509186
  0
LINE
  8
0
 10
145.246338
 20
-53.509186
 11
141.586349
 21
-53.509186
  0
LINE
  8
0
 10
145.246338
 20
-58.509186
 11
141.586349
 21
-58.509186
  0
LINE
  8
0
  6
CENTER
 62
     2
 10
127.536346
 20
46.970795
 11
127.536346
 21
22.800802
  0
LINE
  8
0
 10
120.586349
 20
38.340790
 11
120.586349
 21
32.290802
  0
LINE
  8
0
 10
134.486343
 20
38.340790
 11
134.486343
 21
32.290802
  0
LINE
  8
0
 10
152.066330
 20
-93.579185
 11
152.696320
 21
-21.709187
  0
LINE
  8
0
 10
101.006355
 20
-93.579185
 11
100.376358
 21
-21.709185
  0
LINE
  8
0
  6
CENTER
 62
     2
 10
126.536346
 20
25.780792
 11
126.536346
 21
-108.509186
  0
LINE
  8
0
 10
-14.083654
 20
24.790802
 11
-15.463654
 21
24.790802
  0
LINE
  8
0
 10
-14.083654
 20
25.290802
 11
-14.963654
 21
25.290802
  0
LINE
  8
0
 10
-14.083654
 20
30.790802
 11
-14.083654
 21
24.790802
  0
LINE
  8
0
 10
-13.583663
 20
31.290792
 11
-14.083663
 21
30.790792
  0
LINE
  8
0
 10
-11.963654
 20
30.790802
 11
-14.083654
 21
30.790802
  0
LINE
  8
0
 10
-11.463660
 20
31.290794
 11
-11.963660
 21
30.790794
  0
LINE
  8
0
 10
-11.963654
 20
30.790802
 11
-11.963654
 21
24.790802
  0
LINE
  8
0
 10
-11.463664
 20
25.290792
 11
-11.963654
 21
24.790804
  0
LINE
  8
0
 10
-11.463654
 20
31.290802
 11
-11.463654
 21
25.290802
  0
LINE
  8
0
 10
-8.963654
 20
24.790802
 11
-11.963654
 21
24.790802
  0
LINE
  8
0
 10
-8.963663
 20
24.790794
 11
-9.463661
 21
25.290792
  0
LINE
  8
0
 10
-9.463654
 20
25.290802
 11
-11.463654
 21
25.290802
  0
LINE
  8
0
 10
-8.963654
 20
30.790802
 11
-8.963654
 21
24.790802
  0
LINE
  8
0
 10
-9.463654
 20
31.290802
 11
-9.463654
 21
25.290802
  0
LINE
  8
0
 10
-8.963659
 20
30.790796
 11
-9.463660
 21
31.290798
  0
LINE
  8
0
 10
-7.463654
 20
30.790802
 11
-8.963654
 21
30.790802
  0
LINE
  8
0
 10
0.036336
 20
25.290792
 11
0.536335
 21
24.790792
  0
LINE
  8
0
 10
0.036339
 20
31.290796
 11
0.536340
 21
30.790796
  0
LINE
  8
0
 10
-15.463658
 20
30.790798
 11
-14.963658
 21
31.290798
  0
LINE
  8
0
 10
0.036346
 20
31.290802
 11
0.036346
 21
25.290802
  0
LINE
  8
0
 10
-0.853668
 20
25.290802
 11
0.036346
 21
25.290802
  0
LINE
  8
0
 10
-0.853668
 20
24.790802
 11
0.536346
 21
24.790802
  0
LINE
  8
0
 10
-1.353661
 20
31.290796
 11
-0.853661
 21
30.790794
  0
LINE
  8
0
 10
-3.473656
 20
25.290800
 11
-2.973655
 21
24.790800
  0
LINE
  8
0
 10
-3.473661
 20
31.290792
 11
-2.973662
 21
30.790792
  0
LINE
  8
0
 10
-2.973663
 20
30.790802
 11
-0.853668
 21
30.790802
  0
LINE
  8
0
 10
-3.473663
 20
31.290802
 11
-3.473663
 21
25.290802
  0
LINE
  8
0
 10
-5.963662
 20
24.790794
 11
-5.463662
 21
25.290794
  0
LINE
  8
0
 10
-5.963658
 20
30.790800
 11
-5.463659
 21
31.290798
  0
LINE
  8
0
 10
-0.853668
 20
30.790802
 11
-0.853668
 21
24.790802
  0
LINE
  8
0
 10
-2.973663
 20
30.790802
 11
-2.973663
 21
24.790802
  0
LINE
  8
0
 10
-5.463654
 20
25.290802
 11
-3.473663
 21
25.290802
  0
LINE
  8
0
 10
-5.463654
 20
31.290802
 11
-5.463654
 21
25.290802
  0
LINE
  8
0
 10
-5.963654
 20
24.790802
 11
-2.973663
 21
24.790802
  0
LINE
  8
0
 10
-5.963654
 20
30.790802
 11
-5.963654
 21
24.790802
  0
LINE
  8
0
 10
-15.463654
 20
30.790802
 11
-15.463654
 21
23.290802
  0
LINE
  8
0
 10
-7.463654
 20
30.790802
 11
-5.963654
 21
30.790802
  0
LINE
  8
0
 10
-14.963654
 20
31.290802
 11
0.036346
 21
31.290802
  0
LINE
  8
0
 10
-14.963654
 20
31.290802
 11
-14.963654
 21
25.290802
  0
LINE
  8
0
 10
0.536346
 20
30.790802
 11
0.536346
 21
23.290802
  0
LINE
  8
0
 10
-14.963660
 20
25.290796
 11
-15.463661
 21
24.790794
  0
LINE
  8
0
 10
-15.463654
 20
23.290802
 11
0.536346
 21
23.290802
  0
LINE
  8
0
 10
4.836334
 20
32.290802
 11
4.836334
 21
31.290802
  0
LINE
  8
0
 10
19.236343
 20
32.290802
 11
19.236343
 21
31.290802
  0
LINE
  8
0
 10
4.836334
 20
32.290802
 11
19.236343
 21
32.290802
  0
LINE
  8
0
 10
18.986343
 20
38.340790
 11
18.986343
 21
32.290802
  0
LINE
  8
0
 10
5.086334
 20
38.340790
 11
5.086334
 21
32.290802
  0
LINE
  8
0
 10
0.726334
 20
30.290802
 11
0.536346
 21
30.290802
  0
LINE
  8
0
 10
1.226338
 20
30.790794
 11
0.726337
 21
30.290792
  0
LINE
  8
0
 10
0.726334
 20
30.290802
 11
0.726334
 21
24.790802
  0
LINE
  8
0
 10
1.226341
 20
25.290796
 11
0.726339
 21
24.790794
  0
LINE
  8
0
 10
1.226334
 20
30.790802
 11
1.226334
 21
25.290802
  0
LINE
  8
0
 10
3.776337
 20
24.790802
 11
0.726334
 21
24.790802
  0
LINE
  8
0
 10
3.776337
 20
25.290802
 11
1.226334
 21
25.290802
  0
LINE
  8
0
 10
3.776337
 20
30.290802
 11
3.776337
 21
24.790802
  0
LINE
  8
0
 10
4.276337
 20
30.790802
 11
1.226334
 21
30.790802
  0
LINE
  8
0
 10
4.276338
 20
30.790794
 11
3.776337
 21
30.290791
  0
LINE
  8
0
 10
6.866340
 20
25.290798
 11
6.366339
 21
24.790798
  0
LINE
  8
0
 10
6.366333
 20
30.290802
 11
3.776337
 21
30.290802
  0
LINE
  8
0
 10
6.366333
 20
30.290802
 11
6.366333
 21
24.790802
  0
LINE
  8
0
 10
6.866333
 20
30.790802
 11
6.866333
 21
25.290802
  0
LINE
  8
0
 10
6.866338
 20
30.790792
 11
6.366338
 21
30.290794
  0
LINE
  8
0
 10
10.036346
 20
30.790802
 11
6.866333
 21
30.790802
  0
LINE
  8
0
 10
10.536346
 20
24.790802
 11
6.366333
 21
24.790802
  0
LINE
  8
0
 10
10.036346
 20
25.290802
 11
6.866333
 21
25.290802
  0
LINE
  8
0
 10
10.536342
 20
24.790798
 11
10.036342
 21
25.290798
  0
LINE
  8
0
 10
10.036346
 20
30.790802
 11
10.036346
 21
25.290802
  0
LINE
  8
0
 10
10.536346
 20
30.290802
 11
10.536346
 21
24.790802
  0
LINE
  8
0
 10
10.536340
 20
30.290796
 11
10.036340
 21
30.790794
  0
LINE
  8
0
 10
12.036346
 20
30.290802
 11
10.536346
 21
30.290802
  0
LINE
  8
0
 10
25.536337
 20
25.290810
 11
26.036337
 21
24.790810
  0
LINE
  8
0
 10
24.836334
 20
25.290802
 11
25.536346
 21
25.290802
  0
LINE
  8
0
 10
25.536346
 20
30.790802
 11
25.536346
 21
25.290802
  0
LINE
  8
0
 10
22.836338
 20
25.290798
 11
23.336338
 21
24.790798
  0
LINE
  8
0
 10
24.836334
 20
24.790802
 11
26.036346
 21
24.790802
  0
LINE
  8
0
 10
24.336340
 20
30.790804
 11
24.836340
 21
30.290804
  0
LINE
  8
0
 10
24.336334
 20
30.790802
 11
25.536346
 21
30.790802
  0
LINE
  8
0
 10
22.836338
 20
30.790794
 11
23.336327
 21
30.290804
  0
LINE
  8
0
 10
19.786337
 20
30.790794
 11
20.286335
 21
30.290792
  0
LINE
  8
0
 10
23.336334
 20
30.290802
 11
24.836334
 21
30.290802
  0
LINE
  8
0
 10
22.836334
 20
30.790802
 11
22.836334
 21
25.290802
  0
LINE
  8
0
 10
20.286346
 20
25.290802
 11
22.836334
 21
25.290802
  0
LINE
  8
0
 10
19.786346
 20
30.790802
 11
22.836334
 21
30.790802
  0
LINE
  8
0
 10
17.696335
 20
30.290802
 11
20.286346
 21
30.290802
  0
LINE
  8
0
 10
13.536344
 20
24.790800
 11
14.036344
 21
25.290800
  0
LINE
  8
0
 10
17.196337
 20
25.290798
 11
17.696337
 21
24.790798
  0
LINE
  8
0
 10
17.196337
 20
30.790792
 11
17.696337
 21
30.290792
  0
LINE
  8
0
 10
14.036346
 20
30.790802
 11
17.196335
 21
30.790802
  0
LINE
  8
0
 10
13.536341
 20
30.290798
 11
14.036343
 21
30.790798
  0
LINE
  8
0
 10
12.036346
 20
30.290802
 11
13.536346
 21
30.290802
  0
LINE
  8
0
 10
17.196335
 20
30.790802
 11
17.196335
 21
25.290802
  0
LINE
  8
0
 10
20.286346
 20
24.790802
 11
23.336334
 21
24.790802
  0
LINE
  8
0
 10
14.036346
 20
30.790802
 11
14.036346
 21
25.290802
  0
LINE
  8
0
 10
14.036346
 20
25.290802
 11
17.196335
 21
25.290802
  0
LINE
  8
0
 10
13.536346
 20
24.790802
 11
17.696335
 21
24.790802
  0
LINE
  8
0
 10
24.836334
 20
30.290802
 11
24.836334
 21
24.790802
  0
LINE
  8
0
 10
23.336334
 20
30.290802
 11
23.336334
 21
24.790802
  0
LINE
  8
0
 10
20.286346
 20
30.290802
 11
20.286346
 21
24.790802
  0
LINE
  8
0
 10
17.696335
 20
30.290802
 11
17.696335
 21
24.790802
  0
LINE
  8
0
 10
13.536346
 20
30.290802
 11
13.536346
 21
24.790802
  0
LINE
  8
0
 10
25.036335
 20
31.290806
 11
26.036337
 21
30.290804
  0
LINE
  8
0
 10
26.036346
 20
30.290802
 11
26.036346
 21
23.290802
  0
LINE
  8
0
 10
0.036346
 20
31.290802
 11
25.036346
 21
31.290802
  0
LINE
  8
0
  6
CENTER
 62
     2
 10
-7.463654
 20
32.600800
 11
-7.463654
 21
-6.269197
  0
LINE
  8
0
 10
33.036346
 20
1.290802
 11
36.036346
 21
1.290802
  0
LINE
  8
0
 10
33.036346
 20
15.290802
 11
36.036346
 21
15.290802
  0
LINE
  8
0
 10
-22.963654
 20
1.290802
 11
-19.963654
 21
1.290802
  0
LINE
  8
0
 10
-22.963654
 20
15.290802
 11
-19.963654
 21
15.290802
  0
LINE
  8
0
 10
33.036346
 20
15.290802
 11
33.036346
 21
1.290802
  0
LINE
  8
0
 10
-19.963654
 20
15.290802
 11
-19.963654
 21
1.290802
  0
LINE
  8
0
 10
36.036346
 20
15.290802
 11
36.036346
 21
1.290802
  0
LINE
  8
0
 10
-22.963654
 20
15.290802
 11
-22.963654
 21
1.290802
  0
LINE
  8
0
 10
1.036346
 20
20.290802
 11
37.036346
 21
20.290802
  0
LINE
  8
0
 10
37.036339
 20
20.290804
 11
38.036339
 21
19.290804
  0
LINE
  8
0
 10
-24.963654
 20
19.290802
 11
-23.963654
 21
20.290802
  0
LINE
  8
0
 10
-23.963654
 20
20.290802
 11
-23.963654
 21
-3.709198
  0
LINE
  8
0
 10
-24.963654
 20
19.290802
 11
-15.663654
 21
19.290802
  0
LINE
  8
0
 10
37.036346
 20
20.290802
 11
37.036346
 21
-3.709198
  0
LINE
  8
0
 10
1.036346
 20
19.290802
 11
38.036346
 21
19.290802
  0
LINE
  8
0
 10
1.036346
 20
23.290802
 11
1.036346
 21
-2.709198
  0
LINE
  8
0
 10
-19.463654
 20
-3.709198
 11
-18.463654
 21
-2.709198
  0
LINE
  8
0
 10
31.536343
 20
-2.709198
 11
32.536343
 21
-3.709199
  0
LINE
  8
0
 10
-15.663654
 20
23.290802
 11
-15.663654
 21
-2.709198
  0
LINE
  8
0
 10
-15.663654
 20
23.290802
 11
26.036346
 21
23.290802
  0
LINE
  8
0
 10
25.536346
 20
23.290802
 11
25.536346
 21
20.290802
  0
LINE
  8
0
 10
-18.463654
 20
-2.709198
 11
31.536346
 21
-2.709198
  0
LINE
  8
0
 10
-23.463654
 20
-20.709198
 11
36.536346
 21
-20.709198
  0
LINE
  8
0
 10
36.536331
 20
-21.709200
 11
37.536331
 21
-20.709198
  0
LINE
  8
0
 10
-24.463654
 20
-20.709196
 11
-23.463663
 21
-21.709187
  0
LINE
  8
0
 10
-24.463654
 20
-3.709198
 11
-24.463654
 21
-20.709198
  0
LINE
  8
0
 10
37.536346
 20
-3.709198
 11
37.536346
 21
-20.709198
  0
LINE
  8
0
 10
-23.463654
 20
-21.709198
 11
36.536346
 21
-21.709198
  0
LINE
  8
0
 10
-24.963654
 20
-3.709198
 11
38.036346
 21
-3.709198
  0
LINE
  8
0
 10
-23.963654
 20
20.290802
 11
-15.663654
 21
20.290802
  0
LINE
  8
0
 10
38.036346
 20
19.290802
 11
38.036346
 21
-3.709198
  0
LINE
  8
0
 10
-24.963654
 20
19.290802
 11
-24.963654
 21
-3.709198
  0
LINE
  8
0
 10
32.066341
 20
-93.579178
 11
32.696342
 21
-21.709192
  0
LINE
  8
0
 10
-19.513653
 20
-33.679188
 11
-19.613653
 21
-21.709192
  0
LINE
  8
0
 10
-21.923655
 20
-21.709196
 11
-21.873653
 21
-23.599190
  0
LINE
  8
0
 10
-21.343655
 20
-21.709185
 11
-21.303654
 21
-23.579195
  0
LINE
  8
0
 10
-22.373653
 20
-23.609188
 11
-22.043653
 21
-37.649197
  0
LINE
  8
0
 10
-22.863649
 20
-24.119188
 11
-22.373653
 21
-23.609196
  0
LINE
  8
0
 10
-22.353649
 20
-46.119194
 11
-22.203659
 21
-46.259182
  0
LINE
  8
0
 10
-22.373653
 20
-23.609192
 11
-21.303654
 21
-23.579191
  0
LINE
  8
0
 10
-22.863655
 20
-24.119186
 11
-22.353655
 21
-46.119194
  0
LINE
  8
0
 10
-22.273661
 20
-38.009193
 11
-19.513655
 21
-33.679184
  0
LINE
  8
0
 10
-19.353649
 20
-51.509186
 11
-22.133648
 21
-47.529190
  0
LINE
  8
0
 10
-22.193655
 20
-47.389183
 11
-22.273655
 21
-38.009182
  0
LINE
  8
0
 10
27.906342
 20
-26.009186
 11
21.186340
 21
-26.009186
  0
LINE
  8
0
 10
27.906342
 20
-86.999191
 11
21.186340
 21
-86.999191
  0
LINE
  8
0
 10
27.316345
 20
-26.509186
 11
21.186340
 21
-26.509186
  0
LINE
  8
0
 10
28.906342
 20
-27.009186
 11
28.906342
 21
-85.999191
  0
LINE
  8
0
 10
28.056335
 20
-28.009186
 11
28.056335
 21
-53.009186
  0
LINE
  8
0
 10
26.246338
 20
-28.509186
 11
26.246338
 21
-52.509186
  0
LINE
  8
0
 10
20.586334
 20
-28.009186
 11
20.586334
 21
-53.009186
  0
LINE
  8
0
 10
20.186340
 20
-27.009186
 11
20.186340
 21
-85.999191
  0
LINE
  8
0
 10
27.316345
 20
-86.499191
 11
21.186340
 21
-86.499191
  0
LINE
  8
0
 10
28.316345
 20
-27.509186
 11
28.316345
 21
-85.499191
  0
LINE
  8
0
 10
28.056335
 20
-59.009186
 11
28.056335
 21
-84.999191
  0
LINE
  8
0
 10
26.246338
 20
-59.509186
 11
26.246338
 21
-84.499191
  0
LINE
  8
0
 10
20.586334
 20
-59.009186
 11
20.586334
 21
-84.999191
  0
LINE
  8
0
 10
27.056335
 20
-85.999191
 11
21.586334
 21
-85.999191
  0
LINE
  8
0
 10
27.056335
 20
-58.009186
 11
21.586334
 21
-58.009186
  0
LINE
  8
0
 10
27.056335
 20
-54.009186
 11
21.586334
 21
-54.009186
  0
LINE
  8
0
 10
27.056335
 20
-27.009186
 11
21.586334
 21
-27.009186
  0
LINE
  8
0
 10
25.246338
 20
-85.499191
 11
21.586334
 21
-85.499191
  0
LINE
  8
0
 10
25.246338
 20
-27.509186
 11
21.586334
 21
-27.509186
  0
LINE
  8
0
 10
25.246338
 20
-53.509186
 11
21.586334
 21
-53.509186
  0
LINE
  8
0
 10
25.246338
 20
-58.509186
 11
21.586334
 21
-58.509186
  0
LINE
  8
0
 10
-14.823654
 20
-26.009186
 11
-8.103668
 21
-26.009186
  0
LINE
  8
0
 10
-14.823654
 20
-86.999191
 11
-8.103668
 21
-86.999191
  0
LINE
  8
0
 10
-14.233654
 20
-26.509186
 11
-8.103668
 21
-26.509186
  0
LINE
  8
0
 10
-15.823654
 20
-27.009186
 11
-15.823654
 21
-85.999191
  0
LINE
  8
0
 10
-14.983654
 20
-28.009186
 11
-14.983654
 21
-53.009186
  0
LINE
  8
0
 10
-13.163654
 20
-28.509186
 11
-13.163654
 21
-52.509186
  0
LINE
  8
0
 10
-7.503662
 20
-28.009186
 11
-7.503662
 21
-53.009186
  0
LINE
  8
0
 10
-7.103668
 20
-27.009186
 11
-7.103668
 21
-85.999191
  0
LINE
  8
0
 10
-14.233654
 20
-86.499191
 11
-8.103668
 21
-86.499191
  0
LINE
  8
0
 10
-15.233654
 20
-27.509186
 11
-15.233654
 21
-85.499191
  0
LINE
  8
0
 10
-14.983654
 20
-59.009186
 11
-14.983654
 21
-84.999191
  0
LINE
  8
0
 10
-13.163654
 20
-59.509186
 11
-13.163654
 21
-84.499191
  0
LINE
  8
0
 10
-7.503662
 20
-59.009186
 11
-7.503662
 21
-84.999191
  0
LINE
  8
0
 10
-13.983654
 20
-85.999191
 11
-8.503662
 21
-85.999191
  0
LINE
  8
0
 10
-13.983654
 20
-58.009186
 11
-8.503662
 21
-58.009186
  0
LINE
  8
0
 10
-13.983654
 20
-54.009186
 11
-8.503662
 21
-54.009186
  0
LINE
  8
0
 10
-13.983654
 20
-27.009186
 11
-8.503662
 21
-27.009186
  0
LINE
  8
0
 10
-18.983654
 20
-93.579185
 11
-19.353655
 21
-51.509190
  0
LINE
  8
0
 10
-12.163654
 20
-85.499191
 11
-8.503662
 21
-85.499191
  0
LINE
  8
0
 10
-12.163654
 20
-27.509186
 11
-8.503662
 21
-27.509186
  0
LINE
  8
0
 10
-12.163654
 20
-53.509186
 11
-8.503662
 21
-53.509186
  0
LINE
  8
0
 10
-12.163654
 20
-58.509186
 11
-8.503662
 21
-58.509186
  0
LINE
  8
0
 10
22.066345
 20
-103.499191
 11
-8.993654
 21
-103.499191
  0
LINE
  8
0
  6
CENTER
 62
     2
 10
12.036346
 20
48.560791
 11
12.036346
 21
21.370802
  0
LINE
  8
0
  6
CENTER
 62
     2
 10
6.536346
 20
24.210800
 11
6.536346
 21
-108.439194
  0
LINE
  8
0
  6
CENTER
 62
     2
 10
-34.963654
 20
8.290802
 11
48.036346
 21
8.290802
  0
LINE
  8
0
 10
-163.259995
 20
-103.709991
 11
-131.659988
 21
-103.709991
  0
LINE
  8
0
 10
-79.259995
 20
-103.709991
 11
-47.659988
 21
-103.709991
  0
LINE
  8
0
 10
-173.259995
 20
-66.789993
 11
-173.259995
 21
-93.699997
  0
LINE
  8
0
 10
-121.659988
 20
-80.619995
 11
-121.659988
 21
-93.699997
  0
LINE
  8
0
 10
-89.259995
 20
-66.789993
 11
-89.259995
 21
-93.699997
  0
LINE
  8
0
 10
-37.659988
 20
-80.619995
 11
-37.659988
 21
-93.699997
  0
LINE
  8
0
 62
     2
 10
-37.659992
 20
-80.619987
 11
-89.259979
 21
-66.789993
  0
LINE
  8
0
 62
     2
 10
-121.659981
 20
-80.620003
 11
-173.259995
 21
-66.790001
  0
LINE
  8
0
 10
-85.819992
 20
-67.711990
 11
-85.819992
 21
-86.209991
  0
LINE
  8
0
 10
-77.099991
 20
-70.049149
 11
-77.099991
 21
-86.209991
  0
LINE
  8
0
 10
-85.229996
 20
-67.870132
 11
-85.229996
 21
-85.709991
  0
LINE
  8
0
 10
-84.979996
 20
-67.937134
 11
-84.979996
 21
-85.209991
  0
LINE
  8
0
 10
-83.159988
 20
-68.424927
 11
-83.159988
 21
-84.709991
  0
LINE
  8
0
 10
-77.500000
 20
-69.941940
 11
-77.500000
 21
-85.209991
  0
LINE
  8
0
 10
-82.159988
 20
-85.709991
 11
-78.500000
 21
-85.709991
  0
LINE
  8
0
 10
-83.979996
 20
-86.209991
 11
-78.500000
 21
-86.209991
  0
LINE
  8
0
 10
-84.229996
 20
-86.709991
 11
-78.099991
 21
-86.709991
  0
LINE
  8
0
 10
-84.819992
 20
-87.209991
 11
-78.099991
 21
-87.209991
  0
LINE
  8
0
 10
-41.089996
 20
-79.700668
 11
-41.089996
 21
-86.209991
  0
LINE
  8
0
 10
-49.809998
 20
-77.363510
 11
-49.809998
 21
-86.209991
  0
LINE
  8
0
 10
-41.679993
 20
-79.542542
 11
-41.679993
 21
-85.709991
  0
LINE
  8
0
 10
-41.939987
 20
-79.472855
 11
-41.939987
 21
-85.209991
  0
LINE
  8
0
 10
-43.750000
 20
-78.987732
 11
-43.750000
 21
-84.709991
  0
LINE
  8
0
 10
-49.409988
 20
-77.470718
 11
-49.409988
 21
-85.209991
  0
LINE
  8
0
 10
-44.750000
 20
-85.709991
 11
-48.409988
 21
-85.709991
  0
LINE
  8
0
 10
-42.939987
 20
-86.209991
 11
-48.409988
 21
-86.209991
  0
LINE
  8
0
 10
-42.679993
 20
-86.709991
 11
-48.809998
 21
-86.709991
  0
LINE
  8
0
 10
-42.089996
 20
-87.209991
 11
-48.809998
 21
-87.209991
  0
LINE
  8
0
 10
-169.819992
 20
-67.711990
 11
-169.819992
 21
-86.209991
  0
LINE
  8
0
 10
-161.099991
 20
-70.049149
 11
-161.099991
 21
-86.209991
  0
LINE
  8
0
 10
-169.229996
 20
-67.870132
 11
-169.229996
 21
-85.709991
  0
LINE
  8
0
 10
-168.979996
 20
-67.937134
 11
-168.979996
 21
-85.209991
  0
LINE
  8
0
 10
-167.159988
 20
-68.424927
 11
-167.159988
 21
-84.709991
  0
LINE
  8
0
 10
-161.500000
 20
-69.941940
 11
-161.500000
 21
-85.209991
  0
LINE
  8
0
 10
-166.159988
 20
-85.709991
 11
-162.500000
 21
-85.709991
  0
LINE
  8
0
 10
-167.979996
 20
-86.209991
 11
-162.500000
 21
-86.209991
  0
LINE
  8
0
 10
-168.229996
 20
-86.709991
 11
-162.099991
 21
-86.709991
  0
LINE
  8
0
 10
-168.819992
 20
-87.209991
 11
-162.099991
 21
-87.209991
  0
LINE
  8
0
 10
-125.089996
 20
-79.700668
 11
-125.089996
 21
-86.209991
  0
LINE
  8
0
 10
-133.809998
 20
-77.363510
 11
-133.809998
 21
-86.209991
  0
LINE
  8
0
 10
-125.679993
 20
-85.709991
 11
-125.679993
 21
-79.542542
  0
LINE
  8
0
 10
-125.939987
 20
-79.472855
 11
-125.939987
 21
-85.209991
  0
LINE
  8
0
 10
-127.750000
 20
-78.987732
 11
-127.750000
 21
-84.709991
  0
LINE
  8
0
 10
-133.409988
 20
-77.470718
 11
-133.409988
 21
-85.209991
  0
LINE
  8
0
 10
-128.750000
 20
-85.709991
 11
-132.409988
 21
-85.709991
  0
LINE
  8
0
 10
-126.939987
 20
-86.209991
 11
-132.409988
 21
-86.209991
  0
LINE
  8
0
 10
-126.679993
 20
-86.709991
 11
-132.809998
 21
-86.709991
  0
LINE
  8
0
 10
-126.089996
 20
-87.209991
 11
-132.809998
 21
-87.209991
  0
LINE
  8
0
  6
CENTER
 62
     2
 10
-63.459991
 20
-70.449997
 11
-63.459991
 21
-123.959991
  0
LINE
  8
0
  6
CENTER
 62
     2
 10
-147.459991
 20
-70.449997
 11
-147.459991
 21
-131.049988
  0
LINE
  8
0
 10
-194.250000
 20
132.600006
 11
194.800003
 21
132.600006
  0
LINE
  8
0
 10
194.800003
 20
132.600006
 11
194.800003
 21
-133.500000
  0
LINE
  8
0
 10
-194.250000
 20
132.600006
 11
-194.250000
 21
-133.500000
  0
LINE
  8
0
 10
-194.250000
 20
-133.500000
 11
194.800003
 21
-133.500000
  0
LINE
  8
0
 10
109.800003
 20
-118.500000
 11
109.800003
 21
-133.500000
  0
LINE
  8
0
 10
109.800003
 20
-118.500000
 11
194.800003
 21
-118.500000
  0
LINE
  8
0
 10
109.800003
 20
132.600006
 11
109.800003
 21
117.600006
  0
LINE
  8
0
 10
109.800003
 20
117.600006
 11
194.800003
 21
117.600006
  0
LINE
  8
0
 10
-194.250000
 20
117.600006
 11
-109.250000
 21
117.600006
  0
LINE
  8
0
 10
-109.250000
 20
132.600006
 11
-109.250000
 21
117.600006
  0
CIRCLE
  8
0
 10
12.036346
 20
88.249275
 40
7.200000
  0
ARC
  8
0
 10
6.531342
 20
87.249283
 40
30.996216
 50
208.942444
 51
331.057617
  0
ARC
  8
0
 10
6.531342
 20
87.249283
 40
30.003662
 50
209.995987
 51
330.004028
  0
CIRCLE
  8
0
 10
12.036346
 20
88.249275
 40
14.000000
  0
CIRCLE
  8
0
 10
12.036346
 20
88.249275
 40
13.000000
  0
CIRCLE
  8
0
 10
12.036346
 20
88.249275
 40
6.949997
  0
CIRCLE
  8
0
 10
-7.463654
 20
73.249275
 40
8.000000
  0
CIRCLE
  8
0
 10
-7.463654
 20
73.249275
 40
7.500000
  0
ARC
  8
0
 10
6.531342
 20
87.249283
 40
30.996216
 50
28.942394
 51
151.057556
  0
ARC
  8
0
 10
6.531342
 20
87.249283
 40
30.003664
 50
29.995960
 51
150.004013
  0
ARC
  8
0
 10
111.004143
 20
-93.501083
 40
9.998100
 50
180.447632
 51
270.012634
  0
ARC
  8
0
 10
142.064896
 20
-93.497406
 40
10.001778
 50
270.008301
 51
359.531525
  0
ARC
  8
0
 10
127.536346
 20
38.340790
 40
6.949997
 50
0.000000
 51
179.999969
  0
CIRCLE
  8
0
 10
126.536346
 20
8.290803
 40
8.331000
  0
CIRCLE
  8
0
 10
126.536346
 20
8.290803
 40
7.474999
  0
CIRCLE
  8
0
 62
     2
 10
126.536346
 20
8.290803
 40
10.250000
  0
ARC
  8
0
 10
106.018692
 20
-53.006851
 40
1.002337
 50
180.133240
 51
269.866547
  0
ARC
  8
0
 10
107.836517
 20
-52.509018
 40
1.000168
 50
180.009827
 51
269.990387
  0
ARC
  8
0
 10
105.167206
 20
-27.000046
 40
0.990895
 50
89.471054
 51
180.528839
  0
ARC
  8
0
 10
105.751144
 20
-27.503983
 40
0.994805
 50
89.699875
 51
180.300018
  0
ARC
  8
0
 10
106.009720
 20
-28.002563
 40
0.993394
 50
89.617599
 51
180.382294
  0
ARC
  8
0
 10
107.827545
 20
-28.500381
 40
0.991229
 50
89.490639
 51
180.509140
  0
ARC
  8
0
 10
111.480942
 20
-53.003784
 40
1.005424
 50
270.308258
 51
359.691742
  0
ARC
  8
0
 10
111.480942
 20
-52.503784
 40
1.005424
 50
270.308258
 51
359.691742
  0
ARC
  8
0
 10
111.890915
 20
-27.004623
 40
0.995448
 50
359.737274
 51
90.262604
  0
ARC
  8
0
 10
111.890915
 20
-27.504623
 40
0.995448
 50
359.737274
 51
90.262604
  0
ARC
  8
0
 10
111.489868
 20
-28.005661
 40
0.996481
 50
359.797333
 51
90.202667
  0
ARC
  8
0
 10
111.489868
 20
-28.505661
 40
0.996481
 50
359.797333
 51
90.202667
  0
ARC
  8
0
 10
105.171143
 20
-86.004395
 40
0.994810
 50
179.700317
 51
270.299683
  0
ARC
  8
0
 10
105.755066
 20
-85.500473
 40
0.998719
 50
179.926468
 51
270.073547
  0
ARC
  8
0
 10
106.013657
 20
-85.001892
 40
0.997310
 50
179.844833
 51
270.154724
  0
ARC
  8
0
 10
106.009720
 20
-59.002548
 40
0.993385
 50
89.617157
 51
180.382614
  0
ARC
  8
0
 10
107.831482
 20
-84.504059
 40
0.995144
 50
179.719742
 51
270.280243
  0
ARC
  8
0
 10
107.827530
 20
-59.500366
 40
0.991223
 50
89.490196
 51
180.509583
  0
ARC
  8
0
 10
111.886986
 20
-85.999832
 40
0.999359
 50
269.963257
 51
0.036743
  0
ARC
  8
0
 10
111.886986
 20
-85.499832
 40
0.999359
 50
269.963257
 51
0.036743
  0
ARC
  8
0
 10
111.485954
 20
-84.998795
 40
1.000397
 50
270.022736
 51
359.977264
  0
ARC
  8
0
 10
111.485954
 20
-84.498795
 40
1.000397
 50
270.022736
 51
359.977264
  0
ARC
  8
0
 10
111.489876
 20
-59.005661
 40
0.996474
 50
359.796906
 51
90.203110
  0
ARC
  8
0
 10
111.489876
 20
-59.505661
 40
0.996474
 50
359.796906
 51
90.203110
  0
ARC
  8
0
 10
147.050354
 20
-53.003204
 40
1.006007
 50
270.341522
 51
359.658905
  0
ARC
  8
0
 10
145.237534
 20
-52.500397
 40
1.008839
 50
270.500031
 51
359.500183
  0
ARC
  8
0
 10
147.906769
 20
-27.008759
 40
0.999558
 50
359.975067
 51
90.024490
  0
ARC
  8
0
 10
147.317856
 20
-27.507675
 40
0.998475
 50
359.912659
 51
90.087563
  0
ARC
  8
0
 10
147.059280
 20
-28.006256
 40
0.997075
 50
359.831207
 51
90.168350
  0
ARC
  8
0
 10
145.246445
 20
-28.509094
 40
0.999893
 50
359.994110
 51
90.006119
  0
ARC
  8
0
 10
141.588104
 20
-53.007431
 40
1.001756
 50
180.100143
 51
269.899628
  0
ARC
  8
0
 10
141.588104
 20
-52.507431
 40
1.001756
 50
180.100143
 51
269.899628
  0
ARC
  8
0
 10
141.178085
 20
-27.000931
 40
0.991777
 50
89.523094
 51
180.477020
  0
ARC
  8
0
 10
141.178085
 20
-27.500931
 40
0.991777
 50
89.523094
 51
180.477020
  0
ARC
  8
0
 10
141.579132
 20
-28.001984
 40
0.992813
 50
89.583473
 51
180.416306
  0
ARC
  8
0
 10
141.579132
 20
-28.501984
 40
0.992813
 50
89.583473
 51
180.416306
  0
ARC
  8
0
 10
147.902863
 20
-85.995712
 40
1.003477
 50
270.198639
 51
359.801788
  0
ARC
  8
0
 10
147.313950
 20
-85.496796
 40
1.002391
 50
270.136932
 51
359.863495
  0
ARC
  8
0
 10
147.055359
 20
-84.998215
 40
1.000977
 50
270.055908
 51
359.944092
  0
ARC
  8
0
 10
147.059280
 20
-59.006241
 40
0.997059
 50
359.830780
 51
90.169228
  0
ARC
  8
0
 10
145.242538
 20
-84.495392
 40
1.003814
 50
270.216858
 51
359.782684
  0
ARC
  8
0
 10
145.246445
 20
-59.509079
 40
0.999893
 50
359.993652
 51
90.006119
  0
ARC
  8
0
 10
141.182022
 20
-86.003510
 40
0.995691
 50
179.751511
 51
270.248474
  0
ARC
  8
0
 10
141.182022
 20
-85.503510
 40
0.995691
 50
179.751511
 51
270.248474
  0
ARC
  8
0
 10
141.583069
 20
-85.002472
 40
0.996725
 50
179.811417
 51
270.188599
  0
ARC
  8
0
 10
141.583069
 20
-84.502472
 40
0.996725
 50
179.811417
 51
270.188599
  0
ARC
  8
0
 10
141.579132
 20
-59.001968
 40
0.992805
 50
89.583473
 51
180.416748
  0
ARC
  8
0
 10
141.579132
 20
-59.501968
 40
0.992805
 50
89.583473
 51
180.416748
  0
ARC
  8
0
 10
12.036346
 20
38.340790
 40
6.950001
 50
0.000000
 51
179.999969
  0
ARC
  8
0
 10
-8.988984
 20
-93.504242
 40
9.994951
 50
180.429703
 51
269.973236
  0
ARC
  8
0
 10
22.066727
 20
-93.499268
 40
9.999924
 50
269.997772
 51
359.542053
  0
ARC
  8
0
 10
-21.896383
 20
-47.349854
 40
0.297418
 50
181.797806
 51
217.082565
  0
ARC
  8
0
 10
27.052185
 20
-53.005035
 40
1.004155
 50
270.236694
 51
359.763397
  0
ARC
  8
0
 10
25.239380
 20
-52.502228
 40
1.006982
 50
270.396027
 51
359.603882
  0
ARC
  8
0
 10
27.908630
 20
-27.006897
 40
0.997704
 50
359.868011
 51
90.131989
  0
ARC
  8
0
 10
27.319717
 20
-27.505814
 40
0.996632
 50
359.806030
 51
90.193977
  0
ARC
  8
0
 10
27.061142
 20
-28.004395
 40
0.995216
 50
359.723938
 51
90.276062
  0
ARC
  8
0
 10
25.248291
 20
-28.507233
 40
0.998043
 50
359.887543
 51
90.112457
  0
ARC
  8
0
 10
21.589920
 20
-53.005615
 40
1.003588
 50
180.204498
 51
269.795502
  0
ARC
  8
0
 10
21.589920
 20
-52.505615
 40
1.003588
 50
180.204498
 51
269.795502
  0
ARC
  8
0
 10
21.179932
 20
-27.002792
 40
0.993616
 50
89.630669
 51
180.369339
  0
ARC
  8
0
 10
21.179932
 20
-27.502792
 40
0.993616
 50
89.630669
 51
180.369339
  0
ARC
  8
0
 10
21.580978
 20
-28.003830
 40
0.994647
 50
89.690819
 51
180.309174
  0
ARC
  8
0
 10
21.580978
 20
-28.503830
 40
0.994647
 50
89.690819
 51
180.309174
  0
ARC
  8
0
 10
27.904724
 20
-85.997574
 40
1.001619
 50
270.092621
 51
359.907471
  0
ARC
  8
0
 10
27.315796
 20
-85.498642
 40
1.000542
 50
270.031250
 51
359.968536
  0
ARC
  8
0
 10
27.057205
 20
-85.000061
 40
0.999131
 50
269.950226
 51
0.049876
  0
ARC
  8
0
 10
27.061142
 20
-59.004395
 40
0.995209
 50
359.723511
 51
90.276497
  0
ARC
  8
0
 10
25.244385
 20
-84.497238
 40
1.001955
 50
270.111908
 51
359.888306
  0
ARC
  8
0
 10
25.248306
 20
-59.507217
 40
0.998035
 50
359.887207
 51
90.112892
  0
ARC
  8
0
 10
21.183868
 20
-86.001663
 40
0.997531
 50
179.858017
 51
270.141876
  0
ARC
  8
0
 10
21.183868
 20
-85.501663
 40
0.997531
 50
179.858017
 51
270.141876
  0
ARC
  8
0
 10
21.584900
 20
-85.000626
 40
0.998563
 50
179.917267
 51
270.082397
  0
ARC
  8
0
 10
21.584900
 20
-84.500626
 40
0.998563
 50
179.917267
 51
270.082397
  0
ARC
  8
0
 10
21.580963
 20
-59.003815
 40
0.994640
 50
89.690376
 51
180.309616
  0
ARC
  8
0
 10
21.580963
 20
-59.503815
 40
0.994640
 50
89.690376
 51
180.309616
  0
ARC
  8
0
 10
-13.979484
 20
-53.005020
 40
1.004179
 50
180.237900
 51
269.762054
  0
ARC
  8
0
 10
-12.161656
 20
-52.507187
 40
1.001999
 50
180.114304
 51
269.885803
  0
ARC
  8
0
 10
-14.830950
 20
-27.001892
 40
0.992731
 50
89.578873
 51
180.421066
  0
ARC
  8
0
 10
-14.242029
 20
-27.500809
 40
0.991660
 50
89.516098
 51
180.483902
  0
ARC
  8
0
 10
-13.988427
 20
-28.004425
 40
0.995239
 50
89.725212
 51
180.274734
  0
ARC
  8
0
 10
-12.170620
 20
-28.502228
 40
0.993059
 50
89.598106
 51
180.401901
  0
ARC
  8
0
 10
-8.512207
 20
-53.000641
 40
1.008589
 50
270.485901
 51
359.514130
  0
ARC
  8
0
 10
-8.512207
 20
-52.500641
 40
1.008589
 50
270.485901
 51
359.514130
  0
ARC
  8
0
 10
-8.102264
 20
-27.007797
 40
0.998607
 50
359.920013
 51
90.079994
  0
ARC
  8
0
 10
-8.102264
 20
-27.507797
 40
0.998607
 50
359.920013
 51
90.079994
  0
ARC
  8
0
 10
-8.503311
 20
-28.008835
 40
0.999648
 50
359.979889
 51
90.020172
  0
ARC
  8
0
 10
-8.503311
 20
-28.508835
 40
0.999648
 50
359.979889
 51
90.020172
  0
ARC
  8
0
 10
-14.827014
 20
-86.002548
 40
0.996646
 50
179.807007
 51
270.193085
  0
ARC
  8
0
 10
-14.238089
 20
-85.503632
 40
0.995575
 50
179.744904
 51
270.255157
  0
ARC
  8
0
 10
-13.984501
 20
-85.000031
 40
0.999153
 50
179.951431
 51
270.048523
  0
ARC
  8
0
 10
-13.988435
 20
-59.004410
 40
0.995232
 50
89.724770
 51
180.275177
  0
ARC
  8
0
 10
-12.166684
 20
-84.502228
 40
0.996974
 50
179.825928
 51
270.174133
  0
ARC
  8
0
 10
-12.170628
 20
-59.502213
 40
0.993051
 50
89.597664
 51
180.402344
  0
ARC
  8
0
 10
-8.106186
 20
-85.996674
 40
1.002521
 50
270.144012
 51
359.856110
  0
ARC
  8
0
 10
-8.106186
 20
-85.496674
 40
1.002521
 50
270.144012
 51
359.856110
  0
ARC
  8
0
 10
-8.507217
 20
-84.995636
 40
1.003562
 50
270.203156
 51
359.797028
  0
ARC
  8
0
 10
-8.507217
 20
-84.495636
 40
1.003562
 50
270.203156
 51
359.797028
  0
ARC
  8
0
 10
-8.503296
 20
-59.008835
 40
0.999641
 50
359.979462
 51
90.020607
  0
ARC
  8
0
 10
-8.503296
 20
-59.508835
 40
0.999641
 50
359.979462
 51
90.020607
  0
ARC
  8
0
 10
-78.503555
 20
-84.706436
 40
1.003562
 50
270.202972
 51
359.797028
  0
ARC
  8
0
 10
-78.503555
 20
-85.206436
 40
1.003562
 50
270.202972
 51
359.797028
  0
ARC
  8
0
 10
-78.102509
 20
-85.707474
 40
1.002521
 50
270.143890
 51
359.856110
  0
ARC
  8
0
 10
-78.102509
 20
-86.207474
 40
1.002521
 50
270.143890
 51
359.856110
  0
ARC
  8
0
 10
-82.163025
 20
-84.713028
 40
0.996976
 50
179.825928
 51
270.174072
  0
ARC
  8
0
 10
-83.980835
 20
-85.210846
 40
0.999153
 50
179.951431
 51
270.048553
  0
ARC
  8
0
 10
-84.234421
 20
-85.714432
 40
0.995577
 50
179.744904
 51
270.255096
  0
ARC
  8
0
 10
-84.823349
 20
-86.213348
 40
0.996649
 50
179.807022
 51
270.192993
  0
ARC
  8
0
 10
-48.411423
 20
-84.711426
 40
0.998563
 50
179.917267
 51
270.082520
  0
ARC
  8
0
 10
-48.411423
 20
-85.211426
 40
0.998563
 50
179.917267
 51
270.082520
  0
ARC
  8
0
 10
-48.812469
 20
-85.712463
 40
0.997531
 50
179.858017
 51
270.141968
  0
ARC
  8
0
 10
-48.812469
 20
-86.212463
 40
0.997531
 50
179.858017
 51
270.141968
  0
ARC
  8
0
 10
-44.751953
 20
-84.708038
 40
1.001955
 50
270.111908
 51
359.888306
  0
ARC
  8
0
 10
-42.939117
 20
-85.210861
 40
0.999131
 50
269.950134
 51
0.049876
  0
ARC
  8
0
 10
-42.680542
 20
-85.709442
 40
1.000542
 50
270.031250
 51
359.968536
  0
ARC
  8
0
 10
-42.091614
 20
-86.208374
 40
1.001619
 50
270.092529
 51
359.907471
  0
ARC
  8
0
 10
-162.503555
 20
-84.706436
 40
1.003562
 50
270.202972
 51
359.797028
  0
ARC
  8
0
 10
-162.503555
 20
-85.206436
 40
1.003562
 50
270.202972
 51
359.797028
  0
ARC
  8
0
 10
-162.102509
 20
-85.707474
 40
1.002521
 50
270.143890
 51
359.856110
  0
ARC
  8
0
 10
-162.102509
 20
-86.207474
 40
1.002521
 50
270.143890
 51
359.856110
  0
ARC
  8
0
 10
-166.163025
 20
-84.713028
 40
0.996968
 50
179.825928
 51
270.174500
  0
ARC
  8
0
 10
-167.980835
 20
-85.210846
 40
0.999161
 50
179.951431
 51
270.048126
  0
ARC
  8
0
 10
-168.234421
 20
-85.714432
 40
0.995570
 50
179.744888
 51
270.255554
  0
ARC
  8
0
 10
-168.823349
 20
-86.213348
 40
0.996649
 50
179.807022
 51
270.192993
  0
ARC
  8
0
 10
-132.411423
 20
-84.711426
 40
0.998567
 50
179.917267
 51
270.082306
  0
ARC
  8
0
 10
-132.411423
 20
-85.211426
 40
0.998567
 50
179.917267
 51
270.082306
  0
ARC
  8
0
 10
-132.812469
 20
-85.712463
 40
0.997531
 50
179.858017
 51
270.141968
  0
ARC
  8
0
 10
-132.812469
 20
-86.212463
 40
0.997531
 50
179.858017
 51
270.141968
  0
ARC
  8
0
 10
-128.751953
 20
-84.708038
 40
1.001955
 50
270.111694
 51
359.888306
  0
ARC
  8
0
 10
-126.939117
 20
-85.210861
 40
0.999131
 50
269.950134
 51
0.049876
  0
ARC
  8
0
 10
-126.680542
 20
-85.709442
 40
1.000542
 50
270.031464
 51
359.968536
  0
ARC
  8
0
 10
-126.091614
 20
-86.208374
 40
1.001619
 50
270.092529
 51
359.907471
  0
ARC
  8
0
 10
-47.662216
 20
-93.707764
 40
10.002228
 50
270.012726
 51
0.044534
  0
ARC
  8
0
 10
-79.261429
 20
-93.711411
 40
9.998572
 50
179.934509
 51
270.008179
  0
ARC
  8
0
 10
-131.662216
 20
-93.707764
 40
10.002228
 50
270.012756
 51
0.044534
  0
ARC
  8
0
 10
-163.261429
 20
-93.711411
 40
9.998572
 50
179.934509
 51
270.008209
  0
POLYLINE
  8
0
 66
     1
  0
VERTEX
  8
0
 10
-19.513653
 20
-33.679184
  0
VERTEX
  8
0
 10
-19.185011
 20
-34.498894
  0
VERTEX
  8
0
 10
-18.885460
 20
-35.313919
  0
VERTEX
  8
0
 10
-18.615841
 20
-36.131657
  0
VERTEX
  8
0
 10
-18.376991
 20
-36.959503
  0
VERTEX
  8
0
 10
-18.169750
 20
-37.804852
  0
VERTEX
  8
0
 10
-17.994955
 20
-38.675098
  0
VERTEX
  8
0
 10
-17.853449
 20
-39.577641
  0
VERTEX
  8
0
 10
-17.746069
 20
-40.519871
  0
VERTEX
  8
0
 10
-17.673653
 20
-41.509186
  0
VERTEX
  8
0
 10
-17.644001
 20
-42.436787
  0
VERTEX
  8
0
 10
-17.654068
 20
-43.365486
  0
VERTEX
  8
0
 10
-17.702772
 20
-44.293690
  0
VERTEX
  8
0
 10
-17.789036
 20
-45.219788
  0
VERTEX
  8
0
 10
-17.911774
 20
-46.142189
  0
VERTEX
  8
0
 10
-18.069908
 20
-47.059284
  0
VERTEX
  8
0
 10
-18.262356
 20
-47.969479
  0
VERTEX
  8
0
 10
-18.488035
 20
-48.871166
  0
VERTEX
  8
0
 10
-18.745865
 20
-49.762749
  0
VERTEX
  8
0
 10
-19.034765
 20
-50.642620
  0
VERTEX
  8
0
 10
-19.353653
 20
-51.509186
  0
SEQEND
  0
TEXT
  8
0
 10
136.157150
 20
122.050003
 40
4.500000
  1
Ｖｅｒ．２．０
 50
0.000000
 41
0.833333
 51
0.000000
  7
STANDARD
  0
TEXT
  8
0
 10
-174.642654
 20
122.050003
 40
4.500000
  1
LUBRICATOR
 50
0.000000
 41
1.052632
 51
0.000000
  7
STANDARD
  0
TEXT
  8
0
 10
-174.499680
 20
-59.146435
 40
4.500000
  1
OPTION:-F2
 50
0.000000
 41
1.052631
 51
0.000000
  7
STANDARD
  0
TEXT
  8
0
 10
-87.756348
 20
-58.735455
 40
4.500000
  1
OPTION:-D
 50
0.000000
 41
1.052631
 51
0.000000
  7
STANDARD
  0
TEXT
  8
0
 10
54.416656
 20
9.290789
 40
4.500000
  1
OUT
 50
0.000000
 41
1.052632
 51
0.000000
  7
STANDARD
  0
TEXT
  8
0
 10
-53.583328
 20
9.290812
 40
4.500000
  1
IN
 50
0.000000
 41
1.052632
 51
0.000000
  7
STANDARD
  0
TEXT
  8
0
 10
-179.000000
 20
105.900009
 40
4.500000
  1
MODEL:L300-03
 50
0.000000
 41
1.052632
 51
0.000000
  7
STANDARD
  0
TEXT
  8
0
 10
113.700287
 20
-130.669998
 40
6.300000
  1
KOGANEI CORP.
 50
0.000000
 41
1.052632
 51
0.000000
  7
STANDARD
  0
LINE
  8
0
 10
73.036346
 20
8.290789
 11
48.036346
 21
8.290789
  0
LINE
  8
0
 10
73.036346
 20
8.290789
 11
70.138565
 21
9.067245
  0
LINE
  8
0
 10
73.036346
 20
8.290789
 11
70.138573
 21
7.514331
  0
LINE
  8
0
 10
-34.963638
 20
8.290801
 11
-59.963638
 21
8.290801
  0
LINE
  8
0
 10
-34.963638
 20
8.290801
 11
-37.861416
 21
9.067258
  0
LINE
  8
0
 10
-34.963638
 20
8.290801
 11
-37.861416
 21
7.514344
  0
ENDSEC
  0
EOF
