  0
SECTION
  2
HEADER
  9
$ACADVER
  1
AC1012
  9
$DWGCODEPAGE
  3
dos932
  9
$INSBASE
 10
0.0
 20
0.0
 30
0.0
  9
$EXTMIN
 10
-399.52490234
 20
-276.5
 30
0.0
  9
$EXTMAX
 10
399.52490234
 20
276.5
 30
0.0
  9
$LIMMIN
 10
-420.0
 20
-297.0
  9
$LIMMAX
 10
420.0
 20
297.0
  9
$ORTHOMODE
 70
       0
  9
$REGENMODE
 70
       1
  9
$FILLMODE
 70
       1
  9
$QTEXTMODE
 70
       0
  9
$MIRRTEXT
 70
       1
  9
$DRAGMODE
 70
       2
  9
$LTSCALE
 40
1.0
  9
$OSMODE
 70
       0
  9
$ATTMODE
 70
       1
  9
$TEXTSIZE
 40
3.20000005
  9
$TRACEWID
 40
0.05
  9
$TEXTSTYLE
  7
MX_NOTE_STANDARD
  9
$CLAYER
  8
0
  9
$CELTYPE
  6
CONTINUOUS
  9
$CECOLOR
 62
     256
  9
$CELTSCALE
 40
1.0
  9
$DELOBJ
 70
       1
  9
$DISPSILH
 70
       0
  9
$DIMSCALE
 40
1.0
  9
$DIMASZ
 40
2.5
  9
$DIMEXO
 40
1.5
  9
$DIMDLI
 40
3.75
  9
$DIMRND
 40
0.0
  9
$DIMDLE
 40
0.0
  9
$DIMEXE
 40
1.5
  9
$DIMTP
 40
0.0
  9
$DIMTM
 40
0.0
  9
$DIMTXT
 40
3.20000005
  9
$DIMCEN
 40
2.5
  9
$DIMTSZ
 40
0.0
  9
$DIMTOL
 70
       0
  9
$DIMLIM
 70
       0
  9
$DIMTIH
 70
       0
  9
$DIMTOH
 70
       0
  9
$DIMSE1
 70
       0
  9
$DIMSE2
 70
       0
  9
$DIMTAD
 70
       1
  9
$DIMZIN
 70
       8
  9
$DIMBLK
  1

  9
$DIMASO
 70
       1
  9
$DIMSHO
 70
       1
  9
$DIMPOST
  1

  9
$DIMAPOST
  1

  9
$DIMALT
 70
       0
  9
$DIMALTD
 70
       4
  9
$DIMALTF
 40
0.03937008
  9
$DIMLFAC
 40
1.0
  9
$DIMTOFL
 70
       1
  9
$DIMTVP
 40
0.0
  9
$DIMTIX
 70
       0
  9
$DIMSOXD
 70
       0
  9
$DIMSAH
 70
       1
  9
$DIMBLK1
  1
_OPEN30
  9
$DIMBLK2
  1
_OPEN30
  9
$DIMSTYLE
  2
MXDIMSTYLE
  9
$DIMCLRD
 70
       0
  9
$DIMCLRE
 70
       0
  9
$DIMCLRT
 70
       0
  9
$DIMTFAC
 40
1.0
  9
$DIMGAP
 40
1.0
  9
$DIMJUST
 70
       0
  9
$DIMSD1
 70
       0
  9
$DIMSD2
 70
       0
  9
$DIMTOLJ
 70
       0
  9
$DIMTZIN
 70
       0
  9
$DIMALTZ
 70
       0
  9
$DIMALTTZ
 70
       0
  9
$DIMFIT
 70
       3
  9
$DIMUPT
 70
       1
  9
$DIMUNIT
 70
       2
  9
$DIMDEC
 70
       2
  9
$DIMTDEC
 70
       2
  9
$DIMALTU
 70
       2
  9
$DIMALTTD
 70
       4
  9
$DIMTXSTY
  7
MX_NOTE_STANDARD
  9
$DIMAUNIT
 70
       0
  9
$LUNITS
 70
       2
  9
$LUPREC
 70
       4
  9
$SKETCHINC
 40
0.1
  9
$FILLETRAD
 40
0.0
  9
$AUNITS
 70
       0
  9
$AUPREC
 70
       0
  9
$MENU
  1
acad
  9
$ELEVATION
 40
0.0
  9
$PELEVATION
 40
0.0
  9
$THICKNESS
 40
0.0
  9
$LIMCHECK
 70
       0
  9
$BLIPMODE
 70
       1
  9
$CHAMFERA
 40
0.0
  9
$CHAMFERB
 40
0.0
  9
$CHAMFERC
 40
0.0
  9
$CHAMFERD
 40
0.0
  9
$SKPOLY
 70
       0
  9
$TDCREATE
 40
2454336.464108796
  9
$TDUPDATE
 40
2454336.464108796
  9
$TDINDWG
 40
0.0000000000
  9
$TDUSRTIMER
 40
0.0000000000
  9
$USRTIMER
 70
       1
  9
$ANGBASE
 50
0.0
  9
$ANGDIR
 70
       0
  9
$PDMODE
 70
       0
  9
$PDSIZE
 40
0.0
  9
$PLINEWID
 40
0.0
  9
$COORDS
 70
       1
  9
$SPLFRAME
 70
       0
  9
$SPLINETYPE
 70
       6
  9
$SPLINESEGS
 70
       8
  9
$ATTDIA
 70
       0
  9
$ATTREQ
 70
       1
  9
$HANDLING
 70
       1
  9
$HANDSEED
  5
121
  9
$SURFTAB1
 70
       6
  9
$SURFTAB2
 70
       6
  9
$SURFTYPE
 70
       6
  9
$SURFU
 70
       6
  9
$SURFV
 70
       6
  9
$UCSNAME
  2

  9
$UCSORG
 10
0.0
 20
0.0
 30
0.0
  9
$UCSXDIR
 10
1.0
 20
0.0
 30
0.0
  9
$UCSYDIR
 10
0.0
 20
1.0
 30
0.0
  9
$PUCSNAME
  2

  9
$PUCSORG
 10
0.0
 20
0.0
 30
0.0
  9
$PUCSXDIR
 10
1.0
 20
0.0
 30
0.0
  9
$PUCSYDIR
 10
0.0
 20
1.0
 30
0.0
  9
$USERI1
 70
       0
  9
$USERI2
 70
       0
  9
$USERI3
 70
       0
  9
$USERI4
 70
       0
  9
$USERI5
 70
       0
  9
$USERR1
 40
0.0
  9
$USERR2
 40
0.0
  9
$USERR3
 40
0.0
  9
$USERR4
 40
0.0
  9
$USERR5
 40
0.0
  9
$WORLDVIEW
 70
       1
  9
$SHADEDGE
 70
       3
  9
$SHADEDIF
 70
      70
  9
$TILEMODE
 70
       1
  9
$MAXACTVP
 70
      16
  9
$PINSBASE
 10
0.0
 20
0.0
 30
0.0
  9
$PLIMCHECK
 70
       0
  9
$PEXTMIN
 10
1.00000000E+20
 20
1.00000000E+20
 30
1.00000000E+20
  9
$PEXTMAX
 10
-1.00000000E+20
 20
-1.00000000E+20
 30
-1.00000000E+20
  9
$PLIMMIN
 10
0.0
 20
0.0
  9
$PLIMMAX
 10
12.0
 20
9.0
  9
$UNITMODE
 70
       0
  9
$VISRETAIN
 70
       0
  9
$PLINEGEN
 70
       1
  9
$PSLTSCALE
 70
       0
  9
$TREEDEPTH
 70
    3020
  9
$PICKSTYLE
 70
       1
  9
$CMLSTYLE
  2
Standard
  9
$CMLJUST
 70
       0
  9
$CMLSCALE
 40
1.0
  9
$SAVEIMAGES
 70
       0
  0
ENDSEC
  0
SECTION
  2
CLASSES
  0
CLASS
  1
LWPOLYLINE
  2
AcDbPolyline
  3
"AutoCAD"
 90
    32768
280
       0
281
       1
  0
CLASS
  1
IMAGE
  2
AcDbRasterImage
  3
ISM
 90
    32895
280
       0
281
       1
  0
CLASS
  1
OLE2FRAME
  2
AcDbOle2Frame
  3
""
 90
    32768
280
       0
281
       1
  0
CLASS
  1
HATCH
  2
AcDbHatch
  3
"ACAD_SEDONA"
 90
    32768
280
       0
281
       1
  0
CLASS
  1
DICTIONARYVAR
  2
AcDbDictionaryVar
  3
"AutoCAD"
 90
    32768
280
       0
281
       0
  0
CLASS
  1
RASTERVARIABLES
  2
AcDbRasterVariables
  3
ISM
 90
    32768
280
       0
281
       0
  0
CLASS
  1
IMAGEDEF
  2
AcDbRasterImageDef
  3
ISM
 90
    32768
280
       0
281
       0
  0
CLASS
  1
IMAGEDEF_REACTOR
  2
AcDbRasterImageDefReactor
  3
ISM
 90
    32769
280
       0
281
       0
  0
CLASS
  1
IDBUFFER
  2
AcDbIdBuffer
  3
"Acad"
 90
    32768
280
       0
281
       0
  0
CLASS
  1
SPATIAL_FILTER
  2
AcDbSpatialFilter
  3
"Acad"
 90
    32768
280
       0
281
       0
  0
CLASS
  1
XRECORD
  2
AcDbXrecord
  3
"<Built In>"
 90
    32768
280
       0
281
       0
  0
CLASS
  1
SORTENTSTABLE
  2
AcDbSortentsTable
  3
"AutoCAD"
 90
    32768
280
       0
281
       0
  0
CLASS
  1
LAYER_INDEX
  2
AcDbLayerIndex
  3
"Acad"
 90
    32768
280
       0
281
       0
  0
CLASS
  1
SPATIAL_INDEX
  2
AcDbSpatialIndex
  3
"Acad"
 90
    32768
280
       0
281
       0
  0
CLASS
  1
OBJECT_PTR
  2
CAseDLPNTableRecord
  3
"ASE-LPNTableRecord"
 90
    32769
280
       0
281
       0
  0
CLASS
  1
LAYOUT
  2
AcDbLayout
  3
"AutoCAD 2000"
 90
    32768
280
       0
281
       0
  0
CLASS
  1
PLOTSETTINGS
  2
AcDbPlotSettings
  3
"AutoCAD 2000"
 90
    32768
280
       0
281
       0
  0
CLASS
  1
ACDBDICTIONARYWDFLT
  2
AcDbDictionaryWithDefault
  3
"AutoCAD 2000"
 90
    32768
280
       0
281
       0
  0
CLASS
  1
ACDBPLACEHOLDER
  2
AcDbPlaceHolder
  3
"AutoCAD 2000"
 90
    32768
280
       0
281
       0
  0
ENDSEC
  0
SECTION
  2
TABLES
  0
TABLE
  2
VPORT
  5
7
100
AcDbSymbolTable
 70
       1
  0
VPORT
  5
15
100
AcDbSymbolTableRecord
100
AcDbViewportTableRecord
  2
*ACTIVE
 70
       0
 10
0.0
 20
0.0
 11
1.0
 21
1.0
 12
0.0
 22
0.0
 13
0.0
 23
0.0
 14
1.0
 24
1.0
 15
0.0
 25
0.0
 16
0.0
 26
0.0
 36
1.0
 17
0.0
 27
0.0
 37
0.0
 40
599.94
 41
1.73205081
 42
50.0
 43
0.0
 44
0.0
 50
0.0
 51
0.0
 71
       0
 72
     100
 73
       1
 74
       1
 75
       0
 76
       0
 77
       0
 78
       0
  0
ENDTAB
  0
TABLE
  2
LTYPE
  5
4
100
AcDbSymbolTable
 70
       4
  0
LTYPE
  5
11
100
AcDbSymbolTableRecord
100
AcDbLinetypeTableRecord
  2
BYBLOCK
 70
      64
  3

 72
      65
 73
       0
 40
0.0
  0
LTYPE
  5
12
100
AcDbSymbolTableRecord
100
AcDbLinetypeTableRecord
  2
BYLAYER
 70
      64
  3

 72
      65
 73
       0
 40
0.0
  0
LTYPE
  5
13
100
AcDbSymbolTableRecord
100
AcDbLinetypeTableRecord
  2
CONTINUOUS
 70
      64
  3
Solid line
 72
      65
 73
       0
 40
0.0
  0
LTYPE
  5
42
100
AcDbSymbolTableRecord
100
AcDbLinetypeTableRecord
  2
DOT
 70
      64
  3
Dot . . . . . . . . . . . . . . . . . . . . . . .
 72
      65
 73
       2
 40
6.35
 49
0.0
 74
       0
 49
-6.35
 74
       0
  0
ENDTAB
  0
TABLE
  2
LAYER
  5
2
100
AcDbSymbolTable
 70
       2
  0
LAYER
  5
14
100
AcDbSymbolTableRecord
100
AcDbLayerTableRecord
  2
0
 70
       0
 62
       7
  6
CONTINUOUS
  0
LAYER
  5
1D
100
AcDbSymbolTableRecord
100
AcDbLayerTableRecord
  2
DEFPOINTS
 70
       0
 62
       7
  6
CONTINUOUS
  0
ENDTAB
  0
TABLE
  2
STYLE
  5
3
100
AcDbSymbolTable
 70
       1
  0
STYLE
  5
17
100
AcDbSymbolTableRecord
100
AcDbTextStyleTableRecord
  2
MX_NOTE_STANDARD
 70
       0
 40
0.0
 41
1.0
 50
0.0
 71
       0
 42
3.20000005
  3
txt.shx
  4
extfont.shx
  0
ENDTAB
  0
TABLE
  2
VIEW
  5
5
100
AcDbSymbolTable
 70
       0
  0
ENDTAB
  0
TABLE
  2
UCS
  5
6
100
AcDbSymbolTable
 70
       0
  0
ENDTAB
  0
TABLE
  2
APPID
  5
8
100
AcDbSymbolTable
 70
       1
  0
APPID
  5
16
100
AcDbSymbolTableRecord
100
AcDbRegAppTableRecord
  2
ACAD
 70
       0
  0
ENDTAB
  0
TABLE
  2
DIMSTYLE
  5
9
100
AcDbSymbolTable
 70
       1
  0
DIMSTYLE
105
18
100
AcDbSymbolTableRecord
100
AcDbDimStyleTableRecord
  2
MXDIMSTYLE
 70
       0
  3

  4

  5

  6
_OPEN30
  7
_OPEN30
 40
1.0
 41
2.5
 42
1.5
 43
3.75
 44
1.5
 45
0.0
 46
0.0
 47
0.0
 48
0.0
 71
       0
 72
       0
 73
       0
 74
       0
 75
       0
 76
       0
 77
       1
 78
       8
140
3.20000005
141
2.5
142
0.0
143
0.03937008
144
1.0
145
0.0
146
1.0
147
1.0
170
       0
171
       4
172
       1
173
       1
174
       0
175
       0
176
       0
177
       0
178
       0
270
       2
271
       2
272
       2
273
       2
274
       4
275
       0
280
       0
281
       0
282
       0
283
       0
284
       0
285
       0
286
       0
287
       3
288
       1
340
17
  0
ENDTAB
  0
TABLE
  2
BLOCK_RECORD
  5
1
100
AcDbSymbolTable
 70
       1
  0
BLOCK_RECORD
  5
A
100
AcDbSymbolTableRecord
100
AcDbBlockTableRecord
  2
*MODEL_SPACE
  0
BLOCK_RECORD
  5
B
100
AcDbSymbolTableRecord
100
AcDbBlockTableRecord
  2
*PAPER_SPACE
  0
BLOCK_RECORD
  5
1E
100
AcDbSymbolTableRecord
100
AcDbBlockTableRecord
  2
_OPEN30
  0
ENDTAB
  0
ENDSEC
  0
SECTION
  2
BLOCKS
  0
BLOCK
  5
D
100
AcDbEntity
  8
0
100
AcDbBlockBegin
  2
*MODEL_SPACE
 70
       0
 10
0.0
 20
0.0
 30
0.0
  3
*MODEL_SPACE
  1

  0
ENDBLK
  5
E
100
AcDbEntity
  8
0
100
AcDbBlockEnd
  0
BLOCK
  5
F
100
AcDbEntity
 67
       1
  8
0
100
AcDbBlockBegin
  2
*PAPER_SPACE
 70
       0
 10
0.0
 20
0.0
 30
0.0
  3
*PAPER_SPACE
  1

  0
ENDBLK
  5
10
100
AcDbEntity
 67
       1
  8
0
100
AcDbBlockEnd
  0
BLOCK
  5
1F
100
AcDbEntity
  8
0
  6
ByBlock
 62
       0
100
AcDbBlockBegin
  2
_OPEN30
 70
       2
 10
0.0
 20
0.0
 30
0.0
  3
_OPEN30
  1

  0
LINE
  5
20
100
AcDbEntity
  8
0
  6
ByBlock
 62
       0
100
AcDbLine
 10
-1.0
 20
0.267949
 30
0.0
 11
0.0
 21
0.0
 31
0.0
  0
LINE
  5
21
100
AcDbEntity
  8
0
  6
ByBlock
 62
       0
100
AcDbLine
 10
0.0
 20
0.0
 30
0.0
 11
-1.0
 21
-0.267949
 31
0.0
  0
LINE
  5
22
100
AcDbEntity
  8
0
  6
ByBlock
 62
       0
100
AcDbLine
 10
0.0
 20
0.0
 30
0.0
 11
-1.0
 21
0.0
 31
0.0
  0
ENDBLK
  5
23
100
AcDbEntity
  8
0
  6
ByBlock
 62
       0
100
AcDbBlockEnd
  0
ENDSEC
  0
SECTION
  2
ENTITIES
  0
LINE
  5
24
100
AcDbEntity
  8
0
  6
CONTINUOUS
 62
       7
100
AcDbLine
 10
82.49114205
 20
-5.67165041
 30
0.0
 11
84.49114205
 21
-5.67165041
 31
0.0
  0
LINE
  5
25
100
AcDbEntity
  8
0
  6
CONTINUOUS
 62
       7
100
AcDbLine
 10
82.49114205
 20
-15.67165041
 30
0.0
 11
82.49114205
 21
-5.67165041
 31
0.0
  0
LINE
  5
26
100
AcDbEntity
  8
0
  6
CONTINUOUS
 62
       7
100
AcDbLine
 10
149.49114205
 20
35.32834959
 30
0.0
 11
149.49114205
 21
5.32834959
 31
0.0
  0
LINE
  5
27
100
AcDbEntity
  8
0
  6
CONTINUOUS
 62
       7
100
AcDbLine
 10
151.49114205
 20
35.32834959
 30
0.0
 11
149.49114205
 21
35.32834959
 31
0.0
  0
LINE
  5
28
100
AcDbEntity
  8
0
  6
CONTINUOUS
 62
       7
100
AcDbLine
 10
137.79113005
 20
-9.27165641
 30
0.0
 11
136.49114205
 21
-9.27165641
 31
0.0
  0
LINE
  5
29
100
AcDbEntity
  8
0
  6
CONTINUOUS
 62
       7
100
AcDbLine
 10
137.79113005
 20
-0.07164441
 30
0.0
 11
137.79113005
 21
-9.27165641
 31
0.0
  0
LINE
  5
2A
100
AcDbEntity
  8
0
  6
CONTINUOUS
 62
       7
100
AcDbLine
 10
-147.50885795
 20
-178.67165041
 30
0.0
 11
-53.50885795
 21
-178.67165041
 31
0.0
  0
LINE
  5
2B
100
AcDbEntity
  8
0
  6
CONTINUOUS
 62
       7
100
AcDbLine
 10
-147.50885795
 20
-172.67165041
 30
0.0
 11
-53.50885795
 21
-172.67165041
 31
0.0
  0
LINE
  5
2C
100
AcDbEntity
  8
0
  6
CONTINUOUS
 62
       7
100
AcDbLine
 10
-147.50885795
 20
-175.67165041
 30
0.0
 11
-147.50885795
 21
-172.67165041
 31
0.0
  0
LINE
  5
2D
100
AcDbEntity
  8
0
  6
CONTINUOUS
 62
       7
100
AcDbLine
 10
-147.50885795
 20
-169.67165041
 30
0.0
 11
-147.50885795
 21
-166.67165041
 31
0.0
  0
LINE
  5
2E
100
AcDbEntity
  8
0
  6
CONTINUOUS
 62
       7
100
AcDbLine
 10
-147.50885795
 20
-163.67165041
 30
0.0
 11
-147.50885795
 21
-160.67165041
 31
0.0
  0
LINE
  5
2F
100
AcDbEntity
  8
0
  6
CONTINUOUS
 62
       7
100
AcDbLine
 10
-147.50885795
 20
-157.67165041
 30
0.0
 11
-147.50885795
 21
-154.67165041
 31
0.0
  0
LINE
  5
30
100
AcDbEntity
  8
0
  6
CONTINUOUS
 62
       7
100
AcDbLine
 10
-149.50885795
 20
5.32834959
 30
0.0
 11
-150.50885795
 21
4.32834959
 31
0.0
  0
LINE
  5
31
100
AcDbEntity
  8
0
  6
CONTINUOUS
 62
       7
100
AcDbLine
 10
-53.50885795
 20
-175.67165041
 30
0.0
 11
-53.50885795
 21
-172.67165041
 31
0.0
  0
LINE
  5
32
100
AcDbEntity
  8
0
  6
CONTINUOUS
 62
       7
100
AcDbLine
 10
-147.50885795
 20
-166.67165041
 30
0.0
 11
-53.50885795
 21
-166.67165041
 31
0.0
  0
LINE
  5
33
100
AcDbEntity
  8
0
  6
CONTINUOUS
 62
       7
100
AcDbLine
 10
-53.50885795
 20
-169.67165041
 30
0.0
 11
-53.50885795
 21
-166.67165041
 31
0.0
  0
LINE
  5
34
100
AcDbEntity
  8
0
  6
CONTINUOUS
 62
       7
100
AcDbLine
 10
-53.50885795
 20
-163.67165041
 30
0.0
 11
-53.50885795
 21
-160.67165041
 31
0.0
  0
LINE
  5
35
100
AcDbEntity
  8
0
  6
CONTINUOUS
 62
       7
100
AcDbLine
 10
-49.50885795
 20
-0.67165041
 30
0.0
 11
-49.50885795
 21
-20.67165041
 31
0.0
  0
LINE
  5
36
100
AcDbEntity
  8
0
  6
CONTINUOUS
 62
       7
100
AcDbLine
 10
-43.50885795
 20
-0.67165041
 30
0.0
 11
-49.50885795
 21
-0.67165041
 31
0.0
  0
LINE
  5
37
100
AcDbEntity
  8
0
  6
CONTINUOUS
 62
       7
100
AcDbLine
 10
-43.50885795
 20
-20.67165041
 30
0.0
 11
-43.50885795
 21
-0.67165041
 31
0.0
  0
LINE
  5
38
100
AcDbEntity
  8
0
  6
CONTINUOUS
 62
       7
100
AcDbLine
 10
-51.50885795
 20
5.32834959
 30
0.0
 11
-50.50885795
 21
4.32834959
 31
0.0
  0
LINE
  5
39
100
AcDbEntity
  8
0
  6
CONTINUOUS
 62
       7
100
AcDbLine
 10
-151.50885795
 20
-0.67165041
 30
0.0
 11
-151.50885795
 21
-20.67165041
 31
0.0
  0
LINE
  5
3A
100
AcDbEntity
  8
0
  6
CONTINUOUS
 62
       7
100
AcDbLine
 10
-157.50885795
 20
-0.67165041
 30
0.0
 11
-151.50885795
 21
-0.67165041
 31
0.0
  0
LINE
  5
3B
100
AcDbEntity
  8
0
  6
CONTINUOUS
 62
       7
100
AcDbLine
 10
-157.50885795
 20
-20.67165041
 30
0.0
 11
-157.50885795
 21
-0.67165041
 31
0.0
  0
LINE
  5
3C
100
AcDbEntity
  8
0
  6
CONTINUOUS
 62
       7
100
AcDbLine
 10
-147.50885795
 20
155.32834959
 30
0.0
 11
-155.50885795
 21
158.32834959
 31
0.0
  0
LINE
  5
3D
100
AcDbEntity
  8
0
  6
CONTINUOUS
 62
       7
100
AcDbLine
 10
-155.50885795
 20
152.32834959
 30
0.0
 11
-147.50885795
 21
155.32834959
 31
0.0
  0
LINE
  5
3E
100
AcDbEntity
  8
0
  6
CONTINUOUS
 62
       7
100
AcDbLine
 10
-120.50885795
 20
128.32834959
 30
0.0
 11
-120.50885795
 21
130.32834959
 31
0.0
  0
LINE
  5
3F
100
AcDbEntity
  8
0
  6
CONTINUOUS
 62
       7
100
AcDbLine
 10
-130.50885795
 20
128.32834959
 30
0.0
 11
-120.50885795
 21
128.32834959
 31
0.0
  0
LINE
  5
40
100
AcDbEntity
  8
0
  6
CONTINUOUS
 62
       7
100
AcDbLine
 10
-70.50885795
 20
128.32834959
 30
0.0
 11
-70.50885795
 21
130.32834959
 31
0.0
  0
LINE
  5
41
100
AcDbEntity
  8
0
  6
CONTINUOUS
 62
       7
100
AcDbLine
 10
-80.50885795
 20
128.32834959
 30
0.0
 11
-70.50885795
 21
128.32834959
 31
0.0
  0
LINE
  5
43
100
AcDbEntity
  8
0
  6
DOT
 62
       7
100
AcDbLine
 10
-156.80354995
 20
139.32834959
 30
0.0
 11
-157.50885795
 21
135.32834959
 31
0.0
  0
LINE
  5
44
100
AcDbEntity
  8
0
  6
DOT
 62
       7
100
AcDbLine
 10
-152.21416595
 20
139.32834959
 30
0.0
 11
-156.80354995
 21
139.32834959
 31
0.0
  0
LINE
  5
45
100
AcDbEntity
  8
0
  6
DOT
 62
       7
100
AcDbLine
 10
-156.80354995
 20
171.32834959
 30
0.0
 11
-157.50885795
 21
175.32834959
 31
0.0
  0
LINE
  5
46
100
AcDbEntity
  8
0
  6
DOT
 62
       7
100
AcDbLine
 10
-152.21416595
 20
171.32834959
 30
0.0
 11
-156.80354995
 21
171.32834959
 31
0.0
  0
LINE
  5
47
100
AcDbEntity
  8
0
  6
DOT
 62
       7
100
AcDbLine
 10
-44.21416595
 20
139.32834959
 30
0.0
 11
-43.50885795
 21
135.32834959
 31
0.0
  0
LINE
  5
48
100
AcDbEntity
  8
0
  6
DOT
 62
       7
100
AcDbLine
 10
-48.80354995
 20
139.32834959
 30
0.0
 11
-44.21416595
 21
139.32834959
 31
0.0
  0
LINE
  5
49
100
AcDbEntity
  8
0
  6
DOT
 62
       7
100
AcDbLine
 10
-44.21416595
 20
171.32834959
 30
0.0
 11
-43.50885795
 21
175.32834959
 31
0.0
  0
LINE
  5
4A
100
AcDbEntity
  8
0
  6
DOT
 62
       7
100
AcDbLine
 10
-48.80354995
 20
171.32834959
 30
0.0
 11
-44.21416595
 21
171.32834959
 31
0.0
  0
LINE
  5
4B
100
AcDbEntity
  8
0
  6
CONTINUOUS
 62
       7
100
AcDbLine
 10
-147.50885795
 20
-160.67165041
 30
0.0
 11
-53.50885795
 21
-160.67165041
 31
0.0
  0
LINE
  5
4C
100
AcDbEntity
  8
0
  6
CONTINUOUS
 62
       7
100
AcDbLine
 10
-53.50885795
 20
-157.67165041
 30
0.0
 11
-53.50885795
 21
-154.67165041
 31
0.0
  0
LINE
  5
4D
100
AcDbEntity
  8
0
  6
CONTINUOUS
 62
       7
100
AcDbLine
 10
-147.50885795
 20
-154.67165041
 30
0.0
 11
-53.50885795
 21
-154.67165041
 31
0.0
  0
LINE
  5
4E
100
AcDbEntity
  8
0
  6
CONTINUOUS
 62
       7
100
AcDbLine
 10
-162.50885795
 20
136.32834959
 30
0.0
 11
-161.50885795
 21
135.32834959
 31
0.0
  0
LINE
  5
4F
100
AcDbEntity
  8
0
  6
CONTINUOUS
 62
       7
100
AcDbLine
 10
-162.50885795
 20
174.32834959
 30
0.0
 11
-161.50885795
 21
175.32834959
 31
0.0
  0
LINE
  5
50
100
AcDbEntity
  8
0
  6
CONTINUOUS
 62
       7
100
AcDbLine
 10
-75.50885795
 20
165.32834959
 30
0.0
 11
-75.50885795
 21
145.32834959
 31
0.0
  0
LINE
  5
51
100
AcDbEntity
  8
0
  6
CONTINUOUS
 62
       7
100
AcDbLine
 10
-79.50885795
 20
158.32834959
 30
0.0
 11
-79.50885795
 21
152.32834959
 31
0.0
  0
LINE
  5
52
100
AcDbEntity
  8
0
  6
CONTINUOUS
 62
       7
100
AcDbLine
 10
-71.50885795
 20
152.32834959
 30
0.0
 11
-71.50885795
 21
158.32834959
 31
0.0
  0
CIRCLE
  5
53
100
AcDbEntity
  8
0
  6
DOT
 62
       7
100
AcDbCircle
 10
-79.50885795
 20
155.32834959
 30
0.0
 40
1.2
  0
CIRCLE
  5
54
100
AcDbEntity
  8
0
  6
DOT
 62
       7
100
AcDbCircle
 10
-71.50885795
 20
155.32834959
 30
0.0
 40
1.2
  0
LINE
  5
55
100
AcDbEntity
  8
0
  6
CONTINUOUS
 62
       7
100
AcDbLine
 10
-125.50885795
 20
126.32834959
 30
0.0
 11
-125.50885795
 21
132.32834959
 31
0.0
  0
LINE
  5
56
100
AcDbEntity
  8
0
  6
CONTINUOUS
 62
       7
100
AcDbLine
 10
-75.50885795
 20
126.32834959
 30
0.0
 11
-75.50885795
 21
132.32834959
 31
0.0
  0
LINE
  5
57
100
AcDbEntity
  8
0
  6
CONTINUOUS
 62
       7
100
AcDbLine
 10
-133.50885795
 20
199.32834959
 30
0.0
 11
-133.50885795
 21
193.32834959
 31
0.0
  0
LINE
  5
58
100
AcDbEntity
  8
0
  6
CONTINUOUS
 62
       7
100
AcDbLine
 10
-67.50885795
 20
199.32834959
 30
0.0
 11
-67.50885795
 21
193.32834959
 31
0.0
  0
LINE
  5
59
100
AcDbEntity
  8
0
  6
DOT
 62
       7
100
AcDbLine
 10
-49.50885795
 20
175.32834959
 30
0.0
 11
-48.80354995
 21
171.32834959
 31
0.0
  0
LINE
  5
5A
100
AcDbEntity
  8
0
  6
DOT
 62
       7
100
AcDbLine
 10
-49.50885795
 20
135.32834959
 30
0.0
 11
-48.80354995
 21
139.32834959
 31
0.0
  0
LINE
  5
5B
100
AcDbEntity
  8
0
  6
DOT
 62
       7
100
AcDbLine
 10
-151.50885795
 20
175.32834959
 30
0.0
 11
-152.21416595
 21
171.32834959
 31
0.0
  0
LINE
  5
5C
100
AcDbEntity
  8
0
  6
DOT
 62
       7
100
AcDbLine
 10
-151.50885795
 20
135.32834959
 30
0.0
 11
-152.21416595
 21
139.32834959
 31
0.0
  0
LINE
  5
5D
100
AcDbEntity
  8
0
  6
CONTINUOUS
 62
       7
100
AcDbLine
 10
-100.50885795
 20
128.32834959
 30
0.0
 11
-100.50885795
 21
199.32834959
 31
0.0
  0
LINE
  5
5E
100
AcDbEntity
  8
0
  6
CONTINUOUS
 62
       7
100
AcDbLine
 10
-109.50885795
 20
155.32834959
 30
0.0
 11
-91.50885795
 21
155.32834959
 31
0.0
  0
LINE
  5
5F
100
AcDbEntity
  8
0
  6
CONTINUOUS
 62
       7
100
AcDbLine
 10
-85.50885795
 20
155.32834959
 30
0.0
 11
-65.50885795
 21
155.32834959
 31
0.0
  0
LINE
  5
60
100
AcDbEntity
  8
0
  6
CONTINUOUS
 62
       7
100
AcDbLine
 10
-155.50885795
 20
-61.67165041
 30
0.0
 11
-148.17999195
 21
-61.67165041
 31
0.0
  0
LINE
  5
61
100
AcDbEntity
  8
0
  6
CONTINUOUS
 62
       7
100
AcDbLine
 10
-100.50885795
 20
-186.67165041
 30
0.0
 11
-100.50885795
 21
9.32834959
 31
0.0
  0
LINE
  5
62
100
AcDbEntity
  8
0
  6
CONTINUOUS
 62
       7
100
AcDbLine
 10
-132.50885795
 20
-10.67165041
 30
0.0
 11
-118.50885795
 21
-10.67165041
 31
0.0
  0
LINE
  5
63
100
AcDbEntity
  8
0
  6
CONTINUOUS
 62
       7
100
AcDbLine
 10
-125.50885795
 20
-17.67165041
 30
0.0
 11
-125.50885795
 21
-3.67165041
 31
0.0
  0
LINE
  5
64
100
AcDbEntity
  8
0
  6
CONTINUOUS
 62
       7
100
AcDbLine
 10
-155.50885795
 20
-33.67165041
 30
0.0
 11
-148.50885795
 21
-33.67165041
 31
0.0
  0
LINE
  5
65
100
AcDbEntity
  8
0
  6
CONTINUOUS
 62
       7
100
AcDbLine
 10
-68.50885795
 20
-10.67165041
 30
0.0
 11
-82.50885795
 21
-10.67165041
 31
0.0
  0
LINE
  5
66
100
AcDbEntity
  8
0
  6
CONTINUOUS
 62
       7
100
AcDbLine
 10
-75.50885795
 20
-17.67165041
 30
0.0
 11
-75.50885795
 21
-3.67165041
 31
0.0
  0
LINE
  5
67
100
AcDbEntity
  8
0
  6
CONTINUOUS
 62
       7
100
AcDbLine
 10
-45.50885795
 20
-33.67165041
 30
0.0
 11
-52.50885795
 21
-33.67165041
 31
0.0
  0
LINE
  5
68
100
AcDbEntity
  8
0
  6
CONTINUOUS
 62
       7
100
AcDbLine
 10
-104.50885795
 20
-4.67165041
 30
0.0
 11
-96.50885795
 21
-4.67165041
 31
0.0
  0
LINE
  5
69
100
AcDbEntity
  8
0
  6
CONTINUOUS
 62
       7
100
AcDbLine
 10
-75.50885795
 20
15.92206959
 30
0.0
 11
-75.50885795
 21
2.32834959
 31
0.0
  0
LINE
  5
6A
100
AcDbEntity
  8
0
  6
CONTINUOUS
 62
       7
100
AcDbLine
 10
-133.50885795
 20
25.32834959
 30
0.0
 11
-133.50885795
 21
15.32834959
 31
0.0
  0
LINE
  5
6B
100
AcDbEntity
  8
0
  6
CONTINUOUS
 62
       7
100
AcDbLine
 10
-140.50885795
 20
20.32834959
 30
0.0
 11
-126.50885795
 21
20.32834959
 31
0.0
  0
LINE
  5
6C
100
AcDbEntity
  8
0
  6
CONTINUOUS
 62
       7
100
AcDbLine
 10
-67.50885795
 20
15.32834959
 30
0.0
 11
-67.50885795
 21
25.32834959
 31
0.0
  0
LINE
  5
6D
100
AcDbEntity
  8
0
  6
CONTINUOUS
 62
       7
100
AcDbLine
 10
-74.50885795
 20
20.32834959
 30
0.0
 11
-60.50885795
 21
20.32834959
 31
0.0
  0
LINE
  5
6E
100
AcDbEntity
  8
0
  6
CONTINUOUS
 62
       7
100
AcDbLine
 10
92.61614205
 20
-10.67165041
 30
0.0
 11
126.91649605
 21
-10.67165041
 31
0.0
  0
LINE
  5
6F
100
AcDbEntity
  8
0
  6
CONTINUOUS
 62
       7
100
AcDbLine
 10
130.83257205
 20
-4.67165041
 30
0.0
 11
143.94854005
 21
-4.67165041
 31
0.0
  0
LINE
  5
70
100
AcDbEntity
  8
0
  6
CONTINUOUS
 62
       7
100
AcDbLine
 10
80.49114205
 20
-10.67165041
 30
0.0
 11
86.49114205
 21
-10.67165041
 31
0.0
  0
LINE
  5
71
100
AcDbEntity
  8
0
  6
CONTINUOUS
 62
       7
100
AcDbLine
 10
138.49114205
 20
-10.67165041
 30
0.0
 11
132.49114205
 21
-10.67165041
 31
0.0
  0
LINE
  5
72
100
AcDbEntity
  8
0
  6
CONTINUOUS
 62
       7
100
AcDbLine
 10
147.49114205
 20
20.32834959
 30
0.0
 11
153.49114205
 21
20.32834959
 31
0.0
  0
LINE
  5
73
100
AcDbEntity
  8
0
  6
CONTINUOUS
 62
       7
100
AcDbLine
 10
103.49114205
 20
-33.67165041
 30
0.0
 11
115.49114205
 21
-33.67165041
 31
0.0
  0
LINE
  5
74
100
AcDbEntity
  8
0
  6
CONTINUOUS
 62
       7
100
AcDbLine
 10
109.49114205
 20
17.92835559
 30
0.0
 11
109.49114205
 21
-186.67165041
 31
0.0
  0
LINE
  5
75
100
AcDbEntity
  8
0
  6
CONTINUOUS
 62
       7
100
AcDbLine
 10
-162.50885795
 20
174.32834959
 30
0.0
 11
-162.50885795
 21
136.32834959
 31
0.0
  0
ARC
  5
76
100
AcDbEntity
  8
0
  6
CONTINUOUS
 62
       7
100
AcDbCircle
 10
-100.50885795
 20
155.32834959
 30
0.0
 40
5.5
100
AcDbArc
 50
190.475685
 51
349.524315
  0
ARC
  5
77
100
AcDbEntity
  8
0
  6
CONTINUOUS
 62
       7
100
AcDbCircle
 10
-100.50885795
 20
155.32834959
 30
0.0
 40
5.5
100
AcDbArc
 50
10.475685
 51
169.524315
  0
LINE
  5
78
100
AcDbEntity
  8
0
  6
CONTINUOUS
 62
       7
100
AcDbLine
 10
-50.50885795
 20
180.32834959
 30
0.0
 11
-50.50885795
 21
197.32834959
 31
0.0
  0
LINE
  5
79
100
AcDbEntity
  8
0
  6
CONTINUOUS
 62
       7
100
AcDbLine
 10
-150.50885795
 20
197.32834959
 30
0.0
 11
-150.50885795
 21
180.32834959
 31
0.0
  0
LINE
  5
7A
100
AcDbEntity
  8
0
  6
CONTINUOUS
 62
       7
100
AcDbLine
 10
-50.50885795
 20
197.32834959
 30
0.0
 11
-150.50885795
 21
197.32834959
 31
0.0
  0
LINE
  5
7B
100
AcDbEntity
  8
0
  6
CONTINUOUS
 62
       7
100
AcDbLine
 10
-150.50885795
 20
195.32834959
 30
0.0
 11
-50.50885795
 21
195.32834959
 31
0.0
  0
LINE
  5
7C
100
AcDbEntity
  8
0
  6
CONTINUOUS
 62
       7
100
AcDbLine
 10
-51.50885795
 20
180.32834959
 30
0.0
 11
-50.50885795
 21
180.32834959
 31
0.0
  0
LINE
  5
7D
100
AcDbEntity
  8
0
  6
CONTINUOUS
 62
       7
100
AcDbLine
 10
-149.50885795
 20
180.32834959
 30
0.0
 11
-150.50885795
 21
180.32834959
 31
0.0
  0
LINE
  5
7E
100
AcDbEntity
  8
0
  6
CONTINUOUS
 62
       7
100
AcDbLine
 10
-80.50885795
 20
130.32834959
 30
0.0
 11
-80.50885795
 21
128.32834959
 31
0.0
  0
LINE
  5
7F
100
AcDbEntity
  8
0
  6
CONTINUOUS
 62
       7
100
AcDbLine
 10
-130.50885795
 20
130.32834959
 30
0.0
 11
-130.50885795
 21
128.32834959
 31
0.0
  0
LINE
  5
80
100
AcDbEntity
  8
0
  6
CONTINUOUS
 62
       7
100
AcDbLine
 10
-93.07582795
 20
154.32834959
 30
0.0
 11
-107.94188795
 21
154.32834959
 31
0.0
  0
LINE
  5
81
100
AcDbEntity
  8
0
  6
CONTINUOUS
 62
       7
100
AcDbLine
 10
-107.94188795
 20
156.32834959
 30
0.0
 11
-93.07582795
 21
156.32834959
 31
0.0
  0
CIRCLE
  5
82
100
AcDbEntity
  8
0
  6
CONTINUOUS
 62
       7
100
AcDbCircle
 10
-100.50885795
 20
155.32834959
 30
0.0
 40
7.5
  0
LINE
  5
83
100
AcDbEntity
  8
0
  6
CONTINUOUS
 62
       7
100
AcDbLine
 10
-155.50885795
 20
158.32834959
 30
0.0
 11
-155.50885795
 21
152.32834959
 31
0.0
  0
LINE
  5
84
100
AcDbEntity
  8
0
  6
CONTINUOUS
 62
       7
100
AcDbLine
 10
-51.50885795
 20
180.32834959
 30
0.0
 11
-50.50885795
 21
179.32834959
 31
0.0
  0
LINE
  5
85
100
AcDbEntity
  8
0
  6
CONTINUOUS
 62
       7
100
AcDbLine
 10
-149.50885795
 20
130.32834959
 30
0.0
 11
-51.50885795
 21
130.32834959
 31
0.0
  0
LINE
  5
86
100
AcDbEntity
  8
0
  6
CONTINUOUS
 62
       7
100
AcDbLine
 10
-149.50885795
 20
180.32834959
 30
0.0
 11
-51.50885795
 21
180.32834959
 31
0.0
  0
LINE
  5
87
100
AcDbEntity
  8
0
  6
CONTINUOUS
 62
       7
100
AcDbLine
 10
-50.50885795
 20
131.32834959
 30
0.0
 11
-150.50885795
 21
131.32834959
 31
0.0
  0
LINE
  5
88
100
AcDbEntity
  8
0
  6
CONTINUOUS
 62
       7
100
AcDbLine
 10
-150.50885795
 20
179.32834959
 30
0.0
 11
-50.50885795
 21
179.32834959
 31
0.0
  0
LINE
  5
89
100
AcDbEntity
  8
0
  6
CONTINUOUS
 62
       7
100
AcDbLine
 10
-51.50885795
 20
136.32834959
 30
0.0
 11
-50.50885795
 21
135.32834959
 31
0.0
  0
LINE
  5
8A
100
AcDbEntity
  8
0
  6
CONTINUOUS
 62
       7
100
AcDbLine
 10
-50.50885795
 20
175.32834959
 30
0.0
 11
-51.50885795
 21
174.32834959
 31
0.0
  0
LINE
  5
8B
100
AcDbEntity
  8
0
  6
CONTINUOUS
 62
       7
100
AcDbLine
 10
-150.50885795
 20
135.32834959
 30
0.0
 11
-149.50885795
 21
136.32834959
 31
0.0
  0
LINE
  5
8C
100
AcDbEntity
  8
0
  6
CONTINUOUS
 62
       7
100
AcDbLine
 10
-150.50885795
 20
175.32834959
 30
0.0
 11
-149.50885795
 21
174.32834959
 31
0.0
  0
CIRCLE
  5
8D
100
AcDbEntity
  8
0
  6
CONTINUOUS
 62
       7
100
AcDbCircle
 10
-75.50885795
 20
155.32834959
 30
0.0
 40
3.0
  0
CIRCLE
  5
8E
100
AcDbEntity
  8
0
  6
CONTINUOUS
 62
       7
100
AcDbCircle
 10
-75.50885795
 20
155.32834959
 30
0.0
 40
6.9
  0
CIRCLE
  5
8F
100
AcDbEntity
  8
0
  6
CONTINUOUS
 62
       7
100
AcDbCircle
 10
-75.50885795
 20
155.32834959
 30
0.0
 40
7.9
  0
LINE
  5
90
100
AcDbEntity
  8
0
  6
CONTINUOUS
 62
       7
100
AcDbLine
 10
-38.50885795
 20
136.32834959
 30
0.0
 11
-51.50885795
 21
136.32834959
 31
0.0
  0
LINE
  5
91
100
AcDbEntity
  8
0
  6
CONTINUOUS
 62
       7
100
AcDbLine
 10
-39.50885795
 20
175.32834959
 30
0.0
 11
-39.50885795
 21
135.32834959
 31
0.0
  0
LINE
  5
92
100
AcDbEntity
  8
0
  6
CONTINUOUS
 62
       7
100
AcDbLine
 10
-51.50885795
 20
174.32834959
 30
0.0
 11
-38.50885795
 21
174.32834959
 31
0.0
  0
LINE
  5
93
100
AcDbEntity
  8
0
  6
CONTINUOUS
 62
       7
100
AcDbLine
 10
-38.50885795
 20
136.32834959
 30
0.0
 11
-39.50885795
 21
135.32834959
 31
0.0
  0
LINE
  5
94
100
AcDbEntity
  8
0
  6
CONTINUOUS
 62
       7
100
AcDbLine
 10
-39.50885795
 20
135.32834959
 30
0.0
 11
-50.50885795
 21
135.32834959
 31
0.0
  0
LINE
  5
95
100
AcDbEntity
  8
0
  6
CONTINUOUS
 62
       7
100
AcDbLine
 10
-38.50885795
 20
174.32834959
 30
0.0
 11
-38.50885795
 21
136.32834959
 31
0.0
  0
LINE
  5
96
100
AcDbEntity
  8
0
  6
CONTINUOUS
 62
       7
100
AcDbLine
 10
-39.50885795
 20
175.32834959
 30
0.0
 11
-38.50885795
 21
174.32834959
 31
0.0
  0
LINE
  5
97
100
AcDbEntity
  8
0
  6
CONTINUOUS
 62
       7
100
AcDbLine
 10
-50.50885795
 20
175.32834959
 30
0.0
 11
-39.50885795
 21
175.32834959
 31
0.0
  0
LINE
  5
98
100
AcDbEntity
  8
0
  6
CONTINUOUS
 62
       7
100
AcDbLine
 10
-50.50885795
 20
131.32834959
 30
0.0
 11
-51.50885795
 21
130.32834959
 31
0.0
  0
LINE
  5
99
100
AcDbEntity
  8
0
  6
CONTINUOUS
 62
       7
100
AcDbLine
 10
-51.50885795
 20
136.32834959
 30
0.0
 11
-51.50885795
 21
130.32834959
 31
0.0
  0
LINE
  5
9A
100
AcDbEntity
  8
0
  6
CONTINUOUS
 62
       7
100
AcDbLine
 10
-51.50885795
 20
180.32834959
 30
0.0
 11
-51.50885795
 21
174.32834959
 31
0.0
  0
LINE
  5
9B
100
AcDbEntity
  8
0
  6
CONTINUOUS
 62
       7
100
AcDbLine
 10
-50.50885795
 20
135.32834959
 30
0.0
 11
-50.50885795
 21
131.32834959
 31
0.0
  0
LINE
  5
9C
100
AcDbEntity
  8
0
  6
CONTINUOUS
 62
       7
100
AcDbLine
 10
-50.50885795
 20
179.32834959
 30
0.0
 11
-50.50885795
 21
175.32834959
 31
0.0
  0
LINE
  5
9D
100
AcDbEntity
  8
0
  6
CONTINUOUS
 62
       7
100
AcDbLine
 10
-149.50885795
 20
136.32834959
 30
0.0
 11
-162.50885795
 21
136.32834959
 31
0.0
  0
LINE
  5
9E
100
AcDbEntity
  8
0
  6
CONTINUOUS
 62
       7
100
AcDbLine
 10
-162.50885795
 20
174.32834959
 30
0.0
 11
-149.50885795
 21
174.32834959
 31
0.0
  0
LINE
  5
9F
100
AcDbEntity
  8
0
  6
CONTINUOUS
 62
       7
100
AcDbLine
 10
-161.50885795
 20
175.32834959
 30
0.0
 11
-161.50885795
 21
135.32834959
 31
0.0
  0
LINE
  5
A0
100
AcDbEntity
  8
0
  6
CONTINUOUS
 62
       7
100
AcDbLine
 10
-161.50885795
 20
135.32834959
 30
0.0
 11
-150.50885795
 21
135.32834959
 31
0.0
  0
LINE
  5
A1
100
AcDbEntity
  8
0
  6
CONTINUOUS
 62
       7
100
AcDbLine
 10
-150.50885795
 20
175.32834959
 30
0.0
 11
-161.50885795
 21
175.32834959
 31
0.0
  0
LINE
  5
A2
100
AcDbEntity
  8
0
  6
CONTINUOUS
 62
       7
100
AcDbLine
 10
-149.50885795
 20
130.32834959
 30
0.0
 11
-149.50885795
 21
136.32834959
 31
0.0
  0
LINE
  5
A3
100
AcDbEntity
  8
0
  6
CONTINUOUS
 62
       7
100
AcDbLine
 10
-149.50885795
 20
174.32834959
 30
0.0
 11
-149.50885795
 21
180.32834959
 31
0.0
  0
LINE
  5
A4
100
AcDbEntity
  8
0
  6
CONTINUOUS
 62
       7
100
AcDbLine
 10
-150.50885795
 20
131.32834959
 30
0.0
 11
-149.50885795
 21
130.32834959
 31
0.0
  0
LINE
  5
A5
100
AcDbEntity
  8
0
  6
CONTINUOUS
 62
       7
100
AcDbLine
 10
-150.50885795
 20
135.32834959
 30
0.0
 11
-150.50885795
 21
131.32834959
 31
0.0
  0
LINE
  5
A6
100
AcDbEntity
  8
0
  6
CONTINUOUS
 62
       7
100
AcDbLine
 10
-150.50885795
 20
179.32834959
 30
0.0
 11
-149.50885795
 21
180.32834959
 31
0.0
  0
LINE
  5
A7
100
AcDbEntity
  8
0
  6
CONTINUOUS
 62
       7
100
AcDbLine
 10
-150.50885795
 20
179.32834959
 30
0.0
 11
-150.50885795
 21
175.32834959
 31
0.0
  0
LINE
  5
A8
100
AcDbEntity
  8
0
  6
CONTINUOUS
 62
       7
100
AcDbLine
 10
-83.40885195
 20
13.72834359
 30
0.0
 11
-67.60886395
 21
13.72834359
 31
0.0
  0
LINE
  5
A9
100
AcDbEntity
  8
0
  6
CONTINUOUS
 62
       7
100
AcDbLine
 10
-69.50885795
 20
17.32834959
 30
0.0
 11
-65.50885795
 21
17.32834959
 31
0.0
  0
ARC
  5
AA
100
AcDbEntity
  8
0
  6
CONTINUOUS
 62
       7
100
AcDbCircle
 10
-69.50885795
 20
20.32834959
 30
0.0
 40
3.0
100
AcDbArc
 50
90.0
 51
270.0
  0
LINE
  5
AB
100
AcDbEntity
  8
0
  6
CONTINUOUS
 62
       7
100
AcDbLine
 10
-69.50885795
 20
23.32834959
 30
0.0
 11
-65.50885795
 21
23.32834959
 31
0.0
  0
ARC
  5
AC
100
AcDbEntity
  8
0
  6
CONTINUOUS
 62
       7
100
AcDbCircle
 10
-65.50885795
 20
20.32834959
 30
0.0
 40
3.0
100
AcDbArc
 50
270.0
 51
90.0
  0
LINE
  5
AD
100
AcDbEntity
  8
0
  6
CONTINUOUS
 62
       7
100
AcDbLine
 10
-135.50885795
 20
17.32834959
 30
0.0
 11
-131.50885795
 21
17.32834959
 31
0.0
  0
ARC
  5
AE
100
AcDbEntity
  8
0
  6
CONTINUOUS
 62
       7
100
AcDbCircle
 10
-135.50885795
 20
20.32834959
 30
0.0
 40
3.0
100
AcDbArc
 50
90.0
 51
270.0
  0
LINE
  5
AF
100
AcDbEntity
  8
0
  6
CONTINUOUS
 62
       7
100
AcDbLine
 10
-135.50885795
 20
23.32834959
 30
0.0
 11
-131.50885795
 21
23.32834959
 31
0.0
  0
ARC
  5
B0
100
AcDbEntity
  8
0
  6
CONTINUOUS
 62
       7
100
AcDbCircle
 10
-131.50885795
 20
20.32834959
 30
0.0
 40
3.0
100
AcDbArc
 50
270.0
 51
90.0
  0
LINE
  5
B1
100
AcDbEntity
  8
0
  6
CONTINUOUS
 62
       7
100
AcDbLine
 10
-162.50885795
 20
4.32834959
 30
0.0
 11
-161.50885795
 21
5.32834959
 31
0.0
  0
LINE
  5
B2
100
AcDbEntity
  8
0
  6
CONTINUOUS
 62
       7
100
AcDbLine
 10
-38.50885795
 20
4.32834959
 30
0.0
 11
-162.50885795
 21
4.32834959
 31
0.0
  0
LINE
  5
B3
100
AcDbEntity
  8
0
  6
CONTINUOUS
 62
       7
100
AcDbLine
 10
-161.50885795
 20
5.32834959
 30
0.0
 11
-161.50885795
 21
-26.67165041
 31
0.0
  0
LINE
  5
B4
100
AcDbEntity
  8
0
  6
CONTINUOUS
 62
       7
100
AcDbLine
 10
-151.50885795
 20
-20.67165041
 30
0.0
 11
-157.50885795
 21
-20.67165041
 31
0.0
  0
LINE
  5
B5
100
AcDbEntity
  8
0
  6
CONTINUOUS
 62
       7
100
AcDbLine
 10
-162.50885795
 20
4.32834959
 30
0.0
 11
-162.50885795
 21
-26.67165041
 31
0.0
  0
LINE
  5
B6
100
AcDbEntity
  8
0
  6
CONTINUOUS
 62
       7
100
AcDbLine
 10
-50.50885795
 20
-181.67165041
 30
0.0
 11
-50.50885795
 21
4.32834959
 31
0.0
  0
LINE
  5
B7
100
AcDbEntity
  8
0
  6
CONTINUOUS
 62
       7
100
AcDbLine
 10
-67.60886395
 20
13.72834359
 30
0.0
 11
-67.60886395
 21
5.32834959
 31
0.0
  0
LINE
  5
B8
100
AcDbEntity
  8
0
  6
CONTINUOUS
 62
       7
100
AcDbLine
 10
-83.40885195
 20
5.32834959
 30
0.0
 11
-83.40885195
 21
13.72834359
 31
0.0
  0
LINE
  5
B9
100
AcDbEntity
  8
0
  6
CONTINUOUS
 62
       7
100
AcDbLine
 10
-150.50885795
 20
4.32834959
 30
0.0
 11
-150.50885795
 21
-26.67165041
 31
0.0
  0
LINE
  5
BA
100
AcDbEntity
  8
0
  6
CONTINUOUS
 62
       7
100
AcDbLine
 10
-39.50885795
 20
5.32834959
 30
0.0
 11
-39.50885795
 21
-26.67165041
 31
0.0
  0
LINE
  5
BB
100
AcDbEntity
  8
0
  6
CONTINUOUS
 62
       7
100
AcDbLine
 10
-51.50885795
 20
-26.67165041
 30
0.0
 11
-51.50885795
 21
5.32834959
 31
0.0
  0
LINE
  5
BC
100
AcDbEntity
  8
0
  6
CONTINUOUS
 62
       7
100
AcDbLine
 10
-49.50885795
 20
-20.67165041
 30
0.0
 11
-43.50885795
 21
-20.67165041
 31
0.0
  0
CIRCLE
  5
BD
100
AcDbEntity
  8
0
  6
CONTINUOUS
 62
       7
100
AcDbCircle
 10
-100.50885795
 20
-4.67165041
 30
0.0
 40
2.0
  0
CIRCLE
  5
BE
100
AcDbEntity
  8
0
  6
CONTINUOUS
 62
       7
100
AcDbCircle
 10
-100.50885795
 20
-4.67165041
 30
0.0
 40
2.5
  0
LINE
  5
BF
100
AcDbEntity
  8
0
  6
CONTINUOUS
 62
       7
100
AcDbLine
 10
-162.50885795
 20
-26.67165041
 30
0.0
 11
-38.50885795
 21
-26.67165041
 31
0.0
  0
LINE
  5
C0
100
AcDbEntity
  8
0
  6
CONTINUOUS
 62
       7
100
AcDbLine
 10
-147.50885795
 20
-169.67165041
 30
0.0
 11
-53.50885795
 21
-169.67165041
 31
0.0
  0
LINE
  5
C1
100
AcDbEntity
  8
0
  6
CONTINUOUS
 62
       7
100
AcDbLine
 10
-147.50885795
 20
-175.67165041
 30
0.0
 11
-53.50885795
 21
-175.67165041
 31
0.0
  0
LINE
  5
C2
100
AcDbEntity
  8
0
  6
CONTINUOUS
 62
       7
100
AcDbLine
 10
-53.50885795
 20
-181.67165041
 30
0.0
 11
-53.50885795
 21
-178.67165041
 31
0.0
  0
LINE
  5
C3
100
AcDbEntity
  8
0
  6
CONTINUOUS
 62
       7
100
AcDbLine
 10
-150.50885795
 20
-181.67165041
 30
0.0
 11
-50.50885795
 21
-181.67165041
 31
0.0
  0
CIRCLE
  5
C4
100
AcDbEntity
  8
0
  6
CONTINUOUS
 62
       7
100
AcDbCircle
 10
-75.50885795
 20
-10.67165041
 30
0.0
 40
5.0
  0
LINE
  5
C5
100
AcDbEntity
  8
0
  6
CONTINUOUS
 62
       7
100
AcDbLine
 10
-161.50885795
 20
5.32834959
 30
0.0
 11
-39.50885795
 21
5.32834959
 31
0.0
  0
LINE
  5
C6
100
AcDbEntity
  8
0
  6
CONTINUOUS
 62
       7
100
AcDbLine
 10
-149.50885795
 20
-26.67165041
 30
0.0
 11
-149.50885795
 21
5.32834959
 31
0.0
  0
ARC
  5
C7
100
AcDbEntity
  8
0
  6
CONTINUOUS
 62
       7
100
AcDbCircle
 10
-147.34085795
 20
-33.67165041
 30
0.0
 40
5.668
100
AcDbArc
 50
123.981571
 51
236.018429
  0
ARC
  5
C8
100
AcDbEntity
  8
0
  6
CONTINUOUS
 62
       7
100
AcDbCircle
 10
-53.67685795
 20
-33.67165041
 30
0.0
 40
5.668
100
AcDbArc
 50
303.981571
 51
56.018429
  0
LINE
  5
C9
100
AcDbEntity
  8
0
  6
CONTINUOUS
 62
       7
100
AcDbLine
 10
-50.50885795
 20
30.32834959
 30
0.0
 11
-50.50885795
 21
5.32834959
 31
0.0
  0
ARC
  5
CA
100
AcDbEntity
  8
0
  6
CONTINUOUS
 62
       7
100
AcDbCircle
 10
-55.50885795
 20
30.32834959
 30
0.0
 40
5.0
100
AcDbArc
 50
0.0
 51
90.0
  0
LINE
  5
CB
100
AcDbEntity
  8
0
  6
CONTINUOUS
 62
       7
100
AcDbLine
 10
-145.50885795
 20
35.32834959
 30
0.0
 11
-55.50885795
 21
35.32834959
 31
0.0
  0
ARC
  5
CC
100
AcDbEntity
  8
0
  6
CONTINUOUS
 62
       7
100
AcDbCircle
 10
-145.50885795
 20
30.32834959
 30
0.0
 40
5.0
100
AcDbArc
 50
90.0
 51
180.0
  0
LINE
  5
CD
100
AcDbEntity
  8
0
  6
CONTINUOUS
 62
       7
100
AcDbLine
 10
-150.50885795
 20
30.32834959
 30
0.0
 11
-150.50885795
 21
5.32834959
 31
0.0
  0
LINE
  5
CE
100
AcDbEntity
  8
0
  6
CONTINUOUS
 62
       7
100
AcDbLine
 10
-93.10886395
 20
5.32834959
 30
0.0
 11
-95.10886395
 21
7.32834959
 31
0.0
  0
LINE
  5
CF
100
AcDbEntity
  8
0
  6
CONTINUOUS
 62
       7
100
AcDbLine
 10
-107.90885195
 20
5.32834959
 30
0.0
 11
-105.90885195
 21
7.32834959
 31
0.0
  0
LINE
  5
D0
100
AcDbEntity
  8
0
  6
CONTINUOUS
 62
       7
100
AcDbLine
 10
-105.90885195
 20
7.32834959
 30
0.0
 11
-95.10886395
 21
7.32834959
 31
0.0
  0
LINE
  5
D1
100
AcDbEntity
  8
0
  6
CONTINUOUS
 62
       7
100
AcDbLine
 10
-147.50885795
 20
-157.67165041
 30
0.0
 11
-53.50885795
 21
-157.67165041
 31
0.0
  0
LINE
  5
D2
100
AcDbEntity
  8
0
  6
CONTINUOUS
 62
       7
100
AcDbLine
 10
-147.50885795
 20
-163.67165041
 30
0.0
 11
-53.50885795
 21
-163.67165041
 31
0.0
  0
LINE
  5
D3
100
AcDbEntity
  8
0
  6
CONTINUOUS
 62
       7
100
AcDbLine
 10
-147.50885795
 20
-181.67165041
 30
0.0
 11
-147.50885795
 21
-178.67165041
 31
0.0
  0
LINE
  5
D4
100
AcDbEntity
  8
0
  6
CONTINUOUS
 62
       7
100
AcDbLine
 10
-150.50885795
 20
-181.67165041
 30
0.0
 11
-150.50885795
 21
-26.67165041
 31
0.0
  0
LINE
  5
D5
100
AcDbEntity
  8
0
  6
CONTINUOUS
 62
       7
100
AcDbLine
 10
-150.00885795
 20
-184.67165041
 30
0.0
 11
-51.00885795
 21
-184.67165041
 31
0.0
  0
LINE
  5
D6
100
AcDbEntity
  8
0
  6
CONTINUOUS
 62
       7
100
AcDbLine
 10
-150.00885795
 20
-184.67165041
 30
0.0
 11
-150.50885795
 21
-181.67165041
 31
0.0
  0
LINE
  5
D7
100
AcDbEntity
  8
0
  6
CONTINUOUS
 62
       7
100
AcDbLine
 10
-51.00885795
 20
-184.67165041
 30
0.0
 11
-50.50885795
 21
-181.67165041
 31
0.0
  0
CIRCLE
  5
D8
100
AcDbEntity
  8
0
  6
CONTINUOUS
 62
       7
100
AcDbCircle
 10
-125.50885795
 20
-10.67165041
 30
0.0
 40
5.0
  0
ARC
  5
D9
100
AcDbEntity
  8
0
  6
CONTINUOUS
 62
       7
100
AcDbCircle
 10
-135.34218595
 20
-61.67165041
 30
0.0
 40
18.166666
100
AcDbArc
 50
146.60152
 51
213.39848
  0
LINE
  5
DA
100
AcDbEntity
  8
0
  6
CONTINUOUS
 62
       7
100
AcDbLine
 10
-39.50885795
 20
5.32834959
 30
0.0
 11
-38.50885795
 21
4.32834959
 31
0.0
  0
LINE
  5
DB
100
AcDbEntity
  8
0
  6
CONTINUOUS
 62
       7
100
AcDbLine
 10
-68.60886395
 20
14.72834359
 30
0.0
 11
-67.60886395
 21
13.72834359
 31
0.0
  0
LINE
  5
DC
100
AcDbEntity
  8
0
  6
CONTINUOUS
 62
       7
100
AcDbLine
 10
-82.40885195
 20
14.72834359
 30
0.0
 11
-68.60886395
 21
14.72834359
 31
0.0
  0
LINE
  5
DD
100
AcDbEntity
  8
0
  6
CONTINUOUS
 62
       7
100
AcDbLine
 10
-83.40885195
 20
13.72834359
 30
0.0
 11
-82.40885195
 21
14.72834359
 31
0.0
  0
LINE
  5
DE
100
AcDbEntity
  8
0
  6
CONTINUOUS
 62
       7
100
AcDbLine
 10
-38.50885795
 20
4.32834959
 30
0.0
 11
-38.50885795
 21
-26.67165041
 31
0.0
  0
LINE
  5
DF
100
AcDbEntity
  8
0
  6
CONTINUOUS
 62
       7
100
AcDbLine
 10
101.59114805
 20
14.32834959
 30
0.0
 11
117.39113605
 21
14.32834959
 31
0.0
  0
LINE
  5
E0
100
AcDbEntity
  8
0
  6
CONTINUOUS
 62
       7
100
AcDbLine
 10
117.39113605
 20
14.32834959
 30
0.0
 11
117.39113605
 21
5.32834959
 31
0.0
  0
LINE
  5
E1
100
AcDbEntity
  8
0
  6
CONTINUOUS
 62
       7
100
AcDbLine
 10
101.59114805
 20
5.32834959
 30
0.0
 11
101.59114805
 21
14.32834959
 31
0.0
  0
LINE
  5
E2
100
AcDbEntity
  8
0
  6
CONTINUOUS
 62
       7
100
AcDbLine
 10
116.39113605
 20
15.32834959
 30
0.0
 11
117.39113605
 21
14.32834959
 31
0.0
  0
LINE
  5
E3
100
AcDbEntity
  8
0
  6
CONTINUOUS
 62
       7
100
AcDbLine
 10
102.59114805
 20
15.32834959
 30
0.0
 11
116.39113605
 21
15.32834959
 31
0.0
  0
LINE
  5
E4
100
AcDbEntity
  8
0
  6
CONTINUOUS
 62
       7
100
AcDbLine
 10
101.59114805
 20
14.32834959
 30
0.0
 11
102.59114805
 21
15.32834959
 31
0.0
  0
LINE
  5
E5
100
AcDbEntity
  8
0
  6
CONTINUOUS
 62
       7
100
AcDbLine
 10
124.49114205
 20
-88.67165041
 30
0.0
 11
124.49114205
 21
-174.67165041
 31
0.0
  0
LINE
  5
E6
100
AcDbEntity
  8
0
  6
CONTINUOUS
 62
       7
100
AcDbLine
 10
94.49114205
 20
-174.67165041
 30
0.0
 11
94.49114205
 21
-88.67165041
 31
0.0
  0
ARC
  5
E7
100
AcDbEntity
  8
0
  6
CONTINUOUS
 62
       7
100
AcDbCircle
 10
122.49114205
 20
-88.67165041
 30
0.0
 40
2.0
100
AcDbArc
 50
0.0
 51
90.0
  0
LINE
  5
E8
100
AcDbEntity
  8
0
  6
CONTINUOUS
 62
       7
100
AcDbLine
 10
96.49114205
 20
-86.67165041
 30
0.0
 11
122.49114205
 21
-86.67165041
 31
0.0
  0
ARC
  5
E9
100
AcDbEntity
  8
0
  6
CONTINUOUS
 62
       7
100
AcDbCircle
 10
96.49114205
 20
-88.67165041
 30
0.0
 40
2.0
100
AcDbArc
 50
90.0
 51
180.0
  0
ARC
  5
EA
100
AcDbEntity
  8
0
  6
CONTINUOUS
 62
       7
100
AcDbCircle
 10
122.49114205
 20
-174.67165041
 30
0.0
 40
2.0
100
AcDbArc
 50
270.0
 51
0.0
  0
ARC
  5
EB
100
AcDbEntity
  8
0
  6
CONTINUOUS
 62
       7
100
AcDbCircle
 10
96.49114205
 20
-174.67165041
 30
0.0
 40
2.0
100
AcDbArc
 50
180.0
 51
270.0
  0
ARC
  5
EC
100
AcDbEntity
  8
0
  6
CONTINUOUS
 62
       7
100
AcDbCircle
 10
138.09114805
 20
-6.17165041
 30
0.0
 40
3.0
100
AcDbArc
 50
270.0
 51
0.0
  0
LINE
  5
ED
100
AcDbEntity
  8
0
  6
CONTINUOUS
 62
       7
100
AcDbLine
 10
138.09114805
 20
-9.17165041
 30
0.0
 11
137.79113005
 21
-9.17165041
 31
0.0
  0
LINE
  5
EE
100
AcDbEntity
  8
0
  6
CONTINUOUS
 62
       7
100
AcDbLine
 10
141.09114805
 20
-3.17165041
 30
0.0
 11
141.09114805
 21
-6.17165041
 31
0.0
  0
ARC
  5
EF
100
AcDbEntity
  8
0
  6
CONTINUOUS
 62
       7
100
AcDbCircle
 10
138.09114805
 20
-3.17165041
 30
0.0
 40
3.0
100
AcDbArc
 50
0.0
 51
90.0
  0
LINE
  5
F0
100
AcDbEntity
  8
0
  6
CONTINUOUS
 62
       7
100
AcDbLine
 10
137.79113005
 20
-0.17165041
 30
0.0
 11
138.09114805
 21
-0.17165041
 31
0.0
  0
LINE
  5
F1
100
AcDbEntity
  8
0
  6
CONTINUOUS
 62
       7
100
AcDbLine
 10
136.49114205
 20
-0.07164441
 30
0.0
 11
137.79113005
 21
-0.07164441
 31
0.0
  0
CIRCLE
  5
F2
100
AcDbEntity
  8
0
  6
CONTINUOUS
 62
       7
100
AcDbCircle
 10
109.49114205
 20
-33.67165041
 30
0.0
 40
4.7
  0
LINE
  5
F3
100
AcDbEntity
  8
0
  6
CONTINUOUS
 62
       7
100
AcDbLine
 10
136.49114205
 20
-24.67165041
 30
0.0
 11
134.49114205
 21
-24.67165041
 31
0.0
  0
LINE
  5
F4
100
AcDbEntity
  8
0
  6
CONTINUOUS
 62
       7
100
AcDbLine
 10
136.49114205
 20
-24.67165041
 30
0.0
 11
136.49114205
 21
3.32834959
 31
0.0
  0
LINE
  5
F5
100
AcDbEntity
  8
0
  6
CONTINUOUS
 62
       7
100
AcDbLine
 10
151.49114205
 20
5.32834959
 30
0.0
 11
151.49114205
 21
35.32834959
 31
0.0
  0
ARC
  5
F6
100
AcDbEntity
  8
0
  6
CONTINUOUS
 62
       7
100
AcDbCircle
 10
149.49114205
 20
5.32834959
 30
0.0
 40
2.0
100
AcDbArc
 50
270.0
 51
0.0
  0
LINE
  5
F7
100
AcDbEntity
  8
0
  6
CONTINUOUS
 62
       7
100
AcDbLine
 10
136.49114205
 20
3.32834959
 30
0.0
 11
149.49114205
 21
3.32834959
 31
0.0
  0
LINE
  5
F8
100
AcDbEntity
  8
0
  6
CONTINUOUS
 62
       7
100
AcDbLine
 10
149.49114205
 20
5.32834959
 30
0.0
 11
136.49114205
 21
5.32834959
 31
0.0
  0
LINE
  5
F9
100
AcDbEntity
  8
0
  6
CONTINUOUS
 62
       7
100
AcDbLine
 10
122.49114205
 20
-176.67165041
 30
0.0
 11
96.49114205
 21
-176.67165041
 31
0.0
  0
LINE
  5
FA
100
AcDbEntity
  8
0
  6
CONTINUOUS
 62
       7
100
AcDbLine
 10
132.69115405
 20
-26.67165041
 30
0.0
 11
132.69115405
 21
-184.67165041
 31
0.0
  0
LINE
  5
FB
100
AcDbEntity
  8
0
  6
CONTINUOUS
 62
       7
100
AcDbLine
 10
84.99114205
 20
-184.67165041
 30
0.0
 11
133.99114205
 21
-184.67165041
 31
0.0
  0
LINE
  5
FC
100
AcDbEntity
  8
0
  6
CONTINUOUS
 62
       7
100
AcDbLine
 10
134.49114205
 20
-181.67165041
 30
0.0
 11
133.99114205
 21
-184.67165041
 31
0.0
  0
LINE
  5
FD
100
AcDbEntity
  8
0
  6
CONTINUOUS
 62
       7
100
AcDbLine
 10
134.49114205
 20
-181.67165041
 30
0.0
 11
134.49114205
 21
-26.67165041
 31
0.0
  0
LINE
  5
FE
100
AcDbEntity
  8
0
  6
CONTINUOUS
 62
       7
100
AcDbLine
 10
84.49114205
 20
-181.67165041
 30
0.0
 11
84.99114205
 21
-184.67165041
 31
0.0
  0
LINE
  5
FF
100
AcDbEntity
  8
0
  6
CONTINUOUS
 62
       7
100
AcDbLine
 10
84.49114205
 20
-26.67165041
 30
0.0
 11
84.49114205
 21
-181.67165041
 31
0.0
  0
LINE
  5
100
100
AcDbEntity
  8
0
  6
CONTINUOUS
 62
       7
100
AcDbLine
 10
84.49114205
 20
-181.67165041
 30
0.0
 11
134.49114205
 21
-181.67165041
 31
0.0
  0
LINE
  5
101
100
AcDbEntity
  8
0
  6
CONTINUOUS
 62
       7
100
AcDbLine
 10
90.49114205
 20
-20.67165041
 30
0.0
 11
89.49114205
 21
-20.67165041
 31
0.0
  0
LINE
  5
102
100
AcDbEntity
  8
0
  6
CONTINUOUS
 62
       7
100
AcDbLine
 10
84.49114205
 20
-15.67165041
 30
0.0
 11
82.49114205
 21
-15.67165041
 31
0.0
  0
CIRCLE
  5
103
100
AcDbEntity
  8
0
  6
CONTINUOUS
 62
       7
100
AcDbCircle
 10
109.49114205
 20
-10.67165041
 30
0.0
 40
1.5
  0
ARC
  5
104
100
AcDbEntity
  8
0
  6
CONTINUOUS
 62
       7
100
AcDbCircle
 10
136.49114205
 20
3.32834959
 30
0.0
 40
2.0
100
AcDbArc
 50
90.0
 51
180.0
  0
ARC
  5
105
100
AcDbEntity
  8
0
  6
CONTINUOUS
 62
       7
100
AcDbCircle
 10
138.49114205
 20
1.32834959
 30
0.0
 40
2.0
100
AcDbArc
 50
177.13384
 51
180.0
  0
LINE
  5
106
100
AcDbEntity
  8
0
  6
CONTINUOUS
 62
       7
100
AcDbLine
 10
84.49114205
 20
-26.67165041
 30
0.0
 11
134.49114205
 21
-26.67165041
 31
0.0
  0
LINE
  5
107
100
AcDbEntity
  8
0
  6
CONTINUOUS
 62
       7
100
AcDbLine
 10
133.49114205
 20
-26.67165041
 30
0.0
 11
133.49114205
 21
5.32834959
 31
0.0
  0
LINE
  5
108
100
AcDbEntity
  8
0
  6
CONTINUOUS
 62
       7
100
AcDbLine
 10
128.49114205
 20
5.32834959
 30
0.0
 11
128.49114205
 21
-26.67165041
 31
0.0
  0
LINE
  5
109
100
AcDbEntity
  8
0
  6
CONTINUOUS
 62
       7
100
AcDbLine
 10
90.49114205
 20
-26.67165041
 30
0.0
 11
90.49114205
 21
5.32834959
 31
0.0
  0
LINE
  5
10A
100
AcDbEntity
  8
0
  6
CONTINUOUS
 62
       7
100
AcDbLine
 10
85.49114205
 20
5.32834959
 30
0.0
 11
85.49114205
 21
-26.67165041
 31
0.0
  0
LINE
  5
10B
100
AcDbEntity
  8
0
  6
CONTINUOUS
 62
       7
100
AcDbLine
 10
84.49114205
 20
4.32834959
 30
0.0
 11
134.49114205
 21
4.32834959
 31
0.0
  0
LINE
  5
10C
100
AcDbEntity
  8
0
  6
CONTINUOUS
 62
       7
100
AcDbLine
 10
134.49114205
 20
4.32834959
 30
0.0
 11
134.49114205
 21
-26.67165041
 31
0.0
  0
LINE
  5
10D
100
AcDbEntity
  8
0
  6
CONTINUOUS
 62
       7
100
AcDbLine
 10
133.49114205
 20
5.32834959
 30
0.0
 11
134.49114205
 21
4.32834959
 31
0.0
  0
LINE
  5
10E
100
AcDbEntity
  8
0
  6
CONTINUOUS
 62
       7
100
AcDbLine
 10
128.49114205
 20
5.32834959
 30
0.0
 11
133.49114205
 21
5.32834959
 31
0.0
  0
LINE
  5
10F
100
AcDbEntity
  8
0
  6
CONTINUOUS
 62
       7
100
AcDbLine
 10
85.49114205
 20
5.32834959
 30
0.0
 11
90.49114205
 21
5.32834959
 31
0.0
  0
LINE
  5
110
100
AcDbEntity
  8
0
  6
CONTINUOUS
 62
       7
100
AcDbLine
 10
90.49114205
 20
5.32834959
 30
0.0
 11
128.49114205
 21
5.32834959
 31
0.0
  0
LINE
  5
111
100
AcDbEntity
  8
0
  6
CONTINUOUS
 62
       7
100
AcDbLine
 10
129.49114205
 20
4.32834959
 30
0.0
 11
128.49114205
 21
5.32834959
 31
0.0
  0
LINE
  5
112
100
AcDbEntity
  8
0
  6
CONTINUOUS
 62
       7
100
AcDbLine
 10
129.49114205
 20
4.32834959
 30
0.0
 11
129.49114205
 21
-26.67165041
 31
0.0
  0
LINE
  5
113
100
AcDbEntity
  8
0
  6
CONTINUOUS
 62
       7
100
AcDbLine
 10
89.49114205
 20
4.32834959
 30
0.0
 11
90.49114205
 21
5.32834959
 31
0.0
  0
LINE
  5
114
100
AcDbEntity
  8
0
  6
CONTINUOUS
 62
       7
100
AcDbLine
 10
89.49114205
 20
4.32834959
 30
0.0
 11
89.49114205
 21
-26.67165041
 31
0.0
  0
LINE
  5
115
100
AcDbEntity
  8
0
  6
CONTINUOUS
 62
       7
100
AcDbLine
 10
84.49114205
 20
4.32834959
 30
0.0
 11
85.49114205
 21
5.32834959
 31
0.0
  0
LINE
  5
116
100
AcDbEntity
  8
0
  6
CONTINUOUS
 62
       7
100
AcDbLine
 10
84.49114205
 20
4.32834959
 30
0.0
 11
84.49114205
 21
-26.67165041
 31
0.0
  0
CIRCLE
  5
117
100
AcDbEntity
  8
0
  6
CONTINUOUS
 62
       7
100
AcDbCircle
 10
109.49114205
 20
-10.67165041
 30
0.0
 40
8.8
  0
CIRCLE
  5
118
100
AcDbEntity
  8
0
  6
CONTINUOUS
 62
       7
100
AcDbCircle
 10
109.49114205
 20
-10.67165041
 30
0.0
 40
10.5
  0
CIRCLE
  5
119
100
AcDbEntity
  8
0
  6
CONTINUOUS
 62
       7
100
AcDbCircle
 10
109.49114205
 20
-10.67165041
 30
0.0
 40
13.5
  0
MTEXT
  5
11A
100
AcDbEntity
  8
0
  6
CONTINUOUS
 62
       7
100
AcDbMText
 10
-382.42812815
 20
231.5
 30
0.0
 40
9.0
 41
0.0
 71
       4
 72
       1
  1
\W1.065;\A1;MODEL:KRM-3
  0
LINE
  5
11B
100
AcDbEntity
  8
0
  6
CONTINUOUS
 62
       7
100
AcDbLine
 10
-399.52490234
 20
-276.5
 30
0.0
 11
399.52490234
 21
-276.5
 31
0.0
  0
LINE
  5
11C
100
AcDbEntity
  8
0
  6
CONTINUOUS
 62
       7
100
AcDbLine
 10
-399.52490234
 20
276.5
 30
0.0
 11
399.52490234
 21
276.5
 31
0.0
  0
LINE
  5
11D
100
AcDbEntity
  8
0
  6
CONTINUOUS
 62
       7
100
AcDbLine
 10
-399.52490234
 20
276.5
 30
0.0
 11
-399.52490234
 21
-276.5
 31
0.0
  0
LINE
  5
11E
100
AcDbEntity
  8
0
  6
CONTINUOUS
 62
       7
100
AcDbLine
 10
399.52490234
 20
276.5
 30
0.0
 11
399.52490234
 21
-276.5
 31
0.0
  0
ENDSEC
  0
SECTION
  2
OBJECTS
  0
DICTIONARY
  5
19
100
AcDbDictionary
  3
ACAD_GROUP
350
1A
  3
ACAD_MLINESTYLE
350
1B
  0
DICTIONARY
  5
1A
102
{ACAD_REACTORS
330
19
102
}
100
AcDbDictionary
  0
DICTIONARY
  5
1B
102
{ACAD_REACTORS
330
19
102
}
100
AcDbDictionary
  3
STANDARD
350
1C
  0
MLINESTYLE
  5
1C
102
{ACAD_REACTORS
330
1B
102
}
100
AcDbMlineStyle
  2
Standard
 70
       0
  3

 62
       0
 51
90.0
 52
90.0
 71
       2
 49
0.5
 62
     256
  6
ByLayer
 49
-0.5
 62
     256
  6
ByLayer
  0
ENDSEC
  0
EOF
