  0
SECTION
  2
HEADER
  0
ENDSEC
  0
SECTION
  2
TABLES
  0
TABLE
  2
LTYPE
 70
     4
  0
LTYPE
  2
CONTINUOUS
 70
    64
  3
Solid line
 72
    65
 73
     0
 40
0.000000
  0
LTYPE
  2
DASHED
 70
    64
  3
__ __ __ __ __ __ __ __ __ __ __ __ __ __ __
 72
    65
 73
     2
 40
3.500000
 49
2.000000
 49
-1.500000
  0
LTYPE
  2
CENTER
 70
    64
  3
____ _ ____ _ ____ _ ____ _ ____ _ ____ _ ____
 72
    65
 73
     4
 40
17.500000
 49
13.000000
 49
-1.500000
 49
1.500000
 49
-1.500000
  0
LTYPE
  2
PHANTOM
 70
    64
  3
_____ _ _ _____ _ _ _____ _ _ _____ _ _ ____  
 72
    65
 73
     6
 40
15.500000
 49
8.000000
 49
-1.500000
 49
1.500000
 49
-1.500000
 49
1.500000
 49
-1.500000
  0
LTYPE
  2
DASHED1
 70
    64
  3
__ __ __ __ __ __ __ __ __ __ __ __ __ __ __
 72
    65
 73
     2
 40
1.500000
 49
1.000000
 49
-0.500000
  0
LTYPE
  2
DASHED2
 70
    64
  3
__ __ __ __ __ __ __ __ __ __ __ __ __ __ __
 72
    65
 73
     2
 40
3.500000
 49
2.500000
 49
-1.000000
  0
LTYPE
  2
DASHED3
 70
    64
  3
__ __ __ __ __ __ __ __ __ __ __ __ __ __ __
 72
    65
 73
     2
 40
6.000000
 49
4.000000
 49
-2.000000
  0
LTYPE
  2
DASHED4
 70
    64
  3
__ __ __ __ __ __ __ __ __ __ __ __ __ __ __
 72
    65
 73
     2
 40
12.000000
 49
10.000000
 49
-2.000000
  0
LTYPE
  2
DASHED5
 70
    64
  3
__ __ __ __ __ __ __ __ __ __ __ __ __ __ __
 72
    65
 73
     2
 40
17.000000
 49
15.000000
 49
-2.000000
  0
LTYPE
  2
DASHED6
 70
    64
  3
__ __ __ __ __ __ __ __ __ __ __ __ __ __ __
 72
    65
 73
     2
 40
29.000000
 49
27.000000
 49
-2.000000
  0
LTYPE
  2
PHANTOM1
 70
    64
  3
_____ _ _ _____ _ _ _____ _ _ _____ _ _ ____  
 72
    65
 73
     6
 40
31.000000
 49
25.000000
 49
-1.500000
 49
1.000000
 49
-1.000000
 49
1.000000
 49
-1.500000
  0
LTYPE
  2
PHANTOM2
 70
    64
  3
_____ _ _ _____ _ _ _____ _ _ _____ _ _ ____  
 72
    65
 73
     6
 40
36.000000
 49
27.000000
 49
-1.500000
 49
2.500000
 49
-1.000000
 49
2.500000
 49
-1.500000
  0
LTYPE
  2
PHANTOM3
 70
    64
  3
_____ _ _ _____ _ _ _____ _ _ _____ _ _ ____  
 72
    65
 73
     6
 40
78.000000
 49
64.000000
 49
-2.000000
 49
4.000000
 49
-2.000000
 49
4.000000
 49
-2.000000
  0
LTYPE
  2
CENTER1
 70
    64
  3
____ _ ____ _ ____ _ ____ _ ____ _ ____ _ ____
 72
    65
 73
     4
 40
19.000000
 49
14.000000
 49
-1.000000
 49
3.000000
 49
-1.000000
  0
LTYPE
  2
CENTER2
 70
    64
  3
____ _ ____ _ ____ _ ____ _ ____ _ ____ _ ____
 72
    65
 73
     4
 40
28.500000
 49
25.000000
 49
-1.000000
 49
1.500000
 49
-1.000000
  0
LTYPE
  2
CENTER3
 70
    64
  3
____ _ ____ _ ____ _ ____ _ ____ _ ____ _ ____
 72
    65
 73
     4
 40
31.500000
 49
27.000000
 49
-1.000000
 49
2.500000
 49
-1.000000
  0
LTYPE
  2
CENTER4
 70
    64
  3
____ _ ____ _ ____ _ ____ _ ____ _ ____ _ ____
 72
    65
 73
     4
 40
50.000000
 49
45.000000
 49
-1.000000
 49
3.000000
 49
-1.000000
  0
LTYPE
  2
CENTER5
 70
    64
  3
____ _ ____ _ ____ _ ____ _ ____ _ ____ _ ____
 72
    65
 73
     4
 40
100.000000
 49
92.000000
 49
-2.000000
 49
4.000000
 49
-2.000000
  0
LTYPE
  2
SBK1
 70
    64
  3
______ _ _ _ ______ _ _ _ ______ _ _ _ _____  
 72
    65
 73
     8
 40
60.500000
 49
45.000000
 49
-2.000000
 49
2.500000
 49
-2.000000
 49
2.500000
 49
-2.000000
 49
2.500000
 49
-2.000000
  0
LTYPE
  2
SBK2
 70
    64
  3
______ _ _ _ ______ _ _ _ ______ _ _ _ _____  
 72
    65
 73
     8
 40
84.000000
 49
64.000000
 49
-2.000000
 49
4.000000
 49
-2.000000
 49
4.000000
 49
-2.000000
 49
4.000000
 49
-2.000000
  0
LTYPE
  2
STCH
 70
    64
  3
__ __ __ __ __ __ __ __ __ __ __ __ __ __ __
 72
    65
 73
     2
 40
3.000000
 49
1.000000
 49
-2.000000
  0
LTYPE
  2
MTCH
 70
    64
  3
_____ _ _ _____ _ _ _____ _ _ _____ _ _ ____  
 72
    65
 73
     6
 40
80.000000
 49
66.000000
 49
-2.000000
 49
4.000000
 49
-2.000000
 49
4.000000
 49
-2.000000
  0
ENDTAB
  0
TABLE
  2
LAYER
 70
     1
  0
LAYER
  2
0
 70
     0
 62
     7
  6
CONTINUOUS
  0
ENDTAB
  0
TABLE
  2
STYLE
 70
     1
  0
STYLE
  2
STANDARD
 70
     0
 40
0.000000
 41
1.000000
 50
0.000000
 71
     0
 42
0.200000
  3
txt
  4
BIGFONT
  0
ENDTAB
  0
TABLE
  2
VIEW
 70
     0
  0
ENDTAB
  0
ENDSEC
  0
SECTION
  2
BLOCKS
  0
ENDSEC
  0
SECTION
  2
ENTITIES
  0
LINE
  8
0
 10
-181.250000
 20
195.500000
 11
-181.250000
 21
180.500000
  0
LINE
  8
0
 10
182.099976
 20
195.500000
 11
182.099976
 21
180.500000
  0
LINE
  8
0
 10
182.099976
 20
180.500000
 11
282.099976
 21
180.500000
  0
LINE
  8
0
 10
141.262482
 20
-175.000000
 11
282.099976
 21
-175.000000
  0
LINE
  8
0
 10
-297.000000
 20
210.000000
 11
297.000000
 21
210.000000
  0
LINE
  8
0
 10
-297.000000
 20
-210.000000
 11
297.000000
 21
-210.000000
  0
LINE
  8
0
 10
297.000000
 20
210.000000
 11
297.000000
 21
-210.000000
  0
LINE
  8
0
 10
-297.000000
 20
210.000000
 11
-297.000000
 21
-210.000000
  0
LINE
  8
0
 10
-281.250000
 20
195.500000
 11
282.099976
 21
195.500000
  0
LINE
  8
0
 10
-281.250000
 20
195.500000
 11
-281.250000
 21
-195.000000
  0
LINE
  8
0
 10
282.099976
 20
195.500000
 11
282.099976
 21
-195.000000
  0
LINE
  8
0
 10
-281.250000
 20
-195.000000
 11
282.099976
 21
-195.000000
  0
LINE
  8
0
 10
-181.250000
 20
180.500000
 11
-281.250000
 21
180.500000
  0
LINE
  8
0
 10
169.429993
 20
-175.000000
 11
169.429993
 21
-195.000000
  0
LINE
  8
0
 10
-281.250000
 20
-185.000000
 11
141.262482
 21
-185.000000
  0
LINE
  8
0
 10
-281.250000
 20
-25.000000
 11
282.099976
 21
-25.000000
  0
LINE
  8
0
 10
-281.250000
 20
95.000000
 11
282.099976
 21
95.000000
  0
LINE
  8
0
 10
-168.580002
 20
195.500000
 11
-168.580002
 21
-25.000000
  0
LINE
  8
0
 10
-55.910004
 20
195.500000
 11
-55.910004
 21
-25.000000
  0
LINE
  8
0
 10
56.759995
 20
195.500000
 11
56.759995
 21
-25.000000
  0
LINE
  8
0
 10
169.429993
 20
195.500000
 11
169.429993
 21
-25.000000
  0
LINE
  8
0
 10
-140.412506
 20
-25.000000
 11
-140.412506
 21
-195.000000
  0
LINE
  8
0
 10
0.424988
 20
-25.000000
 11
0.424988
 21
-195.000000
  0
LINE
  8
0
 10
141.262482
 20
-25.000000
 11
141.262482
 21
-195.000000
  0
LINE
  8
0
 10
-281.250000
 20
-15.000000
 11
282.099976
 21
-15.000000
  0
LINE
  8
0
 10
-281.250000
 20
105.000000
 11
282.099976
 21
105.000000
  0
LINE
  8
0
 10
141.262482
 20
-165.000000
 11
282.099976
 21
-165.000000
  0
TEXT
  8
0
 10
-260.828308
 20
183.779999
 40
5.800000
  1
VACUUM PAD
 50
0.000000
 41
1.052632
 51
0.000000
  7
STANDARD
  0
TEXT
  8
0
 10
188.021667
 20
183.779999
 40
5.800000
  1
DATE: JUN ,1992
 50
0.000000
 41
1.052632
 51
0.000000
  7
STANDARD
  0
TEXT
  8
0
 10
178.000870
 20
-190.300003
 40
7.000000
  1
ＫＯＧＡＮＥＩ，ＣＯＲＰ．
 50
0.000000
 41
0.902367
 51
15.000000
  7
STANDARD
  0
TEXT
  8
0
 10
-261.521881
 20
95.599998
 40
6.000000
  1
MODEL:KPVF-2
 50
0.000000
 41
1.052632
 51
0.000000
  7
STANDARD
  0
TEXT
  8
0
 10
-154.851883
 20
95.599998
 40
6.000000
  1
MODEL:KPVF-3.5
 50
0.000000
 41
1.052632
 51
0.000000
  7
STANDARD
  0
TEXT
  8
0
 10
-42.181889
 20
95.599998
 40
6.000000
  1
MODEL:KPVF-2X4
 50
0.000000
 41
1.052632
 51
0.000000
  7
STANDARD
  0
TEXT
  8
0
 10
67.488106
 20
95.599998
 40
6.000000
  1
MODEL:KPVF3.5X7
 50
0.000000
 41
1.052632
 51
0.000000
  7
STANDARD
  0
TEXT
  8
0
 10
189.158112
 20
95.599998
 40
6.000000
  1
MODEL:KPVF-6
 50
0.000000
 41
1.052632
 51
0.000000
  7
STANDARD
  0
TEXT
  8
0
 10
-261.521881
 20
-24.400000
 40
6.000000
  1
MODEL:KPVF-8
 50
0.000000
 41
1.052632
 51
0.000000
  7
STANDARD
  0
TEXT
  8
0
 10
-151.851883
 20
-24.400000
 40
6.000000
  1
MODEL:KPVF-10
 50
0.000000
 41
1.052632
 51
0.000000
  7
STANDARD
  0
TEXT
  8
0
 10
-39.181892
 20
-24.400000
 40
6.000000
  1
MODEL:KPVF-15
 50
0.000000
 41
1.052632
 51
0.000000
  7
STANDARD
  0
TEXT
  8
0
 10
73.488106
 20
-24.400000
 40
6.000000
  1
MODEL:KPVF-20
 50
0.000000
 41
1.052632
 51
0.000000
  7
STANDARD
  0
TEXT
  8
0
 10
186.158112
 20
-24.400000
 40
6.000000
  1
MODEL:KPVF-25
 50
0.000000
 41
1.052632
 51
0.000000
  7
STANDARD
  0
TEXT
  8
0
 10
-250.438126
 20
-194.399994
 40
6.000000
  1
MODEL:KPVF-30
 50
0.000000
 41
1.052632
 51
0.000000
  7
STANDARD
  0
TEXT
  8
0
 10
-109.600639
 20
-194.399994
 40
6.000000
  1
MODEL:KPVF-35
 50
0.000000
 41
1.052632
 51
0.000000
  7
STANDARD
  0
TEXT
  8
0
 10
31.236856
 20
-194.399994
 40
6.000000
  1
MODEL:KPVF-40
 50
0.000000
 41
1.052632
 51
0.000000
  7
STANDARD
  0
TEXT
  8
0
 10
172.074356
 20
-174.399994
 40
6.000000
  1
MODEL:KPVF-50
 50
0.000000
 41
1.052632
 51
0.000000
  7
STANDARD
  0
POINT
  8
0
 10
-245.000000
 20
125.000000
  0
POINT
  8
0
 10
-200.000000
 20
125.000000
  0
LINE
  8
0
 10
-245.000000
 20
145.540405
 11
-245.000000
 21
115.871292
  0
LINE
  8
0
 10
-243.899994
 20
143.500000
 11
-246.100006
 21
143.500000
  0
LINE
  8
0
 10
-243.500000
 20
143.000000
 11
-246.500000
 21
143.000000
  0
LINE
  8
0
 10
-243.500000
 20
141.500000
 11
-246.500000
 21
141.500000
  0
LINE
  8
0
 10
-243.500000
 20
140.000000
 11
-246.500000
 21
140.000000
  0
LINE
  8
0
 10
-243.500000
 20
138.500000
 11
-246.500000
 21
138.500000
  0
LINE
  8
0
 10
-243.500000
 20
138.500000
 11
-243.500000
 21
135.000000
  0
LINE
  8
0
 10
-246.500000
 20
138.500000
 11
-246.500000
 21
135.000000
  0
LINE
  8
0
 10
-243.500031
 20
141.500000
 11
-244.045990
 21
143.000000
  0
LINE
  8
0
 10
-243.500000
 20
140.000000
 11
-244.045959
 21
141.500015
  0
LINE
  8
0
 10
-243.500000
 20
138.500000
 11
-244.045959
 21
140.000000
  0
LINE
  8
0
 10
-246.499939
 20
141.499985
 11
-245.953979
 21
142.999985
  0
LINE
  8
0
 10
-246.499939
 20
139.999985
 11
-245.953979
 21
141.499985
  0
LINE
  8
0
 10
-246.500000
 20
138.500000
 11
-245.954056
 21
140.000000
  0
LINE
  8
0
 10
-247.500000
 20
135.000000
 11
-242.500000
 21
135.000000
  0
LINE
  8
0
 10
-247.500000
 20
122.000000
 11
-242.500000
 21
122.000000
  0
LINE
  8
0
 10
-246.964096
 20
120.000000
 11
-243.035904
 21
120.000000
  0
LINE
  8
0
 10
-246.750000
 20
118.000000
 11
-243.250000
 21
118.000000
  0
LINE
  8
0
 10
-247.500000
 20
135.000000
 11
-247.500000
 21
128.000000
  0
LINE
  8
0
 10
-242.500000
 20
135.000000
 11
-242.500000
 21
128.000000
  0
LINE
  8
0
 10
-242.750000
 20
135.000000
 11
-242.750000
 21
128.000000
  0
LINE
  8
0
 10
-247.250000
 20
135.000000
 11
-247.250000
 21
128.000000
  0
LINE
  8
0
 10
-242.500000
 20
122.000000
 11
-243.035904
 21
120.000000
  0
LINE
  8
0
 10
-247.499969
 20
122.000023
 11
-246.964081
 21
120.000015
  0
LINE
  8
0
 10
-250.000000
 20
123.000000
 11
-200.000000
 21
123.000000
  0
LINE
  8
0
 10
-250.000000
 20
125.000000
 11
-200.000000
 21
125.000000
  0
LINE
  8
0
 10
-247.500000
 20
123.000000
 11
-247.500000
 21
122.000000
  0
LINE
  8
0
 10
-247.250000
 20
123.000000
 11
-247.250000
 21
121.066994
  0
LINE
  8
0
 10
-242.750000
 20
123.000000
 11
-242.750000
 21
121.066994
  0
LINE
  8
0
 10
-242.500000
 20
123.000000
 11
-242.500000
 21
122.000000
  0
LINE
  8
0
 10
-248.500000
 20
125.000000
 11
-241.500000
 21
125.000000
  0
LINE
  8
0
 10
-249.041458
 20
127.802933
 11
-249.041458
 21
125.197075
  0
LINE
  8
0
 10
-247.020721
 20
127.802925
 11
-247.020721
 21
125.197075
  0
LINE
  8
0
 10
-242.979279
 20
127.802933
 11
-242.979279
 21
125.191452
  0
LINE
  8
0
 10
-240.958542
 20
127.802933
 11
-240.958542
 21
125.197075
  0
LINE
  8
0
 10
-248.500000
 20
128.000000
 11
-241.500000
 21
128.000000
  0
LINE
  8
0
 10
-248.499969
 20
127.999985
 11
-249.041443
 21
127.802902
  0
LINE
  8
0
 10
-241.499969
 20
124.999977
 11
-240.958527
 21
125.197044
  0
LINE
  8
0
 10
-241.500031
 20
128.000000
 11
-240.958557
 21
127.802925
  0
LINE
  8
0
 10
-248.500000
 20
125.000008
 11
-249.041443
 21
125.197075
  0
LINE
  8
0
 10
-250.000000
 20
125.000000
 11
-250.000000
 21
123.000000
  0
LINE
  8
0
 10
-200.000000
 20
125.000000
 11
-200.000000
 21
123.000000
  0
LINE
  8
0
 10
-243.250000
 20
120.000000
 11
-243.250000
 21
118.000000
  0
LINE
  8
0
 10
-246.750000
 20
120.000000
 11
-246.750000
 21
118.000000
  0
LINE
  8
0
 10
-246.250000
 20
116.700005
 11
-243.750000
 21
116.700005
  0
LINE
  8
0
 10
-245.750000
 20
117.500000
 11
-244.250000
 21
117.500000
  0
LINE
  8
0
 10
-246.750000
 20
118.000008
 11
-245.749985
 21
117.500000
  0
LINE
  8
0
 10
-244.250015
 20
117.499969
 11
-243.250000
 21
117.999969
  0
LINE
  8
0
 10
-245.750015
 20
117.500008
 11
-246.250015
 21
116.700012
  0
LINE
  8
0
 10
-244.250000
 20
117.499992
 11
-243.750000
 21
116.699997
  0
ARC
  8
0
 10
-243.899994
 20
143.100006
 40
0.399994
 50
0.000000
 51
90.000000
  0
ARC
  8
0
 10
-246.100006
 20
143.100006
 40
0.399994
 50
90.000000
 51
180.000000
  0
ARC
  8
0
 10
-241.500015
 20
122.349609
 40
5.650391
 50
90.000000
 51
105.176788
  0
ARC
  8
0
 10
-245.000000
 20
117.541412
 40
10.458583
 50
78.859718
 51
101.072128
  0
ARC
  8
0
 10
-248.500565
 20
122.184875
 40
5.815127
 50
75.132721
 51
89.994286
  0
ARC
  8
0
 10
-248.499985
 20
130.650391
 40
5.650391
 50
269.999847
 51
285.176819
  0
ARC
  8
0
 10
-245.000000
 20
135.458588
 40
10.458575
 50
258.859711
 51
281.072144
  0
ARC
  8
0
 10
-241.499435
 20
130.815125
 40
5.815120
 50
255.132706
 51
269.994293
  0
POINT
  8
0
 10
-245.000000
 20
165.000000
  0
POINT
  8
0
 10
-200.000000
 20
165.000000
  0
LINE
  8
0
 10
-250.906342
 20
165.000000
 11
-198.278259
 21
165.000000
  0
LINE
  8
0
 10
-245.000000
 20
171.509918
 11
-245.000000
 21
157.756638
  0
LINE
  8
0
 10
-247.020721
 20
161.500000
 11
-242.979279
 21
161.500000
  0
LINE
  8
0
 10
-247.020721
 20
168.500000
 11
-242.979279
 21
168.500000
  0
LINE
  8
0
 10
-242.979294
 20
161.500015
 11
-240.958557
 21
165.000015
  0
LINE
  8
0
 10
-249.041473
 20
165.000015
 11
-247.020752
 21
168.500015
  0
LINE
  8
0
 10
-242.979294
 20
168.499985
 11
-240.958572
 21
165.000000
  0
LINE
  8
0
 10
-249.041458
 20
164.999985
 11
-247.020737
 21
161.500000
  0
LINE
  8
0
 10
-200.000000
 20
170.000000
 11
-200.000000
 21
160.000000
  0
LINE
  8
0
 10
-245.000000
 20
160.000000
 11
-200.000000
 21
160.000000
  0
LINE
  8
0
 10
-245.000000
 20
170.000000
 11
-200.000000
 21
170.000000
  0
LINE
  8
0
 10
-207.500000
 20
168.500000
 11
-207.500000
 21
161.500000
  0
LINE
  8
0
 10
-215.000000
 20
168.500000
 11
-215.000000
 21
161.500000
  0
LINE
  8
0
 10
-225.000000
 20
168.500000
 11
-225.000000
 21
161.500000
  0
LINE
  8
0
 10
-232.500000
 20
168.500000
 11
-232.500000
 21
161.500000
  0
LINE
  8
0
 10
-232.500000
 20
167.599991
 11
-225.000000
 21
167.599991
  0
LINE
  8
0
 10
-232.500000
 20
162.399994
 11
-225.000000
 21
162.399994
  0
LINE
  8
0
 10
-215.000000
 20
162.399994
 11
-207.500000
 21
162.399994
  0
LINE
  8
0
 10
-215.000000
 20
167.599991
 11
-207.500000
 21
167.599991
  0
CIRCLE
  8
0
 10
-245.000000
 20
165.000000
 40
2.500000
  0
CIRCLE
  8
0
 10
-245.000000
 20
165.000000
 40
2.250000
  0
CIRCLE
  8
0
 10
-245.000000
 20
165.000000
 40
3.500000
  0
ARC
  8
0
 10
-245.000000
 20
165.000000
 40
5.000000
 50
90.000000
 51
270.000000
  0
ARC
  8
0
 10
-232.500000
 20
165.000000
 40
2.600006
 50
90.000000
 51
270.000000
  0
ARC
  8
0
 10
-225.000000
 20
165.000000
 40
2.600006
 50
270.000000
 51
90.000000
  0
ARC
  8
0
 10
-215.000000
 20
165.000000
 40
2.600006
 50
90.000000
 51
270.000000
  0
ARC
  8
0
 10
-207.500000
 20
165.000000
 40
2.600006
 50
270.000000
 51
90.000000
  0
CIRCLE
  8
0
 10
-245.000000
 20
165.000000
 40
1.500000
  0
CIRCLE
  8
0
 10
-245.000000
 20
165.000000
 40
0.750000
  0
POINT
  8
0
 10
-125.000000
 20
125.000000
  0
POINT
  8
0
 10
-80.000000
 20
125.000000
  0
LINE
  8
0
 10
-125.000000
 20
145.540405
 11
-125.000000
 21
115.871292
  0
LINE
  8
0
 10
-123.900002
 20
143.500000
 11
-126.099998
 21
143.500000
  0
LINE
  8
0
 10
-123.500000
 20
143.000000
 11
-126.500000
 21
143.000000
  0
LINE
  8
0
 10
-123.500000
 20
141.500000
 11
-126.500000
 21
141.500000
  0
LINE
  8
0
 10
-123.500000
 20
140.000000
 11
-126.500000
 21
140.000000
  0
LINE
  8
0
 10
-123.500000
 20
138.500000
 11
-126.500000
 21
138.500000
  0
LINE
  8
0
 10
-123.500000
 20
138.500000
 11
-123.500000
 21
135.000000
  0
LINE
  8
0
 10
-126.500000
 20
138.500000
 11
-126.500000
 21
135.000000
  0
LINE
  8
0
 10
-123.500008
 20
141.500015
 11
-124.045967
 21
143.000015
  0
LINE
  8
0
 10
-123.500000
 20
140.000000
 11
-124.045952
 21
141.500000
  0
LINE
  8
0
 10
-123.499992
 20
138.499985
 11
-124.045952
 21
139.999985
  0
LINE
  8
0
 10
-126.499969
 20
141.500000
 11
-125.954018
 21
142.999985
  0
LINE
  8
0
 10
-126.499977
 20
140.000000
 11
-125.954018
 21
141.500000
  0
LINE
  8
0
 10
-126.500000
 20
138.499985
 11
-125.954041
 21
140.000000
  0
LINE
  8
0
 10
-127.500000
 20
135.000000
 11
-122.500000
 21
135.000000
  0
LINE
  8
0
 10
-127.500000
 20
122.000000
 11
-122.500000
 21
122.000000
  0
LINE
  8
0
 10
-126.964104
 20
120.000000
 11
-123.035896
 21
120.000000
  0
LINE
  8
0
 10
-126.750000
 20
118.000000
 11
-123.250000
 21
118.000000
  0
LINE
  8
0
 10
-127.500000
 20
135.000000
 11
-127.500000
 21
128.000000
  0
LINE
  8
0
 10
-122.500000
 20
135.000000
 11
-122.500000
 21
128.000000
  0
LINE
  8
0
 10
-122.750000
 20
135.000000
 11
-122.750000
 21
128.000000
  0
LINE
  8
0
 10
-127.250000
 20
135.000000
 11
-127.250000
 21
128.000000
  0
LINE
  8
0
 10
-122.499992
 20
122.000008
 11
-123.035889
 21
120.000008
  0
LINE
  8
0
 10
-127.499992
 20
122.000000
 11
-126.964096
 21
119.999992
  0
LINE
  8
0
 10
-130.000000
 20
123.000000
 11
-80.000000
 21
123.000000
  0
LINE
  8
0
 10
-130.000000
 20
125.000000
 11
-80.000000
 21
125.000000
  0
LINE
  8
0
 10
-127.500000
 20
123.000000
 11
-127.500000
 21
122.000000
  0
LINE
  8
0
 10
-127.250000
 20
123.000000
 11
-127.250000
 21
121.066994
  0
LINE
  8
0
 10
-122.750000
 20
123.000000
 11
-122.750000
 21
121.066994
  0
LINE
  8
0
 10
-122.500000
 20
123.000000
 11
-122.500000
 21
122.000000
  0
LINE
  8
0
 10
-128.500000
 20
125.000000
 11
-121.500008
 21
125.000000
  0
LINE
  8
0
 10
-129.041443
 20
127.802925
 11
-129.041443
 21
125.197075
  0
LINE
  8
0
 10
-127.020729
 20
127.802925
 11
-127.020729
 21
125.197075
  0
LINE
  8
0
 10
-122.979271
 20
127.802925
 11
-122.979271
 21
125.191452
  0
LINE
  8
0
 10
-120.958549
 20
127.802925
 11
-120.958549
 21
125.197075
  0
LINE
  8
0
 10
-128.500000
 20
128.000000
 11
-121.500008
 21
128.000000
  0
LINE
  8
0
 10
-128.499985
 20
128.000015
 11
-129.041443
 21
127.802948
  0
LINE
  8
0
 10
-121.499992
 20
124.999992
 11
-120.958542
 21
125.197067
  0
LINE
  8
0
 10
-121.500008
 20
128.000015
 11
-120.958534
 21
127.802933
  0
LINE
  8
0
 10
-128.500015
 20
125.000008
 11
-129.041458
 21
125.197083
  0
LINE
  8
0
 10
-130.000000
 20
125.000000
 11
-130.000000
 21
123.000000
  0
LINE
  8
0
 10
-80.000000
 20
125.000000
 11
-80.000000
 21
123.000000
  0
LINE
  8
0
 10
-123.250000
 20
120.000000
 11
-123.250000
 21
118.000000
  0
LINE
  8
0
 10
-126.750000
 20
120.000000
 11
-126.750000
 21
118.000000
  0
LINE
  8
0
 10
-126.750000
 20
116.500000
 11
-123.250000
 21
116.500000
  0
LINE
  8
0
 10
-126.000000
 20
117.700005
 11
-124.000000
 21
117.700005
  0
LINE
  8
0
 10
-126.000000
 20
117.200005
 11
-124.000000
 21
117.200005
  0
LINE
  8
0
 10
-124.000000
 20
117.700005
 11
-124.000000
 21
117.200005
  0
LINE
  8
0
 10
-126.000000
 20
117.700005
 11
-126.000000
 21
117.200005
  0
LINE
  8
0
 10
-126.750000
 20
118.000008
 11
-126.000000
 21
117.700005
  0
LINE
  8
0
 10
-125.999962
 20
117.199974
 11
-126.749962
 21
116.499969
  0
LINE
  8
0
 10
-123.250000
 20
118.000000
 11
-124.000000
 21
117.699997
  0
LINE
  8
0
 10
-124.000000
 20
117.200005
 11
-123.250008
 21
116.500015
  0
ARC
  8
0
 10
-123.900002
 20
143.100006
 40
0.400002
 50
0.000000
 51
90.000000
  0
ARC
  8
0
 10
-126.099998
 20
143.100006
 40
0.399994
 50
90.000000
 51
180.000000
  0
ARC
  8
0
 10
-121.500008
 20
122.349609
 40
5.650391
 50
89.999924
 51
105.176865
  0
ARC
  8
0
 10
-125.000000
 20
117.541412
 40
10.458583
 50
78.859718
 51
101.072174
  0
ARC
  8
0
 10
-128.500580
 20
122.184875
 40
5.815131
 50
75.132576
 51
89.994286
  0
ARC
  8
0
 10
-128.500000
 20
130.650391
 40
5.650391
 50
270.000000
 51
285.176971
  0
ARC
  8
0
 10
-125.000000
 20
135.458588
 40
10.458575
 50
258.859711
 51
281.072144
  0
ARC
  8
0
 10
-121.499428
 20
130.815125
 40
5.815122
 50
255.132629
 51
269.994293
  0
POINT
  8
0
 10
-125.000000
 20
165.000000
  0
POINT
  8
0
 10
-80.000000
 20
165.000000
  0
LINE
  8
0
 10
-130.906342
 20
165.000000
 11
-78.278267
 21
165.000000
  0
LINE
  8
0
 10
-125.000000
 20
171.509918
 11
-125.000000
 21
157.756638
  0
LINE
  8
0
 10
-127.020729
 20
161.500000
 11
-122.979271
 21
161.500000
  0
LINE
  8
0
 10
-127.020729
 20
168.500000
 11
-122.979271
 21
168.500000
  0
LINE
  8
0
 10
-122.979279
 20
161.500000
 11
-120.958549
 21
165.000000
  0
LINE
  8
0
 10
-129.041458
 20
165.000000
 11
-127.020737
 21
168.500000
  0
LINE
  8
0
 10
-122.979263
 20
168.500000
 11
-120.958542
 21
165.000015
  0
LINE
  8
0
 10
-129.041443
 20
165.000000
 11
-127.020729
 21
161.500000
  0
LINE
  8
0
 10
-80.000000
 20
170.000000
 11
-80.000000
 21
160.000000
  0
LINE
  8
0
 10
-125.000000
 20
160.000000
 11
-80.000000
 21
160.000000
  0
LINE
  8
0
 10
-125.000000
 20
170.000000
 11
-80.000000
 21
170.000000
  0
LINE
  8
0
 10
-87.500000
 20
168.500000
 11
-87.500000
 21
161.500000
  0
LINE
  8
0
 10
-95.000000
 20
168.500000
 11
-95.000000
 21
161.500000
  0
LINE
  8
0
 10
-105.000000
 20
168.500000
 11
-105.000000
 21
161.500000
  0
LINE
  8
0
 10
-112.500000
 20
168.500000
 11
-112.500000
 21
161.500000
  0
LINE
  8
0
 10
-112.500000
 20
167.599991
 11
-105.000000
 21
167.599991
  0
LINE
  8
0
 10
-112.500000
 20
162.399994
 11
-105.000000
 21
162.399994
  0
LINE
  8
0
 10
-95.000000
 20
162.399994
 11
-87.500000
 21
162.399994
  0
LINE
  8
0
 10
-95.000000
 20
167.599991
 11
-87.500000
 21
167.599991
  0
CIRCLE
  8
0
 10
-125.000000
 20
165.000000
 40
2.500000
  0
CIRCLE
  8
0
 10
-125.000000
 20
165.000000
 40
2.250000
  0
CIRCLE
  8
0
 10
-125.000000
 20
165.000000
 40
3.500000
  0
ARC
  8
0
 10
-125.000000
 20
165.000000
 40
5.000000
 50
90.000000
 51
270.000000
  0
ARC
  8
0
 10
-112.500000
 20
165.000000
 40
2.600006
 50
90.000000
 51
270.000000
  0
ARC
  8
0
 10
-105.000000
 20
165.000000
 40
2.600006
 50
270.000000
 51
90.000000
  0
ARC
  8
0
 10
-95.000000
 20
165.000000
 40
2.600006
 50
90.000000
 51
270.000000
  0
ARC
  8
0
 10
-87.500000
 20
165.000000
 40
2.600006
 50
270.000000
 51
90.000000
  0
CIRCLE
  8
0
 10
-125.000000
 20
165.000000
 40
1.500000
  0
CIRCLE
  8
0
 10
-125.000000
 20
165.000000
 40
0.750000
  0
POINT
  8
0
 10
-15.000000
 20
125.000000
  0
POINT
  8
0
 10
30.000000
 20
125.000000
  0
LINE
  8
0
 10
-15.000000
 20
145.540405
 11
-15.000000
 21
115.456894
  0
LINE
  8
0
 10
-13.900001
 20
143.500000
 11
-16.100002
 21
143.500000
  0
LINE
  8
0
 10
-13.500001
 20
143.000000
 11
-16.500000
 21
143.000000
  0
LINE
  8
0
 10
-13.500001
 20
141.500000
 11
-16.500000
 21
141.500000
  0
LINE
  8
0
 10
-13.500000
 20
140.000000
 11
-16.500000
 21
140.000000
  0
LINE
  8
0
 10
-13.500000
 20
138.500000
 11
-16.500000
 21
138.500000
  0
LINE
  8
0
 10
-13.500000
 20
138.500000
 11
-13.500000
 21
135.000000
  0
LINE
  8
0
 10
-16.500000
 20
138.500000
 11
-16.500000
 21
135.000000
  0
LINE
  8
0
 10
-13.499999
 20
141.500000
 11
-14.045955
 21
143.000000
  0
LINE
  8
0
 10
-13.500002
 20
140.000000
 11
-14.045958
 21
141.500015
  0
LINE
  8
0
 10
-13.500002
 20
138.500015
 11
-14.045958
 21
140.000015
  0
LINE
  8
0
 10
-16.499994
 20
141.500000
 11
-15.954038
 21
143.000000
  0
LINE
  8
0
 10
-16.499989
 20
140.000015
 11
-15.954033
 21
141.500015
  0
LINE
  8
0
 10
-16.499996
 20
138.500000
 11
-15.954041
 21
140.000000
  0
LINE
  8
0
 10
-17.500000
 20
135.000000
 11
-12.500000
 21
135.000000
  0
LINE
  8
0
 10
-17.500000
 20
122.000000
 11
-12.500000
 21
122.000000
  0
LINE
  8
0
 10
-16.964102
 20
120.000000
 11
-13.035898
 21
120.000000
  0
LINE
  8
0
 10
-17.500000
 20
135.000000
 11
-17.500000
 21
128.000000
  0
LINE
  8
0
 10
-12.500000
 20
135.000000
 11
-12.500000
 21
128.000000
  0
LINE
  8
0
 10
-12.750000
 20
135.000000
 11
-12.750000
 21
128.000000
  0
LINE
  8
0
 10
-17.250000
 20
135.000000
 11
-17.250000
 21
128.000000
  0
LINE
  8
0
 10
-12.500000
 20
122.000008
 11
-13.035898
 21
120.000008
  0
LINE
  8
0
 10
-17.500000
 20
122.000008
 11
-16.964102
 21
120.000008
  0
LINE
  8
0
 10
-20.000000
 20
123.000000
 11
30.000000
 21
123.000000
  0
LINE
  8
0
 10
-20.000000
 20
125.000000
 11
30.000000
 21
125.000000
  0
LINE
  8
0
 10
-17.500000
 20
123.000000
 11
-17.500000
 21
122.000000
  0
LINE
  8
0
 10
-17.250000
 20
123.000000
 11
-17.250000
 21
121.066994
  0
LINE
  8
0
 10
-12.750000
 20
123.000000
 11
-12.750000
 21
121.066994
  0
LINE
  8
0
 10
-12.500000
 20
123.000000
 11
-12.500000
 21
122.000000
  0
LINE
  8
0
 10
-18.499996
 20
125.000000
 11
-11.500005
 21
125.000000
  0
LINE
  8
0
 10
-19.041452
 20
127.802925
 11
-19.041452
 21
125.197075
  0
LINE
  8
0
 10
-17.020725
 20
127.802925
 11
-17.020725
 21
125.197075
  0
LINE
  8
0
 10
-12.979275
 20
127.802925
 11
-12.979275
 21
125.191452
  0
LINE
  8
0
 10
-10.958548
 20
127.802925
 11
-10.958548
 21
125.197075
  0
LINE
  8
0
 10
-18.499994
 20
128.000000
 11
-11.500006
 21
128.000000
  0
LINE
  8
0
 10
-18.499990
 20
128.000000
 11
-19.041447
 21
127.802925
  0
LINE
  8
0
 10
-11.499999
 20
124.999992
 11
-10.958542
 21
125.197067
  0
LINE
  8
0
 10
-11.500010
 20
128.000000
 11
-10.958553
 21
127.802925
  0
LINE
  8
0
 10
-18.500002
 20
124.999992
 11
-19.041458
 21
125.197067
  0
LINE
  8
0
 10
-20.000000
 20
125.000000
 11
-20.000000
 21
123.000000
  0
LINE
  8
0
 10
30.000000
 20
125.000000
 11
30.000000
 21
123.000000
  0
LINE
  8
0
 10
-17.750000
 20
118.000000
 11
-12.250000
 21
118.000000
  0
LINE
  8
0
 10
-13.250000
 20
119.725006
 11
-13.250000
 21
118.000000
  0
LINE
  8
0
 10
-16.750000
 20
119.725006
 11
-16.750000
 21
118.000000
  0
LINE
  8
0
 10
-17.299999
 20
116.000000
 11
-12.700000
 21
116.000000
  0
LINE
  8
0
 10
-17.750000
 20
118.000008
 11
-17.299999
 21
116.000008
  0
LINE
  8
0
 10
-12.700001
 20
116.000000
 11
-12.250000
 21
118.000000
  0
LINE
  8
0
 10
-16.750013
 20
119.725014
 11
-16.475014
 21
120.000015
  0
LINE
  8
0
 10
-13.249987
 20
119.725029
 11
-13.524987
 21
120.000031
  0
LINE
  8
0
 10
-16.750000
 20
119.725006
 11
-13.250000
 21
119.725006
  0
ARC
  8
0
 10
-13.900000
 20
143.100006
 40
0.400000
 50
0.000000
 51
90.000000
  0
ARC
  8
0
 10
-16.100000
 20
143.100006
 40
0.399994
 50
90.000000
 51
180.000000
  0
ARC
  8
0
 10
-11.500010
 20
122.349609
 40
5.650391
 50
89.999939
 51
105.176849
  0
ARC
  8
0
 10
-15.000000
 20
117.541412
 40
10.458583
 50
78.859718
 51
101.072151
  0
ARC
  8
0
 10
-18.500572
 20
122.184875
 40
5.815129
 50
75.132668
 51
89.994308
  0
ARC
  8
0
 10
-18.499989
 20
130.650391
 40
5.650391
 50
269.999908
 51
285.176849
  0
ARC
  8
0
 10
-15.000000
 20
135.458588
 40
10.458576
 50
258.859680
 51
281.072144
  0
ARC
  8
0
 10
-11.499428
 20
130.815125
 40
5.815122
 50
255.132629
 51
269.994293
  0
POINT
  8
0
 10
-15.000000
 20
165.000000
  0
POINT
  8
0
 10
30.000000
 20
165.000000
  0
LINE
  8
0
 10
-20.906342
 20
165.000000
 11
31.721733
 21
165.000000
  0
LINE
  8
0
 10
-15.000000
 20
171.509933
 11
-15.000000
 21
157.756638
  0
LINE
  8
0
 10
-17.020725
 20
161.500000
 11
-12.979275
 21
161.500000
  0
LINE
  8
0
 10
-17.020725
 20
168.500000
 11
-12.979275
 21
168.500000
  0
LINE
  8
0
 10
-12.979280
 20
161.499985
 11
-10.958550
 21
165.000000
  0
LINE
  8
0
 10
-19.041451
 20
165.000000
 11
-17.020729
 21
168.500000
  0
LINE
  8
0
 10
-12.979267
 20
168.500000
 11
-10.958546
 21
165.000000
  0
LINE
  8
0
 10
-19.041447
 20
165.000000
 11
-17.020718
 21
161.500000
  0
LINE
  8
0
 10
30.000000
 20
170.000000
 11
30.000000
 21
160.000000
  0
LINE
  8
0
 10
-15.000000
 20
160.000000
 11
30.000000
 21
160.000000
  0
LINE
  8
0
 10
-15.000000
 20
170.000000
 11
30.000000
 21
170.000000
  0
LINE
  8
0
 10
22.500000
 20
168.500000
 11
22.500000
 21
161.500000
  0
LINE
  8
0
 10
15.000000
 20
168.500000
 11
15.000000
 21
161.500000
  0
LINE
  8
0
 10
5.000000
 20
168.500000
 11
5.000000
 21
161.500000
  0
LINE
  8
0
 10
-2.500000
 20
168.500000
 11
-2.500000
 21
161.500000
  0
LINE
  8
0
 10
-2.500000
 20
167.599991
 11
5.000000
 21
167.599991
  0
LINE
  8
0
 10
-2.500000
 20
162.399994
 11
5.000000
 21
162.399994
  0
LINE
  8
0
 10
15.000000
 20
162.399994
 11
22.500000
 21
162.399994
  0
LINE
  8
0
 10
15.000000
 20
167.599991
 11
22.500000
 21
167.599991
  0
CIRCLE
  8
0
 10
-15.000000
 20
165.000000
 40
2.500000
  0
CIRCLE
  8
0
 10
-15.000000
 20
165.000000
 40
2.250000
  0
CIRCLE
  8
0
 10
-15.000000
 20
165.000000
 40
3.500000
  0
ARC
  8
0
 10
-15.000000
 20
165.000000
 40
5.000000
 50
89.999977
 51
270.000000
  0
ARC
  8
0
 10
-2.500000
 20
165.000000
 40
2.600006
 50
89.999977
 51
270.000000
  0
ARC
  8
0
 10
5.000000
 20
165.000000
 40
2.600006
 50
270.000000
 51
90.000000
  0
ARC
  8
0
 10
15.000000
 20
165.000000
 40
2.600006
 50
90.000000
 51
270.000000
  0
ARC
  8
0
 10
22.500000
 20
165.000000
 40
2.600006
 50
270.000000
 51
90.000000
  0
CIRCLE
  8
0
 10
-15.000000
 20
165.000000
 40
1.500000
  0
CIRCLE
  8
0
 10
-15.000000
 20
165.000000
 40
0.750000
  0
POINT
  8
0
 10
95.000000
 20
125.000000
  0
POINT
  8
0
 10
140.000000
 20
125.000000
  0
LINE
  8
0
 10
95.000000
 20
145.540421
 11
95.000000
 21
115.871292
  0
LINE
  8
0
 10
96.099998
 20
143.500000
 11
93.900002
 21
143.500000
  0
LINE
  8
0
 10
96.500000
 20
143.000000
 11
93.500000
 21
143.000000
  0
LINE
  8
0
 10
96.500000
 20
141.500000
 11
93.500000
 21
141.500000
  0
LINE
  8
0
 10
96.500000
 20
140.000000
 11
93.500000
 21
140.000000
  0
LINE
  8
0
 10
96.500000
 20
138.500000
 11
93.500000
 21
138.500000
  0
LINE
  8
0
 10
96.500000
 20
138.500000
 11
96.500000
 21
135.000000
  0
LINE
  8
0
 10
93.500000
 20
138.500000
 11
93.500000
 21
135.000000
  0
LINE
  8
0
 10
96.500023
 20
141.500015
 11
95.954071
 21
143.000015
  0
LINE
  8
0
 10
96.499992
 20
140.000000
 11
95.954033
 21
141.500000
  0
LINE
  8
0
 10
96.500008
 20
138.500000
 11
95.954056
 21
140.000000
  0
LINE
  8
0
 10
93.499992
 20
141.500015
 11
94.045952
 21
143.000015
  0
LINE
  8
0
 10
93.499992
 20
140.000015
 11
94.045952
 21
141.500015
  0
LINE
  8
0
 10
93.499992
 20
138.500000
 11
94.045952
 21
140.000000
  0
LINE
  8
0
 10
92.500000
 20
135.000000
 11
97.500000
 21
135.000000
  0
LINE
  8
0
 10
92.500000
 20
122.000000
 11
97.500000
 21
122.000000
  0
LINE
  8
0
 10
92.500000
 20
135.000000
 11
92.500000
 21
128.000000
  0
LINE
  8
0
 10
97.500000
 20
135.000000
 11
97.500000
 21
128.000000
  0
LINE
  8
0
 10
97.250000
 20
135.000000
 11
97.250000
 21
128.000000
  0
LINE
  8
0
 10
92.750000
 20
135.000000
 11
92.750000
 21
128.000000
  0
LINE
  8
0
 10
97.500008
 20
122.000015
 11
96.964104
 21
120.000008
  0
LINE
  8
0
 10
92.500000
 20
122.000008
 11
93.035896
 21
120.000000
  0
LINE
  8
0
 10
90.000000
 20
123.000000
 11
140.000000
 21
123.000000
  0
LINE
  8
0
 10
90.000000
 20
125.000000
 11
140.000000
 21
125.000000
  0
LINE
  8
0
 10
92.500000
 20
123.000000
 11
92.500000
 21
122.000000
  0
LINE
  8
0
 10
92.750000
 20
123.000000
 11
92.750000
 21
121.066994
  0
LINE
  8
0
 10
97.250000
 20
123.000000
 11
97.250000
 21
121.066994
  0
LINE
  8
0
 10
97.500000
 20
123.000000
 11
97.500000
 21
122.000000
  0
LINE
  8
0
 10
91.500008
 20
125.000000
 11
98.499992
 21
125.000000
  0
LINE
  8
0
 10
90.958549
 20
127.802933
 11
90.958549
 21
125.197067
  0
LINE
  8
0
 10
92.979271
 20
127.802933
 11
92.979271
 21
125.197083
  0
LINE
  8
0
 10
97.020729
 20
127.802933
 11
97.020729
 21
125.191452
  0
LINE
  8
0
 10
99.041451
 20
127.802933
 11
99.041451
 21
125.197067
  0
LINE
  8
0
 10
91.500008
 20
128.000000
 11
98.499992
 21
128.000000
  0
LINE
  8
0
 10
91.500023
 20
128.000000
 11
90.958557
 21
127.802933
  0
LINE
  8
0
 10
98.500000
 20
124.999992
 11
99.041458
 21
125.197060
  0
LINE
  8
0
 10
98.499985
 20
128.000000
 11
99.041443
 21
127.802933
  0
LINE
  8
0
 10
91.500000
 20
124.999977
 11
90.958542
 21
125.197052
  0
LINE
  8
0
 10
90.000000
 20
125.000000
 11
90.000000
 21
123.000000
  0
LINE
  8
0
 10
140.000000
 20
125.000000
 11
140.000000
 21
123.000000
  0
LINE
  8
0
  6
CENTER
 10
95.000000
 20
120.553223
 11
95.000000
 21
114.863647
  0
LINE
  8
0
 10
96.750000
 20
119.700005
 11
96.750000
 21
118.000000
  0
LINE
  8
0
 10
93.250000
 20
119.700005
 11
93.250000
 21
118.000000
  0
LINE
  8
0
 10
91.300003
 20
118.000000
 11
98.699997
 21
118.000000
  0
LINE
  8
0
 10
93.035896
 20
120.000000
 11
96.964104
 21
120.000000
  0
LINE
  8
0
 10
91.199997
 20
115.500000
 11
98.800003
 21
115.500000
  0
LINE
  8
0
 10
93.550003
 20
120.000000
 11
93.250015
 21
119.700005
  0
LINE
  8
0
 10
96.749992
 20
119.699997
 11
96.449989
 21
119.999992
  0
LINE
  8
0
 10
91.000000
 20
117.699997
 11
91.300003
 21
118.000000
  0
LINE
  8
0
 10
99.000000
 20
117.699997
 11
98.699997
 21
118.000000
  0
LINE
  8
0
 10
90.999992
 20
117.699997
 11
91.199997
 21
115.500000
  0
LINE
  8
0
 10
98.799988
 20
115.499992
 11
98.999985
 21
117.699997
  0
LINE
  8
0
 10
93.250000
 20
119.700005
 11
96.750000
 21
119.700005
  0
LINE
  8
0
 10
91.000000
 20
117.700005
 11
99.000000
 21
117.700005
  0
ARC
  8
0
 10
96.099998
 20
143.100006
 40
0.400002
 50
0.000000
 51
90.000000
  0
ARC
  8
0
 10
93.900002
 20
143.100006
 40
0.399994
 50
90.000000
 51
180.000000
  0
ARC
  8
0
 10
98.499992
 20
122.349609
 40
5.650391
 50
89.999924
 51
105.176865
  0
ARC
  8
0
 10
95.000000
 20
117.541412
 40
10.458583
 50
78.859718
 51
101.072174
  0
ARC
  8
0
 10
91.499428
 20
122.184875
 40
5.815129
 50
75.132652
 51
89.994286
  0
ARC
  8
0
 10
91.500008
 20
130.650391
 40
5.650391
 50
269.999908
 51
285.176880
  0
ARC
  8
0
 10
95.000000
 20
135.458588
 40
10.458583
 50
258.859711
 51
281.072144
  0
ARC
  8
0
 10
98.500572
 20
130.815125
 40
5.815129
 50
255.132645
 51
269.994293
  0
POINT
  8
0
 10
95.000000
 20
165.000000
  0
POINT
  8
0
 10
140.000000
 20
165.000000
  0
LINE
  8
0
 10
89.093658
 20
165.000000
 11
141.721741
 21
165.000000
  0
LINE
  8
0
 10
95.000000
 20
171.509933
 11
95.000000
 21
157.756638
  0
LINE
  8
0
 10
92.979271
 20
161.500000
 11
97.020729
 21
161.500000
  0
LINE
  8
0
 10
92.979271
 20
168.500000
 11
97.020729
 21
168.500000
  0
LINE
  8
0
 10
97.020729
 20
161.500000
 11
99.041451
 21
165.000000
  0
LINE
  8
0
 10
90.958549
 20
165.000000
 11
92.979271
 21
168.500000
  0
LINE
  8
0
 10
97.020729
 20
168.500000
 11
99.041458
 21
165.000000
  0
LINE
  8
0
 10
90.958565
 20
165.000000
 11
92.979294
 21
161.500000
  0
LINE
  8
0
 10
140.000000
 20
170.000000
 11
140.000000
 21
160.000000
  0
LINE
  8
0
 10
95.000000
 20
160.000000
 11
140.000000
 21
160.000000
  0
LINE
  8
0
 10
95.000000
 20
170.000000
 11
140.000000
 21
170.000000
  0
LINE
  8
0
 10
132.500000
 20
168.500000
 11
132.500000
 21
161.500000
  0
LINE
  8
0
 10
125.000008
 20
168.500000
 11
125.000008
 21
161.500000
  0
LINE
  8
0
 10
115.000008
 20
168.500000
 11
115.000008
 21
161.500000
  0
LINE
  8
0
 10
107.500000
 20
168.500000
 11
107.500000
 21
161.500000
  0
LINE
  8
0
 10
107.500000
 20
167.600006
 11
115.000008
 21
167.600006
  0
LINE
  8
0
 10
107.500000
 20
162.400009
 11
115.000008
 21
162.400009
  0
LINE
  8
0
 10
125.000008
 20
162.400009
 11
132.500000
 21
162.400009
  0
LINE
  8
0
 10
125.000008
 20
167.600006
 11
132.500000
 21
167.600006
  0
CIRCLE
  8
0
 10
95.000000
 20
165.000000
 40
2.500000
  0
CIRCLE
  8
0
 10
95.000000
 20
165.000000
 40
2.250000
  0
CIRCLE
  8
0
 10
95.000000
 20
165.000000
 40
3.500000
  0
ARC
  8
0
 10
95.000000
 20
165.000000
 40
5.000000
 50
90.000000
 51
270.000000
  0
ARC
  8
0
 10
107.500000
 20
165.000000
 40
2.600006
 50
90.000000
 51
270.000000
  0
ARC
  8
0
 10
115.000008
 20
165.000000
 40
2.600006
 50
270.000000
 51
90.000000
  0
ARC
  8
0
 10
125.000008
 20
165.000000
 40
2.600006
 50
90.000000
 51
270.000000
  0
ARC
  8
0
 10
132.500000
 20
165.000000
 40
2.600006
 50
270.000000
 51
90.000000
  0
CIRCLE
  8
0
 10
95.000000
 20
165.000000
 40
1.500000
  0
CIRCLE
  8
0
 10
95.000000
 20
165.000000
 40
0.750000
  0
POINT
  8
0
 10
205.000000
 20
125.000000
  0
POINT
  8
0
 10
250.000000
 20
125.000000
  0
LINE
  8
0
 10
202.984406
 20
138.000000
 11
207.015594
 21
138.000000
  0
LINE
  8
0
 10
205.000000
 20
141.066650
 11
205.000000
 21
106.179527
  0
LINE
  8
0
 10
207.500000
 20
131.500000
 11
207.500000
 21
128.000000
  0
LINE
  8
0
 10
202.500000
 20
131.500000
 11
202.500000
 21
128.000000
  0
LINE
  8
0
 10
202.500000
 20
136.000000
 11
207.500000
 21
136.000000
  0
LINE
  8
0
 10
202.500000
 20
134.500000
 11
207.500000
 21
134.500000
  0
LINE
  8
0
 10
202.500000
 20
133.000000
 11
207.500000
 21
133.000000
  0
LINE
  8
0
 10
202.500000
 20
131.500000
 11
207.500000
 21
131.500000
  0
LINE
  8
0
 10
207.500031
 20
136.000000
 11
207.415085
 21
137.620941
  0
LINE
  8
0
 10
202.499969
 20
136.000000
 11
202.584915
 21
137.620941
  0
LINE
  8
0
 10
207.499969
 20
134.499985
 11
207.153671
 21
135.999985
  0
LINE
  8
0
 10
207.500000
 20
132.999985
 11
207.153702
 21
134.499985
  0
LINE
  8
0
 10
207.500000
 20
131.499985
 11
207.153687
 21
132.999985
  0
LINE
  8
0
 10
202.500031
 20
134.500000
 11
202.846329
 21
136.000000
  0
LINE
  8
0
 10
202.500015
 20
132.999985
 11
202.846313
 21
134.500000
  0
LINE
  8
0
 10
202.500000
 20
131.500000
 11
202.846298
 21
133.000000
  0
LINE
  8
0
 10
202.500000
 20
114.999992
 11
207.500000
 21
114.999992
  0
LINE
  8
0
 10
203.000000
 20
123.000000
 11
203.000000
 21
114.999992
  0
LINE
  8
0
 10
207.000000
 20
123.000000
 11
207.000000
 21
114.999992
  0
LINE
  8
0
 10
202.999969
 20
114.999992
 11
203.249969
 21
112.999992
  0
LINE
  8
0
 10
207.000000
 20
114.999985
 11
206.750000
 21
112.999985
  0
LINE
  8
0
 10
200.958542
 20
127.802917
 11
200.958542
 21
125.197067
  0
LINE
  8
0
 10
202.979279
 20
127.802917
 11
202.979279
 21
125.197067
  0
LINE
  8
0
 10
207.020721
 20
127.802917
 11
207.020721
 21
125.191437
  0
LINE
  8
0
 10
209.041458
 20
127.802917
 11
209.041458
 21
125.197067
  0
LINE
  8
0
 10
201.500000
 20
128.000000
 11
208.500000
 21
128.000000
  0
LINE
  8
0
 10
201.500000
 20
127.999985
 11
200.958542
 21
127.802910
  0
LINE
  8
0
 10
208.500015
 20
125.000015
 11
209.041458
 21
125.197083
  0
LINE
  8
0
 10
208.499985
 20
127.999985
 11
209.041443
 21
127.802910
  0
LINE
  8
0
 10
201.500015
 20
124.999985
 11
200.958542
 21
125.197067
  0
LINE
  8
0
 10
202.500000
 20
123.000000
 11
202.500000
 21
114.999992
  0
LINE
  8
0
 10
207.500000
 20
123.000000
 11
207.500000
 21
114.999992
  0
LINE
  8
0
 10
200.000000
 20
125.000000
 11
250.000000
 21
125.000000
  0
LINE
  8
0
 10
200.000000
 20
123.000000
 11
250.000000
 21
123.000000
  0
LINE
  8
0
 10
200.000000
 20
125.000000
 11
200.000000
 21
123.000000
  0
LINE
  8
0
 10
250.000000
 20
125.000000
 11
250.000000
 21
123.000000
  0
LINE
  8
0
 10
207.000000
 20
108.999992
 11
207.000000
 21
108.206909
  0
LINE
  8
0
 10
203.000000
 20
108.999992
 11
203.000000
 21
108.206909
  0
LINE
  8
0
 10
208.000000
 20
112.999992
 11
208.000000
 21
109.999992
  0
LINE
  8
0
 10
202.000000
 20
112.999992
 11
202.000000
 21
109.999992
  0
LINE
  8
0
 10
202.000000
 20
109.999992
 11
208.000000
 21
109.999992
  0
LINE
  8
0
 10
202.000000
 20
112.999992
 11
208.000000
 21
112.999992
  0
LINE
  8
0
 10
202.000000
 20
106.999992
 11
208.000000
 21
106.999992
  0
LINE
  8
0
 10
203.000000
 20
109.000000
 11
202.000000
 21
110.000000
  0
LINE
  8
0
 10
207.000000
 20
108.999969
 11
208.000000
 21
109.999969
  0
LINE
  8
0
 10
201.999985
 20
106.999985
 11
201.799988
 21
107.199982
  0
LINE
  8
0
 10
208.000000
 20
106.999977
 11
208.199997
 21
107.199974
  0
LINE
  8
0
 10
201.800003
 20
107.200012
 11
203.000000
 21
108.206932
  0
LINE
  8
0
 10
208.200012
 20
107.199997
 11
207.000015
 21
108.206909
  0
LINE
  8
0
 10
203.000000
 20
108.999992
 11
207.000000
 21
108.999992
  0
LINE
  8
0
 10
207.000000
 20
108.206909
 11
203.000000
 21
108.206909
  0
LINE
  8
0
 10
201.800003
 20
107.199989
 11
208.199997
 21
107.199989
  0
ARC
  8
0
 10
202.984406
 20
137.599991
 40
0.399994
 50
90.000000
 51
176.999847
  0
ARC
  8
0
 10
207.015594
 20
137.599991
 40
0.399993
 50
3.000151
 51
90.000000
  0
ARC
  8
0
 10
208.499985
 20
122.349594
 40
5.650391
 50
90.000000
 51
105.176788
  0
ARC
  8
0
 10
205.000000
 20
117.541405
 40
10.458583
 50
78.859718
 51
101.072128
  0
ARC
  8
0
 10
201.499435
 20
122.184860
 40
5.815127
 50
75.132721
 51
89.994286
  0
ARC
  8
0
 10
201.500015
 20
130.650391
 40
5.650391
 50
269.999847
 51
285.176788
  0
ARC
  8
0
 10
205.000000
 20
135.458588
 40
10.458583
 50
258.859711
 51
281.072144
  0
ARC
  8
0
 10
208.500565
 20
130.815125
 40
5.815127
 50
255.132721
 51
269.994293
  0
POINT
  8
0
 10
205.000000
 20
165.000000
  0
POINT
  8
0
 10
250.000000
 20
165.000000
  0
LINE
  8
0
 10
199.093658
 20
165.000000
 11
251.600006
 21
165.000000
  0
LINE
  8
0
 10
205.000000
 20
171.133331
 11
205.000000
 21
157.756638
  0
LINE
  8
0
 10
202.979279
 20
161.500000
 11
207.020721
 21
161.500000
  0
LINE
  8
0
 10
202.979279
 20
168.500000
 11
207.020721
 21
168.500000
  0
LINE
  8
0
 10
207.020721
 20
161.500000
 11
209.041443
 21
165.000000
  0
LINE
  8
0
 10
200.958557
 20
165.000000
 11
202.979279
 21
168.500000
  0
LINE
  8
0
 10
207.020737
 20
168.500015
 11
209.041458
 21
165.000015
  0
LINE
  8
0
 10
200.958557
 20
165.000000
 11
202.979279
 21
161.500015
  0
LINE
  8
0
 10
250.000000
 20
170.000000
 11
250.000000
 21
160.000000
  0
LINE
  8
0
 10
205.000000
 20
160.000000
 11
250.000000
 21
160.000000
  0
LINE
  8
0
 10
205.000000
 20
170.000000
 11
250.000000
 21
170.000000
  0
LINE
  8
0
 10
242.500000
 20
168.466675
 11
242.500000
 21
161.000000
  0
LINE
  8
0
 10
235.000000
 20
168.600006
 11
235.000000
 21
161.000000
  0
LINE
  8
0
 10
225.000000
 20
168.733337
 11
225.000000
 21
161.133331
  0
LINE
  8
0
 10
217.500000
 20
168.600006
 11
217.500000
 21
160.733337
  0
LINE
  8
0
 10
235.000000
 20
167.600006
 11
242.500000
 21
167.600006
  0
LINE
  8
0
 10
235.000000
 20
162.400009
 11
242.500000
 21
162.400009
  0
LINE
  8
0
 10
217.500000
 20
167.600006
 11
225.000000
 21
167.600006
  0
LINE
  8
0
 10
217.500000
 20
162.400009
 11
225.000000
 21
162.400009
  0
CIRCLE
  8
0
 10
205.000000
 20
165.000000
 40
2.500000
  0
CIRCLE
  8
0
 10
205.000000
 20
165.000000
 40
2.250000
  0
CIRCLE
  8
0
 10
205.000000
 20
165.000000
 40
3.500000
  0
ARC
  8
0
 10
205.000000
 20
165.000000
 40
5.000000
 50
90.000000
 51
270.000000
  0
ARC
  8
0
 10
242.500000
 20
165.000000
 40
2.600006
 50
0.000000
 51
90.000000
  0
ARC
  8
0
 10
235.000000
 20
165.000000
 40
2.600006
 50
90.000000
 51
270.000000
  0
ARC
  8
0
 10
242.500000
 20
165.000000
 40
2.600006
 50
270.000000
 51
0.000000
  0
ARC
  8
0
 10
225.000000
 20
165.000000
 40
2.600006
 50
0.000000
 51
90.000000
  0
ARC
  8
0
 10
217.500000
 20
165.000000
 40
2.600006
 50
90.000000
 51
270.000000
  0
ARC
  8
0
 10
225.000000
 20
165.000000
 40
2.600006
 50
270.000000
 51
0.000000
  0
CIRCLE
  8
0
 10
205.000000
 20
165.000000
 40
1.150000
  0
POINT
  8
0
 10
-245.000000
 20
20.000000
  0
POINT
  8
0
 10
-200.000000
 20
20.000000
  0
LINE
  8
0
 10
-247.015594
 20
33.000000
 11
-242.984406
 21
33.000000
  0
LINE
  8
0
 10
-245.000000
 20
36.066666
 11
-245.000000
 21
1.420353
  0
LINE
  8
0
 10
-242.500000
 20
26.500000
 11
-242.500000
 21
23.000000
  0
LINE
  8
0
 10
-247.500000
 20
26.500000
 11
-247.500000
 21
23.000000
  0
LINE
  8
0
 10
-247.500000
 20
31.000000
 11
-242.500000
 21
31.000000
  0
LINE
  8
0
 10
-247.500000
 20
29.500000
 11
-242.500000
 21
29.500000
  0
LINE
  8
0
 10
-247.500000
 20
28.000000
 11
-242.500000
 21
28.000000
  0
LINE
  8
0
 10
-247.500000
 20
26.500000
 11
-242.500000
 21
26.500000
  0
LINE
  8
0
 10
-242.500031
 20
31.000002
 11
-242.584976
 21
32.620937
  0
LINE
  8
0
 10
-247.499969
 20
30.999996
 11
-247.415009
 21
32.620934
  0
LINE
  8
0
 10
-242.499985
 20
29.500011
 11
-242.846283
 21
31.000008
  0
LINE
  8
0
 10
-242.500000
 20
28.000000
 11
-242.846298
 21
29.500002
  0
LINE
  8
0
 10
-242.499985
 20
26.500008
 11
-242.846283
 21
28.000004
  0
LINE
  8
0
 10
-247.500031
 20
29.500004
 11
-247.153732
 21
31.000004
  0
LINE
  8
0
 10
-247.500000
 20
28.000004
 11
-247.153702
 21
29.500004
  0
LINE
  8
0
 10
-247.500015
 20
26.500000
 11
-247.153702
 21
28.000000
  0
LINE
  8
0
 10
-247.500000
 20
10.000000
 11
-242.500000
 21
10.000000
  0
LINE
  8
0
 10
-247.000000
 20
18.000000
 11
-247.000000
 21
10.000000
  0
LINE
  8
0
 10
-243.000000
 20
18.000000
 11
-243.000000
 21
10.000000
  0
LINE
  8
0
 10
-246.999969
 20
10.000004
 11
-246.749969
 21
8.000004
  0
LINE
  8
0
 10
-243.000000
 20
10.000001
 11
-243.250000
 21
8.000001
  0
LINE
  8
0
 10
-249.041458
 20
22.802929
 11
-249.041458
 21
20.197071
  0
LINE
  8
0
 10
-247.020721
 20
22.802925
 11
-247.020721
 21
20.197075
  0
LINE
  8
0
 10
-242.979279
 20
22.802929
 11
-242.979279
 21
20.191448
  0
LINE
  8
0
 10
-240.958542
 20
22.802929
 11
-240.958542
 21
20.197071
  0
LINE
  8
0
 10
-248.500000
 20
23.000000
 11
-241.500000
 21
23.000000
  0
LINE
  8
0
 10
-248.500000
 20
22.999987
 11
-249.041458
 21
22.802916
  0
LINE
  8
0
 10
-241.500000
 20
19.999990
 11
-240.958527
 21
20.197067
  0
LINE
  8
0
 10
-241.500000
 20
23.000004
 11
-240.958542
 21
22.802931
  0
LINE
  8
0
 10
-248.500000
 20
20.000000
 11
-249.041473
 21
20.197077
  0
LINE
  8
0
 10
-247.500000
 20
18.000000
 11
-247.500000
 21
10.000000
  0
LINE
  8
0
 10
-242.500000
 20
18.000000
 11
-242.500000
 21
10.000000
  0
LINE
  8
0
 10
-250.000000
 20
20.000000
 11
-200.000000
 21
20.000000
  0
LINE
  8
0
 10
-250.000000
 20
18.000000
 11
-200.000000
 21
18.000000
  0
LINE
  8
0
 10
-250.000000
 20
20.000000
 11
-250.000000
 21
18.000000
  0
LINE
  8
0
 10
-200.000000
 20
20.000000
 11
-200.000000
 21
18.000000
  0
LINE
  8
0
 10
-242.000000
 20
7.459999
 11
-242.000000
 21
5.000000
  0
LINE
  8
0
 10
-248.000000
 20
7.459999
 11
-248.000000
 21
5.000000
  0
LINE
  8
0
 10
-248.000000
 20
5.000000
 11
-242.000000
 21
5.000000
  0
LINE
  8
0
 10
-247.460007
 20
8.000000
 11
-242.539993
 21
8.000000
  0
LINE
  8
0
 10
-249.000000
 20
2.500000
 11
-241.000000
 21
2.500000
  0
LINE
  8
0
 10
-248.999985
 20
2.500017
 11
-249.169983
 21
2.750015
  0
LINE
  8
0
 10
-240.829956
 20
2.749994
 11
-240.999969
 21
2.499989
  0
LINE
  8
0
 10
-249.170013
 20
2.749998
 11
-247.460022
 21
4.459997
  0
LINE
  8
0
 10
-240.829987
 20
2.750021
 11
-242.539978
 21
4.460019
  0
LINE
  8
0
 10
-247.459991
 20
4.460000
 11
-247.999985
 21
4.999997
  0
LINE
  8
0
 10
-242.540009
 20
4.460022
 11
-242.000015
 21
5.000019
  0
LINE
  8
0
 10
-247.460007
 20
4.460000
 11
-242.539993
 21
4.460000
  0
LINE
  8
0
 10
-247.459976
 20
7.999982
 11
-247.999969
 21
7.459985
  0
LINE
  8
0
 10
-242.000015
 20
7.459987
 11
-242.540024
 21
7.999985
  0
LINE
  8
0
 10
-249.169998
 20
2.750000
 11
-240.830002
 21
2.750000
  0
LINE
  8
0
 10
-248.000000
 20
7.459999
 11
-242.000000
 21
7.459999
  0
ARC
  8
0
 10
-247.015594
 20
32.599998
 40
0.400002
 50
90.000000
 51
176.999847
  0
ARC
  8
0
 10
-242.984406
 20
32.599998
 40
0.399993
 50
3.000151
 51
90.000000
  0
ARC
  8
0
 10
-241.500015
 20
17.349606
 40
5.650394
 50
90.000000
 51
105.176796
  0
ARC
  8
0
 10
-245.000000
 20
12.541412
 40
10.458585
 50
78.859726
 51
101.072128
  0
ARC
  8
0
 10
-248.500565
 20
17.184872
 40
5.815127
 50
75.132721
 51
89.994286
  0
ARC
  8
0
 10
-248.499985
 20
25.650394
 40
5.650394
 50
269.999847
 51
285.176788
  0
ARC
  8
0
 10
-245.000000
 20
30.458588
 40
10.458585
 50
258.859711
 51
281.072113
  0
ARC
  8
0
 10
-241.499435
 20
25.815128
 40
5.815127
 50
255.132721
 51
269.994293
  0
POINT
  8
0
 10
-245.000000
 20
65.000000
  0
POINT
  8
0
 10
-200.000000
 20
65.000000
  0
LINE
  8
0
 10
-250.906342
 20
65.000000
 11
-198.399994
 21
65.000000
  0
LINE
  8
0
 10
-245.000000
 20
71.133331
 11
-245.000000
 21
57.756638
  0
LINE
  8
0
 10
-247.020721
 20
61.500000
 11
-242.979279
 21
61.500000
  0
LINE
  8
0
 10
-247.020721
 20
68.500000
 11
-242.979279
 21
68.500000
  0
LINE
  8
0
 10
-242.979279
 20
61.500008
 11
-240.958542
 21
65.000008
  0
LINE
  8
0
 10
-249.041458
 20
65.000008
 11
-247.020721
 21
68.500008
  0
LINE
  8
0
 10
-242.979279
 20
68.500008
 11
-240.958557
 21
65.000000
  0
LINE
  8
0
 10
-249.041458
 20
65.000008
 11
-247.020737
 21
61.500000
  0
LINE
  8
0
 10
-200.000000
 20
70.000000
 11
-200.000000
 21
60.000000
  0
LINE
  8
0
 10
-245.000000
 20
60.000000
 11
-200.000000
 21
60.000000
  0
LINE
  8
0
 10
-245.000000
 20
70.000000
 11
-200.000000
 21
70.000000
  0
LINE
  8
0
 10
-207.500000
 20
68.466660
 11
-207.500000
 21
60.999996
  0
LINE
  8
0
 10
-215.000000
 20
68.599998
 11
-215.000000
 21
60.999996
  0
LINE
  8
0
 10
-225.000000
 20
68.733337
 11
-225.000000
 21
61.133331
  0
LINE
  8
0
 10
-232.500000
 20
68.599998
 11
-232.500000
 21
60.733330
  0
LINE
  8
0
 10
-215.000000
 20
67.599998
 11
-207.500000
 21
67.599998
  0
LINE
  8
0
 10
-215.000000
 20
62.400002
 11
-207.500000
 21
62.400002
  0
LINE
  8
0
 10
-232.500000
 20
67.599998
 11
-225.000000
 21
67.599998
  0
LINE
  8
0
 10
-232.500000
 20
62.400002
 11
-225.000000
 21
62.400002
  0
CIRCLE
  8
0
 10
-245.000000
 20
65.000000
 40
2.500000
  0
CIRCLE
  8
0
 10
-245.000000
 20
65.000000
 40
2.250000
  0
CIRCLE
  8
0
 10
-245.000000
 20
65.000000
 40
3.500000
  0
ARC
  8
0
 10
-245.000000
 20
65.000000
 40
5.000000
 50
90.000000
 51
270.000000
  0
ARC
  8
0
 10
-207.500000
 20
65.000000
 40
2.600006
 50
0.000000
 51
90.000000
  0
ARC
  8
0
 10
-215.000000
 20
65.000000
 40
2.599998
 50
90.000000
 51
270.000000
  0
ARC
  8
0
 10
-207.500000
 20
65.000000
 40
2.599998
 50
270.000000
 51
0.000000
  0
ARC
  8
0
 10
-225.000000
 20
65.000000
 40
2.600006
 50
0.000000
 51
90.000000
  0
ARC
  8
0
 10
-232.500000
 20
65.000000
 40
2.599998
 50
90.000000
 51
270.000000
  0
ARC
  8
0
 10
-225.000000
 20
65.000000
 40
2.599998
 50
270.000000
 51
0.000000
  0
CIRCLE
  8
0
 10
-245.000000
 20
65.000000
 40
1.150000
  0
POINT
  8
0
 10
-110.000000
 20
20.000000
  0
POINT
  8
0
 10
-104.226494
 20
20.000000
  0
LINE
  8
0
 10
-114.000000
 20
29.000000
 11
-106.000000
 21
29.000000
  0
LINE
  8
0
 10
-112.041801
 20
39.000000
 11
-107.958199
 21
39.000000
  0
LINE
  8
0
 10
-107.500000
 20
33.000000
 11
-107.500000
 21
29.000000
  0
LINE
  8
0
 10
-112.500000
 20
33.000000
 11
-112.500000
 21
29.000000
  0
LINE
  8
0
 10
-106.000000
 20
29.000000
 11
-106.000000
 21
23.000000
  0
LINE
  8
0
 10
-114.000000
 20
29.000000
 11
-114.000000
 21
23.000000
  0
LINE
  8
0
 10
-115.000000
 20
6.000001
 11
-105.000000
 21
6.000001
  0
LINE
  8
0
 10
-115.000000
 20
10.000000
 11
-105.000000
 21
10.000000
  0
LINE
  8
0
 10
-105.000000
 20
10.000000
 11
-105.000000
 21
6.000001
  0
LINE
  8
0
 10
-115.000000
 20
10.000000
 11
-115.000000
 21
6.000001
  0
LINE
  8
0
 10
-105.500000
 20
6.000001
 11
-105.500000
 21
4.000001
  0
LINE
  8
0
 10
-114.500000
 20
6.000001
 11
-114.500000
 21
4.000001
  0
LINE
  8
0
 10
-114.000000
 20
12.000000
 11
-106.000000
 21
12.000000
  0
LINE
  8
0
 10
-112.500000
 20
37.500000
 11
-107.500000
 21
37.500000
  0
LINE
  8
0
 10
-112.500000
 20
36.000000
 11
-107.500000
 21
36.000000
  0
LINE
  8
0
 10
-112.500000
 20
34.500000
 11
-107.500000
 21
34.500000
  0
LINE
  8
0
 10
-112.500000
 20
33.000000
 11
-107.500000
 21
33.000000
  0
LINE
  8
0
 10
-107.500015
 20
37.500000
 11
-107.558754
 21
38.620934
  0
LINE
  8
0
 10
-112.499985
 20
37.500000
 11
-112.441238
 21
38.620934
  0
LINE
  8
0
 10
-107.500000
 20
36.000008
 11
-108.045952
 21
37.500000
  0
LINE
  8
0
 10
-107.500000
 20
34.500008
 11
-108.045959
 21
36.000008
  0
LINE
  8
0
 10
-107.499992
 20
32.999992
 11
-108.045952
 21
34.499996
  0
LINE
  8
0
 10
-112.500000
 20
36.000000
 11
-111.954041
 21
37.500004
  0
LINE
  8
0
 10
-112.499992
 20
34.500000
 11
-111.954041
 21
36.000000
  0
LINE
  8
0
 10
-112.500000
 20
33.000004
 11
-111.954048
 21
34.500000
  0
LINE
  8
0
 10
-114.000000
 20
17.000000
 11
-114.000000
 21
10.000000
  0
LINE
  8
0
 10
-106.000000
 20
17.000000
 11
-106.000000
 21
10.000000
  0
LINE
  8
0
 10
-115.000008
 20
20.000000
 11
-104.999992
 21
20.000000
  0
LINE
  8
0
 10
-115.000008
 20
20.000000
 11
-104.999992
 21
20.000000
  0
LINE
  8
0
 10
-115.000000
 20
23.000000
 11
-105.000000
 21
23.000000
  0
LINE
  8
0
 10
-115.773506
 20
22.718468
 11
-115.773506
 21
20.281532
  0
LINE
  8
0
 10
-112.886749
 20
22.718468
 11
-112.886749
 21
20.281532
  0
LINE
  8
0
 10
-107.113251
 20
22.718468
 11
-107.113251
 21
20.281532
  0
LINE
  8
0
 10
-104.226494
 20
22.718468
 11
-104.226494
 21
20.281532
  0
LINE
  8
0
 10
-115.000000
 20
22.999998
 11
-115.773499
 21
22.718466
  0
LINE
  8
0
 10
-104.999992
 20
20.000004
 11
-104.226494
 21
20.281534
  0
LINE
  8
0
 10
-105.000000
 20
23.000002
 11
-104.226501
 21
22.718472
  0
LINE
  8
0
 10
-115.000000
 20
20.000002
 11
-115.773499
 21
20.281534
  0
LINE
  8
0
 10
-115.000008
 20
17.000000
 11
-104.999992
 21
17.000000
  0
LINE
  8
0
 10
-115.000008
 20
17.000000
 11
-104.999992
 21
17.000000
  0
LINE
  8
0
 10
-115.773506
 20
19.718468
 11
-115.773506
 21
17.281532
  0
LINE
  8
0
 10
-112.886749
 20
19.718468
 11
-112.886749
 21
17.281532
  0
LINE
  8
0
 10
-107.113251
 20
19.718468
 11
-107.113251
 21
17.281532
  0
LINE
  8
0
 10
-104.226494
 20
19.718468
 11
-104.226494
 21
17.281532
  0
LINE
  8
0
 10
-115.000000
 20
20.000002
 11
-115.773506
 21
19.718470
  0
LINE
  8
0
 10
-105.000000
 20
16.999998
 11
-104.226501
 21
17.281528
  0
LINE
  8
0
 10
-105.000008
 20
20.000006
 11
-104.226501
 21
19.718473
  0
LINE
  8
0
 10
-115.000000
 20
17.000002
 11
-115.773499
 21
17.281534
  0
LINE
  8
0
 10
-114.000008
 20
12.000007
 11
-113.375008
 21
13.082539
  0
LINE
  8
0
 10
-106.000015
 20
11.999997
 11
-106.625015
 21
13.082529
  0
LINE
  8
0
 10
-106.625000
 20
29.000000
 11
-106.625000
 21
23.000000
  0
LINE
  8
0
 10
-113.379997
 20
29.000000
 11
-113.379997
 21
23.000000
  0
LINE
  8
0
 10
-113.375000
 20
17.000000
 11
-113.375000
 21
13.082531
  0
LINE
  8
0
 10
-106.625000
 20
17.000000
 11
-106.625000
 21
13.082533
  0
LINE
  8
0
 10
-114.000000
 20
13.082531
 11
-106.000000
 21
13.082531
  0
LINE
  8
0
 10
-110.000000
 20
9.200001
 11
-110.000000
 21
6.800001
  0
LINE
  8
0
 10
-110.000000
 20
41.333332
 11
-110.000000
 21
-5.292603
  0
LINE
  8
0
 10
-105.000000
 20
3.500000
 11
-105.000000
 21
0.400002
  0
LINE
  8
0
 10
-115.000000
 20
3.500000
 11
-115.000000
 21
0.400002
  0
LINE
  8
0
 10
-106.000000
 20
-1.299999
 11
-106.000000
 21
-1.926762
  0
LINE
  8
0
 10
-114.000000
 20
-1.299999
 11
-114.000000
 21
-1.926762
  0
LINE
  8
0
 10
-114.500000
 20
4.000001
 11
-105.500000
 21
4.000001
  0
LINE
  8
0
 10
-115.000000
 20
-4.000000
 11
-105.000000
 21
-4.000000
  0
LINE
  8
0
 10
-115.000000
 20
0.400002
 11
-105.000000
 21
0.400002
  0
LINE
  8
0
 10
-114.000000
 20
-1.299999
 11
-106.000000
 21
-1.299999
  0
LINE
  8
0
 10
-114.999992
 20
-3.999998
 11
-115.209991
 21
-3.789995
  0
LINE
  8
0
 10
-105.000015
 20
-3.999994
 11
-104.790009
 21
-3.789991
  0
LINE
  8
0
 10
-104.789993
 20
-3.789999
 11
-106.000000
 21
-1.926760
  0
LINE
  8
0
 10
-115.209999
 20
-3.790001
 11
-114.000000
 21
-1.926767
  0
LINE
  8
0
 10
-114.999985
 20
0.400007
 11
-113.999992
 21
-1.299990
  0
LINE
  8
0
 10
-105.000000
 20
0.400000
 11
-106.000000
 21
-1.300001
  0
LINE
  8
0
 10
-106.000000
 20
-1.926762
 11
-114.000000
 21
-1.926762
  0
LINE
  8
0
 10
-114.999985
 20
3.499989
 11
-114.499985
 21
3.999989
  0
LINE
  8
0
 10
-105.000000
 20
3.500017
 11
-105.500000
 21
4.000019
  0
LINE
  8
0
 10
-115.000000
 20
3.500000
 11
-105.000000
 21
3.500000
  0
LINE
  8
0
 10
-115.209999
 20
-3.789999
 11
-104.790001
 21
-3.789999
  0
ARC
  8
0
 10
-112.041801
 20
38.599998
 40
0.400002
 50
90.000000
 51
176.999908
  0
ARC
  8
0
 10
-107.958199
 20
38.599998
 40
0.400000
 50
3.000094
 51
90.000000
  0
ARC
  8
0
 10
-110.000000
 20
8.059277
 40
14.940723
 50
78.859619
 51
101.140411
  0
ARC
  8
0
 10
-110.000000
 20
34.940723
 40
14.940722
 50
258.859589
 51
281.140381
  0
ARC
  8
0
 10
-105.000366
 20
14.930687
 40
8.069313
 50
89.997398
 51
105.179436
  0
ARC
  8
0
 10
-114.999634
 20
14.930687
 40
8.069313
 50
74.820618
 51
90.002602
  0
ARC
  8
0
 10
-114.999634
 20
28.069313
 40
8.069313
 50
269.997345
 51
285.179382
  0
ARC
  8
0
 10
-105.000366
 20
28.069313
 40
8.069313
 50
254.820618
 51
270.002594
  0
ARC
  8
0
 10
-105.000366
 20
25.069313
 40
8.069313
 50
254.820618
 51
270.002594
  0
ARC
  8
0
 10
-114.999634
 20
25.069313
 40
8.069313
 50
269.997345
 51
285.179382
  0
ARC
  8
0
 10
-110.000000
 20
5.059278
 40
14.940722
 50
78.859619
 51
101.140411
  0
ARC
  8
0
 10
-110.000000
 20
31.940723
 40
14.940722
 50
258.859589
 51
281.140381
  0
ARC
  8
0
 10
-105.000366
 20
11.930687
 40
8.069313
 50
89.997398
 51
105.179436
  0
ARC
  8
0
 10
-114.999634
 20
11.930687
 40
8.069313
 50
74.820618
 51
90.002602
  0
POLYLINE
  8
0
 66
     1
  0
VERTEX
  8
0
 10
-115.000000
 20
9.200001
  0
VERTEX
  8
0
 10
-114.220207
 20
9.617030
  0
VERTEX
  8
0
 10
-113.376167
 20
9.897404
  0
VERTEX
  8
0
 10
-112.500000
 20
10.000000
  0
VERTEX
  8
0
 10
-111.623833
 20
9.897404
  0
VERTEX
  8
0
 10
-110.779793
 20
9.617030
  0
VERTEX
  8
0
 10
-110.000000
 20
9.200001
  0
SEQEND
  0
POLYLINE
  8
0
 66
     1
  0
VERTEX
  8
0
 10
-110.000000
 20
9.200001
  0
VERTEX
  8
0
 10
-109.220207
 20
9.617030
  0
VERTEX
  8
0
 10
-108.376167
 20
9.897404
  0
VERTEX
  8
0
 10
-107.500000
 20
10.000000
  0
VERTEX
  8
0
 10
-106.623833
 20
9.897404
  0
VERTEX
  8
0
 10
-105.779793
 20
9.617030
  0
VERTEX
  8
0
 10
-105.000000
 20
9.200001
  0
SEQEND
  0
POLYLINE
  8
0
 66
     1
  0
VERTEX
  8
0
 10
-115.000000
 20
6.800001
  0
VERTEX
  8
0
 10
-114.220207
 20
6.382971
  0
VERTEX
  8
0
 10
-113.376167
 20
6.102597
  0
VERTEX
  8
0
 10
-112.500000
 20
6.000001
  0
VERTEX
  8
0
 10
-111.623833
 20
6.102597
  0
VERTEX
  8
0
 10
-110.779793
 20
6.382971
  0
VERTEX
  8
0
 10
-110.000000
 20
6.800001
  0
SEQEND
  0
POLYLINE
  8
0
 66
     1
  0
VERTEX
  8
0
 10
-110.000000
 20
6.800001
  0
VERTEX
  8
0
 10
-109.220207
 20
6.382971
  0
VERTEX
  8
0
 10
-108.376167
 20
6.102597
  0
VERTEX
  8
0
 10
-107.500000
 20
6.000001
  0
VERTEX
  8
0
 10
-106.623833
 20
6.102597
  0
VERTEX
  8
0
 10
-105.779793
 20
6.382971
  0
VERTEX
  8
0
 10
-105.000000
 20
6.800001
  0
SEQEND
  0
POINT
  8
0
 10
-104.226494
 20
65.000000
  0
POINT
  8
0
 10
-110.000000
 20
65.000000
  0
LINE
  8
0
 10
-110.000000
 20
72.489487
 11
-110.000000
 21
56.489487
  0
LINE
  8
0
 10
-112.886749
 20
59.999996
 11
-107.113251
 21
59.999996
  0
LINE
  8
0
 10
-112.886749
 20
70.000000
 11
-107.113251
 21
70.000000
  0
LINE
  8
0
 10
-107.113266
 20
60.000000
 11
-104.226509
 21
65.000008
  0
LINE
  8
0
 10
-115.773521
 20
65.000000
 11
-112.886765
 21
70.000000
  0
LINE
  8
0
 10
-107.113243
 20
69.999992
 11
-104.226494
 21
64.999992
  0
LINE
  8
0
 10
-115.773499
 20
64.999992
 11
-112.886749
 21
59.999992
  0
LINE
  8
0
 10
-117.166664
 20
65.000000
 11
-102.166664
 21
65.000000
  0
CIRCLE
  8
0
 10
-110.000000
 20
65.000000
 40
5.000000
  0
CIRCLE
  8
0
 10
-110.000000
 20
65.000000
 40
1.150000
  0
CIRCLE
  8
0
 10
-110.000000
 20
65.000000
 40
2.500000
  0
CIRCLE
  8
0
 10
-110.000000
 20
65.000000
 40
4.000000
  0
CIRCLE
  8
0
 10
-110.000000
 20
65.000000
 40
3.375000
  0
ARC
  8
0
 10
-110.000000
 20
65.000000
 40
5.210000
 50
133.677338
 51
166.322723
  0
ARC
  8
0
 10
-110.000000
 20
65.000000
 40
5.209999
 50
73.677101
 51
106.322975
  0
ARC
  8
0
 10
-110.000000
 20
65.000000
 40
5.210001
 50
253.677017
 51
286.322906
  0
ARC
  8
0
 10
-110.000000
 20
65.000000
 40
5.209996
 50
193.676926
 51
226.323013
  0
ARC
  8
0
 10
-110.000000
 20
65.000000
 40
5.210001
 50
313.676971
 51
346.323029
  0
ARC
  8
0
 10
-110.000000
 20
65.000000
 40
5.209996
 50
13.677279
 51
46.322659
  0
POINT
  8
0
 10
0.000000
 20
20.000000
  0
POINT
  8
0
 10
5.773503
 20
20.000000
  0
LINE
  8
0
 10
-4.000000
 20
29.000000
 11
4.000000
 21
29.000000
  0
LINE
  8
0
 10
-2.041802
 20
39.000000
 11
2.041803
 21
39.000000
  0
LINE
  8
0
 10
2.500000
 20
33.000000
 11
2.500000
 21
29.000000
  0
LINE
  8
0
 10
-2.500000
 20
33.000000
 11
-2.500000
 21
29.000000
  0
LINE
  8
0
 10
4.000000
 20
29.000000
 11
4.000000
 21
23.000000
  0
LINE
  8
0
 10
-4.000000
 20
29.000000
 11
-4.000000
 21
23.000000
  0
LINE
  8
0
 10
-5.000000
 20
6.000002
 11
5.000000
 21
6.000002
  0
LINE
  8
0
 10
-5.000000
 20
10.000002
 11
5.000000
 21
10.000002
  0
LINE
  8
0
 10
5.000000
 20
10.000002
 11
5.000000
 21
6.000002
  0
LINE
  8
0
 10
-5.000000
 20
10.000002
 11
-5.000000
 21
6.000002
  0
LINE
  8
0
 10
4.500000
 20
6.000002
 11
4.500000
 21
4.000002
  0
LINE
  8
0
 10
-4.500000
 20
6.000002
 11
-4.500000
 21
4.000002
  0
LINE
  8
0
 10
-4.000000
 20
12.000002
 11
4.000000
 21
12.000002
  0
LINE
  8
0
 10
-2.500000
 20
37.500000
 11
2.500000
 21
37.500000
  0
LINE
  8
0
 10
-2.500000
 20
36.000000
 11
2.500000
 21
36.000000
  0
LINE
  8
0
 10
-2.500000
 20
34.500000
 11
2.500000
 21
34.500000
  0
LINE
  8
0
 10
-2.500000
 20
33.000000
 11
2.500000
 21
33.000000
  0
LINE
  8
0
 10
2.500001
 20
37.500000
 11
2.441255
 21
38.620934
  0
LINE
  8
0
 10
-2.499999
 20
37.500004
 11
-2.441253
 21
38.620941
  0
LINE
  8
0
 10
2.499998
 20
36.000004
 11
1.954043
 21
37.500004
  0
LINE
  8
0
 10
2.499996
 20
34.500008
 11
1.954041
 21
36.000008
  0
LINE
  8
0
 10
2.500000
 20
33.000000
 11
1.954046
 21
34.500000
  0
LINE
  8
0
 10
-2.500000
 20
36.000004
 11
-1.954045
 21
37.500004
  0
LINE
  8
0
 10
-2.499999
 20
34.500004
 11
-1.954045
 21
36.000000
  0
LINE
  8
0
 10
-2.500000
 20
33.000004
 11
-1.954045
 21
34.500000
  0
LINE
  8
0
 10
-4.000000
 20
17.000002
 11
-4.000000
 21
10.000002
  0
LINE
  8
0
 10
4.000000
 20
17.000002
 11
4.000000
 21
10.000002
  0
LINE
  8
0
 10
-5.000005
 20
20.000000
 11
5.000006
 21
20.000000
  0
LINE
  8
0
 10
-5.000005
 20
20.000000
 11
5.000006
 21
20.000000
  0
LINE
  8
0
 10
-5.000002
 20
23.000000
 11
5.000003
 21
23.000000
  0
LINE
  8
0
 10
-5.773503
 20
22.718468
 11
-5.773503
 21
20.281532
  0
LINE
  8
0
 10
-2.886751
 20
22.718468
 11
-2.886751
 21
20.281532
  0
LINE
  8
0
 10
2.886751
 20
22.718468
 11
2.886751
 21
20.281532
  0
LINE
  8
0
 10
5.773503
 20
22.718468
 11
5.773503
 21
20.281532
  0
LINE
  8
0
 10
-5.000002
 20
22.999996
 11
-5.773503
 21
22.718466
  0
LINE
  8
0
 10
5.000005
 20
20.000002
 11
5.773503
 21
20.281532
  0
LINE
  8
0
 10
5.000003
 20
23.000002
 11
5.773504
 21
22.718470
  0
LINE
  8
0
 10
-5.000005
 20
19.999998
 11
-5.773503
 21
20.281528
  0
LINE
  8
0
 10
-5.000005
 20
17.000002
 11
5.000006
 21
17.000002
  0
LINE
  8
0
 10
-5.000005
 20
17.000002
 11
5.000006
 21
17.000002
  0
LINE
  8
0
 10
-5.773503
 20
19.718468
 11
-5.773503
 21
17.281534
  0
LINE
  8
0
 10
-2.886751
 20
19.718468
 11
-2.886751
 21
17.281534
  0
LINE
  8
0
 10
2.886751
 20
19.718468
 11
2.886751
 21
17.281534
  0
LINE
  8
0
 10
5.773503
 20
19.718468
 11
5.773503
 21
17.281534
  0
LINE
  8
0
 10
-5.000002
 20
20.000000
 11
-5.773503
 21
19.718468
  0
LINE
  8
0
 10
5.000005
 20
17.000000
 11
5.773503
 21
17.281530
  0
LINE
  8
0
 10
5.000003
 20
20.000002
 11
5.773505
 21
19.718470
  0
LINE
  8
0
 10
-5.000005
 20
16.999998
 11
-5.773503
 21
17.281528
  0
LINE
  8
0
 10
-4.000001
 20
12.000004
 11
-3.375002
 21
13.082535
  0
LINE
  8
0
 10
4.000002
 20
12.000006
 11
3.375002
 21
13.082537
  0
LINE
  8
0
 10
3.375000
 20
29.000000
 11
3.375000
 21
23.000000
  0
LINE
  8
0
 10
-3.380000
 20
29.000000
 11
-3.380000
 21
23.000000
  0
LINE
  8
0
 10
-3.375000
 20
17.000002
 11
-3.375000
 21
13.082533
  0
LINE
  8
0
 10
3.375000
 20
17.000002
 11
3.375000
 21
13.082535
  0
LINE
  8
0
 10
-4.000000
 20
13.082533
 11
4.000000
 21
13.082533
  0
LINE
  8
0
 10
0.000000
 20
9.200001
 11
0.000000
 21
6.800003
  0
LINE
  8
0
 10
0.000000
 20
41.333336
 11
0.000000
 21
-4.978367
  0
LINE
  8
0
 10
-5.500000
 20
3.000002
 11
-5.500000
 21
0.000002
  0
LINE
  8
0
 10
5.500000
 20
3.000002
 11
5.500000
 21
0.000002
  0
LINE
  8
0
 10
5.000000
 20
-0.899998
 11
5.000000
 21
-1.378105
  0
LINE
  8
0
 10
-5.000000
 20
-0.899998
 11
-5.000000
 21
-1.378107
  0
LINE
  8
0
 10
-5.500000
 20
0.000002
 11
5.500000
 21
0.000002
  0
LINE
  8
0
 10
-7.500000
 20
-3.999998
 11
7.500000
 21
-3.999998
  0
LINE
  8
0
 10
-4.500000
 20
4.000002
 11
4.500001
 21
4.000002
  0
LINE
  8
0
 10
-5.000000
 20
-0.899998
 11
5.000000
 21
-0.899998
  0
LINE
  8
0
 10
-5.499999
 20
0.000006
 11
-4.999999
 21
-0.899994
  0
LINE
  8
0
 10
4.999999
 20
-0.899998
 11
5.499998
 21
0.000002
  0
LINE
  8
0
 10
-4.499998
 20
4.000001
 11
-5.499998
 21
3.000002
  0
LINE
  8
0
 10
5.500002
 20
3.000002
 11
4.500002
 21
4.000001
  0
LINE
  8
0
 10
-7.499999
 20
-3.999996
 11
-7.784998
 21
-3.714998
  0
LINE
  8
0
 10
7.500001
 20
-4.000004
 11
7.785001
 21
-3.715004
  0
LINE
  8
0
 10
-7.784999
 20
-3.715000
 11
-4.999999
 21
-1.378107
  0
LINE
  8
0
 10
7.785000
 20
-3.714998
 11
5.000000
 21
-1.378105
  0
LINE
  8
0
 10
-5.000000
 20
-1.378105
 11
5.000000
 21
-1.378105
  0
LINE
  8
0
 10
-7.785000
 20
-3.714998
 11
7.785000
 21
-3.714998
  0
LINE
  8
0
 10
-5.500000
 20
3.000002
 11
5.500000
 21
3.000002
  0
ARC
  8
0
 10
-2.041802
 20
38.599998
 40
0.400002
 50
89.999969
 51
176.999908
  0
ARC
  8
0
 10
2.041803
 20
38.599998
 40
0.400000
 50
3.000097
 51
89.999969
  0
ARC
  8
0
 10
0.000000
 20
8.059278
 40
14.940723
 50
78.859619
 51
101.140404
  0
ARC
  8
0
 10
0.000000
 20
34.940727
 40
14.940722
 50
258.859589
 51
281.140381
  0
ARC
  8
0
 10
4.999637
 20
14.930689
 40
8.069313
 50
89.997406
 51
105.179413
  0
ARC
  8
0
 10
-4.999636
 20
14.930689
 40
8.069313
 50
74.820610
 51
90.002609
  0
ARC
  8
0
 10
-4.999636
 20
28.069313
 40
8.069313
 50
269.997375
 51
285.179382
  0
ARC
  8
0
 10
4.999637
 20
28.069313
 40
8.069314
 50
254.820587
 51
270.002625
  0
ARC
  8
0
 10
4.999637
 20
25.069313
 40
8.069314
 50
254.820587
 51
270.002625
  0
ARC
  8
0
 10
-4.999636
 20
25.069313
 40
8.069313
 50
269.997375
 51
285.179382
  0
ARC
  8
0
 10
0.000000
 20
5.059278
 40
14.940723
 50
78.859619
 51
101.140404
  0
ARC
  8
0
 10
0.000000
 20
31.940727
 40
14.940722
 50
258.859589
 51
281.140381
  0
ARC
  8
0
 10
4.999637
 20
11.930689
 40
8.069313
 50
89.997406
 51
105.179413
  0
ARC
  8
0
 10
-4.999636
 20
11.930689
 40
8.069313
 50
74.820610
 51
90.002609
  0
POLYLINE
  8
0
 66
     1
  0
VERTEX
  8
0
 10
-5.000000
 20
9.200001
  0
VERTEX
  8
0
 10
-4.220211
 20
9.617031
  0
VERTEX
  8
0
 10
-3.376168
 20
9.897406
  0
VERTEX
  8
0
 10
-2.500000
 20
10.000002
  0
VERTEX
  8
0
 10
-1.623831
 20
9.897406
  0
VERTEX
  8
0
 10
-0.779789
 20
9.617031
  0
VERTEX
  8
0
 10
0.000000
 20
9.200001
  0
SEQEND
  0
POLYLINE
  8
0
 66
     1
  0
VERTEX
  8
0
 10
0.000000
 20
9.200001
  0
VERTEX
  8
0
 10
0.779789
 20
9.617031
  0
VERTEX
  8
0
 10
1.623831
 20
9.897406
  0
VERTEX
  8
0
 10
2.500000
 20
10.000002
  0
VERTEX
  8
0
 10
3.376168
 20
9.897406
  0
VERTEX
  8
0
 10
4.220211
 20
9.617031
  0
VERTEX
  8
0
 10
5.000000
 20
9.200001
  0
SEQEND
  0
POLYLINE
  8
0
 66
     1
  0
VERTEX
  8
0
 10
-5.000000
 20
6.800003
  0
VERTEX
  8
0
 10
-4.220211
 20
6.382973
  0
VERTEX
  8
0
 10
-3.376168
 20
6.102598
  0
VERTEX
  8
0
 10
-2.500000
 20
6.000002
  0
VERTEX
  8
0
 10
-1.623831
 20
6.102598
  0
VERTEX
  8
0
 10
-0.779789
 20
6.382973
  0
VERTEX
  8
0
 10
0.000000
 20
6.800003
  0
SEQEND
  0
POLYLINE
  8
0
 66
     1
  0
VERTEX
  8
0
 10
0.000000
 20
6.800003
  0
VERTEX
  8
0
 10
0.779789
 20
6.382973
  0
VERTEX
  8
0
 10
1.623831
 20
6.102598
  0
VERTEX
  8
0
 10
2.500000
 20
6.000002
  0
VERTEX
  8
0
 10
3.376168
 20
6.102598
  0
VERTEX
  8
0
 10
4.220211
 20
6.382973
  0
VERTEX
  8
0
 10
5.000000
 20
6.800003
  0
SEQEND
  0
POINT
  8
0
 10
0.000000
 20
65.000000
  0
POINT
  8
0
 10
5.773515
 20
65.000000
  0
LINE
  8
0
 10
0.000000
 20
73.905029
 11
0.000000
 21
56.489494
  0
LINE
  8
0
 10
-2.886751
 20
60.000000
 11
2.886751
 21
60.000000
  0
LINE
  8
0
 10
-2.886751
 20
70.000000
 11
2.886751
 21
70.000000
  0
LINE
  8
0
 10
2.886745
 20
60.000008
 11
5.773500
 21
65.000015
  0
LINE
  8
0
 10
-5.773510
 20
65.000000
 11
-2.886757
 21
70.000008
  0
LINE
  8
0
 10
2.886759
 20
70.000008
 11
5.773514
 21
65.000008
  0
LINE
  8
0
 10
-5.773499
 20
65.000008
 11
-2.886744
 21
60.000000
  0
LINE
  8
0
 10
-8.747787
 20
65.000000
 11
8.752213
 21
65.000000
  0
CIRCLE
  8
0
 10
0.000000
 20
65.000000
 40
5.000000
  0
CIRCLE
  8
0
 10
0.000000
 20
65.000000
 40
1.150000
  0
CIRCLE
  8
0
 10
0.000000
 20
65.000000
 40
2.500000
  0
CIRCLE
  8
0
 10
0.000000
 20
65.000000
 40
4.000000
  0
CIRCLE
  8
0
 10
0.000000
 20
65.000000
 40
3.375000
  0
ARC
  8
0
 10
0.000000
 20
65.000000
 40
5.500000
 50
5.380177
 51
54.619839
  0
CIRCLE
  8
0
 10
0.000000
 20
65.000000
 40
7.785000
  0
ARC
  8
0
 10
0.000000
 20
65.000000
 40
5.500000
 50
65.380028
 51
114.619995
  0
ARC
  8
0
 10
0.000000
 20
65.000000
 40
5.500001
 50
125.380173
 51
174.619827
  0
ARC
  8
0
 10
0.000000
 20
65.000000
 40
5.500000
 50
185.379944
 51
234.620010
  0
ARC
  8
0
 10
0.000000
 20
65.000000
 40
5.500001
 50
245.380005
 51
294.619965
  0
ARC
  8
0
 10
0.000000
 20
65.000000
 40
5.500000
 50
305.379944
 51
354.619995
  0
POINT
  8
0
 10
115.000000
 20
20.000000
  0
POINT
  8
0
 10
120.773506
 20
20.000000
  0
LINE
  8
0
 10
111.000000
 20
29.000000
 11
119.000000
 21
29.000000
  0
LINE
  8
0
 10
112.958199
 20
39.000000
 11
117.041801
 21
39.000000
  0
LINE
  8
0
 10
117.500000
 20
33.000000
 11
117.500000
 21
29.000000
  0
LINE
  8
0
 10
112.500000
 20
33.000000
 11
112.500000
 21
29.000000
  0
LINE
  8
0
 10
119.000000
 20
29.000000
 11
119.000000
 21
23.000000
  0
LINE
  8
0
 10
111.000000
 20
29.000000
 11
111.000000
 21
23.000000
  0
LINE
  8
0
 10
110.000000
 20
6.000002
 11
120.000000
 21
6.000002
  0
LINE
  8
0
 10
110.000000
 20
10.000002
 11
120.000000
 21
10.000002
  0
LINE
  8
0
 10
120.000000
 20
10.000002
 11
120.000000
 21
6.000002
  0
LINE
  8
0
 10
110.000000
 20
10.000002
 11
110.000000
 21
6.000002
  0
LINE
  8
0
 10
119.500000
 20
6.000002
 11
119.500000
 21
4.000002
  0
LINE
  8
0
 10
110.500000
 20
6.000002
 11
110.500000
 21
4.000002
  0
LINE
  8
0
 10
111.000000
 20
12.000002
 11
119.000000
 21
12.000002
  0
LINE
  8
0
 10
112.500000
 20
37.500000
 11
117.500000
 21
37.500000
  0
LINE
  8
0
 10
112.500000
 20
36.000000
 11
117.500000
 21
36.000000
  0
LINE
  8
0
 10
112.500000
 20
34.500000
 11
117.500000
 21
34.500000
  0
LINE
  8
0
 10
112.500000
 20
33.000000
 11
117.500000
 21
33.000000
  0
LINE
  8
0
 10
117.500023
 20
37.500000
 11
117.441277
 21
38.620941
  0
LINE
  8
0
 10
112.499992
 20
37.500004
 11
112.558739
 21
38.620941
  0
LINE
  8
0
 10
117.499992
 20
36.000004
 11
116.954033
 21
37.500004
  0
LINE
  8
0
 10
117.500008
 20
34.500004
 11
116.954056
 21
36.000008
  0
LINE
  8
0
 10
117.500008
 20
33.000004
 11
116.954056
 21
34.500004
  0
LINE
  8
0
 10
112.499992
 20
36.000000
 11
113.045952
 21
37.500000
  0
LINE
  8
0
 10
112.500008
 20
34.500004
 11
113.045959
 21
36.000000
  0
LINE
  8
0
 10
112.500000
 20
33.000000
 11
113.045959
 21
34.500000
  0
LINE
  8
0
 10
111.000000
 20
17.000002
 11
111.000000
 21
10.000002
  0
LINE
  8
0
 10
119.000000
 20
17.000002
 11
119.000000
 21
10.000002
  0
LINE
  8
0
 10
109.999992
 20
20.000000
 11
120.000008
 21
20.000000
  0
LINE
  8
0
 10
109.999992
 20
20.000000
 11
120.000008
 21
20.000000
  0
LINE
  8
0
 10
110.000000
 20
23.000000
 11
120.000000
 21
23.000000
  0
LINE
  8
0
 10
109.226494
 20
22.718468
 11
109.226494
 21
20.281532
  0
LINE
  8
0
 10
112.113251
 20
22.718468
 11
112.113251
 21
20.281532
  0
LINE
  8
0
 10
117.886749
 20
22.718468
 11
117.886749
 21
20.281532
  0
LINE
  8
0
 10
120.773506
 20
22.718468
 11
120.773506
 21
20.281532
  0
LINE
  8
0
 10
110.000000
 20
23.000000
 11
109.226501
 21
22.718470
  0
LINE
  8
0
 10
120.000000
 20
19.999998
 11
120.773506
 21
20.281528
  0
LINE
  8
0
 10
120.000000
 20
23.000002
 11
120.773499
 21
22.718470
  0
LINE
  8
0
 10
109.999992
 20
19.999998
 11
109.226486
 21
20.281528
  0
LINE
  8
0
 10
109.999992
 20
17.000002
 11
120.000008
 21
17.000002
  0
LINE
  8
0
 10
109.999992
 20
17.000002
 11
120.000008
 21
17.000002
  0
LINE
  8
0
 10
109.226494
 20
19.718468
 11
109.226494
 21
17.281534
  0
LINE
  8
0
 10
112.113251
 20
19.718468
 11
112.113251
 21
17.281534
  0
LINE
  8
0
 10
117.886749
 20
19.718468
 11
117.886749
 21
17.281534
  0
LINE
  8
0
 10
120.773506
 20
19.718468
 11
120.773506
 21
17.281534
  0
LINE
  8
0
 10
110.000000
 20
20.000004
 11
109.226494
 21
19.718473
  0
LINE
  8
0
 10
120.000000
 20
16.999996
 11
120.773499
 21
17.281528
  0
LINE
  8
0
 10
120.000000
 20
19.999992
 11
120.773499
 21
19.718460
  0
LINE
  8
0
 10
110.000000
 20
16.999994
 11
109.226494
 21
17.281527
  0
LINE
  8
0
 10
111.000000
 20
11.999995
 11
111.625000
 21
13.082527
  0
LINE
  8
0
 10
119.000000
 20
12.000000
 11
118.375000
 21
13.082533
  0
LINE
  8
0
 10
118.375000
 20
29.000000
 11
118.375000
 21
23.000000
  0
LINE
  8
0
 10
111.620003
 20
29.000000
 11
111.620003
 21
23.000000
  0
LINE
  8
0
 10
111.625000
 20
17.000002
 11
111.625000
 21
13.082533
  0
LINE
  8
0
 10
118.375000
 20
17.000002
 11
118.375000
 21
13.082535
  0
LINE
  8
0
 10
111.000000
 20
13.082533
 11
119.000000
 21
13.082533
  0
LINE
  8
0
 10
115.000000
 20
9.200001
 11
115.000000
 21
6.800003
  0
LINE
  8
0
 10
115.000000
 20
41.333336
 11
115.000000
 21
-7.659290
  0
LINE
  8
0
 10
108.000000
 20
2.000002
 11
108.000000
 21
-1.999998
  0
LINE
  8
0
 10
122.000000
 20
2.000002
 11
122.000000
 21
-1.999998
  0
LINE
  8
0
 10
109.750000
 20
4.000002
 11
120.250000
 21
4.000002
  0
LINE
  8
0
 10
108.000000
 20
2.000002
 11
122.000000
 21
2.000002
  0
LINE
  8
0
 10
105.250000
 20
-5.999998
 11
124.750000
 21
-5.999998
  0
LINE
  8
0
 10
108.212692
 20
-3.399998
 11
121.787308
 21
-3.399998
  0
LINE
  8
0
 10
109.750000
 20
4.000002
 11
120.250000
 21
4.000002
  0
LINE
  8
0
 10
108.000000
 20
2.000002
 11
122.000000
 21
2.000002
  0
LINE
  8
0
 10
109.750008
 20
4.000005
 11
108.000008
 21
2.000002
  0
LINE
  8
0
 10
122.000000
 20
2.000004
 11
120.250000
 21
4.000006
  0
LINE
  8
0
 10
108.000000
 20
-1.999998
 11
122.000000
 21
-1.999998
  0
LINE
  8
0
 10
105.250000
 20
-5.999996
 11
105.000000
 21
-5.566984
  0
LINE
  8
0
 10
124.750015
 20
-6.000013
 11
125.000015
 21
-5.566999
  0
LINE
  8
0
 10
121.787315
 20
-3.399988
 11
125.000000
 21
-5.566977
  0
LINE
  8
0
 10
105.000000
 20
-5.566988
 11
108.212692
 21
-3.400000
  0
LINE
  8
0
 10
108.000015
 20
-1.999996
 11
108.212700
 21
-3.399998
  0
LINE
  8
0
 10
121.999992
 20
-1.999996
 11
121.787300
 21
-3.399996
  0
LINE
  8
0
 10
125.000000
 20
-5.566986
 11
105.000000
 21
-5.566986
  0
ARC
  8
0
 10
112.958199
 20
38.599998
 40
0.400002
 50
90.000000
 51
176.999908
  0
ARC
  8
0
 10
117.041801
 20
38.599998
 40
0.400000
 50
3.000094
 51
90.000000
  0
ARC
  8
0
 10
115.000000
 20
8.059278
 40
14.940723
 50
78.859619
 51
101.140411
  0
ARC
  8
0
 10
115.000000
 20
34.940727
 40
14.940722
 50
258.859589
 51
281.140381
  0
ARC
  8
0
 10
119.999634
 20
14.930689
 40
8.069313
 50
89.997398
 51
105.179436
  0
ARC
  8
0
 10
110.000366
 20
14.930689
 40
8.069313
 50
74.820618
 51
90.002602
  0
ARC
  8
0
 10
110.000366
 20
28.069313
 40
8.069313
 50
269.997345
 51
285.179382
  0
ARC
  8
0
 10
119.999634
 20
28.069313
 40
8.069313
 50
254.820618
 51
270.002594
  0
ARC
  8
0
 10
119.999634
 20
25.069313
 40
8.069313
 50
254.820618
 51
270.002594
  0
ARC
  8
0
 10
110.000366
 20
25.069313
 40
8.069313
 50
269.997345
 51
285.179382
  0
ARC
  8
0
 10
115.000000
 20
5.059278
 40
14.940723
 50
78.859619
 51
101.140411
  0
ARC
  8
0
 10
115.000000
 20
31.940727
 40
14.940722
 50
258.859589
 51
281.140381
  0
ARC
  8
0
 10
119.999634
 20
11.930689
 40
8.069313
 50
89.997398
 51
105.179436
  0
ARC
  8
0
 10
110.000366
 20
11.930689
 40
8.069313
 50
74.820618
 51
90.002602
  0
POLYLINE
  8
0
 66
     1
  0
VERTEX
  8
0
 10
110.000000
 20
9.200001
  0
VERTEX
  8
0
 10
110.779793
 20
9.617031
  0
VERTEX
  8
0
 10
111.623833
 20
9.897406
  0
VERTEX
  8
0
 10
112.500000
 20
10.000002
  0
VERTEX
  8
0
 10
113.376167
 20
9.897406
  0
VERTEX
  8
0
 10
114.220207
 20
9.617031
  0
VERTEX
  8
0
 10
115.000000
 20
9.200001
  0
SEQEND
  0
POLYLINE
  8
0
 66
     1
  0
VERTEX
  8
0
 10
115.000000
 20
9.200001
  0
VERTEX
  8
0
 10
115.779793
 20
9.617031
  0
VERTEX
  8
0
 10
116.623833
 20
9.897406
  0
VERTEX
  8
0
 10
117.500000
 20
10.000002
  0
VERTEX
  8
0
 10
118.376167
 20
9.897406
  0
VERTEX
  8
0
 10
119.220207
 20
9.617031
  0
VERTEX
  8
0
 10
120.000000
 20
9.200001
  0
SEQEND
  0
POLYLINE
  8
0
 66
     1
  0
VERTEX
  8
0
 10
110.000000
 20
6.800003
  0
VERTEX
  8
0
 10
110.779793
 20
6.382973
  0
VERTEX
  8
0
 10
111.623833
 20
6.102598
  0
VERTEX
  8
0
 10
112.500000
 20
6.000002
  0
VERTEX
  8
0
 10
113.376167
 20
6.102598
  0
VERTEX
  8
0
 10
114.220207
 20
6.382973
  0
VERTEX
  8
0
 10
115.000000
 20
6.800003
  0
SEQEND
  0
POLYLINE
  8
0
 66
     1
  0
VERTEX
  8
0
 10
115.000000
 20
6.800003
  0
VERTEX
  8
0
 10
115.779793
 20
6.382973
  0
VERTEX
  8
0
 10
116.623833
 20
6.102598
  0
VERTEX
  8
0
 10
117.500000
 20
6.000002
  0
VERTEX
  8
0
 10
118.376167
 20
6.102598
  0
VERTEX
  8
0
 10
119.220207
 20
6.382973
  0
VERTEX
  8
0
 10
120.000000
 20
6.800003
  0
SEQEND
  0
POINT
  8
0
 10
115.000000
 20
65.000000
  0
POINT
  8
0
 10
120.773499
 20
65.000000
  0
LINE
  8
0
 10
115.000000
 20
76.284477
 11
115.000000
 21
53.657143
  0
LINE
  8
0
 10
112.113251
 20
60.000000
 11
117.886749
 21
60.000000
  0
LINE
  8
0
 10
112.113251
 20
70.000000
 11
117.886749
 21
70.000000
  0
LINE
  8
0
 10
117.886742
 20
60.000000
 11
120.773499
 21
65.000008
  0
LINE
  8
0
 10
109.226486
 20
65.000000
 11
112.113243
 21
70.000008
  0
LINE
  8
0
 10
117.886757
 20
70.000000
 11
120.773506
 21
65.000000
  0
LINE
  8
0
 10
109.226509
 20
65.000008
 11
112.113258
 21
60.000008
  0
LINE
  8
0
 10
103.735985
 20
65.000000
 11
125.844154
 21
65.000000
  0
CIRCLE
  8
0
 10
115.000000
 20
65.000000
 40
5.000000
  0
CIRCLE
  8
0
 10
115.000000
 20
65.000000
 40
1.150000
  0
CIRCLE
  8
0
 10
115.000000
 20
65.000000
 40
2.500000
  0
CIRCLE
  8
0
 10
115.000000
 20
65.000000
 40
4.000000
  0
CIRCLE
  8
0
 10
115.000000
 20
65.000000
 40
3.375000
  0
CIRCLE
  8
0
 10
115.000000
 20
65.000000
 40
10.000000
  0
CIRCLE
  8
0
 10
115.000000
 20
65.000000
 40
7.000000
  0
ARC
  8
0
 10
115.000000
 20
65.000000
 40
5.250002
 50
12.247404
 51
47.752567
  0
ARC
  8
0
 10
115.000000
 20
65.000000
 40
5.250001
 50
252.247177
 51
287.752838
  0
ARC
  8
0
 10
115.000000
 20
65.000000
 40
5.250004
 50
192.247101
 51
227.752869
  0
ARC
  8
0
 10
115.000000
 20
65.000000
 40
5.249999
 50
132.247482
 51
167.752594
  0
ARC
  8
0
 10
115.000000
 20
65.000000
 40
5.250001
 50
72.247177
 51
107.752823
  0
ARC
  8
0
 10
115.000000
 20
65.000000
 40
5.250000
 50
312.247131
 51
347.752869
  0
POINT
  8
0
 10
230.000000
 20
30.000000
  0
POINT
  8
0
 10
238.082901
 20
30.000000
  0
LINE
  8
0
 10
225.000000
 20
41.000000
 11
235.000000
 21
41.000000
  0
LINE
  8
0
 10
227.958191
 20
51.000000
 11
232.041809
 21
51.000000
  0
LINE
  8
0
 10
236.000000
 20
17.000000
 11
236.000000
 21
9.000000
  0
LINE
  8
0
 10
224.000000
 20
17.000000
 11
224.000000
 21
9.000000
  0
LINE
  8
0
 10
224.000000
 20
9.000000
 11
236.000000
 21
9.000000
  0
LINE
  8
0
 10
224.000000
 20
17.000000
 11
236.000000
 21
17.000000
  0
LINE
  8
0
 10
235.500000
 20
9.000000
 11
235.500000
 21
6.000000
  0
LINE
  8
0
 10
224.500000
 20
9.000000
 11
224.500000
 21
6.000000
  0
LINE
  8
0
 10
235.000000
 20
41.000000
 11
235.000000
 21
34.000000
  0
LINE
  8
0
 10
225.000000
 20
41.000000
 11
225.000000
 21
34.000000
  0
LINE
  8
0
 10
232.500000
 20
45.000000
 11
232.500000
 21
41.000000
  0
LINE
  8
0
 10
227.500000
 20
45.000000
 11
227.500000
 21
41.000000
  0
LINE
  8
0
 10
234.250000
 20
41.000000
 11
234.250000
 21
34.000000
  0
LINE
  8
0
 10
225.750000
 20
41.000000
 11
225.750000
 21
34.000000
  0
LINE
  8
0
 10
227.500000
 20
49.500000
 11
232.500000
 21
49.500000
  0
LINE
  8
0
 10
227.500000
 20
48.000000
 11
232.500000
 21
48.000000
  0
LINE
  8
0
 10
227.500000
 20
46.500000
 11
232.500000
 21
46.500000
  0
LINE
  8
0
 10
227.500000
 20
45.000000
 11
232.500000
 21
45.000000
  0
LINE
  8
0
 10
227.500000
 20
49.500000
 11
227.558746
 21
50.620926
  0
LINE
  8
0
 10
232.500031
 20
49.500004
 11
232.441284
 21
50.620934
  0
LINE
  8
0
 10
232.500000
 20
48.000000
 11
231.954041
 21
49.500000
  0
LINE
  8
0
 10
232.500015
 20
46.500008
 11
231.954056
 21
48.000008
  0
LINE
  8
0
 10
232.500000
 20
45.000008
 11
231.954041
 21
46.500008
  0
LINE
  8
0
 10
227.499985
 20
47.999992
 11
228.045944
 21
49.499992
  0
LINE
  8
0
 10
227.500015
 20
46.499996
 11
228.045975
 21
48.000000
  0
LINE
  8
0
 10
227.500015
 20
44.999992
 11
228.045959
 21
46.499992
  0
LINE
  8
0
 10
225.000000
 20
19.000000
 11
235.000000
 21
19.000000
  0
LINE
  8
0
 10
225.000000
 20
19.000000
 11
225.750000
 21
20.299038
  0
LINE
  8
0
 10
235.000000
 20
19.000002
 11
234.250000
 21
20.299040
  0
LINE
  8
0
 10
225.000000
 20
20.299038
 11
235.000000
 21
20.299038
  0
LINE
  8
0
 10
225.000000
 20
26.000000
 11
225.000000
 21
17.000000
  0
LINE
  8
0
 10
225.750000
 20
26.000000
 11
225.750000
 21
20.299038
  0
LINE
  8
0
 10
230.000000
 20
53.215340
 11
230.000000
 21
-10.512379
  0
LINE
  8
0
 10
234.250000
 20
26.000000
 11
234.250000
 21
20.299038
  0
LINE
  8
0
 10
235.000000
 20
26.000000
 11
235.000000
 21
17.000000
  0
LINE
  8
0
 10
223.000000
 20
26.000000
 11
237.000000
 21
26.000000
  0
LINE
  8
0
 10
223.000000
 20
30.000000
 11
237.000000
 21
30.000000
  0
LINE
  8
0
 10
221.917099
 20
29.605854
 11
221.917099
 21
26.394142
  0
LINE
  8
0
 10
238.082901
 20
29.605854
 11
238.082901
 21
26.394142
  0
LINE
  8
0
 10
223.000000
 20
30.000000
 11
221.917084
 21
29.605852
  0
LINE
  8
0
 10
237.000000
 20
26.000008
 11
238.082901
 21
26.394152
  0
LINE
  8
0
 10
223.000000
 20
25.999990
 11
221.917099
 21
26.394135
  0
LINE
  8
0
 10
237.000000
 20
29.999985
 11
238.082901
 21
29.605839
  0
LINE
  8
0
 10
225.958542
 20
29.605854
 11
225.958542
 21
26.394142
  0
LINE
  8
0
 10
234.041458
 20
29.605850
 11
234.041458
 21
26.394142
  0
LINE
  8
0
 10
223.000000
 20
34.000000
 11
237.000000
 21
34.000000
  0
LINE
  8
0
 10
221.917099
 20
33.605850
 11
221.917099
 21
30.394142
  0
LINE
  8
0
 10
238.082901
 20
33.605850
 11
238.082901
 21
30.394142
  0
LINE
  8
0
 10
223.000000
 20
34.000008
 11
221.917084
 21
33.605862
  0
LINE
  8
0
 10
237.000000
 20
30.000010
 11
238.082901
 21
30.394154
  0
LINE
  8
0
 10
223.000000
 20
29.999992
 11
221.917099
 21
30.394136
  0
LINE
  8
0
 10
236.999985
 20
33.999989
 11
238.082886
 21
33.605843
  0
LINE
  8
0
 10
225.958542
 20
33.605850
 11
225.958542
 21
30.394142
  0
LINE
  8
0
 10
234.041458
 20
33.605850
 11
234.041458
 21
30.394142
  0
LINE
  8
0
 10
237.500000
 20
4.500000
 11
237.500000
 21
-0.500000
  0
LINE
  8
0
 10
222.500000
 20
4.500000
 11
222.500000
 21
-0.500000
  0
LINE
  8
0
 10
222.500000
 20
-0.500000
 11
237.500000
 21
-0.500000
  0
LINE
  8
0
 10
224.250000
 20
6.000000
 11
235.750000
 21
6.000000
  0
LINE
  8
0
 10
222.500000
 20
4.500000
 11
237.500000
 21
4.500000
  0
LINE
  8
0
 10
217.750000
 20
-8.000000
 11
242.250000
 21
-8.000000
  0
LINE
  8
0
 10
223.560593
 20
-3.000000
 11
236.439407
 21
-3.000000
  0
LINE
  8
0
 10
224.250000
 20
6.000011
 11
222.500000
 21
4.500011
  0
LINE
  8
0
 10
235.749969
 20
5.999987
 11
237.499969
 21
4.499987
  0
LINE
  8
0
 10
242.250015
 20
-8.000019
 11
242.500015
 21
-7.567009
  0
LINE
  8
0
 10
217.500000
 20
-7.567005
 11
217.750000
 21
-8.000015
  0
LINE
  8
0
 10
236.439392
 20
-3.000004
 11
242.500000
 21
-7.566998
  0
LINE
  8
0
 10
217.451340
 20
-7.603664
 11
223.560608
 21
-3.000004
  0
LINE
  8
0
 10
222.500031
 20
-0.500000
 11
223.560638
 21
-2.999996
  0
LINE
  8
0
 10
237.500015
 20
-0.500010
 11
236.439423
 21
-3.000008
  0
LINE
  8
0
 10
217.500000
 20
-7.566986
 11
242.500000
 21
-7.566986
  0
ARC
  8
0
 10
232.041809
 20
50.599998
 40
0.399993
 50
3.000151
 51
90.000000
  0
ARC
  8
0
 10
227.958191
 20
50.599998
 40
0.399998
 50
90.000000
 51
176.999847
  0
ARC
  8
0
 10
230.000000
 20
9.083023
 40
20.916977
 50
78.859573
 51
101.140427
  0
ARC
  8
0
 10
230.000000
 20
46.917175
 40
20.917179
 50
258.859680
 51
281.140320
  0
ARC
  8
0
 10
223.006226
 20
18.745949
 40
11.254053
 50
74.791428
 51
90.031776
  0
ARC
  8
0
 10
222.996368
 20
37.328201
 40
11.328204
 50
270.018372
 51
285.158356
  0
ARC
  8
0
 10
237.007278
 20
18.644474
 40
11.355526
 50
90.036728
 51
105.140091
  0
ARC
  8
0
 10
236.996582
 20
37.275322
 40
11.275324
 50
254.805939
 51
270.017365
  0
ARC
  8
0
 10
237.007278
 20
22.644474
 40
11.355524
 50
90.036728
 51
105.140091
  0
ARC
  8
0
 10
236.996582
 20
41.275322
 40
11.275324
 50
254.805939
 51
270.017365
  0
ARC
  8
0
 10
230.000000
 20
13.083023
 40
20.916979
 50
78.859573
 51
101.140427
  0
ARC
  8
0
 10
230.000000
 20
50.917175
 40
20.917179
 50
258.859680
 51
281.140320
  0
ARC
  8
0
 10
223.006226
 20
22.745949
 40
11.254053
 50
74.791428
 51
90.031776
  0
ARC
  8
0
 10
222.996368
 20
41.328201
 40
11.328204
 50
270.018372
 51
285.158356
  0
POLYLINE
  8
0
 66
     1
  0
VERTEX
  8
0
 10
224.000000
 20
16.100000
  0
VERTEX
  8
0
 10
224.698441
 20
16.467236
  0
VERTEX
  8
0
 10
225.441071
 20
16.751431
  0
VERTEX
  8
0
 10
226.213181
 20
16.934912
  0
VERTEX
  8
0
 10
227.000000
 20
17.000000
  0
VERTEX
  8
0
 10
227.786819
 20
16.934912
  0
VERTEX
  8
0
 10
228.558929
 20
16.751431
  0
VERTEX
  8
0
 10
229.301559
 20
16.467236
  0
VERTEX
  8
0
 10
230.000000
 20
16.100000
  0
SEQEND
  0
POLYLINE
  8
0
 66
     1
  0
VERTEX
  8
0
 10
230.000000
 20
16.100000
  0
VERTEX
  8
0
 10
230.698441
 20
16.467236
  0
VERTEX
  8
0
 10
231.441071
 20
16.751431
  0
VERTEX
  8
0
 10
232.213181
 20
16.934912
  0
VERTEX
  8
0
 10
233.000000
 20
17.000000
  0
VERTEX
  8
0
 10
233.786819
 20
16.934912
  0
VERTEX
  8
0
 10
234.558929
 20
16.751431
  0
VERTEX
  8
0
 10
235.301559
 20
16.467236
  0
VERTEX
  8
0
 10
236.000000
 20
16.100000
  0
SEQEND
  0
POLYLINE
  8
0
 66
     1
  0
VERTEX
  8
0
 10
230.000000
 20
9.900000
  0
VERTEX
  8
0
 10
230.698441
 20
9.532764
  0
VERTEX
  8
0
 10
231.441071
 20
9.248569
  0
VERTEX
  8
0
 10
232.213181
 20
9.065088
  0
VERTEX
  8
0
 10
233.000000
 20
9.000000
  0
VERTEX
  8
0
 10
233.786819
 20
9.065088
  0
VERTEX
  8
0
 10
234.558929
 20
9.248569
  0
VERTEX
  8
0
 10
235.301559
 20
9.532764
  0
VERTEX
  8
0
 10
236.000000
 20
9.900000
  0
SEQEND
  0
POLYLINE
  8
0
 66
     1
  0
VERTEX
  8
0
 10
230.000000
 20
9.900000
  0
VERTEX
  8
0
 10
229.301559
 20
9.532764
  0
VERTEX
  8
0
 10
228.558929
 20
9.248569
  0
VERTEX
  8
0
 10
227.786819
 20
9.065088
  0
VERTEX
  8
0
 10
227.000000
 20
9.000000
  0
VERTEX
  8
0
 10
226.213181
 20
9.065088
  0
VERTEX
  8
0
 10
225.441071
 20
9.248569
  0
VERTEX
  8
0
 10
224.698441
 20
9.532764
  0
VERTEX
  8
0
 10
224.000000
 20
9.900000
  0
SEQEND
  0
POINT
  8
0
 10
230.000000
 20
75.000000
  0
POINT
  8
0
 10
238.082947
 20
75.000000
  0
LINE
  8
0
 10
216.198624
 20
75.000000
 11
243.435593
 21
75.000000
  0
LINE
  8
0
 10
230.000000
 20
61.044739
 11
230.000000
 21
88.773354
  0
LINE
  8
0
 10
225.958588
 20
68.000015
 11
221.917145
 21
75.000008
  0
LINE
  8
0
 10
238.082947
 20
75.000023
 11
234.041504
 21
82.000023
  0
LINE
  8
0
 10
221.917114
 20
75.000008
 11
225.958557
 21
81.999992
  0
LINE
  8
0
 10
234.041458
 20
67.999992
 11
238.082901
 21
74.999985
  0
LINE
  8
0
 10
225.958542
 20
82.000000
 11
234.041458
 21
82.000000
  0
LINE
  8
0
 10
225.958542
 20
68.000000
 11
234.041458
 21
68.000000
  0
CIRCLE
  8
0
 10
230.000000
 20
75.000000
 40
7.000000
  0
CIRCLE
  8
0
 10
230.000000
 20
75.000000
 40
5.000000
  0
CIRCLE
  8
0
 10
230.000000
 20
75.000000
 40
4.250000
  0
CIRCLE
  8
0
 10
230.000000
 20
75.000000
 40
2.500000
  0
CIRCLE
  8
0
 10
230.000000
 20
75.000000
 40
1.150000
  0
CIRCLE
  8
0
 10
230.000000
 20
75.000000
 40
12.500000
  0
ARC
  8
0
 10
230.000000
 20
75.000000
 40
7.499994
 50
8.960570
 51
51.039391
  0
ARC
  8
0
 10
230.000000
 20
75.000000
 40
7.500008
 50
188.960495
 51
231.039520
  0
ARC
  8
0
 10
230.000000
 20
75.000000
 40
7.500003
 50
128.960617
 51
171.039368
  0
ARC
  8
0
 10
230.000000
 20
75.000000
 40
7.500000
 50
68.960541
 51
111.039459
  0
ARC
  8
0
 10
230.000000
 20
75.000000
 40
7.500000
 50
308.960480
 51
351.039490
  0
ARC
  8
0
 10
230.000000
 20
75.000000
 40
7.500000
 50
248.960541
 51
291.039459
  0
POINT
  8
0
 10
-210.000000
 20
-133.000000
  0
POINT
  8
0
 10
-201.917099
 20
-133.000000
  0
LINE
  8
0
 10
-215.000000
 20
-122.000000
 11
-205.000000
 21
-122.000000
  0
LINE
  8
0
 10
-212.041809
 20
-112.000000
 11
-207.958191
 21
-112.000000
  0
LINE
  8
0
 10
-204.000000
 20
-146.000000
 11
-204.000000
 21
-154.000000
  0
LINE
  8
0
 10
-216.000000
 20
-146.000000
 11
-216.000000
 21
-154.000000
  0
LINE
  8
0
 10
-216.000000
 20
-154.000000
 11
-204.000000
 21
-154.000000
  0
LINE
  8
0
 10
-216.000000
 20
-146.000000
 11
-204.000000
 21
-146.000000
  0
LINE
  8
0
 10
-204.500000
 20
-154.000000
 11
-204.500000
 21
-157.000000
  0
LINE
  8
0
 10
-215.500000
 20
-154.000000
 11
-215.500000
 21
-157.000000
  0
LINE
  8
0
 10
-205.000000
 20
-122.000000
 11
-205.000000
 21
-129.000000
  0
LINE
  8
0
 10
-215.000000
 20
-122.000000
 11
-215.000000
 21
-129.000000
  0
LINE
  8
0
 10
-207.500000
 20
-118.000000
 11
-207.500000
 21
-122.000000
  0
LINE
  8
0
 10
-212.500000
 20
-118.000000
 11
-212.500000
 21
-122.000000
  0
LINE
  8
0
 10
-205.750000
 20
-122.000000
 11
-205.750000
 21
-129.000000
  0
LINE
  8
0
 10
-214.250000
 20
-122.000000
 11
-214.250000
 21
-129.000000
  0
LINE
  8
0
 10
-212.500000
 20
-113.500000
 11
-207.500000
 21
-113.500000
  0
LINE
  8
0
 10
-212.500000
 20
-115.000000
 11
-207.500000
 21
-115.000000
  0
LINE
  8
0
 10
-212.500000
 20
-116.500000
 11
-207.500000
 21
-116.500000
  0
LINE
  8
0
 10
-212.500000
 20
-118.000000
 11
-207.500000
 21
-118.000000
  0
LINE
  8
0
 10
-212.499969
 20
-113.500000
 11
-212.441223
 21
-112.379066
  0
LINE
  8
0
 10
-207.499985
 20
-113.500008
 11
-207.558731
 21
-112.379066
  0
LINE
  8
0
 10
-207.500000
 20
-115.000000
 11
-208.045959
 21
-113.500000
  0
LINE
  8
0
 10
-207.500000
 20
-116.500000
 11
-208.045959
 21
-115.000000
  0
LINE
  8
0
 10
-207.500000
 20
-118.000000
 11
-208.045944
 21
-116.500000
  0
LINE
  8
0
 10
-212.500000
 20
-115.000000
 11
-211.954056
 21
-113.500015
  0
LINE
  8
0
 10
-212.500000
 20
-116.499992
 11
-211.954041
 21
-114.999992
  0
LINE
  8
0
 10
-212.500000
 20
-118.000000
 11
-211.954041
 21
-116.499985
  0
LINE
  8
0
 10
-215.000000
 20
-144.000000
 11
-205.000000
 21
-144.000000
  0
LINE
  8
0
 10
-215.000000
 20
-144.000000
 11
-214.250000
 21
-142.700958
  0
LINE
  8
0
 10
-205.000015
 20
-144.000015
 11
-205.750015
 21
-142.700974
  0
LINE
  8
0
 10
-215.000000
 20
-142.700958
 11
-205.000000
 21
-142.700958
  0
LINE
  8
0
 10
-215.000000
 20
-137.000000
 11
-215.000000
 21
-146.000000
  0
LINE
  8
0
 10
-214.250000
 20
-137.000000
 11
-214.250000
 21
-142.700958
  0
LINE
  8
0
 10
-210.000000
 20
-110.784660
 11
-210.000000
 21
-171.334320
  0
LINE
  8
0
 10
-205.750000
 20
-137.000000
 11
-205.750000
 21
-142.700958
  0
LINE
  8
0
 10
-205.000000
 20
-137.000000
 11
-205.000000
 21
-146.000000
  0
LINE
  8
0
 10
-217.000000
 20
-137.000000
 11
-203.000000
 21
-137.000000
  0
LINE
  8
0
 10
-217.000000
 20
-133.000000
 11
-203.000000
 21
-133.000000
  0
LINE
  8
0
 10
-218.082901
 20
-133.394150
 11
-218.082901
 21
-136.605865
  0
LINE
  8
0
 10
-201.917099
 20
-133.394150
 11
-201.917099
 21
-136.605865
  0
LINE
  8
0
 10
-217.000000
 20
-133.000000
 11
-218.082916
 21
-133.394150
  0
LINE
  8
0
 10
-203.000000
 20
-136.999985
 11
-201.917084
 21
-136.605835
  0
LINE
  8
0
 10
-217.000000
 20
-136.999985
 11
-218.082901
 21
-136.605850
  0
LINE
  8
0
 10
-203.000000
 20
-133.000000
 11
-201.917084
 21
-133.394150
  0
LINE
  8
0
 10
-214.041458
 20
-133.394150
 11
-214.041458
 21
-136.605865
  0
LINE
  8
0
 10
-205.958542
 20
-133.394150
 11
-205.958542
 21
-136.605865
  0
LINE
  8
0
 10
-217.000000
 20
-129.000000
 11
-203.000000
 21
-129.000000
  0
LINE
  8
0
 10
-218.082901
 20
-129.394150
 11
-218.082901
 21
-132.605865
  0
LINE
  8
0
 10
-201.917099
 20
-129.394150
 11
-201.917099
 21
-132.605865
  0
LINE
  8
0
 10
-217.000000
 20
-129.000000
 11
-218.082901
 21
-129.394150
  0
LINE
  8
0
 10
-203.000000
 20
-133.000000
 11
-201.917099
 21
-132.605850
  0
LINE
  8
0
 10
-217.000000
 20
-132.999969
 11
-218.082916
 21
-132.605835
  0
LINE
  8
0
 10
-203.000000
 20
-128.999985
 11
-201.917084
 21
-129.394135
  0
LINE
  8
0
 10
-214.041458
 20
-129.394150
 11
-214.041458
 21
-132.605865
  0
LINE
  8
0
 10
-205.958542
 20
-129.394150
 11
-205.958542
 21
-132.605865
  0
LINE
  8
0
 10
-202.500000
 20
-159.000000
 11
-202.500000
 21
-163.000000
  0
LINE
  8
0
 10
-217.500000
 20
-159.000000
 11
-217.500000
 21
-163.000000
  0
LINE
  8
0
 10
-216.036774
 20
-164.000000
 11
-203.963226
 21
-164.000000
  0
LINE
  8
0
 10
-216.036774
 20
-164.000000
 11
-203.963226
 21
-164.000000
  0
LINE
  8
0
 10
-224.750000
 20
-169.000000
 11
-195.250000
 21
-169.000000
  0
LINE
  8
0
 10
-215.500000
 20
-157.000000
 11
-204.500000
 21
-157.000000
  0
LINE
  8
0
 10
-217.500000
 20
-159.000000
 11
-202.500000
 21
-159.000000
  0
LINE
  8
0
 10
-215.250000
 20
-156.999985
 11
-217.500000
 21
-158.999985
  0
LINE
  8
0
 10
-204.750015
 20
-157.000031
 11
-202.500015
 21
-159.000031
  0
LINE
  8
0
 10
-225.000015
 20
-168.566986
 11
-224.750015
 21
-169.000000
  0
LINE
  8
0
 10
-195.250000
 20
-169.000000
 11
-195.000000
 21
-168.566986
  0
LINE
  8
0
 10
-224.999985
 20
-168.566986
 11
-216.036758
 21
-164.000000
  0
LINE
  8
0
 10
-203.963211
 20
-164.000015
 11
-195.000000
 21
-168.567001
  0
LINE
  8
0
 10
-217.500000
 20
-163.000000
 11
-202.500000
 21
-163.000000
  0
LINE
  8
0
 10
-217.500015
 20
-163.000000
 11
-216.036789
 21
-164.000000
  0
LINE
  8
0
 10
-202.500000
 20
-163.000015
 11
-203.963226
 21
-164.000015
  0
LINE
  8
0
 10
-225.000000
 20
-168.566986
 11
-195.000000
 21
-168.566986
  0
ARC
  8
0
 10
-207.958191
 20
-112.400002
 40
0.399993
 50
3.000151
 51
90.000000
  0
ARC
  8
0
 10
-212.041809
 20
-112.400002
 40
0.400002
 50
90.000000
 51
176.999847
  0
ARC
  8
0
 10
-210.000000
 20
-153.916977
 40
20.916975
 50
78.859573
 51
101.140427
  0
ARC
  8
0
 10
-210.000000
 20
-116.082825
 40
20.917185
 50
258.859680
 51
281.140320
  0
ARC
  8
0
 10
-216.993774
 20
-144.254044
 40
11.254057
 50
74.791428
 51
90.031776
  0
ARC
  8
0
 10
-217.003632
 20
-125.671799
 40
11.328202
 50
270.018372
 51
285.158356
  0
ARC
  8
0
 10
-202.992722
 20
-144.355530
 40
11.355532
 50
90.036728
 51
105.140083
  0
ARC
  8
0
 10
-203.003418
 20
-125.724678
 40
11.275316
 50
254.805939
 51
270.017365
  0
ARC
  8
0
 10
-202.992722
 20
-140.355530
 40
11.355532
 50
90.036728
 51
105.140083
  0
ARC
  8
0
 10
-203.003418
 20
-121.724678
 40
11.275316
 50
254.805939
 51
270.017365
  0
ARC
  8
0
 10
-210.000000
 20
-149.916977
 40
20.916975
 50
78.859573
 51
101.140427
  0
ARC
  8
0
 10
-210.000000
 20
-112.082825
 40
20.917185
 50
258.859680
 51
281.140320
  0
ARC
  8
0
 10
-216.993774
 20
-140.254044
 40
11.254057
 50
74.791428
 51
90.031776
  0
ARC
  8
0
 10
-217.003632
 20
-121.671799
 40
11.328202
 50
270.018372
 51
285.158356
  0
POLYLINE
  8
0
 66
     1
  0
VERTEX
  8
0
 10
-216.000000
 20
-146.899994
  0
VERTEX
  8
0
 10
-215.301559
 20
-146.532761
  0
VERTEX
  8
0
 10
-214.558929
 20
-146.248566
  0
VERTEX
  8
0
 10
-213.786819
 20
-146.065094
  0
VERTEX
  8
0
 10
-213.000000
 20
-146.000000
  0
VERTEX
  8
0
 10
-212.213181
 20
-146.065094
  0
VERTEX
  8
0
 10
-211.441071
 20
-146.248566
  0
VERTEX
  8
0
 10
-210.698441
 20
-146.532761
  0
VERTEX
  8
0
 10
-210.000000
 20
-146.899994
  0
SEQEND
  0
POLYLINE
  8
0
 66
     1
  0
VERTEX
  8
0
 10
-210.000000
 20
-146.899994
  0
VERTEX
  8
0
 10
-209.301559
 20
-146.532761
  0
VERTEX
  8
0
 10
-208.558929
 20
-146.248566
  0
VERTEX
  8
0
 10
-207.786819
 20
-146.065094
  0
VERTEX
  8
0
 10
-207.000000
 20
-146.000000
  0
VERTEX
  8
0
 10
-206.213181
 20
-146.065094
  0
VERTEX
  8
0
 10
-205.441071
 20
-146.248566
  0
VERTEX
  8
0
 10
-204.698441
 20
-146.532761
  0
VERTEX
  8
0
 10
-204.000000
 20
-146.899994
  0
SEQEND
  0
POLYLINE
  8
0
 66
     1
  0
VERTEX
  8
0
 10
-210.000000
 20
-153.100006
  0
VERTEX
  8
0
 10
-209.301559
 20
-153.467239
  0
VERTEX
  8
0
 10
-208.558929
 20
-153.751434
  0
VERTEX
  8
0
 10
-207.786819
 20
-153.934906
  0
VERTEX
  8
0
 10
-207.000000
 20
-154.000000
  0
VERTEX
  8
0
 10
-206.213181
 20
-153.934906
  0
VERTEX
  8
0
 10
-205.441071
 20
-153.751434
  0
VERTEX
  8
0
 10
-204.698441
 20
-153.467239
  0
VERTEX
  8
0
 10
-204.000000
 20
-153.100006
  0
SEQEND
  0
POLYLINE
  8
0
 66
     1
  0
VERTEX
  8
0
 10
-210.000000
 20
-153.100006
  0
VERTEX
  8
0
 10
-210.698441
 20
-153.467239
  0
VERTEX
  8
0
 10
-211.441071
 20
-153.751434
  0
VERTEX
  8
0
 10
-212.213181
 20
-153.934906
  0
VERTEX
  8
0
 10
-213.000000
 20
-154.000000
  0
VERTEX
  8
0
 10
-213.786819
 20
-153.934906
  0
VERTEX
  8
0
 10
-214.558929
 20
-153.751434
  0
VERTEX
  8
0
 10
-215.301559
 20
-153.467239
  0
VERTEX
  8
0
 10
-216.000000
 20
-153.100006
  0
SEQEND
  0
POINT
  8
0
 10
-210.000000
 20
-63.000000
  0
POINT
  8
0
 10
-201.917114
 20
-63.000000
  0
LINE
  8
0
 10
-226.250244
 20
-63.000000
 11
-193.573746
 21
-63.000000
  0
LINE
  8
0
 10
-210.000000
 20
-79.635689
 11
-210.000000
 21
-46.654373
  0
LINE
  8
0
 10
-214.041473
 20
-70.000008
 11
-218.082932
 21
-63.000011
  0
LINE
  8
0
 10
-201.917114
 20
-63.000023
 11
-205.958557
 21
-56.000027
  0
LINE
  8
0
 10
-218.082916
 20
-62.999977
 11
-214.041473
 21
-55.999992
  0
LINE
  8
0
 10
-205.958557
 20
-70.000008
 11
-201.917099
 21
-63.000008
  0
LINE
  8
0
 10
-214.041458
 20
-56.000000
 11
-205.958542
 21
-56.000000
  0
LINE
  8
0
 10
-214.041458
 20
-70.000000
 11
-205.958542
 21
-70.000000
  0
CIRCLE
  8
0
 10
-210.000000
 20
-63.000000
 40
7.000000
  0
CIRCLE
  8
0
 10
-210.000000
 20
-63.000000
 40
5.000000
  0
CIRCLE
  8
0
 10
-210.000000
 20
-63.000000
 40
4.250000
  0
CIRCLE
  8
0
 10
-210.000000
 20
-63.000000
 40
2.500000
  0
CIRCLE
  8
0
 10
-210.000000
 20
-63.000000
 40
1.150000
  0
ARC
  8
0
 10
-210.000000
 20
-63.000000
 40
7.499994
 50
8.960570
 51
51.039391
  0
CIRCLE
  8
0
 10
-210.000000
 20
-63.000000
 40
15.000000
  0
ARC
  8
0
 10
-210.000000
 20
-63.000000
 40
7.500008
 50
188.960495
 51
231.039520
  0
ARC
  8
0
 10
-210.000000
 20
-63.000000
 40
7.500000
 50
128.960632
 51
171.039398
  0
ARC
  8
0
 10
-210.000000
 20
-63.000000
 40
7.500000
 50
68.960541
 51
111.039459
  0
ARC
  8
0
 10
-210.000000
 20
-63.000000
 40
7.500000
 50
308.960480
 51
351.039490
  0
ARC
  8
0
 10
-210.000000
 20
-63.000000
 40
7.500000
 50
248.960541
 51
291.039459
  0
POINT
  8
0
 10
-70.000000
 20
-133.000000
  0
POINT
  8
0
 10
-61.917095
 20
-133.000000
  0
LINE
  8
0
 10
-75.000000
 20
-122.000000
 11
-65.000000
 21
-122.000000
  0
LINE
  8
0
 10
-72.041801
 20
-112.000000
 11
-67.958199
 21
-112.000000
  0
LINE
  8
0
 10
-64.000000
 20
-146.000000
 11
-64.000000
 21
-154.000000
  0
LINE
  8
0
 10
-76.000000
 20
-146.000000
 11
-76.000000
 21
-154.000000
  0
LINE
  8
0
 10
-76.000000
 20
-154.000000
 11
-64.000000
 21
-154.000000
  0
LINE
  8
0
 10
-76.000000
 20
-146.000000
 11
-64.000000
 21
-146.000000
  0
LINE
  8
0
 10
-64.500000
 20
-154.000000
 11
-64.500000
 21
-157.000000
  0
LINE
  8
0
 10
-75.500000
 20
-154.000000
 11
-75.500000
 21
-157.000000
  0
LINE
  8
0
 10
-65.000000
 20
-122.000000
 11
-65.000000
 21
-129.000000
  0
LINE
  8
0
 10
-75.000000
 20
-122.000000
 11
-75.000000
 21
-129.000000
  0
LINE
  8
0
 10
-67.500000
 20
-118.000000
 11
-67.500000
 21
-122.000000
  0
LINE
  8
0
 10
-72.500000
 20
-118.000000
 11
-72.500000
 21
-122.000000
  0
LINE
  8
0
 10
-65.750000
 20
-122.000000
 11
-65.750000
 21
-129.000000
  0
LINE
  8
0
 10
-74.250000
 20
-122.000000
 11
-74.250000
 21
-129.000000
  0
LINE
  8
0
 10
-72.500000
 20
-113.500000
 11
-67.500000
 21
-113.500000
  0
LINE
  8
0
 10
-72.500000
 20
-115.000000
 11
-67.500000
 21
-115.000000
  0
LINE
  8
0
 10
-72.500000
 20
-116.500000
 11
-67.500000
 21
-116.500000
  0
LINE
  8
0
 10
-72.500000
 20
-118.000000
 11
-67.500000
 21
-118.000000
  0
LINE
  8
0
 10
-72.499992
 20
-113.499992
 11
-72.441246
 21
-112.379059
  0
LINE
  8
0
 10
-67.500000
 20
-113.500015
 11
-67.558746
 21
-112.379074
  0
LINE
  8
0
 10
-67.500000
 20
-115.000000
 11
-68.045959
 21
-113.500000
  0
LINE
  8
0
 10
-67.500000
 20
-116.500000
 11
-68.045959
 21
-115.000000
  0
LINE
  8
0
 10
-67.500008
 20
-118.000000
 11
-68.045967
 21
-116.500000
  0
LINE
  8
0
 10
-72.499992
 20
-114.999992
 11
-71.954041
 21
-113.499992
  0
LINE
  8
0
 10
-72.500000
 20
-116.499992
 11
-71.954041
 21
-114.999985
  0
LINE
  8
0
 10
-72.500000
 20
-118.000008
 11
-71.954041
 21
-116.500008
  0
LINE
  8
0
 10
-75.000000
 20
-144.000000
 11
-65.000000
 21
-144.000000
  0
LINE
  8
0
 10
-75.000000
 20
-144.000000
 11
-74.250000
 21
-142.700958
  0
LINE
  8
0
 10
-65.000008
 20
-144.000015
 11
-65.750008
 21
-142.700974
  0
LINE
  8
0
 10
-75.000000
 20
-142.700958
 11
-65.000000
 21
-142.700958
  0
LINE
  8
0
 10
-75.000000
 20
-137.000000
 11
-75.000000
 21
-146.000000
  0
LINE
  8
0
 10
-74.250000
 20
-137.000000
 11
-74.250000
 21
-142.700958
  0
LINE
  8
0
 10
-70.000000
 20
-109.784660
 11
-70.000000
 21
-172.588989
  0
LINE
  8
0
 10
-65.750000
 20
-137.000000
 11
-65.750000
 21
-142.700958
  0
LINE
  8
0
 10
-65.000000
 20
-137.000000
 11
-65.000000
 21
-146.000000
  0
LINE
  8
0
 10
-76.999992
 20
-137.000000
 11
-63.000004
 21
-137.000000
  0
LINE
  8
0
 10
-77.000000
 20
-133.000000
 11
-63.000000
 21
-133.000000
  0
LINE
  8
0
 10
-78.082901
 20
-133.394150
 11
-78.082901
 21
-136.605865
  0
LINE
  8
0
 10
-61.917095
 20
-133.394150
 11
-61.917095
 21
-136.605865
  0
LINE
  8
0
 10
-77.000008
 20
-132.999985
 11
-78.082916
 21
-133.394135
  0
LINE
  8
0
 10
-63.000000
 20
-136.999985
 11
-61.917091
 21
-136.605850
  0
LINE
  8
0
 10
-76.999992
 20
-136.999969
 11
-78.082893
 21
-136.605835
  0
LINE
  8
0
 10
-62.999996
 20
-133.000000
 11
-61.917091
 21
-133.394150
  0
LINE
  8
0
 10
-74.041451
 20
-133.394150
 11
-74.041451
 21
-136.605865
  0
LINE
  8
0
 10
-65.958549
 20
-133.394150
 11
-65.958549
 21
-136.605865
  0
LINE
  8
0
 10
-77.000000
 20
-129.000000
 11
-63.000000
 21
-129.000000
  0
LINE
  8
0
 10
-78.082901
 20
-129.394150
 11
-78.082901
 21
-132.605865
  0
LINE
  8
0
 10
-61.917095
 20
-129.394150
 11
-61.917095
 21
-132.605865
  0
LINE
  8
0
 10
-77.000000
 20
-128.999985
 11
-78.082901
 21
-129.394135
  0
LINE
  8
0
 10
-63.000008
 20
-132.999985
 11
-61.917103
 21
-132.605850
  0
LINE
  8
0
 10
-77.000000
 20
-133.000000
 11
-78.082909
 21
-132.605850
  0
LINE
  8
0
 10
-62.999992
 20
-129.000000
 11
-61.917091
 21
-129.394135
  0
LINE
  8
0
 10
-74.041451
 20
-129.394150
 11
-74.041451
 21
-132.605865
  0
LINE
  8
0
 10
-65.958549
 20
-129.394150
 11
-65.958549
 21
-132.605865
  0
LINE
  8
0
 10
-77.500000
 20
-159.000000
 11
-77.500000
 21
-164.000000
  0
LINE
  8
0
 10
-62.500000
 20
-159.000000
 11
-62.500000
 21
-164.000000
  0
LINE
  8
0
 10
-77.242378
 20
-166.000000
 11
-62.757622
 21
-166.000000
  0
LINE
  8
0
 10
-87.250000
 20
-171.000000
 11
-52.750000
 21
-171.000000
  0
LINE
  8
0
 10
-75.500000
 20
-157.000000
 11
-64.500000
 21
-157.000000
  0
LINE
  8
0
 10
-77.500000
 20
-159.000000
 11
-62.500000
 21
-159.000000
  0
LINE
  8
0
 10
-75.250000
 20
-157.000000
 11
-77.500000
 21
-159.000000
  0
LINE
  8
0
 10
-64.750008
 20
-157.000000
 11
-62.500008
 21
-159.000000
  0
LINE
  8
0
 10
-87.500015
 20
-170.566986
 11
-87.250015
 21
-171.000000
  0
LINE
  8
0
 10
-52.749992
 20
-171.000000
 11
-52.499992
 21
-170.566986
  0
LINE
  8
0
 10
-87.499992
 20
-170.566986
 11
-77.242371
 21
-166.000000
  0
LINE
  8
0
 10
-62.757626
 20
-166.000031
 11
-52.500004
 21
-170.567017
  0
LINE
  8
0
 10
-77.500000
 20
-164.000000
 11
-62.500000
 21
-164.000000
  0
LINE
  8
0
 10
-77.242378
 20
-165.999985
 11
-77.500000
 21
-163.999985
  0
LINE
  8
0
 10
-62.499992
 20
-163.999985
 11
-62.757614
 21
-165.999985
  0
LINE
  8
0
 10
-87.500000
 20
-170.566986
 11
-52.500000
 21
-170.566986
  0
ARC
  8
0
 10
-67.958199
 20
-112.400002
 40
0.400000
 50
3.000094
 51
90.000000
  0
ARC
  8
0
 10
-72.041801
 20
-112.400002
 40
0.400002
 50
90.000000
 51
176.999908
  0
ARC
  8
0
 10
-70.000000
 20
-153.916977
 40
20.916975
 50
78.859573
 51
101.140427
  0
ARC
  8
0
 10
-70.000000
 20
-116.082825
 40
20.917185
 50
258.859680
 51
281.140289
  0
ARC
  8
0
 10
-76.993767
 20
-144.254059
 40
11.254055
 50
74.791466
 51
90.031776
  0
ARC
  8
0
 10
-77.003632
 20
-125.671799
 40
11.328202
 50
270.018372
 51
285.158325
  0
ARC
  8
0
 10
-62.992714
 20
-144.355530
 40
11.355532
 50
90.036743
 51
105.140083
  0
ARC
  8
0
 10
-63.003414
 20
-125.724678
 40
11.275315
 50
254.805954
 51
270.017334
  0
ARC
  8
0
 10
-62.992714
 20
-140.355530
 40
11.355532
 50
90.036743
 51
105.140083
  0
ARC
  8
0
 10
-63.003414
 20
-121.724678
 40
11.275315
 50
254.805954
 51
270.017334
  0
ARC
  8
0
 10
-70.000000
 20
-149.916977
 40
20.916975
 50
78.859573
 51
101.140427
  0
ARC
  8
0
 10
-70.000000
 20
-112.082825
 40
20.917185
 50
258.859680
 51
281.140289
  0
ARC
  8
0
 10
-76.993767
 20
-140.254059
 40
11.254055
 50
74.791466
 51
90.031776
  0
ARC
  8
0
 10
-77.003632
 20
-121.671799
 40
11.328202
 50
270.018372
 51
285.158325
  0
POLYLINE
  8
0
 66
     1
  0
VERTEX
  8
0
 10
-76.000000
 20
-146.899994
  0
VERTEX
  8
0
 10
-75.301559
 20
-146.532761
  0
VERTEX
  8
0
 10
-74.558922
 20
-146.248566
  0
VERTEX
  8
0
 10
-73.786827
 20
-146.065094
  0
VERTEX
  8
0
 10
-73.000000
 20
-146.000000
  0
VERTEX
  8
0
 10
-72.213173
 20
-146.065094
  0
VERTEX
  8
0
 10
-71.441078
 20
-146.248566
  0
VERTEX
  8
0
 10
-70.698441
 20
-146.532761
  0
VERTEX
  8
0
 10
-70.000000
 20
-146.899994
  0
SEQEND
  0
POLYLINE
  8
0
 66
     1
  0
VERTEX
  8
0
 10
-70.000000
 20
-146.899994
  0
VERTEX
  8
0
 10
-69.301559
 20
-146.532761
  0
VERTEX
  8
0
 10
-68.558922
 20
-146.248566
  0
VERTEX
  8
0
 10
-67.786827
 20
-146.065094
  0
VERTEX
  8
0
 10
-67.000000
 20
-146.000000
  0
VERTEX
  8
0
 10
-66.213173
 20
-146.065094
  0
VERTEX
  8
0
 10
-65.441078
 20
-146.248566
  0
VERTEX
  8
0
 10
-64.698441
 20
-146.532761
  0
VERTEX
  8
0
 10
-64.000000
 20
-146.899994
  0
SEQEND
  0
POLYLINE
  8
0
 66
     1
  0
VERTEX
  8
0
 10
-70.000000
 20
-153.100006
  0
VERTEX
  8
0
 10
-69.301559
 20
-153.467239
  0
VERTEX
  8
0
 10
-68.558922
 20
-153.751434
  0
VERTEX
  8
0
 10
-67.786827
 20
-153.934906
  0
VERTEX
  8
0
 10
-67.000000
 20
-154.000000
  0
VERTEX
  8
0
 10
-66.213173
 20
-153.934906
  0
VERTEX
  8
0
 10
-65.441078
 20
-153.751434
  0
VERTEX
  8
0
 10
-64.698441
 20
-153.467239
  0
VERTEX
  8
0
 10
-64.000000
 20
-153.100006
  0
SEQEND
  0
POLYLINE
  8
0
 66
     1
  0
VERTEX
  8
0
 10
-70.000000
 20
-153.100006
  0
VERTEX
  8
0
 10
-70.698441
 20
-153.467239
  0
VERTEX
  8
0
 10
-71.441078
 20
-153.751434
  0
VERTEX
  8
0
 10
-72.213173
 20
-153.934906
  0
VERTEX
  8
0
 10
-73.000000
 20
-154.000000
  0
VERTEX
  8
0
 10
-73.786827
 20
-153.934906
  0
VERTEX
  8
0
 10
-74.558922
 20
-153.751434
  0
VERTEX
  8
0
 10
-75.301559
 20
-153.467239
  0
VERTEX
  8
0
 10
-76.000000
 20
-153.100006
  0
SEQEND
  0
POINT
  8
0
 10
-70.000000
 20
-63.000000
  0
POINT
  8
0
 10
-61.917103
 20
-63.000000
  0
LINE
  8
0
 10
-88.997574
 20
-63.000000
 11
-50.986820
 21
-63.000000
  0
LINE
  8
0
 10
-70.000000
 20
-82.113678
 11
-70.000000
 21
-43.847000
  0
LINE
  8
0
 10
-74.041458
 20
-70.000008
 11
-78.082909
 21
-63.000008
  0
LINE
  8
0
 10
-61.917107
 20
-63.000008
 11
-65.958557
 21
-56.000008
  0
LINE
  8
0
 10
-78.082909
 20
-62.999989
 11
-74.041458
 21
-55.999989
  0
LINE
  8
0
 10
-65.958557
 20
-70.000008
 11
-61.917103
 21
-63.000008
  0
LINE
  8
0
 10
-74.041451
 20
-56.000000
 11
-65.958549
 21
-56.000000
  0
LINE
  8
0
 10
-74.041451
 20
-70.000000
 11
-65.958549
 21
-70.000000
  0
CIRCLE
  8
0
 10
-70.000000
 20
-63.000000
 40
7.000000
  0
CIRCLE
  8
0
 10
-70.000000
 20
-63.000000
 40
5.000000
  0
CIRCLE
  8
0
 10
-70.000000
 20
-63.000000
 40
4.250000
  0
CIRCLE
  8
0
 10
-70.000000
 20
-63.000000
 40
2.500000
  0
CIRCLE
  8
0
 10
-70.000000
 20
-63.000000
 40
1.150000
  0
ARC
  8
0
 10
-70.000000
 20
-63.000000
 40
7.500002
 50
8.960561
 51
51.039391
  0
CIRCLE
  8
0
 10
-70.000000
 20
-63.000000
 40
17.500000
  0
ARC
  8
0
 10
-70.000000
 20
-63.000000
 40
7.500000
 50
188.960510
 51
231.039474
  0
ARC
  8
0
 10
-70.000000
 20
-63.000000
 40
7.500000
 50
128.960632
 51
171.039413
  0
ARC
  8
0
 10
-70.000000
 20
-63.000000
 40
7.500000
 50
68.960541
 51
111.039459
  0
ARC
  8
0
 10
-70.000000
 20
-63.000000
 40
7.500000
 50
248.960541
 51
291.039459
  0
ARC
  8
0
 10
-70.000000
 20
-63.000000
 40
7.500000
 50
308.960480
 51
351.039490
  0
POINT
  8
0
 10
70.000000
 20
-133.000000
  0
POINT
  8
0
 10
78.082901
 20
-133.000000
  0
LINE
  8
0
 10
65.000000
 20
-122.000000
 11
75.000000
 21
-122.000000
  0
LINE
  8
0
 10
67.958199
 20
-112.000000
 11
72.041801
 21
-112.000000
  0
LINE
  8
0
 10
76.000000
 20
-146.000000
 11
76.000000
 21
-154.000000
  0
LINE
  8
0
 10
64.000000
 20
-146.000000
 11
64.000000
 21
-154.000000
  0
LINE
  8
0
 10
64.000000
 20
-154.000000
 11
76.000000
 21
-154.000000
  0
LINE
  8
0
 10
64.000000
 20
-146.000000
 11
76.000000
 21
-146.000000
  0
LINE
  8
0
 10
75.500000
 20
-154.000000
 11
75.500000
 21
-157.000000
  0
LINE
  8
0
 10
64.500000
 20
-154.000000
 11
64.500000
 21
-157.000000
  0
LINE
  8
0
 10
75.000000
 20
-122.000000
 11
75.000000
 21
-129.000000
  0
LINE
  8
0
 10
65.000000
 20
-122.000000
 11
65.000000
 21
-129.000000
  0
LINE
  8
0
 10
72.500000
 20
-118.000000
 11
72.500000
 21
-122.000000
  0
LINE
  8
0
 10
67.500000
 20
-118.000000
 11
67.500000
 21
-122.000000
  0
LINE
  8
0
 10
74.250000
 20
-122.000000
 11
74.250000
 21
-129.000000
  0
LINE
  8
0
 10
65.750000
 20
-122.000000
 11
65.750000
 21
-129.000000
  0
LINE
  8
0
 10
67.500000
 20
-113.500000
 11
72.500000
 21
-113.500000
  0
LINE
  8
0
 10
67.500000
 20
-115.000000
 11
72.500000
 21
-115.000000
  0
LINE
  8
0
 10
67.500000
 20
-116.500000
 11
72.500000
 21
-116.500000
  0
LINE
  8
0
 10
67.500000
 20
-118.000000
 11
72.500000
 21
-118.000000
  0
LINE
  8
0
 10
67.499992
 20
-113.499992
 11
67.558731
 21
-112.379059
  0
LINE
  8
0
 10
72.500000
 20
-113.500008
 11
72.441254
 21
-112.379066
  0
LINE
  8
0
 10
72.499992
 20
-114.999985
 11
71.954041
 21
-113.499985
  0
LINE
  8
0
 10
72.500000
 20
-116.500008
 11
71.954048
 21
-115.000008
  0
LINE
  8
0
 10
72.500008
 20
-118.000000
 11
71.954048
 21
-116.500000
  0
LINE
  8
0
 10
67.500000
 20
-115.000000
 11
68.045959
 21
-113.500000
  0
LINE
  8
0
 10
67.499992
 20
-116.500000
 11
68.045952
 21
-114.999992
  0
LINE
  8
0
 10
67.500000
 20
-118.000000
 11
68.045959
 21
-116.500000
  0
LINE
  8
0
 10
65.000000
 20
-144.000000
 11
75.000000
 21
-144.000000
  0
LINE
  8
0
 10
65.000000
 20
-144.000000
 11
65.750000
 21
-142.700958
  0
LINE
  8
0
 10
75.000008
 20
-144.000015
 11
74.250008
 21
-142.700974
  0
LINE
  8
0
 10
65.000000
 20
-142.700958
 11
75.000000
 21
-142.700958
  0
LINE
  8
0
 10
65.000000
 20
-137.000000
 11
65.000000
 21
-146.000000
  0
LINE
  8
0
 10
65.750000
 20
-137.000000
 11
65.750000
 21
-142.700958
  0
LINE
  8
0
 10
70.000000
 20
-109.784660
 11
70.000000
 21
-174.197647
  0
LINE
  8
0
 10
74.250000
 20
-137.000000
 11
74.250000
 21
-142.700958
  0
LINE
  8
0
 10
75.000000
 20
-137.000000
 11
75.000000
 21
-146.000000
  0
LINE
  8
0
 10
63.000008
 20
-137.000000
 11
76.999992
 21
-137.000000
  0
LINE
  8
0
 10
63.000000
 20
-133.000000
 11
77.000000
 21
-133.000000
  0
LINE
  8
0
 10
61.917099
 20
-133.394150
 11
61.917099
 21
-136.605865
  0
LINE
  8
0
 10
78.082901
 20
-133.394150
 11
78.082901
 21
-136.605865
  0
LINE
  8
0
 10
62.999996
 20
-132.999969
 11
61.917091
 21
-133.394119
  0
LINE
  8
0
 10
76.999992
 20
-136.999969
 11
78.082901
 21
-136.605820
  0
LINE
  8
0
 10
63.000008
 20
-137.000000
 11
61.917099
 21
-136.605850
  0
LINE
  8
0
 10
76.999992
 20
-133.000000
 11
78.082901
 21
-133.394150
  0
LINE
  8
0
 10
65.958549
 20
-133.394150
 11
65.958549
 21
-136.605865
  0
LINE
  8
0
 10
74.041451
 20
-133.394150
 11
74.041451
 21
-136.605865
  0
LINE
  8
0
 10
63.000000
 20
-129.000000
 11
77.000000
 21
-129.000000
  0
LINE
  8
0
 10
61.917099
 20
-129.394150
 11
61.917099
 21
-132.605865
  0
LINE
  8
0
 10
78.082901
 20
-129.394150
 11
78.082901
 21
-132.605865
  0
LINE
  8
0
 10
63.000000
 20
-129.000000
 11
61.917095
 21
-129.394135
  0
LINE
  8
0
 10
77.000000
 20
-132.999985
 11
78.082901
 21
-132.605850
  0
LINE
  8
0
 10
63.000000
 20
-132.999985
 11
61.917095
 21
-132.605835
  0
LINE
  8
0
 10
77.000008
 20
-128.999985
 11
78.082901
 21
-129.394135
  0
LINE
  8
0
 10
65.958549
 20
-129.394150
 11
65.958549
 21
-132.605865
  0
LINE
  8
0
 10
74.041451
 20
-129.394150
 11
74.041451
 21
-132.605865
  0
LINE
  8
0
 10
62.000000
 20
-159.000000
 11
62.000000
 21
-165.224243
  0
LINE
  8
0
 10
78.000000
 20
-159.000000
 11
78.000000
 21
-165.224243
  0
LINE
  8
0
 10
50.250000
 20
-171.000000
 11
89.750000
 21
-171.000000
  0
LINE
  8
0
 10
63.750000
 20
-157.000000
 11
76.250000
 21
-157.000000
  0
LINE
  8
0
 10
62.000000
 20
-159.000000
 11
78.000000
 21
-159.000000
  0
LINE
  8
0
 10
63.750004
 20
-157.000000
 11
62.000000
 21
-159.000000
  0
LINE
  8
0
 10
76.249992
 20
-156.999985
 11
78.000000
 21
-158.999985
  0
LINE
  8
0
 10
49.999996
 20
-170.566986
 11
50.249996
 21
-171.000000
  0
LINE
  8
0
 10
89.750015
 20
-171.000000
 11
90.000015
 21
-170.566986
  0
LINE
  8
0
 10
50.047752
 20
-170.545746
 11
62.000004
 21
-165.224258
  0
LINE
  8
0
 10
78.000008
 20
-165.224258
 11
89.999992
 21
-170.566986
  0
LINE
  8
0
 10
62.000000
 20
-165.224243
 11
78.000000
 21
-165.224243
  0
LINE
  8
0
 10
50.000000
 20
-170.566986
 11
90.000000
 21
-170.566986
  0
ARC
  8
0
 10
72.041801
 20
-112.400002
 40
0.400000
 50
3.000094
 51
90.000000
  0
ARC
  8
0
 10
67.958199
 20
-112.400002
 40
0.400002
 50
90.000000
 51
176.999908
  0
ARC
  8
0
 10
70.000000
 20
-153.916977
 40
20.916975
 50
78.859573
 51
101.140427
  0
ARC
  8
0
 10
70.000000
 20
-116.082825
 40
20.917185
 50
258.859680
 51
281.140289
  0
ARC
  8
0
 10
63.006233
 20
-144.254044
 40
11.254055
 50
74.791466
 51
90.031776
  0
ARC
  8
0
 10
62.996368
 20
-125.671799
 40
11.328202
 50
270.018402
 51
285.158325
  0
ARC
  8
0
 10
77.007286
 20
-144.355530
 40
11.355532
 50
90.036766
 51
105.140083
  0
ARC
  8
0
 10
76.996590
 20
-125.724678
 40
11.275316
 50
254.805939
 51
270.017334
  0
ARC
  8
0
 10
77.007286
 20
-140.355530
 40
11.355532
 50
90.036766
 51
105.140083
  0
ARC
  8
0
 10
76.996590
 20
-121.724678
 40
11.275316
 50
254.805939
 51
270.017334
  0
ARC
  8
0
 10
70.000000
 20
-149.916977
 40
20.916975
 50
78.859573
 51
101.140427
  0
ARC
  8
0
 10
70.000000
 20
-112.082825
 40
20.917185
 50
258.859680
 51
281.140289
  0
ARC
  8
0
 10
63.006233
 20
-140.254044
 40
11.254055
 50
74.791466
 51
90.031776
  0
ARC
  8
0
 10
62.996368
 20
-121.671799
 40
11.328202
 50
270.018402
 51
285.158325
  0
POLYLINE
  8
0
 66
     1
  0
VERTEX
  8
0
 10
64.000000
 20
-146.899994
  0
VERTEX
  8
0
 10
64.698441
 20
-146.532761
  0
VERTEX
  8
0
 10
65.441078
 20
-146.248566
  0
VERTEX
  8
0
 10
66.213173
 20
-146.065094
  0
VERTEX
  8
0
 10
67.000000
 20
-146.000000
  0
VERTEX
  8
0
 10
67.786827
 20
-146.065094
  0
VERTEX
  8
0
 10
68.558922
 20
-146.248566
  0
VERTEX
  8
0
 10
69.301559
 20
-146.532761
  0
VERTEX
  8
0
 10
70.000000
 20
-146.899994
  0
SEQEND
  0
POLYLINE
  8
0
 66
     1
  0
VERTEX
  8
0
 10
70.000000
 20
-146.899994
  0
VERTEX
  8
0
 10
70.698441
 20
-146.532761
  0
VERTEX
  8
0
 10
71.441078
 20
-146.248566
  0
VERTEX
  8
0
 10
72.213173
 20
-146.065094
  0
VERTEX
  8
0
 10
73.000000
 20
-146.000000
  0
VERTEX
  8
0
 10
73.786827
 20
-146.065094
  0
VERTEX
  8
0
 10
74.558922
 20
-146.248566
  0
VERTEX
  8
0
 10
75.301559
 20
-146.532761
  0
VERTEX
  8
0
 10
76.000000
 20
-146.899994
  0
SEQEND
  0
POLYLINE
  8
0
 66
     1
  0
VERTEX
  8
0
 10
70.000000
 20
-153.100006
  0
VERTEX
  8
0
 10
70.698441
 20
-153.467239
  0
VERTEX
  8
0
 10
71.441078
 20
-153.751434
  0
VERTEX
  8
0
 10
72.213173
 20
-153.934906
  0
VERTEX
  8
0
 10
73.000000
 20
-154.000000
  0
VERTEX
  8
0
 10
73.786827
 20
-153.934906
  0
VERTEX
  8
0
 10
74.558922
 20
-153.751434
  0
VERTEX
  8
0
 10
75.301559
 20
-153.467239
  0
VERTEX
  8
0
 10
76.000000
 20
-153.100006
  0
SEQEND
  0
POLYLINE
  8
0
 66
     1
  0
VERTEX
  8
0
 10
70.000000
 20
-153.100006
  0
VERTEX
  8
0
 10
69.301559
 20
-153.467239
  0
VERTEX
  8
0
 10
68.558922
 20
-153.751434
  0
VERTEX
  8
0
 10
67.786827
 20
-153.934906
  0
VERTEX
  8
0
 10
67.000000
 20
-154.000000
  0
VERTEX
  8
0
 10
66.213173
 20
-153.934906
  0
VERTEX
  8
0
 10
65.441078
 20
-153.751434
  0
VERTEX
  8
0
 10
64.698441
 20
-153.467239
  0
VERTEX
  8
0
 10
64.000000
 20
-153.100006
  0
SEQEND
  0
POINT
  8
0
 10
70.000000
 20
-63.000000
  0
POINT
  8
0
 10
78.082916
 20
-63.000000
  0
LINE
  8
0
 10
47.544250
 20
-63.000000
 11
92.464600
 21
-63.000000
  0
LINE
  8
0
 10
70.000000
 20
-85.533920
 11
70.000000
 21
-40.294991
  0
LINE
  8
0
 10
65.958549
 20
-69.999977
 11
61.917099
 21
-62.999981
  0
LINE
  8
0
 10
78.082916
 20
-62.999992
 11
74.041466
 21
-55.999992
  0
LINE
  8
0
 10
61.917099
 20
-62.999992
 11
65.958549
 21
-55.999992
  0
LINE
  8
0
 10
74.041451
 20
-70.000008
 11
78.082901
 21
-63.000008
  0
LINE
  8
0
 10
65.958549
 20
-56.000000
 11
74.041451
 21
-56.000000
  0
LINE
  8
0
 10
65.958549
 20
-70.000000
 11
74.041451
 21
-70.000000
  0
CIRCLE
  8
0
 10
70.000000
 20
-63.000000
 40
7.000000
  0
CIRCLE
  8
0
 10
70.000000
 20
-63.000000
 40
5.000000
  0
CIRCLE
  8
0
 10
70.000000
 20
-63.000000
 40
4.250000
  0
CIRCLE
  8
0
 10
70.000000
 20
-63.000000
 40
2.500000
  0
CIRCLE
  8
0
 10
70.000000
 20
-63.000000
 40
1.150000
  0
ARC
  8
0
 10
70.000000
 20
-63.000000
 40
8.000003
 50
1.045022
 51
58.954952
  0
CIRCLE
  8
0
 10
70.000000
 20
-63.000000
 40
20.000000
  0
ARC
  8
0
 10
70.000000
 20
-63.000000
 40
7.999999
 50
181.044937
 51
238.955032
  0
ARC
  8
0
 10
70.000000
 20
-63.000000
 40
7.999999
 50
121.045052
 51
178.955002
  0
ARC
  8
0
 10
70.000000
 20
-63.000000
 40
8.000001
 50
61.044960
 51
118.955040
  0
ARC
  8
0
 10
70.000000
 20
-63.000000
 40
8.000001
 50
301.044983
 51
358.955048
  0
ARC
  8
0
 10
70.000000
 20
-63.000000
 40
8.000001
 50
241.044952
 51
298.955048
  0
POINT
  8
0
 10
215.000000
 20
-120.000000
  0
POINT
  8
0
 10
223.082901
 20
-120.000000
  0
LINE
  8
0
 10
210.000000
 20
-109.000000
 11
220.000000
 21
-109.000000
  0
LINE
  8
0
 10
212.958191
 20
-99.000000
 11
217.041809
 21
-99.000000
  0
LINE
  8
0
 10
221.000000
 20
-133.000000
 11
221.000000
 21
-141.000000
  0
LINE
  8
0
 10
209.000000
 20
-133.000000
 11
209.000000
 21
-141.000000
  0
LINE
  8
0
 10
209.000000
 20
-141.000000
 11
221.000000
 21
-141.000000
  0
LINE
  8
0
 10
209.000000
 20
-133.000000
 11
221.000000
 21
-133.000000
  0
LINE
  8
0
 10
220.500000
 20
-141.000000
 11
220.500000
 21
-144.000000
  0
LINE
  8
0
 10
209.500000
 20
-141.000000
 11
209.500000
 21
-144.000000
  0
LINE
  8
0
 10
220.000000
 20
-109.000000
 11
220.000000
 21
-116.000000
  0
LINE
  8
0
 10
210.000000
 20
-109.000000
 11
210.000000
 21
-116.000000
  0
LINE
  8
0
 10
217.500000
 20
-105.000000
 11
217.500000
 21
-109.000000
  0
LINE
  8
0
 10
212.500000
 20
-105.000000
 11
212.500000
 21
-109.000000
  0
LINE
  8
0
 10
219.250000
 20
-109.000000
 11
219.250000
 21
-116.000000
  0
LINE
  8
0
 10
210.750000
 20
-109.000000
 11
210.750000
 21
-116.000000
  0
LINE
  8
0
 10
212.500000
 20
-100.500000
 11
217.500000
 21
-100.500000
  0
LINE
  8
0
 10
212.500000
 20
-102.000000
 11
217.500000
 21
-102.000000
  0
LINE
  8
0
 10
212.500000
 20
-103.500000
 11
217.500000
 21
-103.500000
  0
LINE
  8
0
 10
212.500000
 20
-105.000000
 11
217.500000
 21
-105.000000
  0
LINE
  8
0
 10
212.499969
 20
-100.499992
 11
212.558716
 21
-99.379051
  0
LINE
  8
0
 10
217.500031
 20
-100.500015
 11
217.441284
 21
-99.379082
  0
LINE
  8
0
 10
217.499985
 20
-101.999985
 11
216.954041
 21
-100.499985
  0
LINE
  8
0
 10
217.500000
 20
-103.500008
 11
216.954056
 21
-102.000008
  0
LINE
  8
0
 10
217.500000
 20
-105.000015
 11
216.954056
 21
-103.500015
  0
LINE
  8
0
 10
212.499985
 20
-102.000008
 11
213.045944
 21
-100.500008
  0
LINE
  8
0
 10
212.500000
 20
-103.500000
 11
213.045959
 21
-102.000000
  0
LINE
  8
0
 10
212.500000
 20
-105.000000
 11
213.045944
 21
-103.500000
  0
LINE
  8
0
 10
210.000000
 20
-131.000000
 11
220.000000
 21
-131.000000
  0
LINE
  8
0
 10
210.000000
 20
-131.000000
 11
210.750000
 21
-129.700958
  0
LINE
  8
0
 10
220.000000
 20
-131.000015
 11
219.250000
 21
-129.700974
  0
LINE
  8
0
 10
210.000000
 20
-129.700958
 11
220.000000
 21
-129.700958
  0
LINE
  8
0
 10
210.000000
 20
-124.000000
 11
210.000000
 21
-133.000000
  0
LINE
  8
0
 10
210.750000
 20
-124.000000
 11
210.750000
 21
-129.700958
  0
LINE
  8
0
 10
215.000000
 20
-96.784660
 11
215.000000
 21
-161.369019
  0
LINE
  8
0
 10
219.250000
 20
-124.000000
 11
219.250000
 21
-129.700958
  0
LINE
  8
0
 10
220.000000
 20
-124.000000
 11
220.000000
 21
-133.000000
  0
LINE
  8
0
 10
208.000000
 20
-124.000000
 11
222.000000
 21
-124.000000
  0
LINE
  8
0
 10
208.000000
 20
-120.000000
 11
222.000000
 21
-120.000000
  0
LINE
  8
0
 10
206.917099
 20
-120.394150
 11
206.917099
 21
-123.605858
  0
LINE
  8
0
 10
223.082901
 20
-120.394150
 11
223.082901
 21
-123.605858
  0
LINE
  8
0
 10
208.000000
 20
-119.999969
 11
206.917099
 21
-120.394112
  0
LINE
  8
0
 10
221.999985
 20
-123.999977
 11
223.082901
 21
-123.605835
  0
LINE
  8
0
 10
208.000000
 20
-123.999985
 11
206.917099
 21
-123.605843
  0
LINE
  8
0
 10
222.000000
 20
-120.000000
 11
223.082916
 21
-120.394150
  0
LINE
  8
0
 10
210.958542
 20
-120.394150
 11
210.958542
 21
-123.605858
  0
LINE
  8
0
 10
219.041458
 20
-120.394150
 11
219.041458
 21
-123.605858
  0
LINE
  8
0
 10
208.000000
 20
-116.000000
 11
222.000000
 21
-116.000000
  0
LINE
  8
0
 10
206.917099
 20
-116.394150
 11
206.917099
 21
-119.605858
  0
LINE
  8
0
 10
223.082901
 20
-116.394150
 11
223.082901
 21
-119.605858
  0
LINE
  8
0
 10
207.999985
 20
-115.999969
 11
206.917084
 21
-116.394119
  0
LINE
  8
0
 10
222.000000
 20
-120.000000
 11
223.082901
 21
-119.605850
  0
LINE
  8
0
 10
208.000000
 20
-119.999992
 11
206.917099
 21
-119.605850
  0
LINE
  8
0
 10
222.000000
 20
-116.000000
 11
223.082901
 21
-116.394150
  0
LINE
  8
0
 10
210.958542
 20
-116.394150
 11
210.958542
 21
-119.605858
  0
LINE
  8
0
 10
219.041458
 20
-116.394150
 11
219.041458
 21
-119.605858
  0
LINE
  8
0
 10
203.000000
 20
-146.000000
 11
203.000000
 21
-152.000000
  0
LINE
  8
0
 10
227.000000
 20
-146.000000
 11
227.000000
 21
-152.000000
  0
LINE
  8
0
 10
203.000000
 20
-152.000000
 11
227.000000
 21
-152.000000
  0
LINE
  8
0
 10
203.000000
 20
-152.000000
 11
227.000000
 21
-152.000000
  0
LINE
  8
0
 10
190.000000
 20
-159.000000
 11
240.000000
 21
-159.000000
  0
LINE
  8
0
 10
206.500000
 20
-144.000000
 11
223.500000
 21
-144.000000
  0
LINE
  8
0
 10
203.000000
 20
-146.000000
 11
227.000000
 21
-146.000000
  0
LINE
  8
0
 10
203.000015
 20
-145.999985
 11
206.500015
 21
-143.999985
  0
LINE
  8
0
 10
223.499985
 20
-144.000000
 11
226.999985
 21
-146.000000
  0
LINE
  8
0
 10
189.750000
 20
-158.567017
 11
190.000000
 21
-159.000031
  0
LINE
  8
0
 10
240.000015
 20
-159.000000
 11
240.250015
 21
-158.566986
  0
LINE
  8
0
 10
203.000000
 20
-151.999969
 11
189.750000
 21
-158.566956
  0
LINE
  8
0
 10
227.000015
 20
-152.000000
 11
240.250000
 21
-158.566986
  0
LINE
  8
0
 10
189.750000
 20
-158.566986
 11
240.250000
 21
-158.566986
  0
ARC
  8
0
 10
217.041809
 20
-99.400002
 40
0.399993
 50
3.000151
 51
90.000000
  0
ARC
  8
0
 10
212.958191
 20
-99.400002
 40
0.400002
 50
90.000000
 51
176.999847
  0
ARC
  8
0
 10
215.000000
 20
-140.916977
 40
20.916975
 50
78.859573
 51
101.140427
  0
ARC
  8
0
 10
215.000000
 20
-103.082825
 40
20.917177
 50
258.859680
 51
281.140320
  0
ARC
  8
0
 10
208.006226
 20
-131.254044
 40
11.254049
 50
74.791420
 51
90.031776
  0
ARC
  8
0
 10
207.996368
 20
-112.671799
 40
11.328202
 50
270.018372
 51
285.158356
  0
ARC
  8
0
 10
222.007278
 20
-131.355530
 40
11.355524
 50
90.036728
 51
105.140083
  0
ARC
  8
0
 10
221.996582
 20
-112.724678
 40
11.275324
 50
254.805939
 51
270.017365
  0
ARC
  8
0
 10
222.007278
 20
-127.355530
 40
11.355524
 50
90.036728
 51
105.140083
  0
ARC
  8
0
 10
221.996582
 20
-108.724678
 40
11.275324
 50
254.805939
 51
270.017365
  0
ARC
  8
0
 10
215.000000
 20
-136.916977
 40
20.916975
 50
78.859573
 51
101.140427
  0
ARC
  8
0
 10
215.000000
 20
-99.082825
 40
20.917177
 50
258.859680
 51
281.140320
  0
ARC
  8
0
 10
208.006226
 20
-127.254051
 40
11.254049
 50
74.791420
 51
90.031776
  0
ARC
  8
0
 10
207.996368
 20
-108.671799
 40
11.328202
 50
270.018372
 51
285.158356
  0
POLYLINE
  8
0
 66
     1
  0
VERTEX
  8
0
 10
209.000000
 20
-133.899994
  0
VERTEX
  8
0
 10
209.698441
 20
-133.532761
  0
VERTEX
  8
0
 10
210.441071
 20
-133.248566
  0
VERTEX
  8
0
 10
211.213181
 20
-133.065094
  0
VERTEX
  8
0
 10
212.000000
 20
-133.000000
  0
VERTEX
  8
0
 10
212.786819
 20
-133.065094
  0
VERTEX
  8
0
 10
213.558929
 20
-133.248566
  0
VERTEX
  8
0
 10
214.301559
 20
-133.532761
  0
VERTEX
  8
0
 10
215.000000
 20
-133.899994
  0
SEQEND
  0
POLYLINE
  8
0
 66
     1
  0
VERTEX
  8
0
 10
215.000000
 20
-133.899994
  0
VERTEX
  8
0
 10
215.698441
 20
-133.532761
  0
VERTEX
  8
0
 10
216.441071
 20
-133.248566
  0
VERTEX
  8
0
 10
217.213181
 20
-133.065094
  0
VERTEX
  8
0
 10
218.000000
 20
-133.000000
  0
VERTEX
  8
0
 10
218.786819
 20
-133.065094
  0
VERTEX
  8
0
 10
219.558929
 20
-133.248566
  0
VERTEX
  8
0
 10
220.301559
 20
-133.532761
  0
VERTEX
  8
0
 10
221.000000
 20
-133.899994
  0
SEQEND
  0
POLYLINE
  8
0
 66
     1
  0
VERTEX
  8
0
 10
215.000000
 20
-140.100006
  0
VERTEX
  8
0
 10
215.698441
 20
-140.467239
  0
VERTEX
  8
0
 10
216.441071
 20
-140.751434
  0
VERTEX
  8
0
 10
217.213181
 20
-140.934906
  0
VERTEX
  8
0
 10
218.000000
 20
-141.000000
  0
VERTEX
  8
0
 10
218.786819
 20
-140.934906
  0
VERTEX
  8
0
 10
219.558929
 20
-140.751434
  0
VERTEX
  8
0
 10
220.301559
 20
-140.467239
  0
VERTEX
  8
0
 10
221.000000
 20
-140.100006
  0
SEQEND
  0
POLYLINE
  8
0
 66
     1
  0
VERTEX
  8
0
 10
215.000000
 20
-140.100006
  0
VERTEX
  8
0
 10
214.301559
 20
-140.467239
  0
VERTEX
  8
0
 10
213.558929
 20
-140.751434
  0
VERTEX
  8
0
 10
212.786819
 20
-140.934906
  0
VERTEX
  8
0
 10
212.000000
 20
-141.000000
  0
VERTEX
  8
0
 10
211.213181
 20
-140.934906
  0
VERTEX
  8
0
 10
210.441071
 20
-140.751434
  0
VERTEX
  8
0
 10
209.698441
 20
-140.467239
  0
VERTEX
  8
0
 10
209.000000
 20
-140.100006
  0
SEQEND
  0
POINT
  8
0
 10
215.000000
 20
-60.000000
  0
POINT
  8
0
 10
223.082932
 20
-60.000000
  0
LINE
  8
0
 10
187.166672
 20
-60.000000
 11
243.500000
 21
-60.000000
  0
LINE
  8
0
 10
215.000000
 20
-87.543266
 11
215.000000
 21
-31.833336
  0
LINE
  8
0
 10
210.958572
 20
-66.999992
 11
206.917114
 21
-59.999977
  0
LINE
  8
0
 10
223.082962
 20
-59.999996
 11
219.041504
 21
-52.999985
  0
LINE
  8
0
 10
206.917084
 20
-60.000000
 11
210.958527
 21
-53.000000
  0
LINE
  8
0
 10
219.041473
 20
-67.000015
 11
223.082932
 21
-60.000011
  0
LINE
  8
0
 10
210.958542
 20
-53.000000
 11
219.041458
 21
-53.000000
  0
LINE
  8
0
 10
210.958542
 20
-67.000000
 11
219.041458
 21
-67.000000
  0
CIRCLE
  8
0
 10
215.000000
 20
-60.000000
 40
7.000000
  0
CIRCLE
  8
0
 10
215.000000
 20
-60.000000
 40
5.000000
  0
CIRCLE
  8
0
 10
215.000000
 20
-60.000000
 40
4.250000
  0
CIRCLE
  8
0
 10
215.000000
 20
-60.000000
 40
2.500000
  0
CIRCLE
  8
0
 10
215.000000
 20
-60.000000
 40
1.150000
  0
CIRCLE
  8
0
 10
215.000000
 20
-60.000000
 40
12.000000
  0
CIRCLE
  8
0
 10
215.000000
 20
-60.000000
 40
8.500000
  0
CIRCLE
  8
0
 10
215.000000
 20
-60.000000
 40
25.000000
  0
ENDSEC
  0
EOF
