  0
SECTION
  2
HEADER
  0
ENDSEC
  0
SECTION
  2
TABLES
  0
TABLE
  2
LTYPE
 70
     4
  0
LTYPE
  2
CONTINUOUS
 70
    64
  3
Solid line
 72
    65
 73
     0
 40
0.000000
  0
LTYPE
  2
DASHED
 70
    64
  3
__ __ __ __ __ __ __ __ __ __ __ __ __ __ __
 72
    65
 73
     2
 40
3.500000
 49
2.000000
 49
-1.500000
  0
LTYPE
  2
CENTER
 70
    64
  3
____ _ ____ _ ____ _ ____ _ ____ _ ____ _ ____
 72
    65
 73
     4
 40
17.500000
 49
13.000000
 49
-1.500000
 49
1.500000
 49
-1.500000
  0
LTYPE
  2
PHANTOM
 70
    64
  3
_____ _ _ _____ _ _ _____ _ _ _____ _ _ ____  
 72
    65
 73
     6
 40
15.500000
 49
8.000000
 49
-1.500000
 49
1.500000
 49
-1.500000
 49
1.500000
 49
-1.500000
  0
LTYPE
  2
DASHED1
 70
    64
  3
__ __ __ __ __ __ __ __ __ __ __ __ __ __ __
 72
    65
 73
     2
 40
1.500000
 49
1.000000
 49
-0.500000
  0
LTYPE
  2
DASHED2
 70
    64
  3
__ __ __ __ __ __ __ __ __ __ __ __ __ __ __
 72
    65
 73
     2
 40
3.500000
 49
2.500000
 49
-1.000000
  0
LTYPE
  2
DASHED3
 70
    64
  3
__ __ __ __ __ __ __ __ __ __ __ __ __ __ __
 72
    65
 73
     2
 40
6.000000
 49
4.000000
 49
-2.000000
  0
LTYPE
  2
DASHED4
 70
    64
  3
__ __ __ __ __ __ __ __ __ __ __ __ __ __ __
 72
    65
 73
     2
 40
12.000000
 49
10.000000
 49
-2.000000
  0
LTYPE
  2
DASHED5
 70
    64
  3
__ __ __ __ __ __ __ __ __ __ __ __ __ __ __
 72
    65
 73
     2
 40
17.000000
 49
15.000000
 49
-2.000000
  0
LTYPE
  2
DASHED6
 70
    64
  3
__ __ __ __ __ __ __ __ __ __ __ __ __ __ __
 72
    65
 73
     2
 40
29.000000
 49
27.000000
 49
-2.000000
  0
LTYPE
  2
PHANTOM1
 70
    64
  3
_____ _ _ _____ _ _ _____ _ _ _____ _ _ ____  
 72
    65
 73
     6
 40
31.000000
 49
25.000000
 49
-1.500000
 49
1.000000
 49
-1.000000
 49
1.000000
 49
-1.500000
  0
LTYPE
  2
PHANTOM2
 70
    64
  3
_____ _ _ _____ _ _ _____ _ _ _____ _ _ ____  
 72
    65
 73
     6
 40
36.000000
 49
27.000000
 49
-1.500000
 49
2.500000
 49
-1.000000
 49
2.500000
 49
-1.500000
  0
LTYPE
  2
PHANTOM3
 70
    64
  3
_____ _ _ _____ _ _ _____ _ _ _____ _ _ ____  
 72
    65
 73
     6
 40
78.000000
 49
64.000000
 49
-2.000000
 49
4.000000
 49
-2.000000
 49
4.000000
 49
-2.000000
  0
LTYPE
  2
CENTER1
 70
    64
  3
____ _ ____ _ ____ _ ____ _ ____ _ ____ _ ____
 72
    65
 73
     4
 40
19.000000
 49
14.000000
 49
-1.000000
 49
3.000000
 49
-1.000000
  0
LTYPE
  2
CENTER2
 70
    64
  3
____ _ ____ _ ____ _ ____ _ ____ _ ____ _ ____
 72
    65
 73
     4
 40
28.500000
 49
25.000000
 49
-1.000000
 49
1.500000
 49
-1.000000
  0
LTYPE
  2
CENTER3
 70
    64
  3
____ _ ____ _ ____ _ ____ _ ____ _ ____ _ ____
 72
    65
 73
     4
 40
31.500000
 49
27.000000
 49
-1.000000
 49
2.500000
 49
-1.000000
  0
LTYPE
  2
CENTER4
 70
    64
  3
____ _ ____ _ ____ _ ____ _ ____ _ ____ _ ____
 72
    65
 73
     4
 40
50.000000
 49
45.000000
 49
-1.000000
 49
3.000000
 49
-1.000000
  0
LTYPE
  2
CENTER5
 70
    64
  3
____ _ ____ _ ____ _ ____ _ ____ _ ____ _ ____
 72
    65
 73
     4
 40
100.000000
 49
92.000000
 49
-2.000000
 49
4.000000
 49
-2.000000
  0
LTYPE
  2
SBK1
 70
    64
  3
______ _ _ _ ______ _ _ _ ______ _ _ _ _____  
 72
    65
 73
     8
 40
60.500000
 49
45.000000
 49
-2.000000
 49
2.500000
 49
-2.000000
 49
2.500000
 49
-2.000000
 49
2.500000
 49
-2.000000
  0
LTYPE
  2
SBK2
 70
    64
  3
______ _ _ _ ______ _ _ _ ______ _ _ _ _____  
 72
    65
 73
     8
 40
84.000000
 49
64.000000
 49
-2.000000
 49
4.000000
 49
-2.000000
 49
4.000000
 49
-2.000000
 49
4.000000
 49
-2.000000
  0
LTYPE
  2
STCH
 70
    64
  3
__ __ __ __ __ __ __ __ __ __ __ __ __ __ __
 72
    65
 73
     2
 40
3.000000
 49
1.000000
 49
-2.000000
  0
LTYPE
  2
MTCH
 70
    64
  3
_____ _ _ _____ _ _ _____ _ _ _____ _ _ ____  
 72
    65
 73
     6
 40
80.000000
 49
66.000000
 49
-2.000000
 49
4.000000
 49
-2.000000
 49
4.000000
 49
-2.000000
  0
ENDTAB
  0
TABLE
  2
LAYER
 70
     1
  0
LAYER
  2
0
 70
     0
 62
     7
  6
CONTINUOUS
  0
ENDTAB
  0
TABLE
  2
STYLE
 70
     1
  0
STYLE
  2
STANDARD
 70
     0
 40
0.000000
 41
1.000000
 50
0.000000
 71
     0
 42
0.200000
  3
txt
  4
BIGFONT
  0
ENDTAB
  0
TABLE
  2
VIEW
 70
     0
  0
ENDTAB
  0
ENDSEC
  0
SECTION
  2
BLOCKS
  0
ENDSEC
  0
SECTION
  2
ENTITIES
  0
LINE
  8
0
 10
-181.250000
 20
195.500000
 11
-181.250000
 21
180.500000
  0
LINE
  8
0
 10
182.099976
 20
195.500000
 11
182.099976
 21
180.500000
  0
LINE
  8
0
 10
182.099976
 20
180.500000
 11
282.099976
 21
180.500000
  0
LINE
  8
0
 10
169.429993
 20
-175.000000
 11
282.099976
 21
-175.000000
  0
LINE
  8
0
 10
-281.250000
 20
-185.000000
 11
169.429993
 21
-185.000000
  0
LINE
  8
0
 10
-297.000000
 20
210.000000
 11
297.000000
 21
210.000000
  0
LINE
  8
0
 10
-297.000000
 20
-210.000000
 11
297.000000
 21
-210.000000
  0
LINE
  8
0
 10
297.000000
 20
210.000000
 11
297.000000
 21
-210.000000
  0
LINE
  8
0
 10
-297.000000
 20
210.000000
 11
-297.000000
 21
-210.000000
  0
LINE
  8
0
 10
-281.250000
 20
195.500000
 11
282.099976
 21
195.500000
  0
LINE
  8
0
 10
-281.250000
 20
195.500000
 11
-281.250000
 21
-195.000000
  0
LINE
  8
0
 10
282.099976
 20
195.500000
 11
282.099976
 21
-195.000000
  0
LINE
  8
0
 10
-281.250000
 20
-195.000000
 11
282.099976
 21
-195.000000
  0
LINE
  8
0
 10
-168.580002
 20
195.500000
 11
-168.580002
 21
-195.000000
  0
LINE
  8
0
 10
-55.910004
 20
195.500000
 11
-55.910004
 21
-195.000000
  0
LINE
  8
0
 10
56.759995
 20
195.500000
 11
56.759995
 21
-195.000000
  0
LINE
  8
0
 10
169.429993
 20
195.500000
 11
169.429993
 21
-195.000000
  0
LINE
  8
0
 10
-281.250000
 20
0.250000
 11
282.099976
 21
0.250000
  0
LINE
  8
0
 10
-281.250000
 20
10.250000
 11
282.099976
 21
10.250000
  0
LINE
  8
0
 10
-230.914429
 20
118.125427
 11
-238.986557
 21
87.999863
  0
LINE
  8
0
 10
-231.554886
 20
117.787132
 11
-223.613007
 21
88.147537
  0
LINE
  8
0
 10
169.429993
 20
-165.000000
 11
282.099976
 21
-165.000000
  0
LINE
  8
0
 10
-111.250008
 20
124.000008
 11
-117.828987
 21
99.446945
  0
LINE
  8
0
 10
-111.611481
 20
125.349075
 11
-104.637772
 21
99.322815
  0
LINE
  8
0
 10
119.409477
 20
121.461205
 11
108.489151
 21
80.706009
  0
LINE
  8
0
 10
128.840637
 20
81.341293
 11
118.099167
 21
121.429024
  0
LINE
  8
0
 10
8.217778
 20
83.665771
 11
-1.900848
 21
121.429008
  0
LINE
  8
0
 10
-1.249998
 20
119.000008
 11
-10.449463
 21
84.667145
  0
LINE
  8
0
 10
228.099167
 20
121.429016
 11
238.633453
 21
82.114532
  0
LINE
  8
0
 10
229.409500
 20
121.461205
 11
219.398331
 21
84.099007
  0
LINE
  8
0
 10
-230.590576
 20
-122.038818
 11
-241.978683
 21
-164.539871
  0
LINE
  8
0
 10
-220.795242
 20
-163.517792
 11
-231.900879
 21
-122.071007
  0
LINE
  8
0
 10
-110.448921
 20
-123.010292
 11
-120.306046
 21
-159.797577
  0
LINE
  8
0
 10
-102.539986
 20
-158.505997
 11
-111.946678
 21
-123.399742
  0
LINE
  8
0
 10
-11.280840
 20
-157.435608
 11
-0.448902
 21
-117.010284
  0
LINE
  8
0
 10
-1.946724
 20
-117.399773
 11
9.244349
 21
-159.165436
  0
LINE
  8
0
 10
129.309235
 20
-153.207520
 11
117.542603
 21
-109.293861
  0
LINE
  8
0
 10
108.155128
 20
-153.340546
 11
119.795647
 21
-109.897560
  0
LINE
  8
0
 10
228.199982
 20
-111.747314
 11
241.542099
 21
-161.540741
  0
LINE
  8
0
 10
228.750015
 20
-113.800011
 11
216.163193
 21
-160.774658
  0
LINE
  8
0
 10
-181.250000
 20
180.500000
 11
-281.250000
 21
180.500000
  0
TEXT
  8
0
 10
-260.828308
 20
183.779999
 40
5.800000
  1
VACCUM PAD
 50
0.000000
 41
1.052632
 51
0.000000
  7
STANDARD
  0
TEXT
  8
0
 10
188.021667
 20
183.779999
 40
5.800000
  1
DATE: JUN ,1992
 50
0.000000
 41
1.052632
 51
0.000000
  7
STANDARD
  0
TEXT
  8
0
 10
178.000870
 20
-190.300003
 40
7.000000
  1
ＫＯＧＡＮＥＩ，ＣＯＲＰ．
 50
0.000000
 41
0.902367
 51
15.000000
  7
STANDARD
  0
TEXT
  8
0
 10
-264.521881
 20
0.850000
 40
6.000000
  1
MODEL:KPPF-10
 50
0.000000
 41
1.052632
 51
0.000000
  7
STANDARD
  0
TEXT
  8
0
 10
-151.851883
 20
0.850000
 40
6.000000
  1
MODEL:KPPF-15
 50
0.000000
 41
1.052632
 51
0.000000
  7
STANDARD
  0
TEXT
  8
0
 10
-39.181885
 20
0.850000
 40
6.000000
  1
MODEL:KPPF-20
 50
0.000000
 41
1.052632
 51
0.000000
  7
STANDARD
  0
TEXT
  8
0
 10
73.488113
 20
0.850000
 40
6.000000
  1
MODEL:KPPF-25
 50
0.000000
 41
1.052632
 51
0.000000
  7
STANDARD
  0
TEXT
  8
0
 10
186.158112
 20
0.850000
 40
6.000000
  1
MODEL:KPPF-30
 50
0.000000
 41
1.052632
 51
0.000000
  7
STANDARD
  0
TEXT
  8
0
 10
186.158112
 20
-174.399994
 40
6.000000
  1
MODEL:KPPF-80
 50
0.000000
 41
1.052632
 51
0.000000
  7
STANDARD
  0
TEXT
  8
0
 10
73.488113
 20
-194.399994
 40
6.000000
  1
MODEL:KPPF-60
 50
0.000000
 41
1.052632
 51
0.000000
  7
STANDARD
  0
TEXT
  8
0
 10
-264.521881
 20
-194.399994
 40
6.000000
  1
MODEL:KPPF-35
 50
0.000000
 41
1.052632
 51
0.000000
  7
STANDARD
  0
TEXT
  8
0
 10
-151.851883
 20
-194.399994
 40
6.000000
  1
MODEL:KPPF-40
 50
0.000000
 41
1.052632
 51
0.000000
  7
STANDARD
  0
TEXT
  8
0
 10
-39.181885
 20
-194.399994
 40
6.000000
  1
MODEL:KPPF-50
 50
0.000000
 41
1.052632
 51
0.000000
  7
STANDARD
  0
POINT
  8
0
 10
-231.279999
 20
158.261017
  0
POINT
  8
0
 10
-223.229996
 20
158.261017
  0
LINE
  8
0
 10
-236.279999
 20
122.761017
 11
-226.279999
 21
122.761017
  0
LINE
  8
0
 10
-226.279999
 20
122.761009
 11
-225.997147
 21
123.043854
  0
LINE
  8
0
 10
-236.279999
 20
122.761017
 11
-236.562851
 21
123.043854
  0
LINE
  8
0
 10
-236.562836
 20
123.043854
 11
-236.074966
 21
123.531723
  0
LINE
  8
0
 10
-225.997162
 20
123.043854
 11
-226.485031
 21
123.531723
  0
LINE
  8
0
 10
-226.080002
 20
124.361015
 11
-226.080002
 21
124.911018
  0
LINE
  8
0
 10
-236.479996
 20
124.361023
 11
-236.479996
 21
124.911018
  0
LINE
  8
0
 10
-226.485016
 20
123.955986
 11
-226.080002
 21
124.361008
  0
LINE
  8
0
 10
-236.074982
 20
123.955986
 11
-236.480011
 21
124.361008
  0
LINE
  8
0
 10
-238.279999
 20
136.261017
 11
-224.279999
 21
136.261017
  0
LINE
  8
0
 10
-238.279999
 20
149.261017
 11
-224.279999
 21
149.261017
  0
LINE
  8
0
 10
-238.279999
 20
136.261017
 11
-238.279999
 21
149.261017
  0
LINE
  8
0
 10
-224.279999
 20
136.261017
 11
-224.279999
 21
149.261017
  0
LINE
  8
0
 10
-231.279999
 20
136.867035
 11
-231.279999
 21
148.654999
  0
LINE
  8
0
 10
-226.279999
 20
149.261017
 11
-226.279999
 21
154.261017
  0
LINE
  8
0
 10
-236.279999
 20
149.261017
 11
-236.279999
 21
154.261017
  0
LINE
  8
0
 10
-236.279999
 20
152.261017
 11
-226.279999
 21
152.261017
  0
LINE
  8
0
 10
-235.279999
 20
166.261017
 11
-227.279999
 21
166.261017
  0
LINE
  8
0
 10
-236.279999
 20
165.261017
 11
-226.279999
 21
165.261017
  0
LINE
  8
0
 10
-227.279999
 20
152.261017
 11
-227.279999
 21
154.261017
  0
LINE
  8
0
 10
-236.279999
 20
165.261017
 11
-235.279999
 21
166.261017
  0
LINE
  8
0
 10
-227.279999
 20
166.261017
 11
-226.279999
 21
165.261017
  0
LINE
  8
0
 10
-239.330002
 20
158.867233
 11
-239.330002
 21
161.654800
  0
LINE
  8
0
 10
-223.229996
 20
158.867233
 11
-223.229996
 21
161.654800
  0
LINE
  8
0
 10
-238.279999
 20
158.261017
 11
-224.279999
 21
158.261017
  0
LINE
  8
0
 10
-223.229996
 20
158.867233
 11
-224.279999
 21
158.261017
  0
LINE
  8
0
 10
-239.330002
 20
158.867233
 11
-238.279999
 21
158.261017
  0
LINE
  8
0
 10
-227.238541
 20
158.867233
 11
-227.238541
 21
161.654800
  0
LINE
  8
0
 10
-235.321442
 20
158.867233
 11
-235.321442
 21
161.654800
  0
LINE
  8
0
 10
-235.279999
 20
162.261017
 11
-235.279999
 21
166.261017
  0
LINE
  8
0
 10
-227.279999
 20
162.261017
 11
-227.279999
 21
166.261017
  0
LINE
  8
0
 10
-235.279999
 20
152.261017
 11
-235.279999
 21
154.261017
  0
LINE
  8
0
 10
-238.279999
 20
162.261017
 11
-224.279999
 21
162.261017
  0
LINE
  8
0
 10
-223.229996
 20
161.654800
 11
-224.279999
 21
162.261017
  0
LINE
  8
0
 10
-238.279999
 20
162.261017
 11
-224.279999
 21
162.261017
  0
LINE
  8
0
 10
-239.330002
 20
161.654800
 11
-238.279999
 21
162.261017
  0
LINE
  8
0
 10
-239.330002
 20
154.867233
 11
-239.330002
 21
157.654800
  0
LINE
  8
0
 10
-223.229996
 20
154.867233
 11
-223.229996
 21
157.654800
  0
LINE
  8
0
 10
-238.279999
 20
154.261017
 11
-224.279999
 21
154.261017
  0
LINE
  8
0
 10
-223.229996
 20
154.867233
 11
-224.279999
 21
154.261017
  0
LINE
  8
0
 10
-239.330002
 20
154.867233
 11
-238.279999
 21
154.261017
  0
LINE
  8
0
 10
-227.238541
 20
154.867233
 11
-227.238541
 21
157.654800
  0
LINE
  8
0
 10
-235.321442
 20
154.867233
 11
-235.321442
 21
157.654800
  0
LINE
  8
0
 10
-239.330002
 20
157.654800
 11
-238.279999
 21
158.261017
  0
LINE
  8
0
 10
-238.279999
 20
158.261017
 11
-224.279999
 21
158.261017
  0
LINE
  8
0
 10
-223.229996
 20
157.654800
 11
-224.279999
 21
158.261017
  0
LINE
  8
0
 10
-238.279999
 20
158.261017
 11
-224.279999
 21
158.261017
  0
LINE
  8
0
 10
-236.279999
 20
162.261017
 11
-236.279999
 21
165.261017
  0
LINE
  8
0
 10
-226.279999
 20
162.261017
 11
-226.279999
 21
165.261017
  0
LINE
  8
0
 10
-235.179993
 20
166.261017
 11
-235.179993
 21
166.761017
  0
LINE
  8
0
 10
-234.779999
 20
169.261017
 11
-227.779999
 21
169.261017
  0
LINE
  8
0
 10
-234.779999
 20
166.761017
 11
-227.779999
 21
166.761017
  0
LINE
  8
0
 10
-229.259277
 20
167.078552
 11
-229.259277
 21
168.943481
  0
LINE
  8
0
 10
-233.300720
 20
167.078552
 11
-233.300720
 21
168.943481
  0
LINE
  8
0
 10
-235.330002
 20
167.078552
 11
-234.779999
 21
166.761017
  0
LINE
  8
0
 10
-235.330002
 20
167.078552
 11
-235.330002
 21
168.943481
  0
LINE
  8
0
 10
-235.330002
 20
168.943481
 11
-234.779999
 21
169.261017
  0
LINE
  8
0
 10
-227.229996
 20
168.943481
 11
-227.779999
 21
169.261017
  0
LINE
  8
0
 10
-227.229996
 20
167.078552
 11
-227.229996
 21
168.943481
  0
LINE
  8
0
 10
-227.380005
 20
166.261017
 11
-227.380005
 21
166.761017
  0
LINE
  8
0
 10
-235.179993
 20
166.761017
 11
-227.380005
 21
166.761017
  0
LINE
  8
0
 10
-227.229996
 20
167.078552
 11
-227.779999
 21
166.761017
  0
LINE
  8
0
 10
-255.479996
 20
144.761017
 11
-236.580002
 21
144.761017
  0
LINE
  8
0
 10
-234.779999
 20
133.861023
 11
-227.779999
 21
133.861023
  0
LINE
  8
0
 10
-227.229996
 20
134.178558
 11
-227.229996
 21
135.943481
  0
LINE
  8
0
 10
-235.330002
 20
134.178558
 11
-235.330002
 21
135.943481
  0
LINE
  8
0
 10
-234.779999
 20
136.261002
 11
-235.330002
 21
135.943466
  0
LINE
  8
0
 10
-227.779999
 20
136.261017
 11
-227.229996
 21
135.943481
  0
LINE
  8
0
 10
-234.779999
 20
133.861008
 11
-235.330002
 21
134.178558
  0
LINE
  8
0
 10
-227.779999
 20
133.861023
 11
-227.229996
 21
134.178558
  0
LINE
  8
0
 10
-229.259277
 20
134.178558
 11
-229.259277
 21
135.943481
  0
LINE
  8
0
 10
-233.300766
 20
135.943481
 11
-233.300766
 21
134.178558
  0
LINE
  8
0
 10
-234.779999
 20
132.761017
 11
-227.779999
 21
132.761017
  0
LINE
  8
0
 10
-236.279999
 20
131.561020
 11
-226.279999
 21
131.561020
  0
LINE
  8
0
 10
-237.279999
 20
130.911011
 11
-225.279999
 21
130.911011
  0
LINE
  8
0
 10
-237.279999
 20
124.911018
 11
-225.279999
 21
124.911018
  0
LINE
  8
0
 10
-225.279999
 20
124.911018
 11
-225.279999
 21
130.911011
  0
LINE
  8
0
 10
-237.279999
 20
124.911018
 11
-237.279999
 21
130.911011
  0
LINE
  8
0
 10
-226.279999
 20
130.911011
 11
-226.279999
 21
131.561020
  0
LINE
  8
0
 10
-236.279999
 20
130.911011
 11
-236.279999
 21
131.561020
  0
LINE
  8
0
 10
-234.779999
 20
131.561020
 11
-234.779999
 21
132.761017
  0
LINE
  8
0
 10
-227.779999
 20
131.561020
 11
-227.779999
 21
132.761017
  0
LINE
  8
0
 10
-233.200729
 20
133.761017
 11
-229.359268
 21
133.761017
  0
LINE
  8
0
 10
-229.359268
 20
133.761017
 11
-229.259277
 21
133.861008
  0
LINE
  8
0
 10
-229.359268
 20
133.761017
 11
-229.359268
 21
133.861023
  0
LINE
  8
0
 10
-233.200729
 20
133.761017
 11
-233.300720
 21
133.861023
  0
LINE
  8
0
 10
-233.200729
 20
133.761017
 11
-233.200729
 21
133.861023
  0
LINE
  8
0
 10
-232.779999
 20
132.761017
 11
-232.779999
 21
133.761017
  0
LINE
  8
0
 10
-229.779999
 20
132.761017
 11
-229.779999
 21
133.761017
  0
LINE
  8
0
 10
-235.987106
 20
123.743858
 11
-226.572891
 21
123.743858
  0
LINE
  8
0
 10
-231.279999
 20
119.561905
 11
-231.279999
 21
173.611023
  0
LINE
  8
0
 10
-238.770004
 20
140.861023
 11
-238.770004
 21
148.661011
  0
LINE
  8
0
 10
-238.279999
 20
148.661011
 11
-238.770004
 21
148.661011
  0
LINE
  8
0
 10
-239.087540
 20
140.711014
 11
-240.952454
 21
140.711014
  0
LINE
  8
0
 10
-239.087540
 20
148.811020
 11
-240.952454
 21
148.811020
  0
LINE
  8
0
 10
-240.952515
 20
140.710968
 11
-241.280029
 21
141.278229
  0
LINE
  8
0
 10
-240.952469
 20
148.811020
 11
-241.279999
 21
148.243713
  0
LINE
  8
0
 10
-239.087540
 20
142.740295
 11
-240.952454
 21
142.740295
  0
LINE
  8
0
 10
-239.087540
 20
146.781738
 11
-240.952454
 21
146.781738
  0
LINE
  8
0
 10
-239.087570
 20
140.711029
 11
-238.770020
 21
141.261017
  0
LINE
  8
0
 10
-239.087585
 20
148.810989
 11
-238.770050
 21
148.260986
  0
LINE
  8
0
 10
-248.279999
 20
142.813004
 11
-248.279999
 21
146.709030
  0
LINE
  8
0
 10
-241.279999
 20
141.278259
 11
-241.279999
 21
147.772324
  0
LINE
  8
0
 10
-238.770004
 20
140.861023
 11
-238.279999
 21
140.861023
  0
LINE
  8
0
 10
-243.279999
 20
142.411011
 11
-243.279999
 21
147.111023
  0
LINE
  8
0
 10
-245.779999
 20
142.411011
 11
-245.779999
 21
147.111023
  0
LINE
  8
0
 10
-243.279999
 20
142.411011
 11
-245.779999
 21
142.629730
  0
LINE
  8
0
 10
-245.779999
 20
142.411011
 11
-248.097427
 21
142.613754
  0
LINE
  8
0
 10
-248.097427
 20
146.908264
 11
-245.779999
 21
147.111008
  0
LINE
  8
0
 10
-245.779999
 20
146.892288
 11
-243.279999
 21
147.111023
  0
LINE
  8
0
 10
-243.180008
 20
142.629745
 11
-241.479996
 21
142.629745
  0
LINE
  8
0
 10
-243.180008
 20
146.892303
 11
-241.479996
 21
146.892303
  0
LINE
  8
0
 10
-243.279999
 20
147.019928
 11
-243.279999
 21
147.083969
  0
LINE
  8
0
 10
-241.279999
 20
147.092300
 11
-241.279999
 21
148.243713
  0
LINE
  8
0
 10
-225.997162
 20
123.043854
 11
-236.562851
 21
123.043854
  0
LINE
  8
0
 10
-236.279999
 20
150.528976
 11
-235.279999
 21
152.261017
  0
LINE
  8
0
 10
-226.279999
 20
150.528961
 11
-227.279999
 21
152.261017
  0
ARC
  8
0
 10
-226.272888
 20
123.743858
 40
0.300010
 50
135.001038
 51
224.998962
  0
ARC
  8
0
 10
-237.325729
 20
161.877167
 40
3.616187
 50
236.340912
 51
303.659088
  0
ARC
  8
0
 10
-231.279999
 20
172.035660
 40
13.774640
 50
252.938538
 51
287.061462
  0
ARC
  8
0
 10
-225.234268
 20
161.877167
 40
3.616187
 50
236.340912
 51
303.659088
  0
ARC
  8
0
 10
-225.234268
 20
158.644867
 40
3.616187
 50
56.340912
 51
123.659088
  0
ARC
  8
0
 10
-231.279999
 20
148.486374
 40
13.774645
 50
72.938477
 51
107.061462
  0
ARC
  8
0
 10
-237.325729
 20
158.644867
 40
3.616187
 50
56.340912
 51
123.659088
  0
ARC
  8
0
 10
-225.234268
 20
154.644867
 40
3.616187
 50
56.340912
 51
123.659088
  0
ARC
  8
0
 10
-237.325729
 20
154.644867
 40
3.616187
 50
56.340912
 51
123.659088
  0
ARC
  8
0
 10
-231.279999
 20
168.035660
 40
13.774640
 50
252.938538
 51
287.061462
  0
ARC
  8
0
 10
-231.279999
 20
144.486374
 40
13.774645
 50
72.938477
 51
107.061462
  0
ARC
  8
0
 10
-237.325729
 20
157.877167
 40
3.616187
 50
236.340912
 51
303.659088
  0
ARC
  8
0
 10
-225.234268
 20
157.877167
 40
3.616187
 50
236.340912
 51
303.659088
  0
ARC
  8
0
 10
-234.779999
 20
146.671021
 40
10.410002
 50
250.353561
 51
289.646454
  0
ARC
  8
0
 10
-227.779999
 20
146.671021
 40
10.410002
 50
250.353561
 51
289.646454
  0
ARC
  8
0
 10
-227.779999
 20
138.851013
 40
10.410002
 50
70.353554
 51
109.646446
  0
ARC
  8
0
 10
-234.779999
 20
138.851013
 40
10.410002
 50
70.353554
 51
109.646446
  0
ARC
  8
0
 10
-234.315369
 20
168.540802
 40
1.779791
 50
235.243805
 51
270.000000
  0
ARC
  8
0
 10
-228.244629
 20
168.540787
 40
1.779770
 50
269.999512
 51
304.756775
  0
ARC
  8
0
 10
-231.279999
 20
173.349396
 40
6.588379
 50
269.999878
 51
287.861053
  0
ARC
  8
0
 10
-231.279999
 20
173.349396
 40
6.588388
 50
252.138824
 51
269.999878
  0
ARC
  8
0
 10
-234.315369
 20
168.540802
 40
1.779785
 50
270.000000
 51
304.756592
  0
ARC
  8
0
 10
-234.315369
 20
167.481232
 40
1.779799
 50
55.243397
 51
90.000000
  0
ARC
  8
0
 10
-234.315369
 20
167.481232
 40
1.779785
 50
90.000000
 51
124.756203
  0
ARC
  8
0
 10
-231.279999
 20
162.672638
 40
6.588379
 50
90.000000
 51
107.861053
  0
ARC
  8
0
 10
-231.279999
 20
162.672638
 40
6.588383
 50
72.138947
 51
90.000000
  0
ARC
  8
0
 10
-228.244644
 20
167.481247
 40
1.779770
 50
89.999512
 51
124.756760
  0
ARC
  8
0
 10
-228.244644
 20
167.481247
 40
1.779774
 50
55.242836
 51
89.999512
  0
ARC
  8
0
 10
-228.244629
 20
168.540787
 40
1.779774
 50
235.242828
 51
269.999512
  0
ARC
  8
0
 10
-228.244644
 20
134.481216
 40
1.779812
 50
55.243675
 51
124.755920
  0
ARC
  8
0
 10
-231.279999
 20
129.672638
 40
6.588383
 50
72.138947
 51
107.861053
  0
ARC
  8
0
 10
-234.315369
 20
134.481216
 40
1.779812
 50
55.243675
 51
124.755920
  0
ARC
  8
0
 10
-228.244644
 20
135.640823
 40
1.779803
 50
235.244080
 51
304.756317
  0
ARC
  8
0
 10
-231.279999
 20
140.449402
 40
6.588383
 50
252.138947
 51
287.861053
  0
ARC
  8
0
 10
-234.315369
 20
135.640808
 40
1.779791
 50
235.243805
 51
304.756592
  0
ARC
  8
0
 10
-236.287109
 20
123.743858
 40
0.299999
 50
314.998962
 51
45.001030
  0
ARC
  8
0
 10
-243.180008
 20
142.529739
 40
0.100006
 50
90.000000
 51
180.000000
  0
ARC
  8
0
 10
-239.490234
 20
147.796387
 40
1.779770
 50
180.000000
 51
214.757172
  0
ARC
  8
0
 10
-234.681625
 20
144.761017
 40
6.588379
 50
180.000000
 51
197.861053
  0
ARC
  8
0
 10
-239.490219
 20
141.725647
 40
1.779785
 50
180.000000
 51
214.756195
  0
ARC
  8
0
 10
-234.681625
 20
144.761017
 40
6.588369
 50
162.138901
 51
180.000000
  0
ARC
  8
0
 10
-239.490219
 20
141.725647
 40
1.779799
 50
145.243393
 51
180.000000
  0
ARC
  8
0
 10
-239.490234
 20
147.796387
 40
1.779766
 50
145.243240
 51
180.000000
  0
ARC
  8
0
 10
-240.549774
 20
147.796387
 40
1.779774
 50
325.242828
 51
359.999512
  0
ARC
  8
0
 10
-245.358383
 20
144.761017
 40
6.588379
 50
359.999878
 51
17.861057
  0
ARC
  8
0
 10
-245.358383
 20
144.761017
 40
6.588388
 50
342.138824
 51
359.999878
  0
ARC
  8
0
 10
-240.549789
 20
141.725647
 40
1.779800
 50
0.000000
 51
34.756603
  0
ARC
  8
0
 10
-248.080002
 20
142.813004
 40
0.199997
 50
180.000000
 51
265.001465
  0
ARC
  8
0
 10
-248.080002
 20
146.709030
 40
0.199995
 50
94.998520
 51
180.000000
  0
ARC
  8
0
 10
-241.479996
 20
142.429733
 40
0.199997
 50
0.000000
 51
90.000000
  0
ARC
  8
0
 10
-241.479996
 20
147.092300
 40
0.199997
 50
270.000000
 51
0.000000
  0
ARC
  8
0
 10
-243.180008
 20
146.992294
 40
0.099991
 50
180.000000
 51
270.000000
  0
POINT
  8
0
 10
-111.250000
 20
165.500000
  0
POINT
  8
0
 10
-103.199997
 20
165.500000
  0
LINE
  8
0
 10
-118.250000
 20
143.500000
 11
-104.250000
 21
143.500000
  0
LINE
  8
0
 10
-118.250000
 20
156.500000
 11
-104.250000
 21
156.500000
  0
LINE
  8
0
 10
-118.250000
 20
143.500000
 11
-118.250000
 21
156.500000
  0
LINE
  8
0
 10
-104.250000
 20
143.500000
 11
-104.250000
 21
156.500000
  0
LINE
  8
0
 10
-111.250000
 20
144.106018
 11
-111.250000
 21
155.893982
  0
LINE
  8
0
 10
-106.250000
 20
156.500000
 11
-106.250000
 21
161.500000
  0
LINE
  8
0
 10
-116.250000
 20
156.500000
 11
-116.250000
 21
161.500000
  0
LINE
  8
0
 10
-116.250000
 20
159.500000
 11
-106.250000
 21
159.500000
  0
LINE
  8
0
 10
-115.250000
 20
173.500000
 11
-107.250000
 21
173.500000
  0
LINE
  8
0
 10
-116.250000
 20
172.500000
 11
-106.250000
 21
172.500000
  0
LINE
  8
0
 10
-107.250000
 20
159.500000
 11
-107.250000
 21
161.500000
  0
LINE
  8
0
 10
-116.250000
 20
172.500000
 11
-115.250000
 21
173.500000
  0
LINE
  8
0
 10
-107.250000
 20
173.500000
 11
-106.250000
 21
172.500000
  0
LINE
  8
0
 10
-119.300003
 20
166.106216
 11
-119.300003
 21
168.893784
  0
LINE
  8
0
 10
-103.199997
 20
166.106216
 11
-103.199997
 21
168.893784
  0
LINE
  8
0
 10
-118.250000
 20
165.500000
 11
-104.250000
 21
165.500000
  0
LINE
  8
0
 10
-103.199997
 20
166.106216
 11
-104.250000
 21
165.500000
  0
LINE
  8
0
 10
-119.300003
 20
166.106216
 11
-118.250000
 21
165.500000
  0
LINE
  8
0
 10
-107.208549
 20
166.106216
 11
-107.208549
 21
168.893784
  0
LINE
  8
0
 10
-115.291451
 20
166.106216
 11
-115.291451
 21
168.893784
  0
LINE
  8
0
 10
-115.250000
 20
169.500000
 11
-115.250000
 21
173.500000
  0
LINE
  8
0
 10
-107.250000
 20
169.500000
 11
-107.250000
 21
173.500000
  0
LINE
  8
0
 10
-115.250000
 20
159.500000
 11
-115.250000
 21
161.500000
  0
LINE
  8
0
 10
-118.250000
 20
169.500000
 11
-104.250000
 21
169.500000
  0
LINE
  8
0
 10
-103.200005
 20
168.893784
 11
-104.250000
 21
169.500000
  0
LINE
  8
0
 10
-118.250000
 20
169.500000
 11
-104.250000
 21
169.500000
  0
LINE
  8
0
 10
-119.300003
 20
168.893784
 11
-118.250000
 21
169.500000
  0
LINE
  8
0
 10
-119.300003
 20
162.106216
 11
-119.300003
 21
164.893784
  0
LINE
  8
0
 10
-103.199997
 20
162.106216
 11
-103.199997
 21
164.893784
  0
LINE
  8
0
 10
-118.250000
 20
161.500000
 11
-104.250000
 21
161.500000
  0
LINE
  8
0
 10
-103.199997
 20
162.106216
 11
-104.250000
 21
161.500000
  0
LINE
  8
0
 10
-119.300003
 20
162.106216
 11
-118.250000
 21
161.500000
  0
LINE
  8
0
 10
-107.208549
 20
162.106216
 11
-107.208549
 21
164.893784
  0
LINE
  8
0
 10
-115.291451
 20
162.106216
 11
-115.291451
 21
164.893784
  0
LINE
  8
0
 10
-119.300003
 20
164.893784
 11
-118.250000
 21
165.500000
  0
LINE
  8
0
 10
-118.250000
 20
165.500000
 11
-104.250000
 21
165.500000
  0
LINE
  8
0
 10
-103.200005
 20
164.893784
 11
-104.250000
 21
165.500000
  0
LINE
  8
0
 10
-118.250000
 20
165.500000
 11
-104.250000
 21
165.500000
  0
LINE
  8
0
 10
-116.250000
 20
169.500000
 11
-116.250000
 21
172.500000
  0
LINE
  8
0
 10
-106.250000
 20
169.500000
 11
-106.250000
 21
172.500000
  0
LINE
  8
0
 10
-115.150002
 20
173.500000
 11
-115.150002
 21
174.000000
  0
LINE
  8
0
 10
-114.750000
 20
176.500000
 11
-107.750000
 21
176.500000
  0
LINE
  8
0
 10
-114.750000
 20
174.000000
 11
-107.750000
 21
174.000000
  0
LINE
  8
0
 10
-109.229279
 20
174.317535
 11
-109.229279
 21
176.182465
  0
LINE
  8
0
 10
-113.270721
 20
174.317535
 11
-113.270721
 21
176.182465
  0
LINE
  8
0
 10
-115.299995
 20
174.317535
 11
-114.750000
 21
174.000000
  0
LINE
  8
0
 10
-115.300003
 20
174.317535
 11
-115.300003
 21
176.182465
  0
LINE
  8
0
 10
-115.300003
 20
176.182465
 11
-114.750008
 21
176.500000
  0
LINE
  8
0
 10
-107.199997
 20
176.182465
 11
-107.750000
 21
176.500000
  0
LINE
  8
0
 10
-107.199997
 20
174.317535
 11
-107.199997
 21
176.182465
  0
LINE
  8
0
 10
-107.349998
 20
173.500000
 11
-107.349998
 21
174.000000
  0
LINE
  8
0
 10
-115.150002
 20
174.000000
 11
-107.349998
 21
174.000000
  0
LINE
  8
0
 10
-107.200005
 20
174.317535
 11
-107.750000
 21
174.000000
  0
LINE
  8
0
 10
-135.449997
 20
152.000000
 11
-116.550003
 21
152.000000
  0
LINE
  8
0
 10
-114.750000
 20
141.100006
 11
-107.750000
 21
141.100006
  0
LINE
  8
0
 10
-107.199997
 20
141.417542
 11
-107.199997
 21
143.182465
  0
LINE
  8
0
 10
-115.300003
 20
141.417542
 11
-115.300003
 21
143.182465
  0
LINE
  8
0
 10
-114.750000
 20
143.500000
 11
-115.299995
 21
143.182449
  0
LINE
  8
0
 10
-107.750000
 20
143.500000
 11
-107.199997
 21
143.182465
  0
LINE
  8
0
 10
-114.750000
 20
141.100006
 11
-115.300003
 21
141.417542
  0
LINE
  8
0
 10
-107.750000
 20
141.100006
 11
-107.200005
 21
141.417542
  0
LINE
  8
0
 10
-109.229279
 20
141.417542
 11
-109.229279
 21
143.182465
  0
LINE
  8
0
 10
-113.270760
 20
143.182465
 11
-113.270760
 21
141.417542
  0
LINE
  8
0
 10
-114.750000
 20
140.000000
 11
-107.750000
 21
140.000000
  0
LINE
  8
0
 10
-116.250000
 20
138.800003
 11
-106.250000
 21
138.800003
  0
LINE
  8
0
 10
-117.250000
 20
138.199997
 11
-105.250000
 21
138.199997
  0
LINE
  8
0
 10
-117.250000
 20
132.199997
 11
-105.250000
 21
132.199997
  0
LINE
  8
0
 10
-105.250000
 20
132.199997
 11
-105.250000
 21
138.199997
  0
LINE
  8
0
 10
-117.250000
 20
132.199997
 11
-117.250000
 21
138.199997
  0
LINE
  8
0
 10
-106.250000
 20
138.199997
 11
-106.250000
 21
138.800003
  0
LINE
  8
0
 10
-116.250000
 20
138.199997
 11
-116.250000
 21
138.800003
  0
LINE
  8
0
 10
-114.750000
 20
138.800003
 11
-114.750000
 21
140.000000
  0
LINE
  8
0
 10
-107.750000
 20
138.800003
 11
-107.750000
 21
140.000000
  0
LINE
  8
0
 10
-112.750000
 20
140.000000
 11
-112.750000
 21
141.100006
  0
LINE
  8
0
 10
-109.750000
 20
140.000000
 11
-109.750000
 21
141.100006
  0
LINE
  8
0
 10
-111.250000
 20
128.050888
 11
-111.250000
 21
180.850006
  0
LINE
  8
0
 10
-118.740005
 20
148.100006
 11
-118.740005
 21
155.899994
  0
LINE
  8
0
 10
-118.250000
 20
155.899994
 11
-118.740005
 21
155.899994
  0
LINE
  8
0
 10
-119.057533
 20
147.949997
 11
-120.922455
 21
147.949997
  0
LINE
  8
0
 10
-119.057541
 20
156.050003
 11
-120.922462
 21
156.050003
  0
LINE
  8
0
 10
-120.922516
 20
147.949951
 11
-121.250023
 21
148.517227
  0
LINE
  8
0
 10
-120.922470
 20
156.050003
 11
-121.250000
 21
155.482697
  0
LINE
  8
0
 10
-119.057533
 20
149.979279
 11
-120.922455
 21
149.979279
  0
LINE
  8
0
 10
-119.057549
 20
154.020721
 11
-120.922462
 21
154.020721
  0
LINE
  8
0
 10
-119.057571
 20
147.950012
 11
-118.740028
 21
148.500000
  0
LINE
  8
0
 10
-119.057587
 20
156.049973
 11
-118.740044
 21
155.499969
  0
LINE
  8
0
 10
-128.250000
 20
150.051987
 11
-128.250000
 21
153.948013
  0
LINE
  8
0
 10
-121.250000
 20
148.517242
 11
-121.250000
 21
155.011307
  0
LINE
  8
0
 10
-118.740005
 20
148.100006
 11
-118.250000
 21
148.100006
  0
LINE
  8
0
 10
-123.250000
 20
149.649994
 11
-123.250000
 21
154.350006
  0
LINE
  8
0
 10
-125.750000
 20
149.649994
 11
-125.750000
 21
154.350006
  0
LINE
  8
0
 10
-123.250000
 20
149.649994
 11
-125.750008
 21
149.868713
  0
LINE
  8
0
 10
-125.750000
 20
149.649994
 11
-128.067429
 21
149.852737
  0
LINE
  8
0
 10
-128.067429
 20
154.147247
 11
-125.750000
 21
154.349991
  0
LINE
  8
0
 10
-125.750000
 20
154.131271
 11
-123.250000
 21
154.350006
  0
LINE
  8
0
 10
-123.150002
 20
149.868729
 11
-121.450005
 21
149.868729
  0
LINE
  8
0
 10
-123.150002
 20
154.131287
 11
-121.450005
 21
154.131287
  0
LINE
  8
0
 10
-123.250000
 20
154.258911
 11
-123.250000
 21
154.322952
  0
LINE
  8
0
 10
-121.250000
 20
154.331284
 11
-121.250000
 21
155.482697
  0
LINE
  8
0
 10
-116.250000
 20
157.767960
 11
-115.250000
 21
159.500000
  0
LINE
  8
0
 10
-106.250000
 20
157.767944
 11
-107.250000
 21
159.500000
  0
LINE
  8
0
 10
-111.250000
 20
133.409561
 11
-111.250000
 21
128.353333
  0
LINE
  8
0
 10
-105.903557
 20
131.719238
 11
-103.467163
 21
129.282837
  0
LINE
  8
0
 10
-103.749992
 20
129.000000
 11
-103.467148
 21
129.282837
  0
LINE
  8
0
 10
-106.050003
 20
132.199997
 11
-106.050003
 21
132.072784
  0
LINE
  8
0
  6
DASHED
 10
-106.750000
 20
132.000000
 11
-106.750000
 21
132.000000
  0
LINE
  8
0
 10
-103.750000
 20
129.000000
 11
-118.750000
 21
129.000000
  0
LINE
  8
0
 10
-116.596443
 20
131.719238
 11
-119.032837
 21
129.282837
  0
LINE
  8
0
 10
-118.749992
 20
129.000015
 11
-119.032837
 21
129.282852
  0
LINE
  8
0
 10
-116.449997
 20
132.199997
 11
-116.449997
 21
132.072784
  0
LINE
  8
0
  6
DASHED
 10
-115.750000
 20
132.000000
 11
-115.750000
 21
132.000000
  0
LINE
  8
0
 10
-116.278023
 20
131.865692
 11
-106.260979
 21
131.865692
  0
LINE
  8
0
 10
-103.467155
 20
129.282837
 11
-119.032845
 21
129.282837
  0
ARC
  8
0
 10
-117.295723
 20
169.116150
 40
3.616187
 50
236.340912
 51
303.659088
  0
ARC
  8
0
 10
-111.250000
 20
179.274643
 40
13.774640
 50
252.938538
 51
287.061462
  0
ARC
  8
0
 10
-105.204277
 20
169.116150
 40
3.616183
 50
236.341019
 51
303.659088
  0
ARC
  8
0
 10
-105.204277
 20
165.883850
 40
3.616187
 50
56.340912
 51
123.658989
  0
ARC
  8
0
 10
-111.250000
 20
155.725357
 40
13.774643
 50
72.938507
 51
107.061432
  0
ARC
  8
0
 10
-117.295723
 20
165.883850
 40
3.616187
 50
56.340912
 51
123.659088
  0
ARC
  8
0
 10
-105.204277
 20
161.883850
 40
3.616187
 50
56.340912
 51
123.658989
  0
ARC
  8
0
 10
-117.295723
 20
161.883850
 40
3.616187
 50
56.340912
 51
123.659088
  0
ARC
  8
0
 10
-111.250000
 20
175.274643
 40
13.774640
 50
252.938538
 51
287.061462
  0
ARC
  8
0
 10
-111.250000
 20
151.725357
 40
13.774643
 50
72.938507
 51
107.061432
  0
ARC
  8
0
 10
-117.295723
 20
165.116150
 40
3.616187
 50
236.340912
 51
303.659088
  0
ARC
  8
0
 10
-105.204277
 20
165.116150
 40
3.616187
 50
236.340912
 51
303.659088
  0
ARC
  8
0
 10
-114.750000
 20
153.910004
 40
10.410002
 50
250.353561
 51
289.646393
  0
ARC
  8
0
 10
-107.750000
 20
153.910004
 40
10.410002
 50
250.353561
 51
289.646393
  0
ARC
  8
0
 10
-107.750000
 20
146.089996
 40
10.410002
 50
70.353554
 51
109.646408
  0
ARC
  8
0
 10
-114.750000
 20
146.089996
 40
10.410002
 50
70.353554
 51
109.646408
  0
ARC
  8
0
 10
-114.285362
 20
175.779785
 40
1.779795
 50
235.243591
 51
270.000000
  0
ARC
  8
0
 10
-108.214638
 20
175.779770
 40
1.779770
 50
270.000000
 51
304.756775
  0
ARC
  8
0
 10
-111.250008
 20
180.588379
 40
6.588379
 50
270.000000
 51
287.861115
  0
ARC
  8
0
 10
-111.250008
 20
180.588379
 40
6.588383
 50
252.138947
 51
270.000000
  0
ARC
  8
0
 10
-114.285362
 20
175.779785
 40
1.779785
 50
270.000000
 51
304.756195
  0
ARC
  8
0
 10
-114.285362
 20
174.720215
 40
1.779795
 50
55.243599
 51
90.000000
  0
ARC
  8
0
 10
-114.285362
 20
174.720215
 40
1.779785
 50
90.000000
 51
124.756401
  0
ARC
  8
0
 10
-111.250008
 20
169.911621
 40
6.588379
 50
90.000000
 51
107.861053
  0
ARC
  8
0
 10
-111.250008
 20
169.911621
 40
6.588388
 50
72.138817
 51
90.000000
  0
ARC
  8
0
 10
-108.214638
 20
174.720230
 40
1.779770
 50
90.000000
 51
124.756760
  0
ARC
  8
0
 10
-108.214638
 20
174.720230
 40
1.779766
 50
55.243240
 51
90.000000
  0
ARC
  8
0
 10
-108.214638
 20
175.779770
 40
1.779766
 50
235.243240
 51
270.000000
  0
ARC
  8
0
 10
-108.214638
 20
141.720200
 40
1.779803
 50
55.244080
 51
124.756119
  0
ARC
  8
0
 10
-111.250000
 20
136.911621
 40
6.588383
 50
72.138947
 51
107.861053
  0
ARC
  8
0
 10
-114.285362
 20
141.720200
 40
1.779803
 50
55.244080
 51
124.756119
  0
ARC
  8
0
 10
-108.214638
 20
142.879807
 40
1.779808
 50
235.243881
 51
304.755920
  0
ARC
  8
0
 10
-111.250000
 20
147.688385
 40
6.588386
 50
252.138885
 51
287.861053
  0
ARC
  8
0
 10
-114.285362
 20
142.879791
 40
1.779795
 50
235.243591
 51
304.756195
  0
ARC
  8
0
 10
-123.150002
 20
149.768723
 40
0.100006
 50
90.000000
 51
180.000000
  0
ARC
  8
0
 10
-119.460236
 20
155.035370
 40
1.779770
 50
180.000000
 51
214.757019
  0
ARC
  8
0
 10
-114.651627
 20
152.000000
 40
6.588379
 50
180.000000
 51
197.861053
  0
ARC
  8
0
 10
-119.460220
 20
148.964630
 40
1.779785
 50
180.000000
 51
214.756348
  0
ARC
  8
0
 10
-114.651627
 20
152.000000
 40
6.588376
 50
162.138916
 51
180.000000
  0
ARC
  8
0
 10
-119.460220
 20
148.964630
 40
1.779793
 50
145.243256
 51
180.000000
  0
ARC
  8
0
 10
-119.460236
 20
155.035370
 40
1.779766
 50
145.243240
 51
180.000000
  0
ARC
  8
0
 10
-120.519768
 20
155.035370
 40
1.779774
 50
325.242828
 51
359.999512
  0
ARC
  8
0
 10
-125.328384
 20
152.000000
 40
6.588379
 50
359.999878
 51
17.861057
  0
ARC
  8
0
 10
-125.328384
 20
152.000000
 40
6.588388
 50
342.138824
 51
359.999878
  0
ARC
  8
0
 10
-120.519783
 20
148.964630
 40
1.779785
 50
0.000000
 51
34.756744
  0
ARC
  8
0
 10
-128.050003
 20
150.051987
 40
0.199997
 50
180.000000
 51
265.001465
  0
ARC
  8
0
 10
-128.050003
 20
153.948013
 40
0.199995
 50
94.998520
 51
180.000000
  0
ARC
  8
0
 10
-121.450005
 20
149.668716
 40
0.200005
 50
0.000000
 51
90.000000
  0
ARC
  8
0
 10
-121.450005
 20
154.331284
 40
0.199997
 50
270.000000
 51
0.000000
  0
ARC
  8
0
 10
-123.150002
 20
154.231277
 40
0.099998
 50
180.000000
 51
270.000000
  0
ARC
  8
0
 10
-105.550003
 20
132.072784
 40
0.500000
 50
180.000000
 51
225.000000
  0
ARC
  8
0
 10
-116.949997
 20
132.072784
 40
0.499990
 50
315.000000
 51
0.000000
  0
POINT
  8
0
 10
-111.250000
 20
45.500000
  0
POINT
  8
0
 10
-111.250000
 20
45.500000
  0
POINT
  8
0
 10
-103.467148
 20
45.500000
  0
LINE
  8
0
 10
-111.250000
 20
34.149994
 11
-111.250000
 21
60.449997
  0
LINE
  8
0
 10
-118.740005
 20
41.599998
 11
-118.740005
 21
43.385143
  0
LINE
  8
0
 10
-118.250000
 20
49.400002
 11
-118.739998
 21
49.400002
  0
LINE
  8
0
 10
-128.250000
 20
43.551987
 11
-128.250000
 21
47.448013
  0
LINE
  8
0
 10
-121.250000
 20
42.000000
 11
-121.250000
 21
49.000000
  0
LINE
  8
0
 10
-118.740005
 20
41.599998
 11
-118.250000
 21
41.599998
  0
LINE
  8
0
 10
-123.250000
 20
43.150002
 11
-123.250000
 21
47.849998
  0
LINE
  8
0
 10
-125.750000
 20
43.150002
 11
-125.750000
 21
47.849998
  0
LINE
  8
0
 10
-123.250000
 20
43.149975
 11
-125.750008
 21
43.368694
  0
LINE
  8
0
 10
-125.750000
 20
43.149986
 11
-128.067429
 21
43.352734
  0
LINE
  8
0
 10
-128.067429
 20
47.647243
 11
-125.750000
 21
47.849995
  0
LINE
  8
0
 10
-125.749992
 20
47.631260
 11
-123.250000
 21
47.849983
  0
LINE
  8
0
 10
-123.150002
 20
43.368721
 11
-121.449997
 21
43.368721
  0
LINE
  8
0
 10
-123.150002
 20
47.631279
 11
-121.449997
 21
47.631279
  0
LINE
  8
0
 10
-123.250000
 20
47.758919
 11
-123.250000
 21
47.822952
  0
LINE
  8
0
 10
-131.969467
 20
45.500000
 11
-98.284515
 21
45.500000
  0
LINE
  8
0
 10
-118.250000
 20
41.458549
 11
-118.250000
 21
42.098125
  0
LINE
  8
0
 10
-104.250000
 20
41.458549
 11
-104.250000
 21
42.098125
  0
LINE
  8
0
 10
-104.250008
 20
49.541451
 11
-104.803886
 21
49.861233
  0
LINE
  8
0
 10
-111.250000
 20
37.417095
 11
-111.803886
 21
37.736885
  0
LINE
  8
0
 10
-111.249992
 20
37.417091
 11
-110.696091
 21
37.736885
  0
LINE
  8
0
 10
-121.250000
 20
42.000000
 11
-118.740005
 21
42.000000
  0
LINE
  8
0
 10
-121.250000
 20
49.000000
 11
-118.739998
 21
49.000000
  0
LINE
  8
0
 10
-121.250000
 20
45.499985
 11
-118.740005
 21
45.499985
  0
LINE
  8
0
 10
-118.250000
 20
49.541451
 11
-117.696114
 21
49.861240
  0
LINE
  8
0
 10
-118.250000
 20
48.901875
 11
-118.250000
 21
49.541451
  0
LINE
  8
0
 10
-111.803894
 20
53.263115
 11
-111.250008
 21
53.582901
  0
LINE
  8
0
 10
-110.696121
 20
53.263115
 11
-111.250008
 21
53.582901
  0
LINE
  8
0
 10
-104.250000
 20
48.901875
 11
-104.250000
 21
49.541451
  0
LINE
  8
0
 10
-104.803902
 20
41.138744
 11
-104.249992
 21
41.458542
  0
LINE
  8
0
 10
-117.696114
 20
41.138763
 11
-118.250000
 21
41.458549
  0
LINE
  8
0
 10
-118.740005
 20
47.614857
 11
-118.740005
 21
49.400002
  0
ARC
  8
0
 10
-128.050003
 20
43.551987
 40
0.199997
 50
180.000000
 51
265.001587
  0
ARC
  8
0
 10
-128.050003
 20
47.448013
 40
0.200002
 50
94.998329
 51
180.000000
  0
ARC
  8
0
 10
-121.449997
 20
43.168724
 40
0.199997
 50
0.000000
 51
90.000000
  0
ARC
  8
0
 10
-121.449997
 20
47.831284
 40
0.200001
 50
270.000000
 51
0.000000
  0
ARC
  8
0
 10
-123.150002
 20
47.731277
 40
0.099998
 50
180.000000
 51
270.000000
  0
ARC
  8
0
 10
-123.150002
 20
43.268723
 40
0.100002
 50
90.000000
 51
180.000000
  0
ARC
  8
0
 10
-123.721123
 20
43.750000
 40
4.981121
 50
339.431519
 51
356.241272
  0
ARC
  8
0
 10
-123.721123
 20
47.250000
 40
4.981120
 50
3.758685
 51
20.568474
  0
ARC
  8
0
 10
-116.411194
 20
47.250000
 40
4.838806
 50
158.797852
 51
201.202148
  0
ARC
  8
0
 10
-116.411194
 20
43.750000
 40
4.838806
 50
158.797852
 51
201.202148
  0
CIRCLE
  8
0
 10
-111.250000
 20
45.500000
 40
7.782850
  0
POINT
  8
0
 10
-1.250000
 20
165.500000
  0
POINT
  8
0
 10
6.799999
 20
165.500000
  0
POINT
  8
0
 10
-1.250000
 20
130.000000
  0
LINE
  8
0
 10
-11.250004
 20
121.500000
 11
8.749996
 21
121.500000
  0
LINE
  8
0
 10
-11.250004
 20
125.000000
 11
8.749996
 21
125.000000
  0
LINE
  8
0
 10
8.750000
 20
125.000000
 11
8.750000
 21
127.000000
  0
LINE
  8
0
 10
-11.250000
 20
125.000000
 11
-11.250000
 21
127.000000
  0
LINE
  8
0
 10
-10.136412
 20
123.886383
 11
-11.250013
 21
124.999985
  0
LINE
  8
0
 10
7.636405
 20
123.886383
 11
8.750010
 21
124.999985
  0
LINE
  8
0
 10
8.750007
 20
121.499985
 11
9.032847
 21
121.782822
  0
LINE
  8
0
 10
-11.250016
 20
121.499985
 11
-11.532861
 21
121.782829
  0
LINE
  8
0
 10
9.032830
 20
121.782837
 11
7.636385
 21
123.179276
  0
LINE
  8
0
 10
-11.532851
 20
121.782837
 11
-10.136403
 21
123.179291
  0
LINE
  8
0
 10
-9.989956
 20
123.532837
 11
7.489944
 21
123.532837
  0
LINE
  8
0
 10
-11.650005
 20
130.500000
 11
9.149996
 21
130.500000
  0
LINE
  8
0
 10
-12.650005
 20
127.000000
 11
10.149996
 21
127.000000
  0
LINE
  8
0
 10
10.150000
 20
127.000000
 11
10.150000
 21
129.500000
  0
LINE
  8
0
 10
-12.650002
 20
127.000000
 11
-12.650002
 21
129.500000
  0
LINE
  8
0
 10
-8.250002
 20
142.000000
 11
5.749998
 21
142.000000
  0
LINE
  8
0
 10
-8.250002
 20
156.500000
 11
5.749999
 21
156.500000
  0
LINE
  8
0
 10
-5.250000
 20
173.500000
 11
2.750000
 21
173.500000
  0
LINE
  8
0
 10
5.750000
 20
142.000000
 11
5.750000
 21
156.500000
  0
LINE
  8
0
 10
-8.250000
 20
142.000000
 11
-8.250000
 21
156.500000
  0
LINE
  8
0
 10
3.750000
 20
156.500000
 11
3.750000
 21
161.500000
  0
LINE
  8
0
 10
-6.250000
 20
156.500000
 11
-6.250000
 21
161.500000
  0
LINE
  8
0
 10
-5.250000
 20
159.500000
 11
-5.250000
 21
161.500000
  0
LINE
  8
0
 10
2.750000
 20
159.500000
 11
2.750000
 21
161.500000
  0
LINE
  8
0
 10
-6.250000
 20
172.500000
 11
3.750000
 21
172.500000
  0
LINE
  8
0
 10
-6.250000
 20
172.500000
 11
-5.250000
 21
173.500000
  0
LINE
  8
0
 10
2.750000
 20
173.500000
 11
3.749999
 21
172.500000
  0
LINE
  8
0
 10
-6.250001
 20
159.500000
 11
3.749999
 21
159.500000
  0
LINE
  8
0
 10
-1.250000
 20
143.187820
 11
-1.250000
 21
155.312180
  0
LINE
  8
0
 10
-8.250000
 20
169.500000
 11
5.750001
 21
169.500000
  0
LINE
  8
0
 10
-8.250001
 20
165.500000
 11
5.749999
 21
165.500000
  0
LINE
  8
0
 10
6.799999
 20
166.106216
 11
6.799999
 21
168.893784
  0
LINE
  8
0
 10
-9.299999
 20
166.106216
 11
-9.299999
 21
168.893784
  0
LINE
  8
0
 10
2.750000
 20
169.500000
 11
2.750000
 21
173.500000
  0
LINE
  8
0
 10
3.750000
 20
169.500000
 11
3.750000
 21
172.500000
  0
LINE
  8
0
 10
-5.250000
 20
169.500000
 11
-5.250000
 21
173.500000
  0
LINE
  8
0
 10
-6.250000
 20
169.500000
 11
-6.250000
 21
172.500000
  0
LINE
  8
0
 10
6.799997
 20
166.106216
 11
5.749999
 21
165.500000
  0
LINE
  8
0
 10
-9.299998
 20
166.106216
 11
-8.250001
 21
165.500000
  0
LINE
  8
0
 10
2.791452
 20
166.106216
 11
2.791452
 21
168.893784
  0
LINE
  8
0
 10
-5.291451
 20
166.106216
 11
-5.291451
 21
168.893784
  0
LINE
  8
0
 10
6.799991
 20
168.893768
 11
5.749993
 21
169.499985
  0
LINE
  8
0
 10
-8.250000
 20
169.500000
 11
5.750000
 21
169.500000
  0
LINE
  8
0
 10
-9.299988
 20
168.893768
 11
-8.249989
 21
169.499985
  0
LINE
  8
0
 10
-8.250001
 20
165.500000
 11
5.750001
 21
165.500000
  0
LINE
  8
0
 10
-8.250001
 20
161.500000
 11
5.749999
 21
161.500000
  0
LINE
  8
0
 10
6.799999
 20
162.106216
 11
6.799999
 21
164.893784
  0
LINE
  8
0
 10
-9.299999
 20
162.106216
 11
-9.299999
 21
164.893784
  0
LINE
  8
0
 10
-9.299993
 20
164.893768
 11
-8.249994
 21
165.499985
  0
LINE
  8
0
 10
-8.250001
 20
165.500000
 11
5.749999
 21
165.500000
  0
LINE
  8
0
 10
6.799992
 20
164.893784
 11
5.749994
 21
165.499985
  0
LINE
  8
0
 10
6.799999
 20
162.106201
 11
5.750000
 21
161.499985
  0
LINE
  8
0
 10
-9.299998
 20
162.106216
 11
-8.250000
 21
161.500000
  0
LINE
  8
0
 10
2.791452
 20
162.106216
 11
2.791452
 21
164.893784
  0
LINE
  8
0
 10
-5.291451
 20
162.106216
 11
-5.291451
 21
164.893784
  0
LINE
  8
0
 10
-8.250000
 20
143.500000
 11
-8.250000
 21
156.500000
  0
LINE
  8
0
 10
-5.150002
 20
173.990005
 11
2.650001
 21
173.990005
  0
LINE
  8
0
 10
2.650002
 20
173.500000
 11
2.650002
 21
173.990005
  0
LINE
  8
0
 10
-5.299999
 20
174.307526
 11
-5.299999
 21
176.172455
  0
LINE
  8
0
 10
2.799999
 20
174.307541
 11
2.799999
 21
176.172455
  0
LINE
  8
0
 10
-5.300041
 20
176.172501
 11
-4.732776
 21
176.500015
  0
LINE
  8
0
 10
2.799998
 20
176.172470
 11
2.232713
 21
176.500000
  0
LINE
  8
0
 10
-3.270725
 20
174.307526
 11
-3.270725
 21
176.172455
  0
LINE
  8
0
 10
0.770725
 20
174.307541
 11
0.770725
 21
176.172455
  0
LINE
  8
0
 10
-5.299980
 20
174.307556
 11
-4.749984
 21
173.990021
  0
LINE
  8
0
 10
2.799980
 20
174.307587
 11
2.249979
 21
173.990036
  0
LINE
  8
0
 10
-4.732765
 20
176.500000
 11
2.232710
 21
176.500000
  0
LINE
  8
0
 10
-5.150002
 20
173.990005
 11
-5.150002
 21
173.500000
  0
LINE
  8
0
 10
-11.250000
 20
154.331284
 11
-11.250000
 21
155.482697
  0
LINE
  8
0
 10
-8.740004
 20
148.099991
 11
-8.250002
 21
148.099991
  0
LINE
  8
0
 10
-9.057535
 20
147.949997
 11
-10.922457
 21
147.949997
  0
LINE
  8
0
 10
-10.922512
 20
147.949951
 11
-11.250023
 21
148.517227
  0
LINE
  8
0
 10
-11.250000
 20
148.517242
 11
-11.250000
 21
155.011307
  0
LINE
  8
0
 10
-10.922474
 20
156.049988
 11
-11.250004
 21
155.482697
  0
LINE
  8
0
 10
-9.057539
 20
156.050003
 11
-10.922461
 21
156.050003
  0
LINE
  8
0
 10
-9.057590
 20
156.049957
 11
-8.740047
 21
155.499969
  0
LINE
  8
0
 10
-9.057547
 20
154.020721
 11
-10.922461
 21
154.020721
  0
LINE
  8
0
 10
-9.057535
 20
149.979279
 11
-10.922457
 21
149.979279
  0
LINE
  8
0
 10
-9.057568
 20
147.950012
 11
-8.740025
 21
148.500000
  0
LINE
  8
0
 10
-8.740002
 20
148.099991
 11
-8.740002
 21
155.899994
  0
LINE
  8
0
 10
-8.250002
 20
155.899994
 11
-8.740004
 21
155.899994
  0
LINE
  8
0
 10
-7.950004
 20
134.000000
 11
5.449997
 21
134.000000
  0
LINE
  8
0
 10
-8.450001
 20
130.500000
 11
-8.450001
 21
133.500000
  0
LINE
  8
0
 10
5.950001
 20
130.500000
 11
5.950001
 21
133.500000
  0
LINE
  8
0
 10
5.949998
 20
133.500000
 11
5.449997
 21
134.000000
  0
LINE
  8
0
 10
-8.450006
 20
133.500000
 11
-7.950006
 21
134.000000
  0
LINE
  8
0
 10
-8.450005
 20
133.500000
 11
5.949997
 21
133.500000
  0
LINE
  8
0
 10
-3.750003
 20
138.000000
 11
1.249997
 21
138.000000
  0
LINE
  8
0
 10
-6.250003
 20
138.399994
 11
3.749997
 21
138.399994
  0
LINE
  8
0
 10
-7.000000
 20
138.833008
 11
-7.000000
 21
141.566986
  0
LINE
  8
0
 10
4.500000
 20
138.833008
 11
4.500000
 21
141.566986
  0
LINE
  8
0
 10
-3.750005
 20
138.000000
 11
-4.150004
 21
138.399994
  0
LINE
  8
0
 10
1.249995
 20
138.000000
 11
1.649995
 21
138.399994
  0
LINE
  8
0
 10
-6.250002
 20
138.400009
 11
-7.000001
 21
138.833008
  0
LINE
  8
0
 10
3.750005
 20
138.399979
 11
4.500006
 21
138.832993
  0
LINE
  8
0
 10
3.749989
 20
141.999985
 11
4.499990
 21
141.566971
  0
LINE
  8
0
 10
-6.250002
 20
142.000000
 11
3.749998
 21
142.000000
  0
LINE
  8
0
 10
-6.250001
 20
141.999985
 11
-6.999996
 21
141.566971
  0
LINE
  8
0
 10
-4.136799
 20
138.833008
 11
-4.136799
 21
141.566986
  0
LINE
  8
0
 10
1.636753
 20
141.566986
 11
1.636753
 21
138.833008
  0
LINE
  8
0
 10
1.250000
 20
138.000000
 11
1.250000
 21
138.399994
  0
LINE
  8
0
 10
-3.750000
 20
138.000000
 11
-3.750000
 21
138.399994
  0
LINE
  8
0
 10
-24.047350
 20
152.000000
 11
-6.550005
 21
152.000000
  0
LINE
  8
0
 10
-18.250000
 20
150.051987
 11
-18.250000
 21
153.948013
  0
LINE
  8
0
 10
-13.250000
 20
149.649994
 11
-13.250000
 21
154.349991
  0
LINE
  8
0
 10
-15.750000
 20
149.649994
 11
-15.750000
 21
154.350006
  0
LINE
  8
0
 10
-13.250005
 20
149.649994
 11
-15.750007
 21
149.868713
  0
LINE
  8
0
 10
-15.750008
 20
149.649994
 11
-18.067438
 21
149.852737
  0
LINE
  8
0
 10
-18.067430
 20
154.147247
 11
-15.750002
 21
154.349991
  0
LINE
  8
0
 10
-15.750000
 20
154.131287
 11
-13.250006
 21
154.350006
  0
LINE
  8
0
 10
-13.150003
 20
149.868713
 11
-11.450003
 21
149.868713
  0
LINE
  8
0
 10
-13.150003
 20
154.131271
 11
-11.450003
 21
154.131271
  0
LINE
  8
0
 10
-13.250000
 20
154.258911
 11
-13.250000
 21
154.322952
  0
LINE
  8
0
 10
-1.250000
 20
118.518036
 11
-1.250000
 21
178.291290
  0
LINE
  8
0
 10
-6.113719
 20
130.000000
 11
3.654864
 21
130.000000
  0
LINE
  8
0
 10
-3.450001
 20
134.000000
 11
-3.450001
 21
138.000000
  0
LINE
  8
0
 10
0.950001
 20
134.000000
 11
0.950001
 21
138.000000
  0
LINE
  8
0
 10
9.032837
 20
121.782837
 11
-11.532848
 21
121.782837
  0
LINE
  8
0
 10
-6.250002
 20
157.767944
 11
-5.250002
 21
159.500000
  0
LINE
  8
0
 10
3.749997
 20
157.767944
 11
2.749998
 21
159.500000
  0
ARC
  8
0
 10
-10.489956
 20
123.532845
 40
0.500000
 50
314.999908
 51
45.000076
  0
ARC
  8
0
 10
7.989944
 20
123.532837
 40
0.500001
 50
135.000000
 51
225.000000
  0
ARC
  8
0
 10
9.149996
 20
129.500000
 40
1.000000
 50
0.000000
 51
90.000000
  0
ARC
  8
0
 10
-11.650005
 20
129.500000
 40
1.000000
 50
90.000000
 51
180.000000
  0
ARC
  8
0
 10
2.249998
 20
147.750397
 40
5.750399
 50
232.507828
 51
307.492187
  0
ARC
  8
0
 10
-4.750002
 20
147.750397
 40
5.750399
 50
232.507828
 51
307.492187
  0
ARC
  8
0
 10
-4.750002
 20
150.749588
 40
5.750412
 50
89.999992
 51
127.492096
  0
ARC
  8
0
 10
2.249998
 20
150.749588
 40
5.750412
 50
89.999992
 51
127.492096
  0
ARC
  8
0
 10
2.249998
 20
150.749588
 40
5.750412
 50
52.507896
 51
89.999992
  0
ARC
  8
0
 10
-4.750002
 20
150.749588
 40
5.750412
 50
52.507896
 51
89.999992
  0
ARC
  8
0
 10
-7.295723
 20
169.116150
 40
3.616188
 50
236.340897
 51
303.659088
  0
ARC
  8
0
 10
-1.250000
 20
179.274643
 40
13.774641
 50
252.938538
 51
287.061462
  0
ARC
  8
0
 10
4.795724
 20
169.116150
 40
3.616186
 50
236.340942
 51
303.659088
  0
ARC
  8
0
 10
4.795724
 20
165.883850
 40
3.616188
 50
56.340885
 51
123.659050
  0
ARC
  8
0
 10
-1.250002
 20
155.725357
 40
13.774643
 50
72.938499
 51
107.061432
  0
ARC
  8
0
 10
-7.295724
 20
165.883850
 40
3.616187
 50
56.340900
 51
123.659088
  0
ARC
  8
0
 10
-7.295724
 20
161.883850
 40
3.616187
 50
56.340900
 51
123.659088
  0
ARC
  8
0
 10
-1.250000
 20
175.274643
 40
13.774641
 50
252.938538
 51
287.061462
  0
ARC
  8
0
 10
4.795724
 20
161.883850
 40
3.616188
 50
56.340885
 51
123.659050
  0
ARC
  8
0
 10
-1.250002
 20
151.725357
 40
13.774643
 50
72.938499
 51
107.061432
  0
ARC
  8
0
 10
4.795724
 20
165.116150
 40
3.616186
 50
236.340942
 51
303.659088
  0
ARC
  8
0
 10
-7.295724
 20
165.116150
 40
3.616187
 50
236.340897
 51
303.659088
  0
ARC
  8
0
 10
1.785362
 20
174.710236
 40
1.779770
 50
89.999992
 51
124.756828
  0
ARC
  8
0
 10
-1.250008
 20
169.901627
 40
6.588379
 50
89.999992
 51
107.861084
  0
ARC
  8
0
 10
-9.460222
 20
148.964630
 40
1.779787
 50
180.000000
 51
214.756317
  0
ARC
  8
0
 10
-1.250008
 20
169.901627
 40
6.588372
 50
72.138817
 51
89.999992
  0
ARC
  8
0
 10
-4.285362
 20
174.710220
 40
1.779780
 50
55.243412
 51
90.000000
  0
ARC
  8
0
 10
1.785362
 20
174.710236
 40
1.779767
 50
55.243156
 51
89.999992
  0
ARC
  8
0
 10
1.785362
 20
175.769760
 40
1.779767
 50
235.243164
 51
269.999969
  0
ARC
  8
0
 10
-1.250007
 20
180.578384
 40
6.588394
 50
269.999969
 51
287.861115
  0
ARC
  8
0
 10
-1.250007
 20
180.578384
 40
6.588384
 50
252.138916
 51
269.999969
  0
ARC
  8
0
 10
-4.285362
 20
175.769775
 40
1.779785
 50
269.999969
 51
304.756561
  0
ARC
  8
0
 10
-11.450003
 20
149.668716
 40
0.200000
 50
0.000000
 51
90.000000
  0
ARC
  8
0
 10
-11.450003
 20
154.331284
 40
0.199997
 50
270.000000
 51
0.000000
  0
ARC
  8
0
 10
-15.328382
 20
152.000000
 40
6.588381
 50
359.999878
 51
17.861073
  0
ARC
  8
0
 10
-9.460222
 20
148.964630
 40
1.779793
 50
145.243256
 51
180.000000
  0
ARC
  8
0
 10
-4.651625
 20
151.999985
 40
6.588381
 50
179.999863
 51
197.860931
  0
ARC
  8
0
 10
-4.651625
 20
151.999985
 40
6.588382
 50
162.138794
 51
179.999863
  0
ARC
  8
0
 10
-9.460238
 20
155.035355
 40
1.779770
 50
180.000000
 51
214.756714
  0
ARC
  8
0
 10
-9.460238
 20
155.035355
 40
1.779776
 50
145.242874
 51
180.000000
  0
ARC
  8
0
 10
-10.519770
 20
155.035355
 40
1.779767
 50
325.243286
 51
0.000000
  0
ARC
  8
0
 10
-10.519785
 20
148.964630
 40
1.779787
 50
0.000000
 51
34.756710
  0
ARC
  8
0
 10
-15.328382
 20
152.000000
 40
6.588384
 50
342.138794
 51
359.999878
  0
ARC
  8
0
 10
-5.568377
 20
140.982971
 40
2.583000
 50
236.341034
 51
303.658997
  0
ARC
  8
0
 10
-1.250000
 20
148.239014
 40
9.839016
 50
252.938522
 51
287.061523
  0
ARC
  8
0
 10
3.068374
 20
140.982956
 40
2.582987
 50
236.340866
 51
303.659119
  0
ARC
  8
0
 10
3.068374
 20
139.417038
 40
2.582987
 50
56.340851
 51
123.659103
  0
ARC
  8
0
 10
-1.250001
 20
132.160980
 40
9.839019
 50
72.938477
 51
107.061470
  0
ARC
  8
0
 10
-5.568377
 20
139.417023
 40
2.583001
 50
56.340988
 51
123.658943
  0
ARC
  8
0
 10
-13.150003
 20
154.231277
 40
0.100000
 50
180.000000
 51
270.000000
  0
ARC
  8
0
 10
-13.150003
 20
149.768723
 40
0.099991
 50
90.000000
 51
180.000000
  0
ARC
  8
0
 10
-18.050001
 20
150.051987
 40
0.200001
 50
180.000000
 51
265.000397
  0
ARC
  8
0
 10
-18.050001
 20
153.948013
 40
0.199995
 50
94.999611
 51
180.000000
  0
POINT
  8
0
 10
-1.250000
 20
45.500000
  0
POINT
  8
0
 10
-1.250000
 20
45.500000
  0
POINT
  8
0
 10
10.150000
 20
45.500000
  0
LINE
  8
0
 10
-1.250000
 20
33.049995
 11
-1.250000
 21
61.549999
  0
LINE
  8
0
 10
-20.478157
 20
45.500000
 11
11.263779
 21
45.500000
  0
LINE
  8
0
 10
-18.250000
 20
43.551987
 11
-18.250000
 21
47.448013
  0
LINE
  8
0
 10
-13.250000
 20
43.150002
 11
-13.250000
 21
47.849998
  0
LINE
  8
0
 10
-15.750000
 20
43.150002
 11
-15.750000
 21
47.849998
  0
LINE
  8
0
 10
-13.250003
 20
43.149971
 11
-15.750005
 21
43.368690
  0
LINE
  8
0
 10
-15.750001
 20
43.149982
 11
-18.067427
 21
43.352730
  0
LINE
  8
0
 10
-18.067440
 20
47.647236
 11
-15.750005
 21
47.849987
  0
LINE
  8
0
 10
-15.750000
 20
47.631264
 11
-13.250006
 21
47.849987
  0
LINE
  8
0
 10
-13.150002
 20
43.368721
 11
-12.449001
 21
43.368721
  0
LINE
  8
0
 10
-13.150002
 20
47.631279
 11
-12.449001
 21
47.631279
  0
LINE
  8
0
 10
-13.250000
 20
47.758919
 11
-13.250000
 21
47.822952
  0
ARC
  8
0
 10
-13.150002
 20
43.268723
 40
0.100002
 50
90.000000
 51
180.000000
  0
ARC
  8
0
 10
-18.050003
 20
43.551987
 40
0.200001
 50
180.000000
 51
265.000488
  0
ARC
  8
0
 10
-18.050003
 20
47.448013
 40
0.200003
 50
94.999420
 51
180.000000
  0
ARC
  8
0
 10
-13.150002
 20
47.731281
 40
0.100000
 50
180.000000
 51
270.000000
  0
CIRCLE
  8
0
 10
-1.250000
 20
45.500000
 40
10.282845
  0
CIRCLE
  8
0
 10
-1.250000
 20
45.500000
 40
11.400000
  0
POINT
  8
0
 10
118.750000
 20
165.500000
  0
POINT
  8
0
 10
126.800003
 20
165.500000
  0
LINE
  8
0
 10
108.349991
 20
130.500000
 11
129.149994
 21
130.500000
  0
LINE
  8
0
 10
107.349991
 20
127.000000
 11
130.149994
 21
127.000000
  0
LINE
  8
0
 10
130.149994
 20
127.000000
 11
130.149994
 21
129.500000
  0
LINE
  8
0
 10
107.349998
 20
127.000000
 11
107.349998
 21
129.500000
  0
LINE
  8
0
 10
111.750000
 20
142.000000
 11
125.750000
 21
142.000000
  0
LINE
  8
0
 10
111.750000
 20
156.500000
 11
125.750000
 21
156.500000
  0
LINE
  8
0
 10
114.750000
 20
173.500000
 11
122.750000
 21
173.500000
  0
LINE
  8
0
 10
125.750000
 20
142.000000
 11
125.750000
 21
156.500000
  0
LINE
  8
0
 10
111.750000
 20
142.000000
 11
111.750000
 21
156.500000
  0
LINE
  8
0
 10
123.750000
 20
156.500000
 11
123.750000
 21
161.500000
  0
LINE
  8
0
 10
113.750000
 20
156.500000
 11
113.750000
 21
161.500000
  0
LINE
  8
0
 10
114.750000
 20
159.500000
 11
114.750000
 21
161.500000
  0
LINE
  8
0
 10
122.750000
 20
159.500000
 11
122.750000
 21
161.500000
  0
LINE
  8
0
 10
113.750000
 20
172.500000
 11
123.750000
 21
172.500000
  0
LINE
  8
0
 10
113.750000
 20
172.500000
 11
114.750000
 21
173.500000
  0
LINE
  8
0
 10
122.750000
 20
173.500000
 11
123.750000
 21
172.500000
  0
LINE
  8
0
 10
113.750000
 20
159.500000
 11
123.750000
 21
159.500000
  0
LINE
  8
0
 10
118.750000
 20
143.187820
 11
118.750000
 21
155.312180
  0
LINE
  8
0
 10
111.750000
 20
169.500000
 11
125.750000
 21
169.500000
  0
LINE
  8
0
 10
111.750000
 20
165.500000
 11
125.750000
 21
165.500000
  0
LINE
  8
0
 10
126.800003
 20
166.106216
 11
126.800003
 21
168.893784
  0
LINE
  8
0
 10
110.699997
 20
166.106216
 11
110.699997
 21
168.893784
  0
LINE
  8
0
 10
122.750000
 20
169.500000
 11
122.750000
 21
173.500000
  0
LINE
  8
0
 10
123.750000
 20
169.500000
 11
123.750000
 21
172.500000
  0
LINE
  8
0
 10
114.750000
 20
169.500000
 11
114.750000
 21
173.500000
  0
LINE
  8
0
 10
113.750000
 20
169.500000
 11
113.750000
 21
172.500000
  0
LINE
  8
0
 10
126.799995
 20
166.106216
 11
125.750000
 21
165.500000
  0
LINE
  8
0
 10
110.700005
 20
166.106232
 11
111.750000
 21
165.500015
  0
LINE
  8
0
 10
122.791451
 20
166.106216
 11
122.791451
 21
168.893784
  0
LINE
  8
0
 10
114.708549
 20
166.106216
 11
114.708549
 21
168.893784
  0
LINE
  8
0
 10
126.799988
 20
168.893768
 11
125.749992
 21
169.499985
  0
LINE
  8
0
 10
111.750000
 20
169.500000
 11
125.750000
 21
169.500000
  0
LINE
  8
0
 10
110.700012
 20
168.893768
 11
111.750015
 21
169.499985
  0
LINE
  8
0
 10
111.750000
 20
165.500000
 11
125.750000
 21
165.500000
  0
LINE
  8
0
 10
111.750000
 20
161.500000
 11
125.750000
 21
161.500000
  0
LINE
  8
0
 10
126.800003
 20
162.106216
 11
126.800003
 21
164.893784
  0
LINE
  8
0
 10
110.699997
 20
162.106216
 11
110.699997
 21
164.893784
  0
LINE
  8
0
 10
110.700005
 20
164.893768
 11
111.750008
 21
165.499985
  0
LINE
  8
0
 10
111.750000
 20
165.500000
 11
125.750000
 21
165.500000
  0
LINE
  8
0
 10
126.799995
 20
164.893784
 11
125.749992
 21
165.500000
  0
LINE
  8
0
 10
126.800003
 20
162.106216
 11
125.750000
 21
161.500000
  0
LINE
  8
0
 10
110.700005
 20
162.106216
 11
111.750000
 21
161.500000
  0
LINE
  8
0
 10
122.791451
 20
162.106216
 11
122.791451
 21
164.893784
  0
LINE
  8
0
 10
114.708549
 20
162.106216
 11
114.708549
 21
164.893784
  0
LINE
  8
0
 10
111.750000
 20
143.500000
 11
111.750000
 21
156.500000
  0
LINE
  8
0
 10
114.849998
 20
173.990005
 11
122.650002
 21
173.990005
  0
LINE
  8
0
 10
122.650002
 20
173.500000
 11
122.650002
 21
173.990005
  0
LINE
  8
0
 10
114.699997
 20
174.307526
 11
114.699997
 21
176.172455
  0
LINE
  8
0
 10
122.800003
 20
174.307541
 11
122.800003
 21
176.172455
  0
LINE
  8
0
 10
114.699959
 20
176.172501
 11
115.267227
 21
176.500015
  0
LINE
  8
0
 10
122.799995
 20
176.172470
 11
122.232712
 21
176.500000
  0
LINE
  8
0
 10
116.729279
 20
174.307526
 11
116.729279
 21
176.172455
  0
LINE
  8
0
 10
120.770721
 20
174.307541
 11
120.770721
 21
176.172455
  0
LINE
  8
0
 10
114.700020
 20
174.307571
 11
115.250015
 21
173.990021
  0
LINE
  8
0
 10
122.799980
 20
174.307587
 11
122.249977
 21
173.990036
  0
LINE
  8
0
 10
115.267235
 20
176.500000
 11
122.232712
 21
176.500000
  0
LINE
  8
0
 10
114.849998
 20
173.990005
 11
114.849998
 21
173.500000
  0
LINE
  8
0
 10
108.750000
 20
154.331284
 11
108.750000
 21
155.482697
  0
LINE
  8
0
 10
111.259995
 20
148.100006
 11
111.750000
 21
148.100006
  0
LINE
  8
0
 10
110.942467
 20
147.949997
 11
109.077545
 21
147.949997
  0
LINE
  8
0
 10
109.077484
 20
147.949951
 11
108.749969
 21
148.517212
  0
LINE
  8
0
 10
108.750000
 20
148.517242
 11
108.750000
 21
155.011322
  0
LINE
  8
0
 10
109.077530
 20
156.050003
 11
108.750000
 21
155.482697
  0
LINE
  8
0
 10
110.942459
 20
156.050003
 11
109.077538
 21
156.050003
  0
LINE
  8
0
 10
110.942406
 20
156.049957
 11
111.259949
 21
155.499969
  0
LINE
  8
0
 10
110.942451
 20
154.020721
 11
109.077538
 21
154.020721
  0
LINE
  8
0
 10
110.942467
 20
149.979279
 11
109.077545
 21
149.979279
  0
LINE
  8
0
 10
110.942429
 20
147.950012
 11
111.259979
 21
148.500015
  0
LINE
  8
0
 10
111.259995
 20
148.100006
 11
111.259995
 21
155.899994
  0
LINE
  8
0
 10
111.750000
 20
155.899994
 11
111.259995
 21
155.899994
  0
LINE
  8
0
 10
112.049995
 20
134.000000
 11
125.449997
 21
134.000000
  0
LINE
  8
0
 10
111.550003
 20
130.500000
 11
111.550003
 21
133.500000
  0
LINE
  8
0
 10
125.949997
 20
130.500000
 11
125.949997
 21
133.500000
  0
LINE
  8
0
 10
125.949997
 20
133.500000
 11
125.449997
 21
134.000000
  0
LINE
  8
0
 10
111.549995
 20
133.500000
 11
112.049995
 21
134.000000
  0
LINE
  8
0
 10
111.549995
 20
133.500000
 11
125.949997
 21
133.500000
  0
LINE
  8
0
 10
116.250000
 20
138.000000
 11
121.250000
 21
138.000000
  0
LINE
  8
0
 10
113.750000
 20
138.399994
 11
123.750000
 21
138.399994
  0
LINE
  8
0
 10
113.000000
 20
138.833008
 11
113.000000
 21
141.566986
  0
LINE
  8
0
 10
124.500000
 20
138.833008
 11
124.500000
 21
141.566986
  0
LINE
  8
0
 10
116.250000
 20
138.000000
 11
115.849998
 21
138.399994
  0
LINE
  8
0
 10
121.249992
 20
138.000000
 11
121.649994
 21
138.399994
  0
LINE
  8
0
 10
113.750000
 20
138.400009
 11
113.000000
 21
138.833023
  0
LINE
  8
0
 10
123.750008
 20
138.399979
 11
124.500008
 21
138.832993
  0
LINE
  8
0
 10
123.749985
 20
141.999985
 11
124.499992
 21
141.566971
  0
LINE
  8
0
 10
113.750000
 20
142.000000
 11
123.750000
 21
142.000000
  0
LINE
  8
0
 10
113.750000
 20
141.999985
 11
113.000000
 21
141.566971
  0
LINE
  8
0
 10
115.863205
 20
138.833008
 11
115.863205
 21
141.566986
  0
LINE
  8
0
 10
121.636749
 20
141.566986
 11
121.636749
 21
138.833008
  0
LINE
  8
0
 10
121.250000
 20
138.000000
 11
121.250000
 21
138.399994
  0
LINE
  8
0
 10
116.250000
 20
138.000000
 11
116.250000
 21
138.399994
  0
LINE
  8
0
 10
95.952652
 20
152.000000
 11
113.449997
 21
152.000000
  0
LINE
  8
0
 10
101.750000
 20
150.051987
 11
101.750000
 21
153.948013
  0
LINE
  8
0
 10
106.750000
 20
149.649994
 11
106.750000
 21
154.350006
  0
LINE
  8
0
 10
104.250000
 20
149.649994
 11
104.250000
 21
154.350006
  0
LINE
  8
0
 10
106.749992
 20
149.649994
 11
104.249992
 21
149.868713
  0
LINE
  8
0
 10
104.249992
 20
149.649994
 11
101.932564
 21
149.852737
  0
LINE
  8
0
 10
101.932571
 20
154.147247
 11
104.250000
 21
154.349991
  0
LINE
  8
0
 10
104.250000
 20
154.131287
 11
106.749992
 21
154.350006
  0
LINE
  8
0
 10
106.849998
 20
149.868729
 11
108.549995
 21
149.868729
  0
LINE
  8
0
 10
106.849998
 20
154.131287
 11
108.549995
 21
154.131287
  0
LINE
  8
0
 10
106.750000
 20
154.258911
 11
106.750000
 21
154.322952
  0
LINE
  8
0
 10
118.750000
 20
118.518036
 11
118.750000
 21
178.291290
  0
LINE
  8
0
 10
113.886284
 20
130.000000
 11
123.654861
 21
130.000000
  0
LINE
  8
0
 10
116.550003
 20
134.000000
 11
116.550003
 21
138.000000
  0
LINE
  8
0
 10
120.949997
 20
134.000000
 11
120.949997
 21
138.000000
  0
LINE
  8
0
 10
113.750000
 20
157.767944
 11
114.750000
 21
159.500000
  0
LINE
  8
0
 10
123.750000
 20
157.767944
 11
122.750000
 21
159.500000
  0
LINE
  8
0
 10
128.750000
 20
127.000000
 11
128.750000
 21
125.000000
  0
LINE
  8
0
 10
128.199738
 20
124.449722
 11
128.750015
 21
124.999985
  0
LINE
  8
0
 10
108.750000
 20
127.000000
 11
108.750000
 21
125.000000
  0
LINE
  8
0
 10
109.300278
 20
124.449738
 11
108.750008
 21
125.000015
  0
LINE
  8
0
 10
108.750000
 20
125.000000
 11
128.750000
 21
125.000000
  0
LINE
  8
0
 10
106.250000
 20
121.500000
 11
131.250000
 21
121.500000
  0
LINE
  8
0
 10
106.049995
 20
121.846413
 11
106.250000
 21
121.500000
  0
LINE
  8
0
 10
106.050003
 20
121.846397
 11
109.196716
 21
123.663147
  0
LINE
  8
0
 10
131.450012
 20
121.846397
 11
131.250015
 21
121.499985
  0
LINE
  8
0
 10
131.449997
 20
121.846390
 11
128.303284
 21
123.663147
  0
LINE
  8
0
 10
106.050003
 20
121.846405
 11
131.449997
 21
121.846405
  0
LINE
  8
0
 10
127.738976
 20
123.988968
 11
109.761024
 21
123.988968
  0
ARC
  8
0
 10
129.149994
 20
129.500000
 40
1.000000
 50
0.000000
 51
90.000000
  0
ARC
  8
0
 10
108.349991
 20
129.500000
 40
1.000000
 50
90.000000
 51
180.000000
  0
ARC
  8
0
 10
122.250000
 20
147.750412
 40
5.750412
 50
232.507904
 51
307.492096
  0
ARC
  8
0
 10
115.250000
 20
147.750412
 40
5.750412
 50
232.507904
 51
307.492096
  0
ARC
  8
0
 10
115.250000
 20
150.749588
 40
5.750412
 50
90.000000
 51
127.492096
  0
ARC
  8
0
 10
122.250000
 20
150.749588
 40
5.750412
 50
90.000000
 51
127.492096
  0
ARC
  8
0
 10
122.250000
 20
150.749588
 40
5.750412
 50
52.507900
 51
90.000000
  0
ARC
  8
0
 10
115.250000
 20
150.749588
 40
5.750412
 50
52.507900
 51
90.000000
  0
ARC
  8
0
 10
112.704277
 20
169.116150
 40
3.616187
 50
236.340912
 51
303.659088
  0
ARC
  8
0
 10
118.750000
 20
179.274643
 40
13.774640
 50
252.938538
 51
287.061462
  0
ARC
  8
0
 10
124.795723
 20
169.116150
 40
3.616183
 50
236.341019
 51
303.659088
  0
ARC
  8
0
 10
124.795723
 20
165.883850
 40
3.616187
 50
56.340912
 51
123.658989
  0
ARC
  8
0
 10
118.750000
 20
155.725357
 40
13.774643
 50
72.938507
 51
107.061432
  0
ARC
  8
0
 10
112.704277
 20
165.883850
 40
3.616187
 50
56.340912
 51
123.659088
  0
ARC
  8
0
 10
112.704277
 20
161.883850
 40
3.616187
 50
56.340912
 51
123.659088
  0
ARC
  8
0
 10
118.750000
 20
175.274643
 40
13.774640
 50
252.938538
 51
287.061462
  0
ARC
  8
0
 10
124.795723
 20
161.883850
 40
3.616187
 50
56.340912
 51
123.658989
  0
ARC
  8
0
 10
118.750000
 20
151.725357
 40
13.774643
 50
72.938507
 51
107.061432
  0
ARC
  8
0
 10
124.795723
 20
165.116150
 40
3.616187
 50
236.340912
 51
303.659088
  0
ARC
  8
0
 10
112.704277
 20
165.116150
 40
3.616187
 50
236.340912
 51
303.659088
  0
ARC
  8
0
 10
121.785362
 20
174.710236
 40
1.779770
 50
90.000000
 51
124.756760
  0
ARC
  8
0
 10
118.749992
 20
169.901627
 40
6.588379
 50
90.000000
 51
107.861053
  0
ARC
  8
0
 10
110.539780
 20
148.964630
 40
1.779785
 50
180.000000
 51
214.756348
  0
ARC
  8
0
 10
118.749992
 20
169.901627
 40
6.588371
 50
72.138840
 51
90.000000
  0
ARC
  8
0
 10
115.714638
 20
174.710220
 40
1.779783
 50
55.243317
 51
90.000000
  0
ARC
  8
0
 10
121.785362
 20
174.710236
 40
1.779766
 50
55.243240
 51
90.000000
  0
ARC
  8
0
 10
121.785362
 20
175.769775
 40
1.779778
 50
235.243515
 51
270.000000
  0
ARC
  8
0
 10
118.749992
 20
180.578384
 40
6.588379
 50
270.000000
 51
287.861115
  0
ARC
  8
0
 10
118.749992
 20
180.578384
 40
6.588383
 50
252.138947
 51
269.999939
  0
ARC
  8
0
 10
115.714638
 20
175.769775
 40
1.779785
 50
270.000000
 51
304.756470
  0
ARC
  8
0
 10
108.549995
 20
149.668716
 40
0.200005
 50
0.000000
 51
90.000000
  0
ARC
  8
0
 10
108.549995
 20
154.331284
 40
0.199997
 50
270.000000
 51
0.000000
  0
ARC
  8
0
 10
104.671616
 20
152.000000
 40
6.588379
 50
359.999878
 51
17.861057
  0
ARC
  8
0
 10
110.539780
 20
148.964630
 40
1.779793
 50
145.243256
 51
180.000000
  0
ARC
  8
0
 10
115.348373
 20
152.000000
 40
6.588379
 50
180.000000
 51
197.861053
  0
ARC
  8
0
 10
115.348373
 20
152.000000
 40
6.588376
 50
162.138916
 51
180.000000
  0
ARC
  8
0
 10
110.539764
 20
155.035370
 40
1.779770
 50
180.000000
 51
214.757019
  0
ARC
  8
0
 10
110.539764
 20
155.035370
 40
1.779766
 50
145.243240
 51
180.000000
  0
ARC
  8
0
 10
109.480232
 20
155.035370
 40
1.779774
 50
325.242828
 51
359.999512
  0
ARC
  8
0
 10
109.480217
 20
148.964630
 40
1.779785
 50
0.000000
 51
34.756744
  0
ARC
  8
0
 10
104.671616
 20
152.000000
 40
6.588388
 50
342.138824
 51
359.999878
  0
ARC
  8
0
 10
114.431625
 20
140.982971
 40
2.583001
 50
236.341003
 51
303.658997
  0
ARC
  8
0
 10
118.750000
 20
148.239029
 40
9.839030
 50
252.938568
 51
287.061493
  0
ARC
  8
0
 10
123.068375
 20
140.982971
 40
2.583001
 50
236.341003
 51
303.658844
  0
ARC
  8
0
 10
123.068375
 20
139.417038
 40
2.582988
 50
56.340816
 51
123.659180
  0
ARC
  8
0
 10
118.750000
 20
132.160980
 40
9.839018
 50
72.938492
 51
107.061462
  0
ARC
  8
0
 10
114.431625
 20
139.417023
 40
2.583001
 50
56.341003
 51
123.658997
  0
ARC
  8
0
 10
106.849998
 20
154.231277
 40
0.099998
 50
180.000000
 51
270.000000
  0
ARC
  8
0
 10
106.849998
 20
149.768723
 40
0.100006
 50
90.000000
 51
180.000000
  0
ARC
  8
0
 10
101.949997
 20
150.051987
 40
0.199997
 50
180.000000
 51
265.001465
  0
ARC
  8
0
 10
101.949997
 20
153.948013
 40
0.199995
 50
94.998520
 51
180.000000
  0
ARC
  8
0
 10
108.946716
 20
124.096176
 40
0.500001
 50
299.999939
 51
45.000618
  0
ARC
  8
0
 10
128.553284
 20
124.096176
 40
0.500001
 50
134.998764
 51
240.000076
  0
POINT
  8
0
 10
118.750000
 20
45.500000
  0
POINT
  8
0
 10
131.449997
 20
45.500000
  0
LINE
  8
0
 10
118.750000
 20
31.045723
 11
118.750000
 21
61.549999
  0
LINE
  8
0
 10
99.521843
 20
45.500000
 11
133.467545
 21
45.500000
  0
LINE
  8
0
 10
101.750000
 20
43.551987
 11
101.750000
 21
47.448013
  0
LINE
  8
0
 10
104.250000
 20
43.150002
 11
104.250000
 21
47.849998
  0
LINE
  8
0
 10
106.261345
 20
43.192722
 11
104.249992
 21
43.368690
  0
LINE
  8
0
 10
104.250000
 20
43.149982
 11
101.932571
 21
43.352730
  0
LINE
  8
0
 10
101.932556
 20
47.647236
 11
104.249992
 21
47.849987
  0
LINE
  8
0
 10
104.250000
 20
47.631264
 11
106.261337
 21
47.807236
  0
ARC
  8
0
 10
101.949997
 20
43.551987
 40
0.199997
 50
180.000000
 51
265.001587
  0
ARC
  8
0
 10
101.949997
 20
47.448013
 40
0.200002
 50
94.998329
 51
180.000000
  0
CIRCLE
  8
0
 10
118.750000
 20
45.500000
 40
12.700000
  0
POINT
  8
0
 10
228.750000
 20
165.500000
  0
POINT
  8
0
 10
236.800003
 20
165.500000
  0
LINE
  8
0
 10
218.349991
 20
130.500000
 11
239.149994
 21
130.500000
  0
LINE
  8
0
 10
217.349991
 20
127.000000
 11
240.149994
 21
127.000000
  0
LINE
  8
0
 10
240.149994
 20
127.000000
 11
240.149994
 21
129.500000
  0
LINE
  8
0
 10
217.350006
 20
127.000000
 11
217.350006
 21
129.500000
  0
LINE
  8
0
 10
221.750000
 20
142.000000
 11
235.750000
 21
142.000000
  0
LINE
  8
0
 10
221.750000
 20
156.500000
 11
235.750000
 21
156.500000
  0
LINE
  8
0
 10
224.750000
 20
173.500000
 11
232.750000
 21
173.500000
  0
LINE
  8
0
 10
235.750000
 20
142.000000
 11
235.750000
 21
156.500000
  0
LINE
  8
0
 10
221.750000
 20
142.000000
 11
221.750000
 21
156.500000
  0
LINE
  8
0
 10
233.750000
 20
156.500000
 11
233.750000
 21
161.500000
  0
LINE
  8
0
 10
223.750000
 20
156.500000
 11
223.750000
 21
161.500000
  0
LINE
  8
0
 10
224.750000
 20
159.500000
 11
224.750000
 21
161.500000
  0
LINE
  8
0
 10
232.750000
 20
159.500000
 11
232.750000
 21
161.500000
  0
LINE
  8
0
 10
223.750000
 20
172.500000
 11
233.750000
 21
172.500000
  0
LINE
  8
0
 10
223.750000
 20
172.500000
 11
224.750000
 21
173.500000
  0
LINE
  8
0
 10
232.750000
 20
173.500000
 11
233.750000
 21
172.500000
  0
LINE
  8
0
 10
223.750000
 20
159.500000
 11
233.750000
 21
159.500000
  0
LINE
  8
0
 10
228.750000
 20
143.187820
 11
228.750000
 21
155.312180
  0
LINE
  8
0
 10
221.750000
 20
169.500000
 11
235.750000
 21
169.500000
  0
LINE
  8
0
 10
221.750000
 20
165.500000
 11
235.750000
 21
165.500000
  0
LINE
  8
0
 10
236.800003
 20
166.106216
 11
236.800003
 21
168.893784
  0
LINE
  8
0
 10
220.699997
 20
166.106216
 11
220.699997
 21
168.893784
  0
LINE
  8
0
 10
232.750000
 20
169.500000
 11
232.750000
 21
173.500000
  0
LINE
  8
0
 10
233.750000
 20
169.500000
 11
233.750000
 21
172.500000
  0
LINE
  8
0
 10
224.750000
 20
169.500000
 11
224.750000
 21
173.500000
  0
LINE
  8
0
 10
223.750000
 20
169.500000
 11
223.750000
 21
172.500000
  0
LINE
  8
0
 10
236.800003
 20
166.106216
 11
235.750000
 21
165.500000
  0
LINE
  8
0
 10
220.699997
 20
166.106232
 11
221.750000
 21
165.500015
  0
LINE
  8
0
 10
232.791458
 20
166.106216
 11
232.791458
 21
168.893784
  0
LINE
  8
0
 10
224.708557
 20
166.106216
 11
224.708557
 21
168.893784
  0
LINE
  8
0
 10
236.799988
 20
168.893768
 11
235.750000
 21
169.499985
  0
LINE
  8
0
 10
221.750000
 20
169.500000
 11
235.750000
 21
169.500000
  0
LINE
  8
0
 10
220.700012
 20
168.893768
 11
221.750015
 21
169.499985
  0
LINE
  8
0
 10
221.750000
 20
165.500000
 11
235.750000
 21
165.500000
  0
LINE
  8
0
 10
221.750000
 20
161.500000
 11
235.750000
 21
161.500000
  0
LINE
  8
0
 10
236.800003
 20
162.106216
 11
236.800003
 21
164.893784
  0
LINE
  8
0
 10
220.699997
 20
162.106216
 11
220.699997
 21
164.893784
  0
LINE
  8
0
 10
220.700012
 20
164.893768
 11
221.750000
 21
165.499985
  0
LINE
  8
0
 10
221.750000
 20
165.500000
 11
235.750000
 21
165.500000
  0
LINE
  8
0
 10
236.799988
 20
164.893784
 11
235.750000
 21
165.500000
  0
LINE
  8
0
 10
236.800003
 20
162.106216
 11
235.750000
 21
161.500000
  0
LINE
  8
0
 10
220.699997
 20
162.106216
 11
221.750000
 21
161.500000
  0
LINE
  8
0
 10
232.791458
 20
162.106216
 11
232.791458
 21
164.893784
  0
LINE
  8
0
 10
224.708557
 20
162.106216
 11
224.708557
 21
164.893784
  0
LINE
  8
0
 10
221.750000
 20
143.500000
 11
221.750000
 21
156.500000
  0
LINE
  8
0
 10
224.849991
 20
173.990005
 11
232.649994
 21
173.990005
  0
LINE
  8
0
 10
232.649994
 20
173.500000
 11
232.649994
 21
173.990005
  0
LINE
  8
0
 10
224.699997
 20
174.307526
 11
224.699997
 21
176.172455
  0
LINE
  8
0
 10
232.800003
 20
174.307541
 11
232.800003
 21
176.172455
  0
LINE
  8
0
 10
224.699951
 20
176.172501
 11
225.267227
 21
176.500015
  0
LINE
  8
0
 10
232.800003
 20
176.172470
 11
232.232712
 21
176.500000
  0
LINE
  8
0
 10
226.729279
 20
174.307526
 11
226.729279
 21
176.172455
  0
LINE
  8
0
 10
230.770721
 20
174.307541
 11
230.770721
 21
176.172455
  0
LINE
  8
0
 10
224.700012
 20
174.307571
 11
225.250015
 21
173.990021
  0
LINE
  8
0
 10
232.799988
 20
174.307587
 11
232.249985
 21
173.990036
  0
LINE
  8
0
 10
225.267242
 20
176.500000
 11
232.232712
 21
176.500000
  0
LINE
  8
0
 10
224.850006
 20
173.990005
 11
224.850006
 21
173.500000
  0
LINE
  8
0
 10
218.750000
 20
154.331284
 11
218.750000
 21
155.482697
  0
LINE
  8
0
 10
221.259995
 20
148.100006
 11
221.750000
 21
148.100006
  0
LINE
  8
0
 10
220.942459
 20
147.949997
 11
219.077545
 21
147.949997
  0
LINE
  8
0
 10
219.077484
 20
147.949951
 11
218.749969
 21
148.517212
  0
LINE
  8
0
 10
218.750000
 20
148.517242
 11
218.750000
 21
155.011322
  0
LINE
  8
0
 10
219.077530
 20
156.050003
 11
218.750000
 21
155.482697
  0
LINE
  8
0
 10
220.942459
 20
156.050003
 11
219.077545
 21
156.050003
  0
LINE
  8
0
 10
220.942398
 20
156.049957
 11
221.259949
 21
155.499969
  0
LINE
  8
0
 10
220.942459
 20
154.020721
 11
219.077545
 21
154.020721
  0
LINE
  8
0
 10
220.942459
 20
149.979279
 11
219.077545
 21
149.979279
  0
LINE
  8
0
 10
220.942429
 20
147.950012
 11
221.259979
 21
148.500015
  0
LINE
  8
0
 10
221.259995
 20
148.100006
 11
221.259995
 21
155.899994
  0
LINE
  8
0
 10
221.750000
 20
155.899994
 11
221.259995
 21
155.899994
  0
LINE
  8
0
 10
222.050003
 20
134.000000
 11
235.449997
 21
134.000000
  0
LINE
  8
0
 10
221.550003
 20
130.500000
 11
221.550003
 21
133.500000
  0
LINE
  8
0
 10
235.949997
 20
130.500000
 11
235.949997
 21
133.500000
  0
LINE
  8
0
 10
235.949997
 20
133.500000
 11
235.449997
 21
134.000000
  0
LINE
  8
0
 10
221.549988
 20
133.500000
 11
222.050003
 21
134.000000
  0
LINE
  8
0
 10
221.550003
 20
133.500000
 11
235.949997
 21
133.500000
  0
LINE
  8
0
 10
226.250000
 20
138.000000
 11
231.250000
 21
138.000000
  0
LINE
  8
0
 10
223.750000
 20
138.399994
 11
233.750000
 21
138.399994
  0
LINE
  8
0
 10
223.000000
 20
138.833008
 11
223.000000
 21
141.566986
  0
LINE
  8
0
 10
234.500000
 20
138.833008
 11
234.500000
 21
141.566986
  0
LINE
  8
0
 10
226.250000
 20
138.000000
 11
225.849991
 21
138.399994
  0
LINE
  8
0
 10
231.250000
 20
138.000000
 11
231.649994
 21
138.399994
  0
LINE
  8
0
 10
223.750000
 20
138.400009
 11
223.000000
 21
138.833023
  0
LINE
  8
0
 10
233.750000
 20
138.399979
 11
234.500000
 21
138.832993
  0
LINE
  8
0
 10
233.749985
 20
141.999985
 11
234.499985
 21
141.566971
  0
LINE
  8
0
 10
223.750000
 20
142.000000
 11
233.750000
 21
142.000000
  0
LINE
  8
0
 10
223.750000
 20
141.999985
 11
223.000000
 21
141.566971
  0
LINE
  8
0
 10
225.863205
 20
138.833008
 11
225.863205
 21
141.566986
  0
LINE
  8
0
 10
231.636749
 20
141.566986
 11
231.636749
 21
138.833008
  0
LINE
  8
0
 10
231.250000
 20
138.000000
 11
231.250000
 21
138.399994
  0
LINE
  8
0
 10
226.250000
 20
138.000000
 11
226.250000
 21
138.399994
  0
LINE
  8
0
 10
205.952652
 20
152.000000
 11
223.449997
 21
152.000000
  0
LINE
  8
0
 10
211.750000
 20
150.051987
 11
211.750000
 21
153.948013
  0
LINE
  8
0
 10
216.750000
 20
149.649994
 11
216.750000
 21
154.350006
  0
LINE
  8
0
 10
214.250000
 20
149.649994
 11
214.250000
 21
154.350006
  0
LINE
  8
0
 10
216.750000
 20
149.649994
 11
214.250000
 21
149.868713
  0
LINE
  8
0
 10
214.250000
 20
149.649994
 11
211.932556
 21
149.852737
  0
LINE
  8
0
 10
211.932571
 20
154.147247
 11
214.250000
 21
154.349991
  0
LINE
  8
0
 10
214.250000
 20
154.131287
 11
216.750000
 21
154.350006
  0
LINE
  8
0
 10
216.849991
 20
149.868729
 11
218.550003
 21
149.868729
  0
LINE
  8
0
 10
216.849991
 20
154.131287
 11
218.550003
 21
154.131287
  0
LINE
  8
0
 10
216.750000
 20
154.258911
 11
216.750000
 21
154.322952
  0
LINE
  8
0
 10
228.750000
 20
114.736069
 11
228.750000
 21
178.291290
  0
LINE
  8
0
 10
223.886276
 20
130.000000
 11
233.654861
 21
130.000000
  0
LINE
  8
0
 10
226.550003
 20
134.000000
 11
226.550003
 21
138.000000
  0
LINE
  8
0
 10
230.949997
 20
134.000000
 11
230.949997
 21
138.000000
  0
LINE
  8
0
 10
223.750000
 20
157.767944
 11
224.750000
 21
159.500000
  0
LINE
  8
0
 10
233.750000
 20
157.767944
 11
232.750000
 21
159.500000
  0
LINE
  8
0
 10
238.750000
 20
127.000000
 11
238.750000
 21
125.000000
  0
LINE
  8
0
 10
237.983780
 20
124.233765
 11
238.750015
 21
124.999985
  0
LINE
  8
0
 10
218.750000
 20
127.000000
 11
218.750000
 21
125.000000
  0
LINE
  8
0
 10
219.516235
 20
124.233788
 11
218.750000
 21
125.000015
  0
LINE
  8
0
 10
218.750000
 20
125.000000
 11
238.750000
 21
125.000000
  0
LINE
  8
0
 10
243.750000
 20
120.000000
 11
213.750000
 21
120.000000
  0
LINE
  8
0
 10
213.522995
 20
120.445496
 11
213.749985
 21
119.999992
  0
LINE
  8
0
 10
213.523010
 20
120.445496
 11
219.389664
 21
123.434708
  0
LINE
  8
0
 10
243.976990
 20
120.445496
 11
238.110321
 21
123.434708
  0
LINE
  8
0
 10
243.977005
 20
120.445496
 11
243.750015
 21
119.999992
  0
LINE
  8
0
 10
220.002853
 20
123.747147
 11
237.497147
 21
123.747147
  0
LINE
  8
0
 10
213.523010
 20
120.445503
 11
243.976990
 21
120.445503
  0
ARC
  8
0
 10
239.149994
 20
129.500000
 40
1.000000
 50
0.000000
 51
90.000000
  0
ARC
  8
0
 10
218.349991
 20
129.500000
 40
1.000000
 50
90.000000
 51
180.000000
  0
ARC
  8
0
 10
232.250000
 20
147.750412
 40
5.750412
 50
232.507904
 51
307.492096
  0
ARC
  8
0
 10
225.250000
 20
147.750412
 40
5.750412
 50
232.507904
 51
307.492096
  0
ARC
  8
0
 10
225.250000
 20
150.749588
 40
5.750412
 50
90.000000
 51
127.492096
  0
ARC
  8
0
 10
232.250000
 20
150.749588
 40
5.750412
 50
90.000000
 51
127.492096
  0
ARC
  8
0
 10
232.250000
 20
150.749588
 40
5.750412
 50
52.507900
 51
90.000000
  0
ARC
  8
0
 10
225.250000
 20
150.749588
 40
5.750412
 50
52.507900
 51
90.000000
  0
ARC
  8
0
 10
222.704269
 20
169.116150
 40
3.616187
 50
236.340912
 51
303.659088
  0
ARC
  8
0
 10
228.750000
 20
179.274643
 40
13.774640
 50
252.938538
 51
287.061462
  0
ARC
  8
0
 10
234.795731
 20
169.116150
 40
3.616187
 50
236.340912
 51
303.659088
  0
ARC
  8
0
 10
234.795731
 20
165.883850
 40
3.616187
 50
56.340912
 51
123.659088
  0
ARC
  8
0
 10
228.750000
 20
155.725357
 40
13.774645
 50
72.938477
 51
107.061462
  0
ARC
  8
0
 10
222.704269
 20
165.883850
 40
3.616195
 50
56.340710
 51
123.659088
  0
ARC
  8
0
 10
222.704269
 20
161.883850
 40
3.616195
 50
56.340710
 51
123.659088
  0
ARC
  8
0
 10
228.750000
 20
175.274643
 40
13.774640
 50
252.938538
 51
287.061462
  0
ARC
  8
0
 10
234.795731
 20
161.883850
 40
3.616187
 50
56.340912
 51
123.659088
  0
ARC
  8
0
 10
228.750000
 20
151.725357
 40
13.774645
 50
72.938477
 51
107.061462
  0
ARC
  8
0
 10
234.795731
 20
165.116150
 40
3.616187
 50
236.340912
 51
303.659088
  0
ARC
  8
0
 10
222.704269
 20
165.116150
 40
3.616187
 50
236.340912
 51
303.659088
  0
ARC
  8
0
 10
231.785355
 20
174.710236
 40
1.779770
 50
89.999512
 51
124.756760
  0
ARC
  8
0
 10
228.749985
 20
169.901627
 40
6.588379
 50
90.000000
 51
107.860931
  0
ARC
  8
0
 10
220.539780
 20
148.964630
 40
1.779785
 50
180.000000
 51
214.756195
  0
ARC
  8
0
 10
228.749985
 20
169.901627
 40
6.588373
 50
72.138779
 51
90.000000
  0
ARC
  8
0
 10
225.714630
 20
174.710220
 40
1.779787
 50
55.243114
 51
90.000000
  0
ARC
  8
0
 10
231.785355
 20
174.710236
 40
1.779774
 50
55.242836
 51
89.999512
  0
ARC
  8
0
 10
231.785370
 20
175.769775
 40
1.779787
 50
235.243118
 51
269.999512
  0
ARC
  8
0
 10
228.750000
 20
180.578384
 40
6.588379
 50
269.999878
 51
287.861053
  0
ARC
  8
0
 10
228.750000
 20
180.578384
 40
6.588388
 50
252.138824
 51
269.999878
  0
ARC
  8
0
 10
225.714630
 20
175.769775
 40
1.779785
 50
270.000000
 51
304.756897
  0
ARC
  8
0
 10
218.550003
 20
149.668716
 40
0.199997
 50
0.000000
 51
90.000000
  0
ARC
  8
0
 10
218.550003
 20
154.331284
 40
0.199997
 50
270.000000
 51
0.000000
  0
ARC
  8
0
 10
214.671616
 20
152.000000
 40
6.588379
 50
359.999878
 51
17.861057
  0
ARC
  8
0
 10
220.539780
 20
148.964630
 40
1.779799
 50
145.243393
 51
180.000000
  0
ARC
  8
0
 10
225.348373
 20
152.000000
 40
6.588379
 50
180.000000
 51
197.861053
  0
ARC
  8
0
 10
225.348373
 20
152.000000
 40
6.588369
 50
162.138901
 51
180.000000
  0
ARC
  8
0
 10
220.539764
 20
155.035370
 40
1.779770
 50
180.000000
 51
214.757172
  0
ARC
  8
0
 10
220.539764
 20
155.035370
 40
1.779766
 50
145.243240
 51
180.000000
  0
ARC
  8
0
 10
219.480225
 20
155.035370
 40
1.779774
 50
325.242828
 51
359.999512
  0
ARC
  8
0
 10
219.480209
 20
148.964630
 40
1.779800
 50
0.000000
 51
34.756603
  0
ARC
  8
0
 10
214.671616
 20
152.000000
 40
6.588388
 50
342.138824
 51
359.999878
  0
ARC
  8
0
 10
224.431625
 20
140.982971
 40
2.583001
 50
236.341003
 51
303.658997
  0
ARC
  8
0
 10
228.750000
 20
148.239029
 40
9.839032
 50
252.938522
 51
287.061493
  0
ARC
  8
0
 10
233.068375
 20
140.982971
 40
2.583001
 50
236.341003
 51
303.658997
  0
ARC
  8
0
 10
233.068375
 20
139.417038
 40
2.582988
 50
56.340816
 51
123.659180
  0
ARC
  8
0
 10
228.750000
 20
132.160980
 40
9.839018
 50
72.938492
 51
107.061508
  0
ARC
  8
0
 10
224.431625
 20
139.417023
 40
2.583001
 50
56.341003
 51
123.658997
  0
ARC
  8
0
 10
216.849991
 20
154.231277
 40
0.099991
 50
180.000000
 51
270.000000
  0
ARC
  8
0
 10
216.849991
 20
149.768723
 40
0.100006
 50
90.000000
 51
180.000000
  0
ARC
  8
0
 10
211.949997
 20
150.051987
 40
0.199997
 50
180.000000
 51
265.001465
  0
ARC
  8
0
 10
211.949997
 20
153.948013
 40
0.199995
 50
94.998520
 51
180.000000
  0
ARC
  8
0
 10
219.162674
 20
123.880219
 40
0.499991
 50
296.999847
 51
45.001236
  0
ARC
  8
0
 10
238.337326
 20
123.880219
 40
0.499995
 50
134.999374
 51
243.000565
  0
POINT
  8
0
 10
228.750000
 20
45.500000
  0
POINT
  8
0
 10
243.977005
 20
45.500000
  0
LINE
  8
0
 10
228.750000
 20
28.434120
 11
228.750000
 21
62.548180
  0
LINE
  8
0
 10
209.521851
 20
45.500000
 11
245.889130
 21
45.500000
  0
LINE
  8
0
 10
211.750000
 20
43.551987
 11
211.750000
 21
47.448013
  0
LINE
  8
0
 10
213.697968
 20
43.198277
 11
211.932571
 21
43.352730
  0
LINE
  8
0
 10
211.932556
 20
47.647240
 11
213.697968
 21
47.801689
  0
ARC
  8
0
 10
211.949997
 20
43.551987
 40
0.199997
 50
180.000000
 51
265.001587
  0
ARC
  8
0
 10
211.949997
 20
47.448013
 40
0.200002
 50
94.998329
 51
180.000000
  0
CIRCLE
  8
0
 10
228.750000
 20
45.500000
 40
15.227000
  0
POINT
  8
0
 10
-231.250000
 20
-78.000000
  0
POINT
  8
0
 10
-223.199997
 20
-78.000000
  0
LINE
  8
0
 10
-241.650009
 20
-113.000000
 11
-220.850006
 21
-113.000000
  0
LINE
  8
0
 10
-242.650009
 20
-116.500000
 11
-219.850006
 21
-116.500000
  0
LINE
  8
0
 10
-219.850006
 20
-116.500000
 11
-219.850006
 21
-114.000000
  0
LINE
  8
0
 10
-242.649994
 20
-116.500000
 11
-242.649994
 21
-114.000000
  0
LINE
  8
0
 10
-238.250000
 20
-101.500000
 11
-224.250000
 21
-101.500000
  0
LINE
  8
0
 10
-238.250000
 20
-87.000000
 11
-224.250000
 21
-87.000000
  0
LINE
  8
0
 10
-235.250000
 20
-70.000000
 11
-227.250000
 21
-70.000000
  0
LINE
  8
0
 10
-224.250000
 20
-101.500000
 11
-224.250000
 21
-87.000000
  0
LINE
  8
0
 10
-238.250000
 20
-101.500000
 11
-238.250000
 21
-87.000000
  0
LINE
  8
0
 10
-226.250000
 20
-87.000000
 11
-226.250000
 21
-82.000000
  0
LINE
  8
0
 10
-236.250000
 20
-87.000000
 11
-236.250000
 21
-82.000000
  0
LINE
  8
0
 10
-235.250000
 20
-84.000000
 11
-235.250000
 21
-82.000000
  0
LINE
  8
0
 10
-227.250000
 20
-84.000000
 11
-227.250000
 21
-82.000000
  0
LINE
  8
0
 10
-236.250000
 20
-71.000000
 11
-226.250000
 21
-71.000000
  0
LINE
  8
0
 10
-236.250000
 20
-71.000000
 11
-235.250000
 21
-70.000000
  0
LINE
  8
0
 10
-227.250000
 20
-70.000000
 11
-226.250000
 21
-71.000000
  0
LINE
  8
0
 10
-236.250000
 20
-84.000000
 11
-226.250000
 21
-84.000000
  0
LINE
  8
0
 10
-231.250000
 20
-100.312180
 11
-231.250000
 21
-88.187820
  0
LINE
  8
0
 10
-238.250000
 20
-74.000000
 11
-224.250000
 21
-74.000000
  0
LINE
  8
0
 10
-238.250000
 20
-78.000000
 11
-224.250000
 21
-78.000000
  0
LINE
  8
0
 10
-223.199997
 20
-77.393784
 11
-223.199997
 21
-74.606216
  0
LINE
  8
0
 10
-239.300003
 20
-77.393784
 11
-239.300003
 21
-74.606216
  0
LINE
  8
0
 10
-227.250000
 20
-74.000000
 11
-227.250000
 21
-70.000000
  0
LINE
  8
0
 10
-226.250000
 20
-74.000000
 11
-226.250000
 21
-71.000000
  0
LINE
  8
0
 10
-235.250000
 20
-74.000000
 11
-235.250000
 21
-70.000000
  0
LINE
  8
0
 10
-236.250000
 20
-74.000000
 11
-236.250000
 21
-71.000000
  0
LINE
  8
0
 10
-223.199997
 20
-77.393784
 11
-224.250000
 21
-78.000000
  0
LINE
  8
0
 10
-239.300003
 20
-77.393776
 11
-238.250000
 21
-77.999992
  0
LINE
  8
0
 10
-227.208542
 20
-77.393784
 11
-227.208542
 21
-74.606216
  0
LINE
  8
0
 10
-235.291443
 20
-77.393784
 11
-235.291443
 21
-74.606216
  0
LINE
  8
0
 10
-223.200012
 20
-74.606224
 11
-224.250000
 21
-74.000015
  0
LINE
  8
0
 10
-238.250000
 20
-74.000000
 11
-224.250000
 21
-74.000000
  0
LINE
  8
0
 10
-239.299988
 20
-74.606232
 11
-238.249985
 21
-74.000023
  0
LINE
  8
0
 10
-238.250000
 20
-78.000000
 11
-224.250000
 21
-78.000000
  0
LINE
  8
0
 10
-238.250000
 20
-82.000000
 11
-224.250000
 21
-82.000000
  0
LINE
  8
0
 10
-223.199997
 20
-81.393784
 11
-223.199997
 21
-78.606216
  0
LINE
  8
0
 10
-239.300003
 20
-81.393784
 11
-239.300003
 21
-78.606216
  0
LINE
  8
0
 10
-239.299988
 20
-78.606224
 11
-238.250000
 21
-78.000008
  0
LINE
  8
0
 10
-238.250000
 20
-78.000000
 11
-224.250000
 21
-78.000000
  0
LINE
  8
0
 10
-223.200012
 20
-78.606216
 11
-224.250000
 21
-78.000008
  0
LINE
  8
0
 10
-223.199997
 20
-81.393791
 11
-224.250000
 21
-82.000008
  0
LINE
  8
0
 10
-239.300003
 20
-81.393776
 11
-238.250000
 21
-81.999992
  0
LINE
  8
0
 10
-227.208542
 20
-81.393784
 11
-227.208542
 21
-78.606216
  0
LINE
  8
0
 10
-235.291443
 20
-81.393784
 11
-235.291443
 21
-78.606216
  0
LINE
  8
0
 10
-238.250000
 20
-100.000000
 11
-238.250000
 21
-87.000000
  0
LINE
  8
0
 10
-235.150009
 20
-69.509995
 11
-227.350006
 21
-69.509995
  0
LINE
  8
0
 10
-227.350006
 20
-70.000000
 11
-227.350006
 21
-69.509995
  0
LINE
  8
0
 10
-235.300003
 20
-69.192467
 11
-235.300003
 21
-67.327545
  0
LINE
  8
0
 10
-227.199997
 20
-69.192459
 11
-227.199997
 21
-67.327545
  0
LINE
  8
0
 10
-235.300049
 20
-67.327499
 11
-234.732773
 21
-66.999985
  0
LINE
  8
0
 10
-227.199997
 20
-67.327522
 11
-227.767288
 21
-67.000000
  0
LINE
  8
0
 10
-233.270721
 20
-69.192467
 11
-233.270721
 21
-67.327545
  0
LINE
  8
0
 10
-229.229279
 20
-69.192459
 11
-229.229279
 21
-67.327545
  0
LINE
  8
0
 10
-235.299988
 20
-69.192436
 11
-234.749985
 21
-69.509979
  0
LINE
  8
0
 10
-227.200012
 20
-69.192421
 11
-227.750015
 21
-69.509964
  0
LINE
  8
0
 10
-234.732758
 20
-67.000000
 11
-227.767288
 21
-67.000000
  0
LINE
  8
0
 10
-235.149994
 20
-69.509995
 11
-235.149994
 21
-70.000000
  0
LINE
  8
0
 10
-241.250000
 20
-89.168716
 11
-241.250000
 21
-88.017303
  0
LINE
  8
0
 10
-238.740005
 20
-95.400002
 11
-238.250000
 21
-95.400002
  0
LINE
  8
0
 10
-239.057541
 20
-95.550003
 11
-240.922455
 21
-95.550003
  0
LINE
  8
0
 10
-240.922516
 20
-95.550049
 11
-241.250031
 21
-94.982780
  0
LINE
  8
0
 10
-241.250000
 20
-94.982765
 11
-241.250000
 21
-88.488686
  0
LINE
  8
0
 10
-240.922470
 20
-87.450005
 11
-241.250000
 21
-88.017303
  0
LINE
  8
0
 10
-239.057541
 20
-87.449997
 11
-240.922455
 21
-87.449997
  0
LINE
  8
0
 10
-239.057602
 20
-87.450035
 11
-238.740051
 21
-88.000038
  0
LINE
  8
0
 10
-239.057541
 20
-89.479279
 11
-240.922455
 21
-89.479279
  0
LINE
  8
0
 10
-239.057541
 20
-93.520721
 11
-240.922455
 21
-93.520721
  0
LINE
  8
0
 10
-239.057571
 20
-95.549988
 11
-238.740021
 21
-94.999985
  0
LINE
  8
0
 10
-238.740005
 20
-95.400002
 11
-238.740005
 21
-87.599998
  0
LINE
  8
0
 10
-238.250000
 20
-87.599998
 11
-238.740005
 21
-87.599998
  0
LINE
  8
0
 10
-237.949997
 20
-109.500000
 11
-224.550003
 21
-109.500000
  0
LINE
  8
0
 10
-238.449997
 20
-113.000000
 11
-238.449997
 21
-110.000000
  0
LINE
  8
0
 10
-224.050003
 20
-113.000000
 11
-224.050003
 21
-110.000000
  0
LINE
  8
0
 10
-224.050003
 20
-110.000000
 11
-224.550003
 21
-109.500000
  0
LINE
  8
0
 10
-238.450012
 20
-110.000000
 11
-237.949997
 21
-109.500000
  0
LINE
  8
0
 10
-238.449997
 20
-110.000000
 11
-224.050003
 21
-110.000000
  0
LINE
  8
0
 10
-233.750000
 20
-105.500000
 11
-228.750000
 21
-105.500000
  0
LINE
  8
0
 10
-236.250000
 20
-105.099998
 11
-226.250000
 21
-105.099998
  0
LINE
  8
0
 10
-237.000000
 20
-104.666992
 11
-237.000000
 21
-101.933014
  0
LINE
  8
0
 10
-225.500000
 20
-104.666992
 11
-225.500000
 21
-101.933014
  0
LINE
  8
0
 10
-233.750000
 20
-105.500000
 11
-234.150009
 21
-105.099998
  0
LINE
  8
0
 10
-228.750000
 20
-105.500000
 11
-228.350006
 21
-105.100006
  0
LINE
  8
0
 10
-236.250000
 20
-105.099998
 11
-237.000000
 21
-104.666985
  0
LINE
  8
0
 10
-226.249985
 20
-105.100021
 11
-225.499985
 21
-104.667007
  0
LINE
  8
0
 10
-226.250015
 20
-101.500015
 11
-225.500015
 21
-101.933029
  0
LINE
  8
0
 10
-236.250000
 20
-101.500000
 11
-226.250000
 21
-101.500000
  0
LINE
  8
0
 10
-236.250000
 20
-101.500015
 11
-237.000000
 21
-101.933029
  0
LINE
  8
0
 10
-234.136795
 20
-104.666992
 11
-234.136795
 21
-101.933014
  0
LINE
  8
0
 10
-228.363251
 20
-101.933014
 11
-228.363251
 21
-104.666992
  0
LINE
  8
0
 10
-228.750000
 20
-105.500000
 11
-228.750000
 21
-105.099998
  0
LINE
  8
0
 10
-233.750000
 20
-105.500000
 11
-233.750000
 21
-105.099998
  0
LINE
  8
0
 10
-254.047348
 20
-91.500000
 11
-236.550003
 21
-91.500000
  0
LINE
  8
0
 10
-248.250000
 20
-93.448013
 11
-248.250000
 21
-89.551987
  0
LINE
  8
0
 10
-243.250000
 20
-93.849998
 11
-243.250000
 21
-89.150002
  0
LINE
  8
0
 10
-245.750000
 20
-93.849998
 11
-245.750000
 21
-89.150002
  0
LINE
  8
0
 10
-243.250000
 20
-93.850006
 11
-245.750000
 21
-93.631287
  0
LINE
  8
0
 10
-245.750000
 20
-93.850014
 11
-248.067444
 21
-93.647263
  0
LINE
  8
0
 10
-248.067429
 20
-89.352753
 11
-245.750000
 21
-89.150009
  0
LINE
  8
0
 10
-245.750000
 20
-89.368721
 11
-243.250000
 21
-89.149994
  0
LINE
  8
0
 10
-243.150009
 20
-93.631279
 11
-241.449997
 21
-93.631279
  0
LINE
  8
0
 10
-243.150009
 20
-89.368721
 11
-241.449997
 21
-89.368721
  0
LINE
  8
0
 10
-243.250000
 20
-89.241081
 11
-243.250000
 21
-89.177048
  0
LINE
  8
0
 10
-231.250000
 20
-125.263931
 11
-231.250000
 21
-61.708702
  0
LINE
  8
0
 10
-236.113724
 20
-113.500000
 11
-226.345139
 21
-113.500000
  0
LINE
  8
0
 10
-233.449997
 20
-109.500000
 11
-233.449997
 21
-105.500000
  0
LINE
  8
0
 10
-229.050003
 20
-109.500000
 11
-229.050003
 21
-105.500000
  0
LINE
  8
0
 10
-236.250000
 20
-85.732048
 11
-235.250000
 21
-84.000000
  0
LINE
  8
0
 10
-226.250000
 20
-85.732048
 11
-227.250000
 21
-84.000000
  0
LINE
  8
0
 10
-221.250000
 20
-116.500000
 11
-221.250000
 21
-118.500000
  0
LINE
  8
0
 10
-221.734711
 20
-118.984734
 11
-221.249985
 21
-118.500015
  0
LINE
  8
0
 10
-241.250000
 20
-116.500000
 11
-241.250000
 21
-118.500000
  0
LINE
  8
0
 10
-240.765274
 20
-118.984711
 11
-241.250000
 21
-118.499985
  0
LINE
  8
0
 10
-241.250000
 20
-118.500000
 11
-221.250000
 21
-118.500000
  0
LINE
  8
0
 10
-213.750000
 20
-123.500000
 11
-248.750000
 21
-123.500000
  0
LINE
  8
0
 10
-248.929993
 20
-123.054497
 11
-213.517929
 21
-123.054497
  0
LINE
  8
0
 10
-248.937317
 20
-123.036407
 11
-248.750015
 21
-123.500000
  0
LINE
  8
0
 10
-248.937302
 20
-123.036407
 11
-240.931534
 21
-119.801865
  0
LINE
  8
0
 10
-213.562698
 20
-123.036407
 11
-213.750000
 21
-123.500000
  0
LINE
  8
0
 10
-213.562698
 20
-123.036415
 11
-221.568481
 21
-119.801872
  0
LINE
  8
0
 10
-240.231125
 20
-119.518883
 11
-222.324997
 21
-119.518883
  0
ARC
  8
0
 10
-220.850006
 20
-114.000000
 40
1.000000
 50
0.000000
 51
90.000000
  0
ARC
  8
0
 10
-241.650009
 20
-114.000000
 40
1.000000
 50
90.000000
 51
180.000000
  0
ARC
  8
0
 10
-227.750000
 20
-95.749596
 40
5.750406
 50
232.507858
 51
307.492157
  0
ARC
  8
0
 10
-234.750000
 20
-95.749596
 40
5.750406
 50
232.507858
 51
307.492157
  0
ARC
  8
0
 10
-234.750000
 20
-92.750412
 40
5.750412
 50
90.000000
 51
127.492096
  0
ARC
  8
0
 10
-227.750000
 20
-92.750412
 40
5.750412
 50
90.000000
 51
127.492096
  0
ARC
  8
0
 10
-227.750000
 20
-92.750412
 40
5.750412
 50
52.507900
 51
90.000000
  0
ARC
  8
0
 10
-234.750000
 20
-92.750412
 40
5.750412
 50
52.507900
 51
90.000000
  0
ARC
  8
0
 10
-237.295731
 20
-74.383842
 40
3.616193
 50
236.340973
 51
303.659027
  0
ARC
  8
0
 10
-231.250000
 20
-64.225357
 40
13.774640
 50
252.938538
 51
287.061462
  0
ARC
  8
0
 10
-225.204269
 20
-74.383850
 40
3.616187
 50
236.340912
 51
303.659088
  0
ARC
  8
0
 10
-225.204269
 20
-77.616150
 40
3.616187
 50
56.340912
 51
123.659088
  0
ARC
  8
0
 10
-231.250000
 20
-87.774643
 40
13.774645
 50
72.938477
 51
107.061462
  0
ARC
  8
0
 10
-237.295731
 20
-77.616150
 40
3.616195
 50
56.340710
 51
123.659088
  0
ARC
  8
0
 10
-237.295731
 20
-81.616150
 40
3.616195
 50
56.340710
 51
123.659088
  0
ARC
  8
0
 10
-231.250000
 20
-68.225357
 40
13.774640
 50
252.938538
 51
287.061462
  0
ARC
  8
0
 10
-225.204269
 20
-81.616150
 40
3.616187
 50
56.340912
 51
123.659088
  0
ARC
  8
0
 10
-231.250000
 20
-91.774643
 40
13.774645
 50
72.938477
 51
107.061462
  0
ARC
  8
0
 10
-225.204269
 20
-78.383850
 40
3.616187
 50
236.340912
 51
303.659088
  0
ARC
  8
0
 10
-237.295731
 20
-78.383850
 40
3.616187
 50
236.340912
 51
303.659088
  0
ARC
  8
0
 10
-228.214645
 20
-68.789764
 40
1.779770
 50
89.999512
 51
124.756760
  0
ARC
  8
0
 10
-231.250015
 20
-73.598373
 40
6.588379
 50
90.000000
 51
107.860954
  0
ARC
  8
0
 10
-239.460220
 20
-94.535362
 40
1.779785
 50
180.000000
 51
214.756409
  0
ARC
  8
0
 10
-231.250015
 20
-73.598373
 40
6.588381
 50
72.138794
 51
90.000000
  0
ARC
  8
0
 10
-234.285370
 20
-68.789780
 40
1.779793
 50
55.243256
 51
90.000000
  0
ARC
  8
0
 10
-228.214645
 20
-68.789764
 40
1.779774
 50
55.242836
 51
89.999512
  0
ARC
  8
0
 10
-228.214630
 20
-67.730232
 40
1.779774
 50
235.242828
 51
269.999512
  0
ARC
  8
0
 10
-231.250000
 20
-62.921619
 40
6.588383
 50
269.999878
 51
287.861053
  0
ARC
  8
0
 10
-231.250000
 20
-62.921619
 40
6.588384
 50
252.138809
 51
269.999878
  0
ARC
  8
0
 10
-234.285370
 20
-67.730217
 40
1.779785
 50
270.000000
 51
304.756744
  0
ARC
  8
0
 10
-241.449997
 20
-93.831276
 40
0.199997
 50
0.000000
 51
90.000000
  0
ARC
  8
0
 10
-241.449997
 20
-89.168716
 40
0.199997
 50
270.000000
 51
0.000000
  0
ARC
  8
0
 10
-245.328384
 20
-91.500008
 40
6.588379
 50
0.000000
 51
17.861120
  0
ARC
  8
0
 10
-239.460220
 20
-94.535362
 40
1.779795
 50
145.243591
 51
180.000000
  0
ARC
  8
0
 10
-234.651627
 20
-91.500008
 40
6.588379
 50
180.000000
 51
197.860992
  0
ARC
  8
0
 10
-234.651627
 20
-91.500008
 40
6.588371
 50
162.138840
 51
180.000000
  0
ARC
  8
0
 10
-239.460236
 20
-88.464638
 40
1.779770
 50
180.000000
 51
214.756760
  0
ARC
  8
0
 10
-239.460236
 20
-88.464638
 40
1.779770
 50
145.243042
 51
180.000000
  0
ARC
  8
0
 10
-240.519775
 20
-88.464638
 40
1.779770
 50
325.243042
 51
0.000000
  0
ARC
  8
0
 10
-240.519791
 20
-94.535362
 40
1.779800
 50
0.000000
 51
34.756203
  0
ARC
  8
0
 10
-245.328384
 20
-91.500008
 40
6.588383
 50
342.138947
 51
0.000000
  0
ARC
  8
0
 10
-235.568375
 20
-102.517029
 40
2.583001
 50
236.341003
 51
303.658997
  0
ARC
  8
0
 10
-231.250000
 20
-95.260979
 40
9.839025
 50
252.938507
 51
287.061493
  0
ARC
  8
0
 10
-226.931625
 20
-102.517036
 40
2.582988
 50
236.340820
 51
303.659088
  0
ARC
  8
0
 10
-226.931625
 20
-104.082962
 40
2.582988
 50
56.340816
 51
123.659180
  0
ARC
  8
0
 10
-231.250000
 20
-111.339027
 40
9.839025
 50
72.938507
 51
107.061493
  0
ARC
  8
0
 10
-235.568375
 20
-104.082970
 40
2.582994
 50
56.340912
 51
123.659088
  0
ARC
  8
0
 10
-243.150009
 20
-89.268723
 40
0.099991
 50
180.000000
 51
270.000000
  0
ARC
  8
0
 10
-243.150009
 20
-93.731277
 40
0.099998
 50
90.000000
 51
180.000000
  0
ARC
  8
0
 10
-248.050003
 20
-93.448013
 40
0.199997
 50
180.000000
 51
265.001465
  0
ARC
  8
0
 10
-248.050003
 20
-89.551987
 40
0.200002
 50
94.998329
 51
180.000000
  0
ARC
  8
0
 10
-241.118835
 20
-119.338272
 40
0.500000
 50
291.999786
 51
44.999382
  0
ARC
  8
0
 10
-221.381165
 20
-119.338272
 40
0.500006
 50
135.000626
 51
248.000198
  0
POINT
  8
0
 10
-111.250000
 20
-67.000000
  0
POINT
  8
0
 10
-103.199997
 20
-67.000000
  0
LINE
  8
0
 10
-118.250000
 20
-76.000000
 11
-104.250000
 21
-76.000000
  0
LINE
  8
0
 10
-115.250000
 20
-59.000000
 11
-107.250000
 21
-59.000000
  0
LINE
  8
0
 10
-104.250000
 20
-100.500000
 11
-104.250000
 21
-76.000000
  0
LINE
  8
0
 10
-118.250000
 20
-100.500000
 11
-118.250000
 21
-76.000000
  0
LINE
  8
0
 10
-106.250000
 20
-76.000000
 11
-106.250000
 21
-71.000000
  0
LINE
  8
0
 10
-116.250000
 20
-76.000000
 11
-116.250000
 21
-71.000000
  0
LINE
  8
0
 10
-115.250000
 20
-73.000000
 11
-115.250000
 21
-71.000000
  0
LINE
  8
0
 10
-107.250000
 20
-73.000000
 11
-107.250000
 21
-71.000000
  0
LINE
  8
0
 10
-116.250000
 20
-60.000000
 11
-106.250000
 21
-60.000000
  0
LINE
  8
0
 10
-116.249992
 20
-60.000004
 11
-115.250000
 21
-59.000004
  0
LINE
  8
0
 10
-107.250008
 20
-59.000008
 11
-106.250015
 21
-60.000004
  0
LINE
  8
0
 10
-116.250000
 20
-73.000000
 11
-106.250000
 21
-73.000000
  0
LINE
  8
0
 10
-111.250000
 20
-99.312180
 11
-111.250000
 21
-77.187820
  0
LINE
  8
0
 10
-118.250000
 20
-63.000000
 11
-104.250000
 21
-63.000000
  0
LINE
  8
0
 10
-118.250000
 20
-67.000000
 11
-104.250000
 21
-67.000000
  0
LINE
  8
0
 10
-103.199997
 20
-66.393784
 11
-103.199997
 21
-63.606216
  0
LINE
  8
0
 10
-119.300003
 20
-66.393784
 11
-119.300003
 21
-63.606216
  0
LINE
  8
0
 10
-107.250000
 20
-63.000000
 11
-107.250000
 21
-59.000000
  0
LINE
  8
0
 10
-106.250000
 20
-63.000000
 11
-106.250000
 21
-60.000000
  0
LINE
  8
0
 10
-115.250000
 20
-63.000000
 11
-115.250000
 21
-59.000000
  0
LINE
  8
0
 10
-116.250000
 20
-63.000000
 11
-116.250000
 21
-60.000000
  0
LINE
  8
0
 10
-103.200005
 20
-66.393768
 11
-104.250008
 21
-66.999985
  0
LINE
  8
0
 10
-119.299995
 20
-66.393768
 11
-118.250000
 21
-66.999985
  0
LINE
  8
0
 10
-107.208549
 20
-66.393784
 11
-107.208549
 21
-63.606216
  0
LINE
  8
0
 10
-115.291451
 20
-66.393784
 11
-115.291451
 21
-63.606216
  0
LINE
  8
0
 10
-103.200020
 20
-63.606247
 11
-104.250015
 21
-63.000031
  0
LINE
  8
0
 10
-118.250000
 20
-63.000000
 11
-104.250000
 21
-63.000000
  0
LINE
  8
0
 10
-119.299980
 20
-63.606255
 11
-118.249977
 21
-63.000038
  0
LINE
  8
0
 10
-118.250000
 20
-67.000000
 11
-104.250000
 21
-67.000000
  0
LINE
  8
0
 10
-118.250000
 20
-71.000000
 11
-104.250000
 21
-71.000000
  0
LINE
  8
0
 10
-103.199997
 20
-70.393784
 11
-103.199997
 21
-67.606216
  0
LINE
  8
0
 10
-119.300003
 20
-70.393784
 11
-119.300003
 21
-67.606216
  0
LINE
  8
0
 10
-119.299973
 20
-67.606255
 11
-118.249977
 21
-67.000038
  0
LINE
  8
0
 10
-118.250000
 20
-67.000000
 11
-104.250000
 21
-67.000000
  0
LINE
  8
0
 10
-103.200012
 20
-67.606239
 11
-104.250015
 21
-67.000023
  0
LINE
  8
0
 10
-103.200005
 20
-70.393791
 11
-104.250000
 21
-71.000008
  0
LINE
  8
0
 10
-119.299995
 20
-70.393776
 11
-118.250000
 21
-70.999992
  0
LINE
  8
0
 10
-107.208549
 20
-70.393784
 11
-107.208549
 21
-67.606216
  0
LINE
  8
0
 10
-115.291451
 20
-70.393784
 11
-115.291451
 21
-67.606216
  0
LINE
  8
0
 10
-118.250000
 20
-89.000000
 11
-118.250000
 21
-76.000000
  0
LINE
  8
0
 10
-115.150002
 20
-58.509995
 11
-107.349998
 21
-58.509995
  0
LINE
  8
0
 10
-107.349998
 20
-59.000000
 11
-107.349998
 21
-58.509995
  0
LINE
  8
0
 10
-115.300003
 20
-58.192467
 11
-115.300003
 21
-56.327545
  0
LINE
  8
0
 10
-107.199997
 20
-58.192459
 11
-107.199997
 21
-56.327545
  0
LINE
  8
0
 10
-115.300064
 20
-56.327461
 11
-114.732796
 21
-55.999950
  0
LINE
  8
0
 10
-107.200005
 20
-56.327518
 11
-107.767288
 21
-55.999996
  0
LINE
  8
0
 10
-113.270721
 20
-58.192467
 11
-113.270721
 21
-56.327545
  0
LINE
  8
0
 10
-109.229279
 20
-58.192459
 11
-109.229279
 21
-56.327545
  0
LINE
  8
0
 10
-115.299973
 20
-58.192429
 11
-114.749977
 21
-58.509972
  0
LINE
  8
0
 10
-107.200043
 20
-58.192387
 11
-107.750038
 21
-58.509930
  0
LINE
  8
0
 10
-114.732765
 20
-56.000000
 11
-107.767288
 21
-56.000000
  0
LINE
  8
0
 10
-115.150002
 20
-58.509995
 11
-115.150002
 21
-59.000000
  0
LINE
  8
0
 10
-121.250000
 20
-78.168716
 11
-121.250000
 21
-77.017303
  0
LINE
  8
0
 10
-118.740005
 20
-84.400002
 11
-118.250000
 21
-84.400002
  0
LINE
  8
0
 10
-119.057533
 20
-84.550003
 11
-120.922455
 21
-84.550003
  0
LINE
  8
0
 10
-120.922508
 20
-84.550041
 11
-121.250015
 21
-83.982780
  0
LINE
  8
0
 10
-121.250000
 20
-83.982765
 11
-121.250000
 21
-77.488686
  0
LINE
  8
0
 10
-120.922470
 20
-76.449997
 11
-121.250000
 21
-77.017296
  0
LINE
  8
0
 10
-119.057541
 20
-76.449997
 11
-120.922462
 21
-76.449997
  0
LINE
  8
0
 10
-119.057579
 20
-76.450035
 11
-118.740036
 21
-77.000031
  0
LINE
  8
0
 10
-119.057549
 20
-78.479279
 11
-120.922462
 21
-78.479279
  0
LINE
  8
0
 10
-119.057533
 20
-82.520721
 11
-120.922455
 21
-82.520721
  0
LINE
  8
0
 10
-119.057571
 20
-84.549980
 11
-118.740028
 21
-83.999985
  0
LINE
  8
0
 10
-118.740005
 20
-84.400002
 11
-118.740005
 21
-76.599998
  0
LINE
  8
0
 10
-118.250000
 20
-76.599998
 11
-118.740005
 21
-76.599998
  0
LINE
  8
0
 10
-134.047348
 20
-80.500000
 11
-116.550003
 21
-80.500000
  0
LINE
  8
0
 10
-128.250000
 20
-82.448013
 11
-128.250000
 21
-78.551987
  0
LINE
  8
0
 10
-123.250000
 20
-82.849998
 11
-123.250000
 21
-78.150002
  0
LINE
  8
0
 10
-125.750000
 20
-82.849998
 11
-125.750000
 21
-78.150002
  0
LINE
  8
0
 10
-123.250008
 20
-82.849991
 11
-125.750008
 21
-82.631264
  0
LINE
  8
0
 10
-125.750000
 20
-82.850006
 11
-128.067444
 21
-82.647255
  0
LINE
  8
0
 10
-128.067429
 20
-78.352737
 11
-125.750008
 21
-78.149994
  0
LINE
  8
0
 10
-125.750000
 20
-78.368706
 11
-123.250008
 21
-78.149986
  0
LINE
  8
0
 10
-123.150002
 20
-82.631279
 11
-121.450005
 21
-82.631279
  0
LINE
  8
0
 10
-123.150002
 20
-78.368721
 11
-121.450005
 21
-78.368721
  0
LINE
  8
0
 10
-123.250000
 20
-78.241081
 11
-123.250000
 21
-78.177048
  0
LINE
  8
0
 10
-111.250000
 20
-130.617859
 11
-111.250000
 21
-54.208702
  0
LINE
  8
0
 10
-118.250000
 20
-100.500000
 11
-104.250000
 21
-100.500000
  0
LINE
  8
0
 10
-117.250000
 20
-105.500000
 11
-105.250000
 21
-105.500000
  0
LINE
  8
0
 10
-104.300003
 20
-104.951523
 11
-104.300003
 21
-101.048485
  0
LINE
  8
0
 10
-118.199997
 20
-104.951515
 11
-118.199997
 21
-101.048485
  0
LINE
  8
0
 10
-104.300003
 20
-104.951523
 11
-105.250000
 21
-105.500008
  0
LINE
  8
0
 10
-118.200005
 20
-104.951523
 11
-117.250008
 21
-105.500000
  0
LINE
  8
0
 10
-114.714104
 20
-104.951515
 11
-114.714104
 21
-101.048477
  0
LINE
  8
0
 10
-104.300003
 20
-101.048477
 11
-105.250000
 21
-100.499992
  0
LINE
  8
0
 10
-117.250000
 20
-100.500000
 11
-105.250000
 21
-100.500000
  0
LINE
  8
0
 10
-118.200005
 20
-101.048485
 11
-117.250000
 21
-100.500000
  0
LINE
  8
0
 10
-107.785896
 20
-104.951523
 11
-107.785896
 21
-101.048485
  0
LINE
  8
0
 10
-131.250000
 20
-127.000000
 11
-91.250008
 21
-127.000000
  0
LINE
  8
0
 10
-131.249985
 20
-126.999985
 11
-131.635666
 21
-126.540359
  0
LINE
  8
0
 10
-127.607216
 20
-123.160095
 11
-131.635681
 21
-126.540375
  0
LINE
  8
0
 10
-127.250000
 20
-122.394051
 11
-127.250000
 21
-121.000000
  0
LINE
  8
0
 10
-122.450005
 20
-111.000000
 11
-100.050003
 21
-111.000000
  0
LINE
  8
0
 10
-123.449997
 20
-114.500000
 11
-123.449997
 21
-112.000000
  0
LINE
  8
0
 10
-123.450005
 20
-112.000000
 11
-122.450005
 21
-111.000000
  0
LINE
  8
0
 10
-127.750000
 20
-114.500000
 11
-94.750000
 21
-114.500000
  0
LINE
  8
0
 10
-129.250000
 20
-121.000000
 11
-129.250000
 21
-116.000000
  0
LINE
  8
0
 10
-129.250000
 20
-121.000000
 11
-93.250008
 21
-121.000000
  0
LINE
  8
0
 10
-127.250008
 20
-122.860359
 11
-95.250008
 21
-122.860359
  0
LINE
  8
0
 10
-118.836418
 20
-115.000000
 11
-103.503082
 21
-115.000000
  0
LINE
  8
0
 10
-114.250000
 20
-106.500000
 11
-108.250000
 21
-106.500000
  0
LINE
  8
0
 10
-114.250000
 20
-111.000000
 11
-114.250000
 21
-106.500000
  0
LINE
  8
0
 10
-91.250000
 20
-127.000015
 11
-90.864326
 21
-126.540390
  0
LINE
  8
0
 10
-94.892776
 20
-123.160065
 11
-90.864319
 21
-126.540344
  0
LINE
  8
0
 10
-95.250000
 20
-122.394051
 11
-95.250000
 21
-121.000000
  0
LINE
  8
0
 10
-93.250000
 20
-121.000000
 11
-93.250000
 21
-116.000000
  0
LINE
  8
0
 10
-99.050003
 20
-114.500000
 11
-99.050003
 21
-112.000000
  0
LINE
  8
0
 10
-99.050011
 20
-112.000000
 11
-100.050011
 21
-111.000000
  0
LINE
  8
0
 10
-108.250000
 20
-111.000000
 11
-108.250000
 21
-106.500000
  0
LINE
  8
0
 10
-114.250015
 20
-106.500000
 11
-115.250015
 21
-105.500008
  0
LINE
  8
0
 10
-114.750000
 20
-106.000000
 11
-114.750000
 21
-105.500000
  0
LINE
  8
0
 10
-107.750000
 20
-106.000000
 11
-107.750000
 21
-105.500000
  0
LINE
  8
0
 10
-108.250000
 20
-106.500000
 11
-107.250008
 21
-105.500000
  0
LINE
  8
0
 10
-106.249992
 20
-74.732056
 11
-107.249992
 21
-73.000008
  0
LINE
  8
0
 10
-116.250015
 20
-74.732056
 11
-115.250015
 21
-73.000008
  0
LINE
  8
0
 10
-90.864342
 20
-126.540375
 11
-131.635666
 21
-126.540375
  0
ARC
  8
0
 10
-114.750000
 20
-81.750412
 40
5.750412
 50
90.000000
 51
127.492096
  0
ARC
  8
0
 10
-107.750000
 20
-81.750412
 40
5.750412
 50
90.000000
 51
127.492096
  0
ARC
  8
0
 10
-107.750000
 20
-81.750412
 40
5.750412
 50
52.507900
 51
90.000000
  0
ARC
  8
0
 10
-114.750000
 20
-81.750412
 40
5.750412
 50
52.507900
 51
90.000000
  0
ARC
  8
0
 10
-117.295723
 20
-63.383850
 40
3.616187
 50
236.340912
 51
303.659027
  0
ARC
  8
0
 10
-111.250000
 20
-53.225357
 40
13.774640
 50
252.938538
 51
287.061462
  0
ARC
  8
0
 10
-105.204277
 20
-63.383850
 40
3.616183
 50
236.341019
 51
303.659088
  0
ARC
  8
0
 10
-105.204277
 20
-66.616150
 40
3.616187
 50
56.340912
 51
123.658958
  0
ARC
  8
0
 10
-111.250000
 20
-76.774643
 40
13.774639
 50
72.938507
 51
107.061424
  0
ARC
  8
0
 10
-117.295723
 20
-66.616150
 40
3.616190
 50
56.340946
 51
123.659058
  0
ARC
  8
0
 10
-117.295723
 20
-70.616150
 40
3.616193
 50
56.340977
 51
123.659019
  0
ARC
  8
0
 10
-111.250000
 20
-57.225357
 40
13.774640
 50
252.938538
 51
287.061462
  0
ARC
  8
0
 10
-105.204277
 20
-70.616150
 40
3.616187
 50
56.340912
 51
123.658989
  0
ARC
  8
0
 10
-111.250000
 20
-80.774643
 40
13.774643
 50
72.938507
 51
107.061432
  0
ARC
  8
0
 10
-105.204277
 20
-67.383850
 40
3.616187
 50
236.340912
 51
303.659088
  0
ARC
  8
0
 10
-117.295723
 20
-67.383850
 40
3.616193
 50
236.340973
 51
303.659027
  0
ARC
  8
0
 10
-108.214638
 20
-57.789764
 40
1.779770
 50
90.000000
 51
124.756691
  0
ARC
  8
0
 10
-111.250008
 20
-62.598373
 40
6.588379
 50
90.000000
 51
107.861053
  0
ARC
  8
0
 10
-119.460220
 20
-83.535362
 40
1.779785
 50
180.000000
 51
214.756546
  0
ARC
  8
0
 10
-111.250008
 20
-62.598373
 40
6.588378
 50
72.138863
 51
90.000000
  0
ARC
  8
0
 10
-114.285362
 20
-57.789780
 40
1.779789
 50
55.243458
 51
90.000000
  0
ARC
  8
0
 10
-108.214638
 20
-57.789764
 40
1.779769
 50
55.243309
 51
90.000000
  0
ARC
  8
0
 10
-108.214638
 20
-56.730232
 40
1.779769
 50
235.243317
 51
270.000000
  0
ARC
  8
0
 10
-111.250008
 20
-51.921616
 40
6.588379
 50
270.000000
 51
287.861145
  0
ARC
  8
0
 10
-111.250008
 20
-51.921616
 40
6.588379
 50
252.138931
 51
269.999939
  0
ARC
  8
0
 10
-114.285362
 20
-56.730217
 40
1.779785
 50
270.000000
 51
304.756348
  0
ARC
  8
0
 10
-121.450005
 20
-82.831276
 40
0.200005
 50
0.000000
 51
90.000000
  0
ARC
  8
0
 10
-121.450005
 20
-78.168716
 40
0.199997
 50
270.000000
 51
0.000000
  0
ARC
  8
0
 10
-125.328384
 20
-80.500008
 40
6.588379
 50
0.000000
 51
17.861120
  0
ARC
  8
0
 10
-119.460220
 20
-83.535362
 40
1.779789
 50
145.243454
 51
180.000000
  0
ARC
  8
0
 10
-114.651627
 20
-80.500008
 40
6.588379
 50
180.000000
 51
197.860992
  0
ARC
  8
0
 10
-114.651627
 20
-80.500008
 40
6.588378
 50
162.138855
 51
180.000000
  0
ARC
  8
0
 10
-119.460236
 20
-77.464638
 40
1.779770
 50
180.000000
 51
214.756622
  0
ARC
  8
0
 10
-119.460236
 20
-77.464638
 40
1.779770
 50
145.243042
 51
180.000000
  0
ARC
  8
0
 10
-120.519768
 20
-77.464638
 40
1.779770
 50
325.243042
 51
0.000000
  0
ARC
  8
0
 10
-120.519783
 20
-83.535362
 40
1.779785
 50
0.000000
 51
34.756340
  0
ARC
  8
0
 10
-125.328384
 20
-80.500008
 40
6.588383
 50
342.138947
 51
0.000000
  0
ARC
  8
0
 10
-123.150002
 20
-78.268723
 40
0.099998
 50
180.000000
 51
270.000000
  0
ARC
  8
0
 10
-123.150002
 20
-82.731277
 40
0.099998
 50
90.000000
 51
180.000000
  0
ARC
  8
0
 10
-128.050003
 20
-82.448013
 40
0.199997
 50
180.000000
 51
265.001465
  0
ARC
  8
0
 10
-128.050003
 20
-78.551987
 40
0.200002
 50
94.998329
 51
180.000000
  0
ARC
  8
0
 10
-107.750000
 20
-94.749588
 40
5.750412
 50
269.999939
 51
307.492096
  0
ARC
  8
0
 10
-107.750000
 20
-94.749588
 40
5.750412
 50
232.507904
 51
269.999939
  0
ARC
  8
0
 10
-114.750000
 20
-94.749588
 40
5.750412
 50
269.999939
 51
307.492096
  0
ARC
  8
0
 10
-114.750000
 20
-94.749588
 40
5.750412
 50
232.507904
 51
269.999939
  0
ARC
  8
0
 10
-116.457054
 20
-102.456528
 40
3.043491
 50
235.062592
 51
304.937225
  0
ARC
  8
0
 10
-111.250000
 20
-94.286476
 40
11.213530
 50
252.005737
 51
287.994232
  0
ARC
  8
0
 10
-106.042953
 20
-102.456520
 40
3.043504
 50
235.062759
 51
304.937317
  0
ARC
  8
0
 10
-106.042953
 20
-103.543480
 40
3.043498
 50
55.062672
 51
124.937126
  0
ARC
  8
0
 10
-111.250008
 20
-111.713524
 40
11.213522
 50
72.005722
 51
107.994194
  0
ARC
  8
0
 10
-116.457054
 20
-103.543472
 40
3.043493
 50
55.062790
 51
124.937408
  0
ARC
  8
0
 10
-128.250000
 20
-122.394051
 40
0.999998
 50
309.999847
 51
0.000000
  0
ARC
  8
0
 10
-127.750000
 20
-116.000000
 40
1.500000
 50
90.000000
 51
180.000000
  0
ARC
  8
0
 10
-94.250008
 20
-122.394051
 40
1.000000
 50
180.000000
 51
230.000153
  0
ARC
  8
0
 10
-94.750000
 20
-116.000000
 40
1.500000
 50
0.000000
 51
90.000000
  0
POINT
  8
0
 10
-1.250000
 20
-61.000000
  0
POINT
  8
0
 10
6.799999
 20
-61.000000
  0
LINE
  8
0
 10
-8.250002
 20
-70.000000
 11
5.749999
 21
-70.000000
  0
LINE
  8
0
 10
-5.250000
 20
-53.000000
 11
2.750000
 21
-53.000000
  0
LINE
  8
0
 10
5.750000
 20
-94.500000
 11
5.750000
 21
-70.000000
  0
LINE
  8
0
 10
-8.250000
 20
-94.500000
 11
-8.250000
 21
-70.000000
  0
LINE
  8
0
 10
3.750000
 20
-70.000000
 11
3.750000
 21
-65.000000
  0
LINE
  8
0
 10
-6.250000
 20
-70.000000
 11
-6.250000
 21
-65.000000
  0
LINE
  8
0
 10
-5.250000
 20
-67.000000
 11
-5.250000
 21
-65.000000
  0
LINE
  8
0
 10
2.750000
 20
-67.000000
 11
2.750000
 21
-65.000000
  0
LINE
  8
0
 10
-6.250000
 20
-54.000000
 11
3.750000
 21
-54.000000
  0
LINE
  8
0
 10
-6.249996
 20
-54.000004
 11
-5.249997
 21
-53.000004
  0
LINE
  8
0
 10
2.749990
 20
-53.000008
 11
3.749985
 21
-54.000004
  0
LINE
  8
0
 10
-6.250001
 20
-67.000000
 11
3.749999
 21
-67.000000
  0
LINE
  8
0
 10
-1.250000
 20
-93.312180
 11
-1.250000
 21
-71.187820
  0
LINE
  8
0
 10
-8.250000
 20
-57.000000
 11
5.750001
 21
-57.000000
  0
LINE
  8
0
 10
-8.250001
 20
-61.000000
 11
5.749999
 21
-61.000000
  0
LINE
  8
0
 10
6.799999
 20
-60.393784
 11
6.799999
 21
-57.606216
  0
LINE
  8
0
 10
-9.299999
 20
-60.393784
 11
-9.299999
 21
-57.606216
  0
LINE
  8
0
 10
2.750000
 20
-57.000000
 11
2.750000
 21
-53.000000
  0
LINE
  8
0
 10
3.750000
 20
-57.000000
 11
3.750000
 21
-54.000000
  0
LINE
  8
0
 10
-5.250000
 20
-57.000000
 11
-5.250000
 21
-53.000000
  0
LINE
  8
0
 10
-6.250000
 20
-57.000000
 11
-6.250000
 21
-54.000000
  0
LINE
  8
0
 10
6.799994
 20
-60.393772
 11
5.749994
 21
-60.999989
  0
LINE
  8
0
 10
-9.299994
 20
-60.393768
 11
-8.249997
 21
-60.999985
  0
LINE
  8
0
 10
2.791452
 20
-60.393784
 11
2.791452
 21
-57.606216
  0
LINE
  8
0
 10
-5.291451
 20
-60.393784
 11
-5.291451
 21
-57.606216
  0
LINE
  8
0
 10
6.799981
 20
-57.606243
 11
5.749983
 21
-57.000031
  0
LINE
  8
0
 10
-8.250000
 20
-57.000000
 11
5.750000
 21
-57.000000
  0
LINE
  8
0
 10
-9.299979
 20
-57.606255
 11
-8.249980
 21
-57.000038
  0
LINE
  8
0
 10
-8.250001
 20
-61.000000
 11
5.750001
 21
-61.000000
  0
LINE
  8
0
 10
-8.250001
 20
-65.000000
 11
5.749999
 21
-65.000000
  0
LINE
  8
0
 10
6.799999
 20
-64.393784
 11
6.799999
 21
-61.606216
  0
LINE
  8
0
 10
-9.299999
 20
-64.393784
 11
-9.299999
 21
-61.606216
  0
LINE
  8
0
 10
-9.299976
 20
-61.606255
 11
-8.249977
 21
-61.000038
  0
LINE
  8
0
 10
-8.250001
 20
-61.000000
 11
5.749999
 21
-61.000000
  0
LINE
  8
0
 10
6.799985
 20
-61.606243
 11
5.749987
 21
-61.000027
  0
LINE
  8
0
 10
6.799997
 20
-64.393791
 11
5.749998
 21
-65.000008
  0
LINE
  8
0
 10
-9.299998
 20
-64.393776
 11
-8.250000
 21
-64.999992
  0
LINE
  8
0
 10
2.791452
 20
-64.393784
 11
2.791452
 21
-61.606216
  0
LINE
  8
0
 10
-5.291451
 20
-64.393784
 11
-5.291451
 21
-61.606216
  0
LINE
  8
0
 10
-8.250000
 20
-83.000000
 11
-8.250000
 21
-70.000000
  0
LINE
  8
0
 10
-5.150002
 20
-52.509995
 11
2.650001
 21
-52.509995
  0
LINE
  8
0
 10
2.650002
 20
-53.000000
 11
2.650002
 21
-52.509995
  0
LINE
  8
0
 10
-5.299999
 20
-52.192467
 11
-5.299999
 21
-50.327545
  0
LINE
  8
0
 10
2.799999
 20
-52.192459
 11
2.799999
 21
-50.327545
  0
LINE
  8
0
 10
-5.300063
 20
-50.327461
 11
-4.732798
 21
-49.999950
  0
LINE
  8
0
 10
2.799995
 20
-50.327518
 11
2.232710
 21
-49.999996
  0
LINE
  8
0
 10
-3.270725
 20
-52.192467
 11
-3.270725
 21
-50.327545
  0
LINE
  8
0
 10
0.770725
 20
-52.192459
 11
0.770725
 21
-50.327545
  0
LINE
  8
0
 10
-5.299969
 20
-52.192429
 11
-4.749976
 21
-52.509972
  0
LINE
  8
0
 10
2.799961
 20
-52.192387
 11
2.249960
 21
-52.509930
  0
LINE
  8
0
 10
-4.732765
 20
-50.000000
 11
2.232710
 21
-50.000000
  0
LINE
  8
0
 10
-5.150002
 20
-52.509995
 11
-5.150002
 21
-53.000000
  0
LINE
  8
0
 10
-11.250000
 20
-72.168716
 11
-11.250000
 21
-71.017303
  0
LINE
  8
0
 10
-8.740004
 20
-78.400002
 11
-8.250002
 21
-78.400002
  0
LINE
  8
0
 10
-9.057535
 20
-78.550003
 11
-10.922457
 21
-78.550003
  0
LINE
  8
0
 10
-10.922515
 20
-78.550041
 11
-11.250022
 21
-77.982780
  0
LINE
  8
0
 10
-11.250000
 20
-77.982765
 11
-11.250000
 21
-71.488686
  0
LINE
  8
0
 10
-10.922471
 20
-70.449997
 11
-11.250002
 21
-71.017296
  0
LINE
  8
0
 10
-9.057539
 20
-70.449997
 11
-10.922461
 21
-70.449997
  0
LINE
  8
0
 10
-9.057588
 20
-70.450035
 11
-8.740044
 21
-71.000038
  0
LINE
  8
0
 10
-9.057547
 20
-72.479279
 11
-10.922461
 21
-72.479279
  0
LINE
  8
0
 10
-9.057535
 20
-76.520721
 11
-10.922457
 21
-76.520721
  0
LINE
  8
0
 10
-9.057570
 20
-78.549980
 11
-8.740027
 21
-77.999985
  0
LINE
  8
0
 10
-8.740002
 20
-78.400002
 11
-8.740002
 21
-70.599998
  0
LINE
  8
0
 10
-8.250002
 20
-70.599998
 11
-8.740004
 21
-70.599998
  0
LINE
  8
0
 10
-24.047350
 20
-74.500000
 11
-6.550005
 21
-74.500000
  0
LINE
  8
0
 10
-18.250000
 20
-76.448013
 11
-18.250000
 21
-72.551987
  0
LINE
  8
0
 10
-13.250000
 20
-76.849998
 11
-13.250000
 21
-72.150002
  0
LINE
  8
0
 10
-15.750000
 20
-76.849998
 11
-15.750000
 21
-72.150002
  0
LINE
  8
0
 10
-13.250007
 20
-76.849991
 11
-15.750010
 21
-76.631271
  0
LINE
  8
0
 10
-15.750004
 20
-76.850006
 11
-18.067438
 21
-76.647255
  0
LINE
  8
0
 10
-18.067430
 20
-72.352737
 11
-15.750005
 21
-72.149994
  0
LINE
  8
0
 10
-15.750001
 20
-72.368706
 11
-13.250006
 21
-72.149986
  0
LINE
  8
0
 10
-13.150003
 20
-76.631279
 11
-11.450003
 21
-76.631279
  0
LINE
  8
0
 10
-13.150003
 20
-72.368721
 11
-11.450003
 21
-72.368721
  0
LINE
  8
0
 10
-13.250000
 20
-72.241081
 11
-13.250000
 21
-72.177048
  0
LINE
  8
0
 10
-1.250000
 20
-129.372925
 11
-1.250000
 21
-48.208702
  0
LINE
  8
0
 10
-8.250004
 20
-94.500000
 11
5.749997
 21
-94.500000
  0
LINE
  8
0
 10
-7.250004
 20
-99.500000
 11
4.749998
 21
-99.500000
  0
LINE
  8
0
 10
5.700001
 20
-98.951523
 11
5.700001
 21
-95.048485
  0
LINE
  8
0
 10
-8.200001
 20
-98.951515
 11
-8.200001
 21
-95.048485
  0
LINE
  8
0
 10
5.700002
 20
-98.951530
 11
4.750003
 21
-99.500015
  0
LINE
  8
0
 10
-8.200008
 20
-98.951523
 11
-7.250008
 21
-99.500000
  0
LINE
  8
0
 10
-4.714104
 20
-98.951515
 11
-4.714104
 21
-95.048477
  0
LINE
  8
0
 10
5.700002
 20
-95.048477
 11
4.750005
 21
-94.499992
  0
LINE
  8
0
 10
-7.250003
 20
-94.500000
 11
4.749999
 21
-94.500000
  0
LINE
  8
0
 10
-8.200004
 20
-95.048485
 11
-7.250000
 21
-94.500000
  0
LINE
  8
0
 10
2.214102
 20
-98.951523
 11
2.214102
 21
-95.048485
  0
LINE
  8
0
 10
-12.450005
 20
-105.000000
 11
9.949999
 21
-105.000000
  0
LINE
  8
0
 10
-13.450001
 20
-108.500000
 11
-13.450001
 21
-106.000000
  0
LINE
  8
0
 10
-13.450005
 20
-106.000000
 11
-12.450004
 21
-105.000000
  0
LINE
  8
0
 10
-17.750004
 20
-108.500000
 11
15.249996
 21
-108.500000
  0
LINE
  8
0
 10
-19.250000
 20
-115.000000
 11
-19.250000
 21
-110.000000
  0
LINE
  8
0
 10
-19.250006
 20
-115.000000
 11
16.749994
 21
-115.000000
  0
LINE
  8
0
 10
-8.836418
 20
-109.000000
 11
6.496917
 21
-109.000000
  0
LINE
  8
0
 10
-4.250004
 20
-100.500000
 11
1.749996
 21
-100.500000
  0
LINE
  8
0
 10
-4.250000
 20
-105.000000
 11
-4.250000
 21
-100.500000
  0
LINE
  8
0
 10
16.750000
 20
-115.000000
 11
16.750000
 21
-110.000000
  0
LINE
  8
0
 10
10.950001
 20
-108.500000
 11
10.950001
 21
-106.000000
  0
LINE
  8
0
 10
10.949991
 20
-106.000000
 11
9.949992
 21
-105.000008
  0
LINE
  8
0
 10
1.750000
 20
-105.000000
 11
1.750000
 21
-100.500000
  0
LINE
  8
0
 10
-4.250016
 20
-100.500008
 11
-5.250015
 21
-99.500015
  0
LINE
  8
0
 10
-4.750000
 20
-100.000000
 11
-4.750000
 21
-99.500000
  0
LINE
  8
0
 10
2.250000
 20
-100.000000
 11
2.250000
 21
-99.500000
  0
LINE
  8
0
 10
1.749998
 20
-100.500000
 11
2.749995
 21
-99.500000
  0
LINE
  8
0
 10
3.750004
 20
-68.732063
 11
2.750004
 21
-67.000008
  0
LINE
  8
0
 10
-6.250012
 20
-68.732056
 11
-5.250012
 21
-67.000008
  0
LINE
  8
0
 10
14.750000
 20
-115.000000
 11
14.750000
 21
-115.802734
  0
LINE
  8
0
 10
23.750008
 20
-122.500000
 11
24.150007
 21
-121.807175
  0
LINE
  8
0
 10
15.249994
 20
-116.668777
 11
24.149998
 21
-121.807190
  0
LINE
  8
0
 10
23.750000
 20
-122.500000
 11
-26.250000
 21
-122.500000
  0
LINE
  8
0
 10
-17.250000
 20
-115.000000
 11
-17.250000
 21
-115.802734
  0
LINE
  8
0
 10
-26.250013
 20
-122.500015
 11
-26.650015
 21
-121.807190
  0
LINE
  8
0
 10
-17.750008
 20
-116.668747
 11
-26.650005
 21
-121.807159
  0
LINE
  8
0
 10
-16.387501
 20
-116.380089
 11
13.829167
 21
-116.380089
  0
LINE
  8
0
 10
-26.650000
 20
-121.807182
 11
24.150003
 21
-121.807182
  0
ARC
  8
0
 10
-4.750002
 20
-75.750412
 40
5.750412
 50
89.999992
 51
127.492096
  0
ARC
  8
0
 10
2.249998
 20
-75.750412
 40
5.750412
 50
89.999992
 51
127.492096
  0
ARC
  8
0
 10
2.249998
 20
-75.750412
 40
5.750412
 50
52.507896
 51
89.999992
  0
ARC
  8
0
 10
-4.750002
 20
-75.750412
 40
5.750412
 50
52.507896
 51
89.999992
  0
ARC
  8
0
 10
-7.295723
 20
-57.383850
 40
3.616191
 50
236.340927
 51
303.659058
  0
ARC
  8
0
 10
-1.250000
 20
-47.225357
 40
13.774641
 50
252.938538
 51
287.061462
  0
ARC
  8
0
 10
4.795724
 20
-57.383850
 40
3.616189
 50
236.340973
 51
303.659088
  0
ARC
  8
0
 10
4.795724
 20
-60.616150
 40
3.616188
 50
56.340885
 51
123.659019
  0
ARC
  8
0
 10
-1.250002
 20
-70.774643
 40
13.774640
 50
72.938492
 51
107.061424
  0
ARC
  8
0
 10
-7.295724
 20
-60.616150
 40
3.616191
 50
56.340931
 51
123.659058
  0
ARC
  8
0
 10
-7.295724
 20
-64.616150
 40
3.616191
 50
56.340931
 51
123.659058
  0
ARC
  8
0
 10
-1.250000
 20
-51.225357
 40
13.774641
 50
252.938538
 51
287.061462
  0
ARC
  8
0
 10
4.795724
 20
-64.616150
 40
3.616188
 50
56.340885
 51
123.659019
  0
ARC
  8
0
 10
-1.250002
 20
-74.774643
 40
13.774640
 50
72.938499
 51
107.061424
  0
ARC
  8
0
 10
4.795724
 20
-61.383850
 40
3.616186
 50
236.340942
 51
303.659088
  0
ARC
  8
0
 10
-7.295724
 20
-61.383850
 40
3.616194
 50
236.340973
 51
303.658997
  0
ARC
  8
0
 10
1.785362
 20
-51.789764
 40
1.779770
 50
89.999992
 51
124.756760
  0
ARC
  8
0
 10
-1.250008
 20
-56.598373
 40
6.588379
 50
89.999992
 51
107.861046
  0
ARC
  8
0
 10
-9.460222
 20
-77.535362
 40
1.779787
 50
180.000000
 51
214.756531
  0
ARC
  8
0
 10
-1.250008
 20
-56.598373
 40
6.588379
 50
72.138840
 51
89.999992
  0
ARC
  8
0
 10
-4.285362
 20
-51.789780
 40
1.779787
 50
55.243553
 51
90.000000
  0
ARC
  8
0
 10
1.785362
 20
-51.789764
 40
1.779770
 50
55.243229
 51
89.999992
  0
ARC
  8
0
 10
1.785362
 20
-50.730232
 40
1.779770
 50
235.243225
 51
269.999969
  0
ARC
  8
0
 10
-1.250007
 20
-45.921616
 40
6.588379
 50
269.999969
 51
287.861145
  0
ARC
  8
0
 10
-1.250007
 20
-45.921616
 40
6.588380
 50
252.138901
 51
269.999969
  0
ARC
  8
0
 10
-4.285362
 20
-50.730217
 40
1.779785
 50
269.999969
 51
304.756409
  0
ARC
  8
0
 10
-11.450003
 20
-76.831276
 40
0.200000
 50
0.000000
 51
90.000000
  0
ARC
  8
0
 10
-11.450003
 20
-72.168716
 40
0.199997
 50
270.000000
 51
0.000000
  0
ARC
  8
0
 10
-15.328382
 20
-74.500008
 40
6.588381
 50
0.000000
 51
17.861135
  0
ARC
  8
0
 10
-9.460222
 20
-77.535362
 40
1.779789
 50
145.243454
 51
180.000000
  0
ARC
  8
0
 10
-4.651625
 20
-74.500008
 40
6.588381
 50
180.000000
 51
197.860992
  0
ARC
  8
0
 10
-4.651625
 20
-74.500008
 40
6.588379
 50
162.138855
 51
180.000000
  0
ARC
  8
0
 10
-9.460238
 20
-71.464638
 40
1.779770
 50
180.000000
 51
214.756714
  0
ARC
  8
0
 10
-9.460238
 20
-71.464638
 40
1.779772
 50
145.243073
 51
180.000000
  0
ARC
  8
0
 10
-10.519770
 20
-71.464638
 40
1.779772
 50
325.243073
 51
0.000000
  0
ARC
  8
0
 10
-10.519785
 20
-77.535362
 40
1.779787
 50
0.000000
 51
34.756306
  0
ARC
  8
0
 10
-15.328382
 20
-74.500008
 40
6.588379
 50
342.138947
 51
0.000000
  0
ARC
  8
0
 10
-13.150003
 20
-72.268723
 40
0.100000
 50
180.000000
 51
270.000000
  0
ARC
  8
0
 10
-13.150003
 20
-76.731277
 40
0.099998
 50
90.000000
 51
180.000000
  0
ARC
  8
0
 10
-18.050001
 20
-76.448013
 40
0.200001
 50
180.000000
 51
265.000397
  0
ARC
  8
0
 10
-18.050001
 20
-72.551987
 40
0.200003
 50
94.999420
 51
180.000000
  0
ARC
  8
0
 10
2.249997
 20
-88.749588
 40
5.750412
 50
269.999969
 51
307.492096
  0
ARC
  8
0
 10
2.249997
 20
-88.749588
 40
5.750412
 50
232.507904
 51
269.999969
  0
ARC
  8
0
 10
-4.750003
 20
-88.749588
 40
5.750412
 50
269.999969
 51
307.492096
  0
ARC
  8
0
 10
-4.750003
 20
-88.749588
 40
5.750413
 50
232.507889
 51
269.999969
  0
ARC
  8
0
 10
-6.457054
 20
-96.456528
 40
3.043490
 50
235.062607
 51
304.937256
  0
ARC
  8
0
 10
-1.250003
 20
-88.286476
 40
11.213528
 50
252.005753
 51
287.994232
  0
ARC
  8
0
 10
3.957047
 20
-96.456520
 40
3.043502
 50
235.062805
 51
304.937317
  0
ARC
  8
0
 10
3.957047
 20
-97.543480
 40
3.043498
 50
55.062672
 51
124.937180
  0
ARC
  8
0
 10
-1.250004
 20
-105.713524
 40
11.213522
 50
72.005722
 51
107.994209
  0
ARC
  8
0
 10
-6.457054
 20
-97.543472
 40
3.043495
 50
55.062729
 51
124.937386
  0
ARC
  8
0
 10
-17.750004
 20
-110.000000
 40
1.500000
 50
90.000000
 51
180.000000
  0
ARC
  8
0
 10
15.249996
 20
-110.000000
 40
1.500000
 50
0.000000
 51
89.999924
  0
ARC
  8
0
 10
15.750000
 20
-115.802734
 40
1.000000
 50
180.000000
 51
240.000076
  0
ARC
  8
0
 10
-18.250000
 20
-115.802734
 40
1.000002
 50
299.999939
 51
0.000000
  0
POINT
  8
0
 10
118.750000
 20
-43.500000
  0
POINT
  8
0
 10
130.800003
 20
-43.500000
  0
LINE
  8
0
 10
118.750000
 20
-136.617859
 11
118.750000
 21
-26.478466
  0
LINE
  8
0
 10
88.749992
 20
-127.000000
 11
148.750000
 21
-127.000000
  0
LINE
  8
0
 10
88.749977
 20
-127.000023
 11
88.184288
 21
-126.434334
  0
LINE
  8
0
 10
148.750000
 20
-127.000015
 11
149.315689
 21
-126.434334
  0
LINE
  8
0
 10
149.315659
 20
-126.434326
 11
146.147766
 21
-123.266426
  0
LINE
  8
0
 10
88.184311
 20
-126.434319
 11
91.352203
 21
-123.266434
  0
LINE
  8
0
 10
95.549995
 20
-102.000000
 11
141.949997
 21
-102.000000
  0
LINE
  8
0
 10
142.949997
 20
-110.000000
 11
142.949997
 21
-103.000000
  0
LINE
  8
0
 10
94.550003
 20
-110.000000
 11
94.550003
 21
-103.000000
  0
LINE
  8
0
 10
142.949982
 20
-103.000000
 11
141.949997
 21
-102.000000
  0
LINE
  8
0
 10
95.550003
 20
-101.999992
 11
94.550003
 21
-103.000000
  0
LINE
  8
0
 10
88.249992
 20
-110.000000
 11
149.250000
 21
-110.000000
  0
LINE
  8
0
 10
86.750000
 20
-118.000000
 11
86.750000
 21
-111.500000
  0
LINE
  8
0
 10
150.750000
 20
-118.000000
 11
150.750000
 21
-111.500000
  0
LINE
  8
0
 10
86.749992
 20
-118.000000
 11
150.750000
 21
-118.000000
  0
LINE
  8
0
 10
91.352173
 20
-121.852234
 11
88.499939
 21
-119.000008
  0
LINE
  8
0
 10
146.147797
 20
-121.852219
 11
149.000015
 21
-119.000000
  0
LINE
  8
0
 10
149.315674
 20
-126.434311
 11
88.184303
 21
-126.434311
  0
LINE
  8
0
 10
145.854889
 20
-122.559311
 11
91.645096
 21
-122.559311
  0
LINE
  8
0
 10
107.749992
 20
-89.000000
 11
129.750000
 21
-89.000000
  0
LINE
  8
0
 10
110.250000
 20
-96.000000
 11
127.249992
 21
-96.000000
  0
LINE
  8
0
 10
128.550003
 20
-95.249443
 11
128.550003
 21
-89.750557
  0
LINE
  8
0
 10
108.949997
 20
-95.249443
 11
108.949997
 21
-89.750557
  0
LINE
  8
0
 10
110.250000
 20
-96.000000
 11
108.949997
 21
-95.249451
  0
LINE
  8
0
 10
127.250000
 20
-96.000023
 11
128.550003
 21
-95.249466
  0
LINE
  8
0
 10
127.249992
 20
-89.000008
 11
128.549988
 21
-89.750565
  0
LINE
  8
0
 10
110.250000
 20
-89.000000
 11
127.249992
 21
-89.000000
  0
LINE
  8
0
 10
110.250000
 20
-89.000015
 11
108.949997
 21
-89.750565
  0
LINE
  8
0
 10
123.657486
 20
-89.750565
 11
123.657486
 21
-95.249451
  0
LINE
  8
0
 10
113.842422
 20
-95.249443
 11
113.842422
 21
-89.750549
  0
LINE
  8
0
 10
101.998665
 20
-109.000000
 11
135.598663
 21
-109.000000
  0
LINE
  8
0
 10
113.750000
 20
-102.000000
 11
113.750000
 21
-96.000000
  0
LINE
  8
0
 10
123.750000
 20
-102.000000
 11
123.750000
 21
-96.000000
  0
LINE
  8
0
 10
107.749992
 20
-54.000000
 11
129.750000
 21
-54.000000
  0
LINE
  8
0
 10
111.750000
 20
-32.299999
 11
125.750000
 21
-32.299999
  0
LINE
  8
0
 10
110.750000
 20
-54.000000
 11
110.750000
 21
-49.500000
  0
LINE
  8
0
 10
126.750000
 20
-54.000000
 11
126.750000
 21
-49.500000
  0
LINE
  8
0
 10
111.500000
 20
-51.000000
 11
111.500000
 21
-49.500000
  0
LINE
  8
0
 10
126.000000
 20
-51.000000
 11
126.000000
 21
-49.500000
  0
LINE
  8
0
 10
111.750008
 20
-32.300014
 11
110.750008
 21
-33.300007
  0
LINE
  8
0
 10
126.749985
 20
-33.300003
 11
125.749992
 21
-32.300014
  0
LINE
  8
0
 10
110.750000
 20
-33.299999
 11
126.750000
 21
-33.299999
  0
LINE
  8
0
 10
110.750000
 20
-51.000000
 11
126.750000
 21
-51.000000
  0
LINE
  8
0
 10
110.750000
 20
-37.500000
 11
110.750000
 21
-33.299992
  0
LINE
  8
0
 10
111.500000
 20
-37.500000
 11
111.500000
 21
-32.549992
  0
LINE
  8
0
 10
126.000000
 20
-37.500000
 11
126.000000
 21
-32.549999
  0
LINE
  8
0
 10
126.750000
 20
-37.500000
 11
126.750000
 21
-33.299999
  0
LINE
  8
0
 10
104.349998
 20
-63.000000
 11
143.600006
 21
-63.000000
  0
LINE
  8
0
 10
114.616013
 20
-30.999996
 11
122.883972
 21
-30.999996
  0
LINE
  8
0
 10
113.750000
 20
-31.499996
 11
123.750000
 21
-31.499996
  0
LINE
  8
0
 10
123.750000
 20
-31.499977
 11
122.883972
 21
-30.999977
  0
LINE
  8
0
 10
113.749985
 20
-31.499966
 11
114.615997
 21
-30.999973
  0
LINE
  8
0
 10
113.777931
 20
-32.299995
 11
113.750000
 21
-31.499992
  0
LINE
  8
0
 10
123.722061
 20
-32.299999
 11
123.750000
 21
-31.499996
  0
LINE
  8
0
 10
107.750000
 20
-89.000000
 11
107.750000
 21
-54.000000
  0
LINE
  8
0
 10
129.750000
 20
-89.000000
 11
129.750000
 21
-54.000000
  0
LINE
  8
0
 10
118.750000
 20
-87.998291
 11
118.750000
 21
-55.001709
  0
LINE
  8
0
 10
108.249992
 20
-37.500000
 11
129.249985
 21
-37.500000
  0
LINE
  8
0
 10
108.250000
 20
-43.500000
 11
129.250000
 21
-43.500000
  0
LINE
  8
0
 10
130.800003
 20
-42.605103
 11
130.800003
 21
-38.394897
  0
LINE
  8
0
 10
106.699997
 20
-42.605103
 11
106.699997
 21
-38.394897
  0
LINE
  8
0
 10
112.687820
 20
-42.605103
 11
112.687820
 21
-38.394897
  0
LINE
  8
0
 10
124.812180
 20
-42.605110
 11
124.812180
 21
-38.394890
  0
LINE
  8
0
 10
108.249992
 20
-43.499989
 11
106.699997
 21
-42.605099
  0
LINE
  8
0
 10
129.250000
 20
-43.499992
 11
130.799988
 21
-42.605099
  0
LINE
  8
0
 10
129.250000
 20
-37.499992
 11
130.800003
 21
-38.394882
  0
LINE
  8
0
 10
108.250023
 20
-37.500038
 11
106.700027
 21
-38.394928
  0
LINE
  8
0
 10
108.249992
 20
-43.500000
 11
129.249985
 21
-43.500000
  0
LINE
  8
0
 10
108.250000
 20
-49.500000
 11
129.250000
 21
-49.500000
  0
LINE
  8
0
 10
130.800003
 20
-48.605103
 11
130.800003
 21
-44.394897
  0
LINE
  8
0
 10
106.699997
 20
-48.605103
 11
106.699997
 21
-44.394897
  0
LINE
  8
0
 10
129.250000
 20
-49.500004
 11
130.800003
 21
-48.605110
  0
LINE
  8
0
 10
129.250015
 20
-43.499989
 11
130.800003
 21
-44.394878
  0
LINE
  8
0
 10
108.250023
 20
-43.500038
 11
106.700027
 21
-44.394928
  0
LINE
  8
0
 10
112.687820
 20
-48.605103
 11
112.687820
 21
-44.394897
  0
LINE
  8
0
 10
124.812180
 20
-48.605110
 11
124.812180
 21
-44.394890
  0
LINE
  8
0
 10
108.249992
 20
-49.499992
 11
106.699997
 21
-48.605099
  0
LINE
  8
0
 10
126.750000
 20
-52.299030
 11
126.000000
 21
-50.999996
  0
LINE
  8
0
 10
110.749992
 20
-52.299042
 11
111.500000
 21
-51.000000
  0
LINE
  8
0
  6
DASHED
 10
123.558754
 20
-36.476494
 11
123.749992
 21
-32.300003
  0
LINE
  8
0
  6
DASHED
 10
122.805595
 20
-36.553658
 11
122.999535
 21
-32.299988
  0
LINE
  8
0
  6
DASHED
 10
113.937981
 20
-36.383339
 11
113.749992
 21
-32.300003
  0
LINE
  8
0
  6
DASHED
 10
114.691849
 20
-36.481388
 11
114.500435
 21
-32.300003
  0
LINE
  8
0
  6
DASHED
 10
120.586571
 20
-58.320004
 11
129.750000
 21
-58.000011
  0
LINE
  8
0
  6
DASHED
 10
120.612740
 20
-59.069542
 11
129.750000
 21
-58.750462
  0
LINE
  8
0
  6
DASHED
 10
120.612740
 20
-66.930473
 11
129.750000
 21
-67.249557
  0
LINE
  8
0
  6
DASHED
 10
120.586571
 20
-67.680000
 11
129.750000
 21
-67.999992
  0
LINE
  8
0
 10
88.499939
 20
-119.000000
 11
149.000061
 21
-119.000000
  0
LINE
  8
0
 10
88.499939
 20
-118.000000
 11
88.499939
 21
-119.000000
  0
LINE
  8
0
 10
149.000061
 20
-118.000000
 11
149.000061
 21
-119.000000
  0
ARC
  8
0
 10
149.250000
 20
-111.500000
 40
1.500000
 50
0.000000
 51
90.000000
  0
ARC
  8
0
 10
88.249992
 20
-111.500000
 40
1.500000
 50
90.000000
 51
180.000000
  0
ARC
  8
0
 10
146.854889
 20
-122.559311
 40
1.000001
 50
135.000000
 51
225.000000
  0
ARC
  8
0
 10
90.645096
 20
-122.559311
 40
0.999996
 50
314.999695
 51
45.000000
  0
ARC
  8
0
 10
111.396255
 20
-91.638260
 40
4.361746
 50
235.885818
 51
304.114166
  0
ARC
  8
0
 10
118.750000
 20
-79.581085
 40
16.418913
 50
252.608978
 51
287.390991
  0
ARC
  8
0
 10
126.103737
 20
-91.638260
 40
4.361756
 50
235.885788
 51
304.114044
  0
ARC
  8
0
 10
126.103737
 20
-93.361740
 40
4.361748
 50
55.885960
 51
124.114204
  0
ARC
  8
0
 10
118.749992
 20
-105.418915
 40
16.418915
 50
72.608948
 51
107.390968
  0
ARC
  8
0
 10
111.396255
 20
-93.361740
 40
4.361750
 50
55.885735
 51
124.114182
  0
ARC
  8
0
 10
113.250000
 20
-69.599998
 40
15.599998
 50
90.000000
 51
110.644226
  0
ARC
  8
0
 10
124.250000
 20
-69.599998
 40
15.599998
 50
90.000000
 51
110.644226
  0
ARC
  8
0
 10
124.250000
 20
-73.400002
 40
15.600001
 50
249.355774
 51
290.644165
  0
ARC
  8
0
 10
113.250000
 20
-73.400002
 40
15.600001
 50
249.355774
 51
290.644165
  0
ARC
  8
0
 10
124.250000
 20
-69.599998
 40
15.600001
 50
69.355774
 51
90.000000
  0
ARC
  8
0
 10
113.250000
 20
-69.599998
 40
15.600001
 50
69.355774
 51
90.000000
  0
ARC
  8
0
 10
109.693909
 20
-38.152222
 40
5.365792
 50
265.304321
 51
303.915009
  0
ARC
  8
0
 10
127.806091
 20
-38.152214
 40
5.365795
 50
236.085007
 51
274.695587
  0
ARC
  8
0
 10
118.750000
 20
-22.519386
 40
20.980616
 50
253.205399
 51
286.794586
  0
ARC
  8
0
 10
118.750000
 20
-58.480614
 40
20.980614
 50
73.205376
 51
106.794556
  0
ARC
  8
0
 10
109.693909
 20
-42.847778
 40
5.365792
 50
56.084980
 51
94.695686
  0
ARC
  8
0
 10
127.806091
 20
-42.847786
 40
5.365795
 50
85.304398
 51
123.914978
  0
ARC
  8
0
 10
127.806091
 20
-44.152214
 40
5.365798
 50
236.085022
 51
274.695587
  0
ARC
  8
0
 10
118.750000
 20
-28.519386
 40
20.980616
 50
253.205399
 51
286.794586
  0
ARC
  8
0
 10
127.806091
 20
-48.847786
 40
5.365795
 50
85.304398
 51
123.914978
  0
ARC
  8
0
 10
118.750000
 20
-64.480614
 40
20.980614
 50
73.205376
 51
106.794556
  0
ARC
  8
0
 10
109.693909
 20
-48.847778
 40
5.365792
 50
56.084980
 51
94.695686
  0
ARC
  8
0
 10
109.693909
 20
-44.152222
 40
5.365792
 50
265.304321
 51
303.915009
  0
POINT
  8
0
 10
228.750000
 20
-34.500000
  0
POINT
  8
0
 10
240.800003
 20
-34.500000
  0
POINT
  8
0
 10
228.750000
 20
-127.000000
  0
LINE
  8
0
 10
228.750000
 20
-127.617851
 11
228.750000
 21
-17.478466
  0
LINE
  8
0
 10
205.549988
 20
-93.000000
 11
251.949997
 21
-93.000000
  0
LINE
  8
0
 10
252.949997
 20
-101.000000
 11
252.949997
 21
-94.000000
  0
LINE
  8
0
 10
204.550003
 20
-101.000000
 11
204.550003
 21
-94.000000
  0
LINE
  8
0
 10
252.949982
 20
-94.000000
 11
251.949997
 21
-93.000000
  0
LINE
  8
0
 10
205.550003
 20
-93.000000
 11
204.550003
 21
-94.000000
  0
LINE
  8
0
 10
198.250000
 20
-101.000000
 11
259.250000
 21
-101.000000
  0
LINE
  8
0
 10
196.750000
 20
-109.000000
 11
196.750000
 21
-102.500000
  0
LINE
  8
0
 10
260.750000
 20
-109.000000
 11
260.750000
 21
-102.500000
  0
LINE
  8
0
 10
196.750000
 20
-109.000000
 11
260.750000
 21
-109.000000
  0
LINE
  8
0
 10
217.750000
 20
-80.000000
 11
239.750000
 21
-80.000000
  0
LINE
  8
0
 10
220.250000
 20
-87.000000
 11
237.250000
 21
-87.000000
  0
LINE
  8
0
 10
238.550003
 20
-86.249443
 11
238.550003
 21
-80.750557
  0
LINE
  8
0
 10
218.949997
 20
-86.249443
 11
218.949997
 21
-80.750557
  0
LINE
  8
0
 10
220.250000
 20
-87.000000
 11
218.949997
 21
-86.249451
  0
LINE
  8
0
 10
237.250000
 20
-87.000031
 11
238.550018
 21
-86.249474
  0
LINE
  8
0
 10
237.249985
 20
-80.000008
 11
238.549988
 21
-80.750565
  0
LINE
  8
0
 10
220.250000
 20
-80.000000
 11
237.250000
 21
-80.000000
  0
LINE
  8
0
 10
220.250000
 20
-80.000008
 11
218.949997
 21
-80.750565
  0
LINE
  8
0
 10
233.657486
 20
-80.750565
 11
233.657486
 21
-86.249451
  0
LINE
  8
0
 10
223.842422
 20
-86.249443
 11
223.842422
 21
-80.750549
  0
LINE
  8
0
 10
211.998672
 20
-100.000000
 11
245.598663
 21
-100.000000
  0
LINE
  8
0
 10
223.750000
 20
-93.000000
 11
223.750000
 21
-87.000000
  0
LINE
  8
0
 10
233.750000
 20
-93.000000
 11
233.750000
 21
-87.000000
  0
LINE
  8
0
 10
217.750000
 20
-45.000000
 11
239.750000
 21
-45.000000
  0
LINE
  8
0
 10
221.750000
 20
-23.299999
 11
235.750000
 21
-23.299999
  0
LINE
  8
0
 10
220.750000
 20
-45.000000
 11
220.750000
 21
-40.500000
  0
LINE
  8
0
 10
236.750000
 20
-45.000000
 11
236.750000
 21
-40.500000
  0
LINE
  8
0
 10
221.500000
 20
-42.000000
 11
221.500000
 21
-40.500000
  0
LINE
  8
0
 10
236.000000
 20
-42.000000
 11
236.000000
 21
-40.500000
  0
LINE
  8
0
 10
221.750015
 20
-23.300014
 11
220.750015
 21
-24.300007
  0
LINE
  8
0
 10
236.749985
 20
-24.300005
 11
235.749985
 21
-23.300014
  0
LINE
  8
0
 10
220.750000
 20
-24.299999
 11
236.750000
 21
-24.299999
  0
LINE
  8
0
 10
220.750000
 20
-42.000000
 11
236.750000
 21
-42.000000
  0
LINE
  8
0
 10
220.750000
 20
-28.500000
 11
220.750000
 21
-24.299992
  0
LINE
  8
0
 10
221.500000
 20
-28.500000
 11
221.500000
 21
-23.549992
  0
LINE
  8
0
 10
236.000000
 20
-28.500000
 11
236.000000
 21
-23.549999
  0
LINE
  8
0
 10
236.750000
 20
-28.500000
 11
236.750000
 21
-24.299999
  0
LINE
  8
0
 10
214.349991
 20
-54.000000
 11
253.600006
 21
-54.000000
  0
LINE
  8
0
 10
224.616013
 20
-21.999996
 11
232.883972
 21
-21.999996
  0
LINE
  8
0
 10
223.750000
 20
-22.499996
 11
233.750000
 21
-22.499996
  0
LINE
  8
0
 10
233.750000
 20
-22.499977
 11
232.883972
 21
-21.999977
  0
LINE
  8
0
 10
223.749985
 20
-22.499966
 11
224.615997
 21
-21.999973
  0
LINE
  8
0
 10
223.777939
 20
-23.299995
 11
223.750000
 21
-22.499992
  0
LINE
  8
0
 10
233.722061
 20
-23.299999
 11
233.750000
 21
-22.499996
  0
LINE
  8
0
 10
217.750000
 20
-80.000000
 11
217.750000
 21
-45.000000
  0
LINE
  8
0
 10
239.750000
 20
-80.000000
 11
239.750000
 21
-45.000000
  0
LINE
  8
0
  6
DASHED
 10
233.558746
 20
-27.476494
 11
233.750000
 21
-23.300003
  0
LINE
  8
0
  6
DASHED
 10
232.805588
 20
-27.553656
 11
232.999527
 21
-23.299990
  0
LINE
  8
0
  6
DASHED
 10
223.937988
 20
-27.383339
 11
223.749985
 21
-23.300003
  0
LINE
  8
0
  6
DASHED
 10
224.691849
 20
-27.481390
 11
224.500443
 21
-23.300005
  0
LINE
  8
0
 10
228.750000
 20
-78.998291
 11
228.750000
 21
-46.001709
  0
LINE
  8
0
 10
218.250000
 20
-28.500000
 11
239.249985
 21
-28.500000
  0
LINE
  8
0
 10
218.250000
 20
-34.500000
 11
239.250000
 21
-34.500000
  0
LINE
  8
0
 10
240.800003
 20
-33.605103
 11
240.800003
 21
-29.394897
  0
LINE
  8
0
 10
216.699997
 20
-33.605103
 11
216.699997
 21
-29.394897
  0
LINE
  8
0
 10
222.687820
 20
-33.605103
 11
222.687820
 21
-29.394897
  0
LINE
  8
0
 10
234.812180
 20
-33.605110
 11
234.812180
 21
-29.394890
  0
LINE
  8
0
 10
218.250000
 20
-34.499989
 11
216.699997
 21
-33.605099
  0
LINE
  8
0
 10
239.250000
 20
-34.499992
 11
240.800003
 21
-33.605099
  0
LINE
  8
0
 10
239.250000
 20
-28.499992
 11
240.800003
 21
-29.394884
  0
LINE
  8
0
 10
218.250031
 20
-28.500036
 11
216.700027
 21
-29.394930
  0
LINE
  8
0
 10
218.250000
 20
-34.500000
 11
239.249985
 21
-34.500000
  0
LINE
  8
0
 10
218.250000
 20
-40.500000
 11
239.250000
 21
-40.500000
  0
LINE
  8
0
 10
240.800003
 20
-39.605103
 11
240.800003
 21
-35.394897
  0
LINE
  8
0
 10
216.699997
 20
-39.605103
 11
216.699997
 21
-35.394897
  0
LINE
  8
0
 10
239.250000
 20
-40.500008
 11
240.800003
 21
-39.605114
  0
LINE
  8
0
 10
239.250015
 20
-34.499989
 11
240.800003
 21
-35.394878
  0
LINE
  8
0
 10
218.250015
 20
-34.500038
 11
216.700027
 21
-35.394932
  0
LINE
  8
0
 10
222.687820
 20
-39.605103
 11
222.687820
 21
-35.394897
  0
LINE
  8
0
 10
234.812180
 20
-39.605110
 11
234.812180
 21
-35.394890
  0
LINE
  8
0
 10
218.249985
 20
-40.499989
 11
216.699997
 21
-39.605099
  0
LINE
  8
0
 10
236.750000
 20
-43.299030
 11
236.000000
 21
-41.999996
  0
LINE
  8
0
 10
220.750000
 20
-43.299042
 11
221.500000
 21
-42.000000
  0
LINE
  8
0
  6
DASHED
 10
230.586563
 20
-49.319996
 11
239.750000
 21
-49.000004
  0
LINE
  8
0
  6
DASHED
 10
230.612747
 20
-50.069534
 11
239.750000
 21
-49.750454
  0
LINE
  8
0
  6
DASHED
 10
230.612747
 20
-57.930458
 11
239.750000
 21
-58.249542
  0
LINE
  8
0
  6
DASHED
 10
230.586563
 20
-58.680000
 11
239.750000
 21
-58.999992
  0
LINE
  8
0
 10
259.000000
 20
-109.000000
 11
259.000000
 21
-110.500000
  0
LINE
  8
0
 10
258.750000
 20
-110.750023
 11
259.000000
 21
-110.500023
  0
LINE
  8
0
 10
260.455688
 20
-120.215652
 11
269.324432
 21
-126.425598
  0
LINE
  8
0
 10
258.750000
 20
-110.750000
 11
258.750000
 21
-116.939041
  0
LINE
  8
0
 10
268.750000
 20
-127.000008
 11
269.324432
 21
-126.425598
  0
LINE
  8
0
 10
268.750000
 20
-127.000000
 11
188.750000
 21
-127.000000
  0
LINE
  8
0
 10
198.500000
 20
-109.000000
 11
198.500000
 21
-110.500000
  0
LINE
  8
0
 10
198.750000
 20
-110.749992
 11
198.500000
 21
-110.499992
  0
LINE
  8
0
 10
197.044327
 20
-120.215675
 11
188.175598
 21
-126.425621
  0
LINE
  8
0
 10
198.750000
 20
-110.750000
 11
198.750000
 21
-116.939041
  0
LINE
  8
0
 10
188.750031
 20
-126.999954
 11
188.175629
 21
-126.425545
  0
LINE
  8
0
 10
198.500000
 20
-110.500000
 11
259.000000
 21
-110.500000
  0
LINE
  8
0
 10
257.263336
 20
-119.021301
 11
200.423325
 21
-119.021301
  0
LINE
  8
0
 10
188.175583
 20
-126.425591
 11
269.324402
 21
-126.425591
  0
ARC
  8
0
 10
259.250000
 20
-102.500000
 40
1.500000
 50
0.000000
 51
90.000000
  0
ARC
  8
0
 10
198.250000
 20
-102.500000
 40
1.500000
 50
90.000000
 51
180.000000
  0
ARC
  8
0
 10
221.396255
 20
-82.638260
 40
4.361746
 50
235.885818
 51
304.114166
  0
ARC
  8
0
 10
228.750000
 20
-70.581085
 40
16.418913
 50
252.608978
 51
287.391022
  0
ARC
  8
0
 10
236.103729
 20
-82.638260
 40
4.361752
 50
235.885880
 51
304.114136
  0
ARC
  8
0
 10
236.103729
 20
-84.361740
 40
4.361752
 50
55.885876
 51
124.114128
  0
ARC
  8
0
 10
228.750000
 20
-96.418915
 40
16.418913
 50
72.608971
 51
107.391014
  0
ARC
  8
0
 10
221.396255
 20
-84.361740
 40
4.361746
 50
55.885818
 51
124.114182
  0
ARC
  8
0
 10
223.250000
 20
-60.599998
 40
15.599998
 50
90.000000
 51
110.644226
  0
ARC
  8
0
 10
234.250000
 20
-60.599998
 40
15.599998
 50
90.000000
 51
110.644226
  0
ARC
  8
0
 10
234.250000
 20
-64.400002
 40
15.600001
 50
249.355774
 51
290.644165
  0
ARC
  8
0
 10
223.250000
 20
-64.400002
 40
15.600001
 50
249.355774
 51
290.644165
  0
ARC
  8
0
 10
234.250000
 20
-60.599998
 40
15.600001
 50
69.355774
 51
90.000000
  0
ARC
  8
0
 10
223.250000
 20
-60.599998
 40
15.600001
 50
69.355774
 51
90.000000
  0
ARC
  8
0
 10
219.693909
 20
-29.152222
 40
5.365791
 50
265.304382
 51
303.915009
  0
ARC
  8
0
 10
237.806091
 20
-29.152214
 40
5.365795
 50
236.085007
 51
274.695587
  0
ARC
  8
0
 10
228.750000
 20
-13.519386
 40
20.980614
 50
253.205414
 51
286.794586
  0
ARC
  8
0
 10
228.750000
 20
-49.480614
 40
20.980616
 50
73.205376
 51
106.794579
  0
ARC
  8
0
 10
219.693909
 20
-33.847778
 40
5.365792
 50
56.084980
 51
94.695770
  0
ARC
  8
0
 10
237.806091
 20
-33.847786
 40
5.365795
 50
85.304398
 51
123.914986
  0
ARC
  8
0
 10
237.806091
 20
-35.152214
 40
5.365798
 50
236.085022
 51
274.695587
  0
ARC
  8
0
 10
228.750000
 20
-19.519386
 40
20.980614
 50
253.205414
 51
286.794586
  0
ARC
  8
0
 10
237.806091
 20
-39.847786
 40
5.365795
 50
85.304398
 51
123.914978
  0
ARC
  8
0
 10
228.750000
 20
-55.480614
 40
20.980614
 50
73.205376
 51
106.794579
  0
ARC
  8
0
 10
219.693909
 20
-39.847778
 40
5.365792
 50
56.084980
 51
94.695770
  0
ARC
  8
0
 10
219.693909
 20
-35.152222
 40
5.365791
 50
265.304382
 51
303.915009
  0
ARC
  8
0
 10
262.750000
 20
-116.939041
 40
4.000000
 50
180.000000
 51
234.999893
  0
ARC
  8
0
 10
194.750000
 20
-116.939041
 40
4.000006
 50
305.000031
 51
0.000000
  0
POINT
  8
0
 10
-231.250000
 20
45.500000
  0
POINT
  8
0
 10
-224.250000
 20
45.500000
  0
LINE
  8
0
 10
-231.250000
 20
34.149994
 11
-231.250000
 21
55.927284
  0
LINE
  8
0
 10
-238.740005
 20
41.599998
 11
-238.740005
 21
49.400002
  0
LINE
  8
0
 10
-238.250000
 20
49.400002
 11
-238.740005
 21
49.400002
  0
LINE
  8
0
 10
-248.250000
 20
43.551987
 11
-248.250000
 21
47.448013
  0
LINE
  8
0
 10
-241.250000
 20
42.000000
 11
-241.250000
 21
49.000000
  0
LINE
  8
0
 10
-238.740005
 20
41.599998
 11
-238.250000
 21
41.599998
  0
LINE
  8
0
 10
-243.250000
 20
43.150002
 11
-243.250000
 21
47.849998
  0
LINE
  8
0
 10
-245.750000
 20
43.150002
 11
-245.750000
 21
47.849998
  0
LINE
  8
0
 10
-243.250000
 20
43.149982
 11
-245.750000
 21
43.368706
  0
LINE
  8
0
 10
-245.750000
 20
43.149986
 11
-248.067429
 21
43.352737
  0
LINE
  8
0
 10
-248.067429
 20
47.647243
 11
-245.750000
 21
47.849991
  0
LINE
  8
0
 10
-245.750000
 20
47.631264
 11
-243.250000
 21
47.849983
  0
LINE
  8
0
 10
-243.149994
 20
43.368721
 11
-241.449997
 21
43.368721
  0
LINE
  8
0
 10
-243.149994
 20
47.631279
 11
-241.449997
 21
47.631279
  0
LINE
  8
0
 10
-243.250000
 20
47.758919
 11
-243.250000
 21
47.822952
  0
LINE
  8
0
 10
-251.969467
 20
45.500000
 11
-221.633453
 21
45.500000
  0
LINE
  8
0
 10
-238.250000
 20
41.458549
 11
-238.250000
 21
49.541451
  0
LINE
  8
0
 10
-224.250000
 20
41.458549
 11
-224.250000
 21
49.541451
  0
LINE
  8
0
 10
-238.250000
 20
49.541447
 11
-231.250000
 21
53.582901
  0
LINE
  8
0
 10
-224.250000
 20
49.541447
 11
-231.250000
 21
53.582901
  0
LINE
  8
0
 10
-231.250000
 20
37.417099
 11
-238.250000
 21
41.458553
  0
LINE
  8
0
 10
-231.249985
 20
37.417091
 11
-224.250000
 21
41.458542
  0
LINE
  8
0
 10
-241.250000
 20
42.000000
 11
-238.740005
 21
42.000000
  0
LINE
  8
0
 10
-241.250000
 20
49.000000
 11
-238.740005
 21
49.000000
  0
LINE
  8
0
 10
-241.250000
 20
45.499985
 11
-238.740005
 21
45.499985
  0
ARC
  8
0
 10
-248.050003
 20
43.551987
 40
0.199997
 50
180.000000
 51
265.001587
  0
ARC
  8
0
 10
-248.050003
 20
47.448013
 40
0.200002
 50
94.998329
 51
180.000000
  0
ARC
  8
0
 10
-241.449997
 20
43.168724
 40
0.199997
 50
0.000000
 51
90.000000
  0
ARC
  8
0
 10
-241.449997
 20
47.831284
 40
0.200001
 50
270.000000
 51
0.000000
  0
ARC
  8
0
 10
-243.149994
 20
47.731281
 40
0.100006
 50
180.000000
 51
270.000000
  0
ARC
  8
0
 10
-243.149994
 20
43.268723
 40
0.100002
 50
90.000000
 51
180.000000
  0
CIRCLE
  8
0
 10
-231.250000
 20
45.500000
 40
7.000000
  0
CIRCLE
  8
0
 10
-231.250000
 20
45.500000
 40
5.282850
  0
CIRCLE
  8
0
 10
-231.250000
 20
45.500000
 40
6.000000
  0
ARC
  8
0
 10
-243.721130
 20
43.750000
 40
4.981121
 50
339.431519
 51
20.568474
  0
ARC
  8
0
 10
-243.721130
 20
47.250000
 40
4.981121
 50
339.431519
 51
20.568474
  0
ARC
  8
0
 10
-236.411194
 20
47.250000
 40
4.838799
 50
158.797821
 51
201.202179
  0
ARC
  8
0
 10
-236.411194
 20
43.750000
 40
4.838799
 50
158.797821
 51
201.202179
  0
TEXT
  8
0
 10
-237.244370
 20
87.852661
 40
5.000000
  1
30°
 50
3.900000
 41
1.052632
 51
0.000000
  7
STANDARD
  0
ARC
  8
0
 10
-231.279999
 20
116.761055
 40
29.435812
 50
254.999969
 51
285.000000
  0
LINE
  8
0
 10
-238.898560
 20
88.328247
 11
-235.903748
 21
88.480988
  0
LINE
  8
0
 10
-238.898560
 20
88.328247
 11
-236.228607
 21
86.963120
  0
LINE
  8
0
 10
-223.661453
 20
88.328239
 11
-226.331406
 21
86.963120
  0
LINE
  8
0
 10
-223.661453
 20
88.328239
 11
-226.656265
 21
88.480988
  0
LINE
  8
0
 10
-238.986526
 20
87.999863
 11
-238.510269
 21
89.777115
  0
LINE
  8
0
 10
-223.613052
 20
88.147552
 11
-224.049683
 21
89.777138
  0
TEXT
  8
0
 10
-116.630524
 20
99.499855
 40
5.000000
  1
30°
 50
6.100000
 41
1.052632
 51
0.000000
  7
STANDARD
  0
ARC
  8
0
 10
-111.250000
 20
124.000008
 40
24.789677
 50
254.999969
 51
285.000000
  0
LINE
  8
0
 10
-117.666054
 20
100.055023
 11
-114.673370
 21
100.236320
  0
LINE
  8
0
 10
-117.666054
 20
100.055023
 11
-114.983658
 21
98.715691
  0
LINE
  8
0
 10
-104.833961
 20
100.055023
 11
-107.516357
 21
98.715698
  0
LINE
  8
0
 10
-104.833961
 20
100.055023
 11
-107.826645
 21
100.236328
  0
LINE
  8
0
 10
-117.829018
 20
99.446968
 11
-117.277771
 21
101.503906
  0
LINE
  8
0
 10
-104.637741
 20
99.322800
 11
-105.222191
 21
101.503891
  0
TEXT
  8
0
 10
111.170341
 20
82.677818
 40
5.000000
  1
30°
 50
0.600000
 41
1.052632
 51
0.000000
  7
STANDARD
  0
ARC
  8
0
 10
118.750000
 20
119.000015
 40
37.240826
 50
254.999969
 51
285.000000
  0
LINE
  8
0
 10
109.111343
 20
83.028145
 11
112.108109
 21
83.148911
  0
LINE
  8
0
 10
109.111343
 20
83.028145
 11
111.767006
 21
81.634354
  0
LINE
  8
0
 10
128.388626
 20
83.028137
 11
125.732979
 21
81.634354
  0
LINE
  8
0
 10
128.388626
 20
83.028137
 11
125.391876
 21
83.148911
  0
LINE
  8
0
 10
108.489136
 20
80.706009
 11
109.499557
 21
84.477028
  0
LINE
  8
0
 10
128.840652
 20
81.341301
 11
128.000366
 21
84.477013
  0
TEXT
  8
0
 10
-7.078770
 20
85.006775
 40
5.000000
  1
30°
 50
3.600000
 41
1.052632
 51
0.000000
  7
STANDARD
  0
ARC
  8
0
 10
-1.249999
 20
119.000008
 40
34.560173
 50
254.999985
 51
285.000000
  0
LINE
  8
0
 10
-10.194840
 20
85.617447
 11
-7.198611
 21
85.747574
  0
LINE
  8
0
 10
-10.194840
 20
85.617447
 11
-7.534966
 21
84.232025
  0
LINE
  8
0
 10
7.694832
 20
85.617447
 11
5.034951
 21
84.232025
  0
LINE
  8
0
 10
7.694832
 20
85.617447
 11
4.698596
 21
85.747574
  0
LINE
  8
0
 10
-10.449462
 20
84.667152
 11
-9.806626
 21
87.066330
  0
LINE
  8
0
 10
8.217781
 20
83.665779
 11
7.306603
 21
87.066330
  0
TEXT
  8
0
 10
220.785721
 20
87.306313
 40
5.000000
  1
30°
 50
360.000000
 41
1.052632
 51
0.000000
  7
STANDARD
  0
ARC
  8
0
 10
228.750000
 20
118.999992
 40
32.693691
 50
255.000000
 51
285.000000
  0
LINE
  8
0
 10
220.288254
 20
87.420311
 11
223.284042
 21
87.557854
  0
LINE
  8
0
 10
220.288254
 20
87.420311
 11
222.951447
 21
86.041534
  0
LINE
  8
0
 10
237.211746
 20
87.420311
 11
234.548553
 21
86.041534
  0
LINE
  8
0
 10
237.211746
 20
87.420311
 11
234.215958
 21
87.557854
  0
LINE
  8
0
 10
219.398315
 20
84.098999
 11
220.676437
 21
88.869194
  0
LINE
  8
0
 10
238.633408
 20
82.114525
 11
236.823502
 21
88.869194
  0
TEXT
  8
0
 10
-239.214279
 20
-163.234665
 40
5.000000
  1
30°
 50
360.000000
 41
1.052632
 51
0.000000
  7
STANDARD
  0
ARC
  8
0
 10
-231.250000
 20
-124.499992
 40
39.734669
 50
255.000000
 51
285.000000
  0
LINE
  8
0
 10
-241.534088
 20
-162.880737
 11
-238.536926
 21
-162.767548
  0
LINE
  8
0
 10
-241.534088
 20
-162.880737
 11
-238.881866
 21
-164.281281
  0
LINE
  8
0
 10
-220.965912
 20
-162.880737
 11
-223.618118
 21
-164.281281
  0
LINE
  8
0
 10
-220.965912
 20
-162.880737
 11
-223.963058
 21
-162.767548
  0
LINE
  8
0
 10
-241.978699
 20
-164.539856
 11
-241.145874
 21
-161.431854
  0
LINE
  8
0
 10
-220.795212
 20
-163.517776
 11
-221.354111
 21
-161.431839
  0
TEXT
  8
0
 10
-118.021637
 20
-158.721542
 40
5.000000
  1
30°
 50
2.000000
 41
1.052632
 51
0.000000
  7
STANDARD
  0
ARC
  8
0
 10
-111.249992
 20
-125.999969
 40
33.465382
 50
254.999985
 51
285.000000
  0
LINE
  8
0
 10
-119.911476
 20
-158.325043
 11
-116.915497
 21
-158.190659
  0
LINE
  8
0
 10
-119.911476
 20
-158.325043
 11
-117.249695
 21
-159.706650
  0
LINE
  8
0
 10
-102.588509
 20
-158.325043
 11
-105.250298
 21
-159.706665
  0
LINE
  8
0
 10
-102.588509
 20
-158.325043
 11
-105.584496
 21
-158.190674
  0
LINE
  8
0
 10
-120.306046
 20
-159.797592
 11
-119.523262
 21
-156.876160
  0
LINE
  8
0
 10
-102.540001
 20
-158.506012
 11
-102.976768
 21
-156.876160
  0
TEXT
  8
0
 10
-7.218182
 20
-156.011871
 40
5.000000
  1
30°
 50
3.100000
 41
1.052632
 51
0.000000
  7
STANDARD
  0
ARC
  8
0
 10
-1.249995
 20
-119.999992
 40
36.636478
 50
254.999969
 51
285.000000
  0
LINE
  8
0
 10
-10.732234
 20
-155.388107
 11
-7.735580
 21
-155.265350
  0
LINE
  8
0
 10
-10.732234
 20
-155.388107
 11
-8.075675
 21
-156.780121
  0
LINE
  8
0
 10
8.232216
 20
-155.388107
 11
5.575666
 21
-156.780121
  0
LINE
  8
0
 10
8.232216
 20
-155.388107
 11
5.235571
 21
-155.265350
  0
LINE
  8
0
 10
-11.280846
 20
-157.435608
 11
-10.344016
 21
-153.939224
  0
LINE
  8
0
 10
9.244341
 20
-159.165436
 11
7.843990
 21
-153.939209
  0
TEXT
  8
0
 10
220.785721
 20
-157.885193
 40
5.000000
  1
30°
 50
360.000000
 41
1.052632
 51
0.000000
  7
STANDARD
  0
ARC
  8
0
 10
228.750000
 20
-113.800003
 40
45.085178
 50
254.999985
 51
285.000031
  0
LINE
  8
0
 10
217.081085
 20
-157.348938
 11
220.078873
 21
-157.249161
  0
LINE
  8
0
 10
217.081085
 20
-157.348938
 11
219.727127
 21
-158.761414
  0
LINE
  8
0
 10
240.418915
 20
-157.348938
 11
237.772873
 21
-158.761414
  0
LINE
  8
0
 10
240.418915
 20
-157.348938
 11
237.421127
 21
-157.249161
  0
LINE
  8
0
 10
216.163208
 20
-160.774673
 11
217.469315
 21
-155.900055
  0
LINE
  8
0
 10
241.542145
 20
-161.540756
 11
240.030716
 21
-155.900085
  0
TEXT
  8
0
 10
110.787468
 20
-151.473892
 40
5.000000
  1
30°
 50
359.899994
 41
1.052632
 51
0.000000
  7
STANDARD
  0
ARC
  8
0
 10
118.750008
 20
-113.799988
 40
38.687813
 50
254.999969
 51
284.999969
  0
LINE
  8
0
 10
108.736847
 20
-151.169540
 11
111.733841
 21
-151.053284
  0
LINE
  8
0
 10
108.736847
 20
-151.169540
 11
111.390450
 21
-152.567368
  0
LINE
  8
0
 10
128.763138
 20
-151.169540
 11
126.109528
 21
-152.567368
  0
LINE
  8
0
 10
128.763138
 20
-151.169540
 11
125.766136
 21
-151.053284
  0
LINE
  8
0
 10
108.155121
 20
-153.340530
 11
109.125069
 21
-149.720657
  0
LINE
  8
0
 10
129.972137
 20
-155.681549
 11
128.374908
 21
-149.720657
  0
ENDSEC
  0
EOF
