  0
SECTION
  2
HEADER
  0
ENDSEC
  0
SECTION
  2
TABLES
  0
TABLE
  2
LTYPE
 70
     4
  0
LTYPE
  2
CONTINUOUS
 70
    64
  3
Solid line
 72
    65
 73
     0
 40
0.000000
  0
LTYPE
  2
DASHED
 70
    64
  3
__ __ __ __ __ __ __ __ __ __ __ __ __ __ __
 72
    65
 73
     2
 40
3.500000
 49
2.000000
 49
-1.500000
  0
LTYPE
  2
CENTER
 70
    64
  3
____ _ ____ _ ____ _ ____ _ ____ _ ____ _ ____
 72
    65
 73
     4
 40
17.500000
 49
13.000000
 49
-1.500000
 49
1.500000
 49
-1.500000
  0
LTYPE
  2
PHANTOM
 70
    64
  3
_____ _ _ _____ _ _ _____ _ _ _____ _ _ ____  
 72
    65
 73
     6
 40
15.500000
 49
8.000000
 49
-1.500000
 49
1.500000
 49
-1.500000
 49
1.500000
 49
-1.500000
  0
LTYPE
  2
DASHED1
 70
    64
  3
__ __ __ __ __ __ __ __ __ __ __ __ __ __ __
 72
    65
 73
     2
 40
1.500000
 49
1.000000
 49
-0.500000
  0
LTYPE
  2
DASHED2
 70
    64
  3
__ __ __ __ __ __ __ __ __ __ __ __ __ __ __
 72
    65
 73
     2
 40
3.500000
 49
2.500000
 49
-1.000000
  0
LTYPE
  2
DASHED3
 70
    64
  3
__ __ __ __ __ __ __ __ __ __ __ __ __ __ __
 72
    65
 73
     2
 40
6.000000
 49
4.000000
 49
-2.000000
  0
LTYPE
  2
DASHED4
 70
    64
  3
__ __ __ __ __ __ __ __ __ __ __ __ __ __ __
 72
    65
 73
     2
 40
12.000000
 49
10.000000
 49
-2.000000
  0
LTYPE
  2
DASHED5
 70
    64
  3
__ __ __ __ __ __ __ __ __ __ __ __ __ __ __
 72
    65
 73
     2
 40
17.000000
 49
15.000000
 49
-2.000000
  0
LTYPE
  2
DASHED6
 70
    64
  3
__ __ __ __ __ __ __ __ __ __ __ __ __ __ __
 72
    65
 73
     2
 40
29.000000
 49
27.000000
 49
-2.000000
  0
LTYPE
  2
PHANTOM1
 70
    64
  3
_____ _ _ _____ _ _ _____ _ _ _____ _ _ ____  
 72
    65
 73
     6
 40
31.000000
 49
25.000000
 49
-1.500000
 49
1.000000
 49
-1.000000
 49
1.000000
 49
-1.500000
  0
LTYPE
  2
PHANTOM2
 70
    64
  3
_____ _ _ _____ _ _ _____ _ _ _____ _ _ ____  
 72
    65
 73
     6
 40
36.000000
 49
27.000000
 49
-1.500000
 49
2.500000
 49
-1.000000
 49
2.500000
 49
-1.500000
  0
LTYPE
  2
PHANTOM3
 70
    64
  3
_____ _ _ _____ _ _ _____ _ _ _____ _ _ ____  
 72
    65
 73
     6
 40
78.000000
 49
64.000000
 49
-2.000000
 49
4.000000
 49
-2.000000
 49
4.000000
 49
-2.000000
  0
LTYPE
  2
CENTER1
 70
    64
  3
____ _ ____ _ ____ _ ____ _ ____ _ ____ _ ____
 72
    65
 73
     4
 40
19.000000
 49
14.000000
 49
-1.000000
 49
3.000000
 49
-1.000000
  0
LTYPE
  2
CENTER2
 70
    64
  3
____ _ ____ _ ____ _ ____ _ ____ _ ____ _ ____
 72
    65
 73
     4
 40
28.500000
 49
25.000000
 49
-1.000000
 49
1.500000
 49
-1.000000
  0
LTYPE
  2
CENTER3
 70
    64
  3
____ _ ____ _ ____ _ ____ _ ____ _ ____ _ ____
 72
    65
 73
     4
 40
31.500000
 49
27.000000
 49
-1.000000
 49
2.500000
 49
-1.000000
  0
LTYPE
  2
CENTER4
 70
    64
  3
____ _ ____ _ ____ _ ____ _ ____ _ ____ _ ____
 72
    65
 73
     4
 40
50.000000
 49
45.000000
 49
-1.000000
 49
3.000000
 49
-1.000000
  0
LTYPE
  2
CENTER5
 70
    64
  3
____ _ ____ _ ____ _ ____ _ ____ _ ____ _ ____
 72
    65
 73
     4
 40
100.000000
 49
92.000000
 49
-2.000000
 49
4.000000
 49
-2.000000
  0
LTYPE
  2
SBK1
 70
    64
  3
______ _ _ _ ______ _ _ _ ______ _ _ _ _____  
 72
    65
 73
     8
 40
60.500000
 49
45.000000
 49
-2.000000
 49
2.500000
 49
-2.000000
 49
2.500000
 49
-2.000000
 49
2.500000
 49
-2.000000
  0
LTYPE
  2
SBK2
 70
    64
  3
______ _ _ _ ______ _ _ _ ______ _ _ _ _____  
 72
    65
 73
     8
 40
84.000000
 49
64.000000
 49
-2.000000
 49
4.000000
 49
-2.000000
 49
4.000000
 49
-2.000000
 49
4.000000
 49
-2.000000
  0
LTYPE
  2
STCH
 70
    64
  3
__ __ __ __ __ __ __ __ __ __ __ __ __ __ __
 72
    65
 73
     2
 40
3.000000
 49
1.000000
 49
-2.000000
  0
LTYPE
  2
MTCH
 70
    64
  3
_____ _ _ _____ _ _ _____ _ _ _____ _ _ ____  
 72
    65
 73
     6
 40
80.000000
 49
66.000000
 49
-2.000000
 49
4.000000
 49
-2.000000
 49
4.000000
 49
-2.000000
  0
ENDTAB
  0
TABLE
  2
LAYER
 70
     1
  0
LAYER
  2
0
 70
     0
 62
     7
  6
CONTINUOUS
  0
ENDTAB
  0
TABLE
  2
STYLE
 70
     1
  0
STYLE
  2
STANDARD
 70
     0
 40
0.000000
 41
1.000000
 50
0.000000
 71
     0
 42
0.200000
  3
txt
  4
BIGFONT
  0
ENDTAB
  0
TABLE
  2
VIEW
 70
     0
  0
ENDTAB
  0
ENDSEC
  0
SECTION
  2
BLOCKS
  0
ENDSEC
  0
SECTION
  2
ENTITIES
  0
LINE
  8
0
 10
-181.250000
 20
195.500000
 11
-181.250000
 21
180.500000
  0
LINE
  8
0
 10
182.099976
 20
195.500000
 11
182.099976
 21
180.500000
  0
LINE
  8
0
 10
-281.250000
 20
180.500000
 11
-181.250000
 21
180.500000
  0
LINE
  8
0
 10
182.099976
 20
180.500000
 11
282.099976
 21
180.500000
  0
LINE
  8
0
 10
141.262482
 20
-175.000000
 11
282.099976
 21
-175.000000
  0
LINE
  8
0
 10
-297.000000
 20
210.000000
 11
297.000000
 21
210.000000
  0
LINE
  8
0
 10
-297.000000
 20
-210.000000
 11
297.000000
 21
-210.000000
  0
LINE
  8
0
 10
297.000000
 20
210.000000
 11
297.000000
 21
-210.000000
  0
LINE
  8
0
 10
-297.000000
 20
210.000000
 11
-297.000000
 21
-210.000000
  0
LINE
  8
0
 10
-281.250000
 20
195.500000
 11
282.099976
 21
195.500000
  0
LINE
  8
0
 10
-281.250000
 20
195.500000
 11
-281.250000
 21
-195.000000
  0
LINE
  8
0
 10
282.099976
 20
195.500000
 11
282.099976
 21
-195.000000
  0
LINE
  8
0
 10
-281.250000
 20
-195.000000
 11
282.099976
 21
-195.000000
  0
LINE
  8
0
 10
0.424988
 20
195.500000
 11
0.424988
 21
-195.000000
  0
LINE
  8
0
 10
-140.412506
 20
195.500000
 11
-140.412506
 21
-195.000000
  0
LINE
  8
0
 10
141.262482
 20
195.500000
 11
141.262482
 21
-195.000000
  0
LINE
  8
0
 10
211.681229
 20
180.500000
 11
211.681229
 21
-175.000000
  0
LINE
  8
0
 10
70.843735
 20
195.500000
 11
70.843735
 21
-195.000000
  0
LINE
  8
0
 10
-69.993759
 20
195.500000
 11
-69.993759
 21
-195.000000
  0
LINE
  8
0
 10
-210.831253
 20
180.500000
 11
-210.831253
 21
-195.000000
  0
LINE
  8
0
 10
-281.250000
 20
2.750000
 11
282.099976
 21
2.750000
  0
LINE
  8
0
 10
-281.250000
 20
-185.000000
 11
141.262482
 21
-185.000000
  0
LINE
  8
0
 10
-281.250000
 20
12.750000
 11
282.099976
 21
12.750000
  0
LINE
  8
0
 10
141.262482
 20
-165.000000
 11
282.099976
 21
-165.000000
  0
TEXT
  8
0
 10
-260.828308
 20
183.779999
 40
5.800000
  1
VACUUM PAD
 50
0.000000
 41
1.052632
 51
0.000000
  7
STANDARD
  0
TEXT
  8
0
 10
188.021667
 20
183.779999
 40
5.800000
  1
DATE: JUN ,1992
 50
0.000000
 41
1.052632
 51
0.000000
  7
STANDARD
  0
TEXT
  8
0
 10
163.000870
 20
-190.300003
 40
7.000000
  1
ＫＯＧＡＮＥＩ，ＣＯＲＰ．
 50
0.000000
 41
0.902367
 51
15.000000
  7
STANDARD
  0
TEXT
  8
0
 10
-276.504669
 20
4.250000
 40
5.000000
  1
MODEL:KPLF-6
 50
0.000000
 41
1.052632
 51
0.000000
  7
STANDARD
  0
TEXT
  8
0
 10
-206.085953
 20
4.250000
 40
5.000000
  1
MODEL:KPLF-8
 50
0.000000
 41
1.052632
 51
0.000000
  7
STANDARD
  0
TEXT
  8
0
 10
-138.167191
 20
4.250000
 40
5.000000
  1
MODEL:KPLF-10
 50
0.000000
 41
1.052632
 51
0.000000
  7
STANDARD
  0
TEXT
  8
0
 10
-68.388123
 20
4.250000
 40
5.000000
  1
MODEL:KPLF-2X4
 50
0.000000
 41
0.997801
 51
0.000000
  7
STANDARD
  0
TEXT
  8
0
 10
2.202918
 20
4.250000
 40
5.000000
  1
MODEL:KPLF-3.5X7
 50
0.000000
 41
0.870808
 51
0.000000
  7
STANDARD
  0
TEXT
  8
0
 10
72.541374
 20
4.250000
 40
5.000000
  1
MODEL:KPLF-4X10
 50
0.000000
 41
0.929989
 51
0.000000
  7
STANDARD
  0
TEXT
  8
0
 10
142.960114
 20
4.250000
 40
5.000000
  1
MODEL:KPLF-5X10
 50
0.000000
 41
0.929989
 51
0.000000
  7
STANDARD
  0
TEXT
  8
0
 10
213.378860
 20
4.250000
 40
5.000000
  1
MODEL:KPLF-6X10
 50
0.000000
 41
0.929989
 51
0.000000
  7
STANDARD
  0
TEXT
  8
0
 10
-279.552368
 20
-193.500000
 40
5.000000
  1
MODEL:KPLF-4X20
 50
0.000000
 41
0.929989
 51
0.000000
  7
STANDARD
  0
TEXT
  8
0
 10
-209.133621
 20
-193.500000
 40
5.000000
  1
MODEL:KPLF-5X20
 50
0.000000
 41
0.929989
 51
0.000000
  7
STANDARD
  0
TEXT
  8
0
 10
-138.714874
 20
-193.500000
 40
5.000000
  1
MODEL:KPLF-6X20
 50
0.000000
 41
0.929989
 51
0.000000
  7
STANDARD
  0
TEXT
  8
0
 10
-68.296120
 20
-193.500000
 40
5.000000
  1
MODEL:KPLF-8X20
 50
0.000000
 41
0.929989
 51
0.000000
  7
STANDARD
  0
TEXT
  8
0
 10
2.122626
 20
-193.500000
 40
5.000000
  1
MODEL:KPLF-4X30
 50
0.000000
 41
0.929989
 51
0.000000
  7
STANDARD
  0
TEXT
  8
0
 10
72.541374
 20
-193.500000
 40
5.000000
  1
MODEL:KPLF-5X30
 50
0.000000
 41
0.929989
 51
0.000000
  7
STANDARD
  0
TEXT
  8
0
 10
142.960129
 20
-173.500000
 40
5.000000
  1
MODEL:KPLF-6X30
 50
0.000000
 41
0.929989
 51
0.000000
  7
STANDARD
  0
TEXT
  8
0
 10
213.378860
 20
-173.500000
 40
5.000000
  1
MODEL:KPLF-8X30
 50
0.000000
 41
0.929989
 51
0.000000
  7
STANDARD
  0
POINT
  8
0
 10
-246.040619
 20
138.562500
  0
POINT
  8
0
 10
-240.290619
 20
138.562500
  0
LINE
  8
0
 10
-242.540619
 20
116.312500
 11
-242.540619
 21
135.562500
  0
LINE
  8
0
 10
-249.540619
 20
116.312500
 11
-249.540619
 21
135.562500
  0
LINE
  8
0
 10
-249.540619
 20
132.312500
 11
-242.540619
 21
132.312500
  0
LINE
  8
0
 10
-249.040619
 20
145.312500
 11
-243.040619
 21
145.312500
  0
LINE
  8
0
 10
-249.040619
 20
145.312500
 11
-249.540619
 21
144.812500
  0
LINE
  8
0
 10
-243.040619
 20
145.312500
 11
-242.540619
 21
144.812500
  0
LINE
  8
0
 10
-242.540619
 20
144.812500
 11
-249.540619
 21
144.812500
  0
LINE
  8
0
 10
-243.140625
 20
132.312500
 11
-243.140625
 21
135.562500
  0
LINE
  8
0
 10
-248.940613
 20
132.312500
 11
-248.940613
 21
135.562500
  0
LINE
  8
0
 10
-249.540619
 20
129.812500
 11
-242.540619
 21
129.812500
  0
LINE
  8
0
 10
-260.262604
 20
126.312500
 11
-247.373947
 21
126.312500
  0
LINE
  8
0
 10
-251.040619
 20
135.562500
 11
-241.040619
 21
135.562500
  0
LINE
  8
0
 10
-251.040619
 20
138.562500
 11
-241.040619
 21
138.562500
  0
LINE
  8
0
 10
-251.040619
 20
141.562500
 11
-241.040619
 21
141.562500
  0
LINE
  8
0
 10
-240.290619
 20
135.995514
 11
-240.290619
 21
138.129486
  0
LINE
  8
0
 10
-251.790619
 20
135.995514
 11
-251.790619
 21
138.129486
  0
LINE
  8
0
 10
-242.540619
 20
141.562500
 11
-242.540619
 21
144.812500
  0
LINE
  8
0
 10
-243.140625
 20
141.562500
 11
-243.140625
 21
145.312500
  0
LINE
  8
0
 10
-248.940613
 20
141.562500
 11
-248.940613
 21
145.312500
  0
LINE
  8
0
 10
-249.540619
 20
141.562500
 11
-249.540619
 21
144.812500
  0
LINE
  8
0
 10
-241.040619
 20
138.562500
 11
-240.290619
 21
138.995514
  0
LINE
  8
0
 10
-251.040619
 20
138.562500
 11
-251.790619
 21
138.995514
  0
LINE
  8
0
 10
-241.040604
 20
141.562515
 11
-240.290604
 21
141.129501
  0
LINE
  8
0
 10
-251.040634
 20
141.562515
 11
-251.790634
 21
141.129501
  0
LINE
  8
0
 10
-241.040619
 20
138.562515
 11
-240.290604
 21
138.129501
  0
LINE
  8
0
 10
-251.040619
 20
138.562515
 11
-251.790619
 21
138.129501
  0
LINE
  8
0
 10
-251.040619
 20
135.562500
 11
-251.790619
 21
135.995514
  0
LINE
  8
0
 10
-241.040619
 20
135.562500
 11
-240.290619
 21
135.995514
  0
LINE
  8
0
 10
-240.290619
 20
138.995514
 11
-240.290619
 21
141.129486
  0
LINE
  8
0
 10
-251.790619
 20
138.995514
 11
-251.790619
 21
141.129486
  0
LINE
  8
0
 10
-248.927368
 20
135.995514
 11
-248.927368
 21
138.129486
  0
LINE
  8
0
 10
-248.927444
 20
138.995514
 11
-248.927444
 21
141.129486
  0
LINE
  8
0
 10
-243.153961
 20
141.129486
 11
-243.153961
 21
138.995514
  0
LINE
  8
0
 10
-243.153885
 20
138.129486
 11
-243.153885
 21
135.995514
  0
LINE
  8
0
 10
-250.140625
 20
128.812500
 11
-250.371567
 21
129.212494
  0
LINE
  8
0
 10
-250.140625
 20
123.812500
 11
-250.371552
 21
123.412506
  0
LINE
  8
0
 10
-243.540619
 20
145.912506
 11
-243.140625
 21
146.143448
  0
LINE
  8
0
 10
-244.597244
 20
146.143433
 11
-244.597244
 21
148.581573
  0
LINE
  8
0
 10
-248.212311
 20
148.812500
 11
-246.540619
 21
148.812500
  0
LINE
  8
0
 10
-248.540619
 20
145.912506
 11
-248.940613
 21
146.143448
  0
LINE
  8
0
 10
-248.940613
 20
146.143433
 11
-248.940613
 21
148.581558
  0
LINE
  8
0
 10
-243.140625
 20
146.143433
 11
-243.140625
 21
148.581558
  0
LINE
  8
0
 10
-247.484055
 20
148.581573
 11
-247.484055
 21
146.143433
  0
LINE
  8
0
 10
-243.240616
 20
145.312500
 11
-243.240616
 21
145.912491
  0
LINE
  8
0
 10
-248.840622
 20
145.912491
 11
-243.240616
 21
145.912491
  0
LINE
  8
0
 10
-248.840622
 20
145.312500
 11
-248.840622
 21
145.912491
  0
LINE
  8
0
 10
-246.040619
 20
104.817657
 11
-246.040619
 21
151.197144
  0
LINE
  8
0
 10
-258.040619
 20
125.237602
 11
-258.040619
 21
127.387398
  0
LINE
  8
0
 10
-256.540619
 20
124.862503
 11
-256.540619
 21
127.762505
  0
LINE
  8
0
 10
-255.040619
 20
124.862503
 11
-255.040619
 21
127.762505
  0
LINE
  8
0
 10
-256.540619
 20
125.062508
 11
-255.040619
 21
124.862503
  0
LINE
  8
0
 10
-256.540619
 20
127.562508
 11
-255.040619
 21
127.762512
  0
LINE
  8
0
 10
-257.867065
 20
125.039360
 11
-256.540619
 21
124.862503
  0
LINE
  8
0
 10
-257.867065
 20
127.585648
 11
-256.540619
 21
127.762505
  0
LINE
  8
0
 10
-254.940613
 20
125.062500
 11
-253.140625
 21
125.062500
  0
LINE
  8
0
 10
-254.940613
 20
127.562500
 11
-253.140625
 21
127.562500
  0
LINE
  8
0
 10
-253.040619
 20
124.140808
 11
-253.040619
 21
128.484192
  0
LINE
  8
0
 10
-250.371552
 20
123.412498
 11
-252.809677
 21
123.412498
  0
LINE
  8
0
 10
-250.371552
 20
129.212494
 11
-252.809677
 21
129.212494
  0
LINE
  8
0
 10
-250.371552
 20
127.755875
 11
-252.809677
 21
127.755875
  0
LINE
  8
0
 10
-252.809677
 20
124.869064
 11
-250.371552
 21
124.869064
  0
LINE
  8
0
 10
-250.140625
 20
123.512497
 11
-250.140625
 21
129.112503
  0
LINE
  8
0
 10
-249.540619
 20
123.512497
 11
-250.140610
 21
123.512497
  0
LINE
  8
0
 10
-249.540619
 20
129.112503
 11
-250.140610
 21
129.112503
  0
LINE
  8
0
 10
-246.540619
 20
148.812500
 11
-246.540619
 21
147.812500
  0
LINE
  8
0
 10
-246.540619
 20
147.812500
 11
-245.540619
 21
147.812500
  0
LINE
  8
0
 10
-245.540619
 20
147.812500
 11
-245.540619
 21
148.812500
  0
LINE
  8
0
 10
-245.540619
 20
148.812500
 11
-243.868927
 21
148.812500
  0
LINE
  8
0
 10
-242.540619
 20
131.273270
 11
-243.140610
 21
132.312500
  0
LINE
  8
0
 10
-249.540619
 20
131.273270
 11
-248.940613
 21
132.312500
  0
LINE
  8
0
 10
-241.540619
 20
112.312500
 11
-241.540619
 21
116.312500
  0
LINE
  8
0
 10
-243.545639
 20
110.307472
 11
-241.540619
 21
112.312500
  0
LINE
  8
0
 10
-243.040619
 20
108.812500
 11
-242.757767
 21
109.095337
  0
LINE
  8
0
 10
-242.757782
 20
109.095337
 11
-243.545639
 21
109.883209
  0
LINE
  8
0
 10
-243.040619
 20
108.812500
 11
-249.040619
 21
108.812500
  0
LINE
  8
0
 10
-241.540619
 20
116.312500
 11
-250.540619
 21
116.312500
  0
LINE
  8
0
 10
-250.540619
 20
112.312500
 11
-250.540619
 21
116.312500
  0
LINE
  8
0
 10
-248.535599
 20
110.307480
 11
-250.540619
 21
112.312500
  0
LINE
  8
0
 10
-249.040619
 20
108.812500
 11
-249.323471
 21
109.095337
  0
LINE
  8
0
 10
-249.323456
 20
109.095345
 11
-248.535599
 21
109.883209
  0
LINE
  8
0
 10
-242.757782
 20
109.095345
 11
-249.323456
 21
109.095345
  0
LINE
  8
0
 10
-248.126617
 20
110.095345
 11
-243.907959
 21
110.095345
  0
LINE
  8
0
 10
-250.540619
 20
112.312500
 11
-241.540619
 21
112.312500
  0
ARC
  8
0
 10
-250.358994
 20
141.145615
 40
2.583115
 50
236.342697
 51
303.657318
  0
ARC
  8
0
 10
-241.722244
 20
141.145615
 40
2.583115
 50
236.342697
 51
303.657318
  0
ARC
  8
0
 10
-246.040619
 20
148.401489
 40
9.838988
 50
252.938446
 51
287.061554
  0
ARC
  8
0
 10
-241.722244
 20
138.979385
 40
2.583115
 50
56.342693
 51
123.657310
  0
ARC
  8
0
 10
-246.040619
 20
131.723511
 40
9.838988
 50
72.938438
 51
107.061470
  0
ARC
  8
0
 10
-250.358994
 20
138.979385
 40
2.583115
 50
56.342693
 51
123.657310
  0
ARC
  8
0
 10
-241.722244
 20
135.979385
 40
2.583115
 50
56.342693
 51
123.657310
  0
ARC
  8
0
 10
-246.040619
 20
128.723511
 40
9.838988
 50
72.938438
 51
107.061470
  0
ARC
  8
0
 10
-250.358994
 20
135.979385
 40
2.583115
 50
56.342693
 51
123.657310
  0
ARC
  8
0
 10
-250.358994
 20
138.145615
 40
2.583115
 50
236.342697
 51
303.657318
  0
ARC
  8
0
 10
-246.040619
 20
145.401489
 40
9.838988
 50
252.938446
 51
287.061554
  0
ARC
  8
0
 10
-241.722244
 20
138.145615
 40
2.583115
 50
236.342697
 51
303.657318
  0
ARC
  8
0
 10
-251.404526
 20
124.140808
 40
1.263911
 50
324.813843
 51
35.186447
  0
ARC
  8
0
 10
-251.404526
 20
128.484192
 40
1.263915
 50
324.813568
 51
35.185879
  0
ARC
  8
0
 10
-254.766678
 20
126.312500
 40
4.626064
 50
341.819641
 51
18.180359
  0
ARC
  8
0
 10
-243.868927
 20
147.176407
 40
1.263915
 50
234.813553
 51
305.185883
  0
ARC
  8
0
 10
-246.040619
 20
150.538559
 40
4.626064
 50
251.819641
 51
288.180359
  0
ARC
  8
0
 10
-248.212311
 20
147.548584
 40
1.263915
 50
54.813553
 51
125.185883
  0
ARC
  8
0
 10
-248.212311
 20
147.176407
 40
1.263906
 50
234.814117
 51
305.186432
  0
ARC
  8
0
 10
-243.868927
 20
147.548584
 40
1.263915
 50
54.813553
 51
125.186447
  0
ARC
  8
0
 10
-246.040619
 20
144.186432
 40
4.626064
 50
71.819641
 51
83.795174
  0
ARC
  8
0
 10
-257.840607
 20
127.387398
 40
0.200000
 50
97.602158
 51
180.000000
  0
ARC
  8
0
 10
-254.940613
 20
124.962502
 40
0.099998
 50
90.000000
 51
180.000000
  0
ARC
  8
0
 10
-254.940613
 20
127.662506
 40
0.100006
 50
180.000000
 51
270.000000
  0
ARC
  8
0
 10
-257.840607
 20
125.237602
 40
0.200012
 50
180.000000
 51
262.397858
  0
ARC
  8
0
 10
-253.140625
 20
127.662506
 40
0.100006
 50
270.000000
 51
0.000000
  0
ARC
  8
0
 10
-253.140625
 20
124.962502
 40
0.100006
 50
0.000000
 51
90.000000
  0
ARC
  8
0
 10
-251.776703
 20
128.484192
 40
1.263906
 50
144.814117
 51
215.186447
  0
ARC
  8
0
 10
-251.776703
 20
124.140808
 40
1.263915
 50
144.813553
 51
215.186157
  0
ARC
  8
0
 10
-248.414551
 20
126.312500
 40
4.626064
 50
161.819641
 51
198.180359
  0
ARC
  8
0
 10
-246.040619
 20
144.186432
 40
4.626069
 50
96.204826
 51
108.180359
  0
ARC
  8
0
 10
-243.333511
 20
110.095345
 40
0.299994
 50
135.000000
 51
225.001038
  0
ARC
  8
0
 10
-248.747726
 20
110.095345
 40
0.299999
 50
314.998962
 51
45.000000
  0
POINT
  8
0
 10
-246.040619
 20
54.687500
  0
POINT
  8
0
 10
-246.040619
 20
54.687500
  0
POINT
  8
0
 10
-240.267120
 20
54.687500
  0
LINE
  8
0
 10
-246.040619
 20
48.177399
 11
-246.040619
 21
61.429924
  0
LINE
  8
0
 10
-253.040619
 20
52.187500
 11
-253.040619
 21
57.187500
  0
LINE
  8
0
 10
-258.040619
 20
53.612602
 11
-258.040619
 21
55.762398
  0
LINE
  8
0
 10
-256.540619
 20
53.237499
 11
-256.540619
 21
56.137501
  0
LINE
  8
0
 10
-255.040619
 20
53.237499
 11
-255.040619
 21
56.137505
  0
LINE
  8
0
 10
-256.540619
 20
53.437496
 11
-255.040619
 21
53.237492
  0
LINE
  8
0
 10
-256.540619
 20
55.937504
 11
-255.040619
 21
56.137505
  0
LINE
  8
0
 10
-257.867065
 20
53.414349
 11
-256.540619
 21
53.237492
  0
LINE
  8
0
 10
-257.867065
 20
55.960644
 11
-256.540619
 21
56.137501
  0
LINE
  8
0
 10
-254.940613
 20
53.437500
 11
-253.140625
 21
53.437500
  0
LINE
  8
0
 10
-254.940613
 20
55.937500
 11
-253.140625
 21
55.937500
  0
LINE
  8
0
 10
-260.144470
 20
54.687500
 11
-252.929016
 21
54.687500
  0
LINE
  8
0
 10
-242.540619
 20
54.687500
 11
-242.540619
 21
54.687500
  0
LINE
  8
0
 10
-241.040619
 20
54.687500
 11
-241.040619
 21
54.687500
  0
LINE
  8
0
 10
-251.040619
 20
54.687500
 11
-251.040619
 21
54.687500
  0
LINE
  8
0
 10
-241.040619
 20
54.687500
 11
-241.040619
 21
54.687500
  0
LINE
  8
0
 10
-253.040619
 20
52.187500
 11
-249.540619
 21
52.187500
  0
LINE
  8
0
 10
-253.040619
 20
57.187500
 11
-249.540619
 21
57.187500
  0
LINE
  8
0
 10
-248.927368
 20
49.687500
 11
-243.153870
 21
49.687500
  0
LINE
  8
0
 10
-248.927368
 20
59.687500
 11
-243.153870
 21
59.687500
  0
LINE
  8
0
 10
-240.267120
 20
54.687496
 11
-243.153870
 21
59.687496
  0
LINE
  8
0
 10
-248.927368
 20
49.687500
 11
-250.370758
 21
52.187500
  0
LINE
  8
0
 10
-250.370743
 20
57.187500
 11
-248.927368
 21
59.687500
  0
LINE
  8
0
 10
-243.153870
 20
49.687496
 11
-240.267120
 21
54.687496
  0
LINE
  8
0
 10
-250.540619
 20
54.687500
 11
-252.809677
 21
54.687500
  0
LINE
  8
0
 10
-241.540619
 20
54.687500
 11
-241.540619
 21
54.687500
  0
LINE
  8
0
 10
-250.540619
 20
54.687500
 11
-250.540619
 21
54.687500
  0
LINE
  8
0
 10
-249.540619
 20
51.187500
 11
-249.540619
 21
52.238010
  0
LINE
  8
0
 10
-249.540619
 20
58.187500
 11
-242.540619
 21
58.187500
  0
LINE
  8
0
 10
-242.540619
 20
51.187500
 11
-242.540619
 21
52.238010
  0
LINE
  8
0
 10
-249.540619
 20
51.187500
 11
-242.540619
 21
51.187500
  0
LINE
  8
0
 10
-242.540619
 20
57.136990
 11
-242.540619
 21
58.187500
  0
LINE
  8
0
 10
-249.540619
 20
57.136990
 11
-249.540619
 21
58.187500
  0
LINE
  8
0
 10
-250.140625
 20
56.312309
 11
-250.140625
 21
57.187500
  0
LINE
  8
0
 10
-250.140625
 20
52.187500
 11
-250.140625
 21
53.062691
  0
LINE
  8
0
 10
-250.396072
 20
54.687500
 11
-237.707275
 21
54.687500
  0
ARC
  8
0
 10
-254.940613
 20
53.337502
 40
0.099998
 50
90.000000
 51
180.000000
  0
ARC
  8
0
 10
-253.140625
 20
53.337502
 40
0.100006
 50
0.000000
 51
90.000000
  0
ARC
  8
0
 10
-254.940613
 20
56.037502
 40
0.100006
 50
180.000000
 51
270.000000
  0
ARC
  8
0
 10
-253.140625
 20
56.037502
 40
0.099998
 50
270.000000
 51
0.000000
  0
ARC
  8
0
 10
-257.840637
 20
53.612602
 40
0.199982
 50
180.000000
 51
262.406647
  0
ARC
  8
0
 10
-257.840637
 20
55.762398
 40
0.200000
 50
97.593346
 51
180.000000
  0
ARC
  8
0
 10
-249.542206
 20
55.937500
 40
3.498410
 50
159.065201
 51
200.934799
  0
ARC
  8
0
 10
-249.542206
 20
53.437500
 40
3.498410
 50
159.065201
 51
200.934845
  0
ARC
  8
0
 10
-246.040619
 20
54.687500
 40
5.000000
 50
90.000000
 51
149.999985
  0
CIRCLE
  8
0
 10
-246.040619
 20
54.687500
 40
3.000000
  0
CIRCLE
  8
0
 10
-246.040619
 20
54.687500
 40
3.282843
  0
ARC
  8
0
 10
-245.040619
 20
54.687500
 40
3.500000
 50
270.000000
 51
90.000000
  0
ARC
  8
0
 10
-247.040619
 20
54.687500
 40
3.500000
 50
90.000000
 51
270.000000
  0
ARC
  8
0
 10
-246.040619
 20
54.687500
 40
4.999997
 50
210.000015
 51
90.000000
  0
ARC
  8
0
 10
-253.639038
 20
55.937500
 40
3.498421
 50
5.616052
 51
20.934761
  0
ARC
  8
0
 10
-253.639038
 20
53.437500
 40
3.498424
 50
339.065308
 51
354.384003
  0
CIRCLE
  8
0
 10
-246.040619
 20
54.687500
 40
1.000000
  0
POINT
  8
0
 10
-175.621887
 20
138.562500
  0
POINT
  8
0
 10
-169.871887
 20
138.562500
  0
LINE
  8
0
 10
-172.121887
 20
116.312500
 11
-172.121887
 21
135.562500
  0
LINE
  8
0
 10
-179.121887
 20
116.312500
 11
-179.121887
 21
135.562500
  0
LINE
  8
0
 10
-179.121887
 20
132.312500
 11
-172.121887
 21
132.312500
  0
LINE
  8
0
 10
-178.621887
 20
145.312500
 11
-172.621887
 21
145.312500
  0
LINE
  8
0
 10
-178.621887
 20
145.312500
 11
-179.121887
 21
144.812500
  0
LINE
  8
0
 10
-172.621887
 20
145.312500
 11
-172.121887
 21
144.812500
  0
LINE
  8
0
 10
-172.121887
 20
144.812500
 11
-179.121887
 21
144.812500
  0
LINE
  8
0
 10
-172.721893
 20
132.312500
 11
-172.721893
 21
135.562500
  0
LINE
  8
0
 10
-178.521896
 20
132.312500
 11
-178.521896
 21
135.562500
  0
LINE
  8
0
 10
-179.121887
 20
129.812500
 11
-172.121887
 21
129.812500
  0
LINE
  8
0
 10
-189.921280
 20
126.312500
 11
-176.955215
 21
126.312500
  0
LINE
  8
0
 10
-180.621887
 20
135.562500
 11
-170.621887
 21
135.562500
  0
LINE
  8
0
 10
-180.621887
 20
138.562500
 11
-170.621887
 21
138.562500
  0
LINE
  8
0
 10
-180.621887
 20
141.562500
 11
-170.621887
 21
141.562500
  0
LINE
  8
0
 10
-169.871887
 20
135.995514
 11
-169.871887
 21
138.129486
  0
LINE
  8
0
 10
-181.371887
 20
135.995514
 11
-181.371887
 21
138.129486
  0
LINE
  8
0
 10
-172.121887
 20
141.562500
 11
-172.121887
 21
144.812500
  0
LINE
  8
0
 10
-172.721893
 20
141.562500
 11
-172.721893
 21
145.312500
  0
LINE
  8
0
 10
-178.521896
 20
141.562500
 11
-178.521896
 21
145.312500
  0
LINE
  8
0
 10
-179.121887
 20
141.562500
 11
-179.121887
 21
144.812500
  0
LINE
  8
0
 10
-170.621887
 20
138.562500
 11
-169.871887
 21
138.995514
  0
LINE
  8
0
 10
-180.621887
 20
138.562500
 11
-181.371887
 21
138.995514
  0
LINE
  8
0
 10
-170.621872
 20
141.562515
 11
-169.871872
 21
141.129501
  0
LINE
  8
0
 10
-180.621902
 20
141.562515
 11
-181.371902
 21
141.129501
  0
LINE
  8
0
 10
-170.621887
 20
138.562515
 11
-169.871887
 21
138.129501
  0
LINE
  8
0
 10
-180.621902
 20
138.562515
 11
-181.371902
 21
138.129501
  0
LINE
  8
0
 10
-180.621887
 20
135.562500
 11
-181.371887
 21
135.995514
  0
LINE
  8
0
 10
-170.621887
 20
135.562500
 11
-169.871887
 21
135.995514
  0
LINE
  8
0
 10
-169.871887
 20
138.995514
 11
-169.871887
 21
141.129486
  0
LINE
  8
0
 10
-181.371887
 20
138.995514
 11
-181.371887
 21
141.129486
  0
LINE
  8
0
 10
-178.508636
 20
135.995514
 11
-178.508636
 21
138.129486
  0
LINE
  8
0
 10
-178.508713
 20
138.995514
 11
-178.508713
 21
141.129486
  0
LINE
  8
0
 10
-172.735229
 20
141.129486
 11
-172.735229
 21
138.995514
  0
LINE
  8
0
 10
-172.735153
 20
138.129486
 11
-172.735153
 21
135.995514
  0
LINE
  8
0
 10
-179.721893
 20
128.812500
 11
-179.952835
 21
129.212494
  0
LINE
  8
0
 10
-179.721893
 20
123.812500
 11
-179.952820
 21
123.412506
  0
LINE
  8
0
 10
-173.121887
 20
145.912506
 11
-172.721893
 21
146.143448
  0
LINE
  8
0
 10
-174.178513
 20
146.143433
 11
-174.178513
 21
148.581573
  0
LINE
  8
0
 10
-177.793579
 20
148.812500
 11
-176.121887
 21
148.812500
  0
LINE
  8
0
 10
-178.121887
 20
145.912506
 11
-178.521881
 21
146.143448
  0
LINE
  8
0
 10
-178.521896
 20
146.143433
 11
-178.521896
 21
148.581558
  0
LINE
  8
0
 10
-172.721893
 20
146.143433
 11
-172.721893
 21
148.581558
  0
LINE
  8
0
 10
-177.065323
 20
148.581573
 11
-177.065323
 21
146.143433
  0
LINE
  8
0
 10
-172.821884
 20
145.312500
 11
-172.821884
 21
145.912491
  0
LINE
  8
0
 10
-178.421890
 20
145.912491
 11
-172.821884
 21
145.912491
  0
LINE
  8
0
 10
-178.421890
 20
145.312500
 11
-178.421890
 21
145.912491
  0
LINE
  8
0
 10
-175.621887
 20
104.817657
 11
-175.621887
 21
151.197144
  0
LINE
  8
0
 10
-187.621887
 20
125.237602
 11
-187.621887
 21
127.387398
  0
LINE
  8
0
 10
-186.121887
 20
124.862503
 11
-186.121887
 21
127.762505
  0
LINE
  8
0
 10
-184.621887
 20
124.862503
 11
-184.621887
 21
127.762505
  0
LINE
  8
0
 10
-186.121887
 20
125.062508
 11
-184.621887
 21
124.862503
  0
LINE
  8
0
 10
-186.121887
 20
127.562508
 11
-184.621887
 21
127.762512
  0
LINE
  8
0
 10
-187.448318
 20
125.039360
 11
-186.121887
 21
124.862503
  0
LINE
  8
0
 10
-187.448334
 20
127.585648
 11
-186.121887
 21
127.762505
  0
LINE
  8
0
 10
-184.521896
 20
125.062500
 11
-182.721893
 21
125.062500
  0
LINE
  8
0
 10
-184.521896
 20
127.562500
 11
-182.721893
 21
127.562500
  0
LINE
  8
0
 10
-182.621887
 20
124.140808
 11
-182.621887
 21
128.484192
  0
LINE
  8
0
 10
-179.952820
 20
123.412498
 11
-182.390945
 21
123.412498
  0
LINE
  8
0
 10
-179.952820
 20
129.212494
 11
-182.390945
 21
129.212494
  0
LINE
  8
0
 10
-179.952835
 20
127.755875
 11
-182.390961
 21
127.755875
  0
LINE
  8
0
 10
-182.390961
 20
124.869064
 11
-179.952820
 21
124.869064
  0
LINE
  8
0
 10
-179.721893
 20
123.512497
 11
-179.721893
 21
129.112503
  0
LINE
  8
0
 10
-179.121887
 20
123.512497
 11
-179.721893
 21
123.512497
  0
LINE
  8
0
 10
-179.121887
 20
129.112503
 11
-179.721893
 21
129.112503
  0
LINE
  8
0
 10
-176.121887
 20
148.812500
 11
-176.121887
 21
147.812500
  0
LINE
  8
0
 10
-176.121887
 20
147.812500
 11
-175.121887
 21
147.812500
  0
LINE
  8
0
 10
-175.121887
 20
147.812500
 11
-175.121887
 21
148.812500
  0
LINE
  8
0
 10
-175.121887
 20
148.812500
 11
-173.450195
 21
148.812500
  0
LINE
  8
0
 10
-172.121887
 20
131.273270
 11
-172.721893
 21
132.312500
  0
LINE
  8
0
 10
-179.121887
 20
131.273270
 11
-178.521896
 21
132.312500
  0
LINE
  8
0
 10
-179.621887
 20
108.812500
 11
-171.621887
 21
108.812500
  0
LINE
  8
0
 10
-180.121887
 20
116.312500
 11
-171.121887
 21
116.312500
  0
LINE
  8
0
 10
-180.121887
 20
112.312500
 11
-180.121887
 21
116.312500
  0
LINE
  8
0
 10
-179.621887
 20
108.812500
 11
-179.914719
 21
109.105316
  0
LINE
  8
0
 10
-178.473541
 20
110.664154
 11
-180.121887
 21
112.312500
  0
LINE
  8
0
 10
-179.914719
 20
109.105316
 11
-178.577103
 21
109.877586
  0
LINE
  8
0
 10
-171.121887
 20
112.312500
 11
-171.121887
 21
116.312500
  0
LINE
  8
0
 10
-171.621887
 20
108.812500
 11
-171.329071
 21
109.105316
  0
LINE
  8
0
 10
-172.770233
 20
110.664154
 11
-171.121887
 21
112.312500
  0
LINE
  8
0
 10
-171.329071
 20
109.105316
 11
-172.666672
 21
109.877586
  0
LINE
  8
0
 10
-171.329071
 20
109.105316
 11
-179.914703
 21
109.105316
  0
LINE
  8
0
 10
-178.169891
 20
110.203400
 11
-173.073883
 21
110.203400
  0
LINE
  8
0
 10
-171.121887
 20
112.312500
 11
-180.121887
 21
112.312500
  0
ARC
  8
0
 10
-179.940262
 20
141.145615
 40
2.583115
 50
236.342697
 51
303.657318
  0
ARC
  8
0
 10
-171.303513
 20
141.145615
 40
2.583115
 50
236.342697
 51
303.657318
  0
ARC
  8
0
 10
-175.621887
 20
148.401489
 40
9.838988
 50
252.938446
 51
287.061554
  0
ARC
  8
0
 10
-171.303513
 20
138.979385
 40
2.583115
 50
56.342693
 51
123.657310
  0
ARC
  8
0
 10
-175.621887
 20
131.723511
 40
9.838988
 50
72.938438
 51
107.061562
  0
ARC
  8
0
 10
-179.940262
 20
138.979385
 40
2.583115
 50
56.342693
 51
123.657310
  0
ARC
  8
0
 10
-171.303513
 20
135.979385
 40
2.583115
 50
56.342693
 51
123.657310
  0
ARC
  8
0
 10
-175.621887
 20
128.723511
 40
9.838988
 50
72.938438
 51
107.061562
  0
ARC
  8
0
 10
-179.940262
 20
135.979385
 40
2.583115
 50
56.342693
 51
123.657310
  0
ARC
  8
0
 10
-179.940262
 20
138.145615
 40
2.583115
 50
236.342697
 51
303.657318
  0
ARC
  8
0
 10
-175.621887
 20
145.401489
 40
9.838988
 50
252.938446
 51
287.061554
  0
ARC
  8
0
 10
-171.303513
 20
138.145615
 40
2.583115
 50
236.342697
 51
303.657318
  0
ARC
  8
0
 10
-180.985794
 20
124.140808
 40
1.263911
 50
324.813843
 51
35.186447
  0
ARC
  8
0
 10
-180.985794
 20
128.484192
 40
1.263915
 50
324.813568
 51
35.185879
  0
ARC
  8
0
 10
-184.347961
 20
126.312500
 40
4.626078
 50
341.819702
 51
18.180300
  0
ARC
  8
0
 10
-173.450195
 20
147.176407
 40
1.263915
 50
234.813553
 51
305.185883
  0
ARC
  8
0
 10
-175.621887
 20
150.538559
 40
4.626064
 50
251.819641
 51
288.180359
  0
ARC
  8
0
 10
-177.793579
 20
147.548584
 40
1.263915
 50
54.813553
 51
125.185883
  0
ARC
  8
0
 10
-177.793579
 20
147.176407
 40
1.263906
 50
234.814117
 51
305.186432
  0
ARC
  8
0
 10
-173.450195
 20
147.548584
 40
1.263906
 50
54.814121
 51
125.186447
  0
ARC
  8
0
 10
-175.621887
 20
144.186432
 40
4.626064
 50
71.819641
 51
83.795174
  0
ARC
  8
0
 10
-187.421890
 20
127.387398
 40
0.199996
 50
97.593491
 51
180.000000
  0
ARC
  8
0
 10
-184.521896
 20
124.962502
 40
0.099998
 50
90.000000
 51
180.000000
  0
ARC
  8
0
 10
-184.521896
 20
127.662506
 40
0.099991
 50
180.000000
 51
270.000000
  0
ARC
  8
0
 10
-187.421890
 20
125.237602
 40
0.199997
 50
180.000000
 51
262.406525
  0
ARC
  8
0
 10
-182.721893
 20
127.662506
 40
0.100006
 50
270.000000
 51
0.000000
  0
ARC
  8
0
 10
-182.721893
 20
124.962502
 40
0.100006
 50
0.000000
 51
90.000000
  0
ARC
  8
0
 10
-181.357971
 20
128.484192
 40
1.263906
 50
144.814117
 51
215.186447
  0
ARC
  8
0
 10
-181.357971
 20
124.140808
 40
1.263915
 50
144.813553
 51
215.186157
  0
ARC
  8
0
 10
-177.995819
 20
126.312500
 40
4.626064
 50
161.819641
 51
198.180298
  0
ARC
  8
0
 10
-175.621887
 20
144.186432
 40
4.626069
 50
96.204826
 51
108.180359
  0
ARC
  8
0
 10
-178.827103
 20
110.310608
 40
0.500001
 50
299.999939
 51
44.998764
  0
ARC
  8
0
 10
-172.416672
 20
110.310600
 40
0.500006
 50
135.000626
 51
239.998123
  0
POINT
  8
0
 10
-169.848389
 20
54.687500
  0
POINT
  8
0
 10
-175.621887
 20
54.687500
  0
LINE
  8
0
 10
-175.621887
 20
48.177399
 11
-175.621887
 21
61.429924
  0
LINE
  8
0
 10
-182.621887
 20
52.187500
 11
-182.621887
 21
57.187500
  0
LINE
  8
0
 10
-187.621887
 20
53.612602
 11
-187.621887
 21
55.762398
  0
LINE
  8
0
 10
-186.121887
 20
53.237499
 11
-186.121887
 21
56.137501
  0
LINE
  8
0
 10
-184.621887
 20
53.237499
 11
-184.621887
 21
56.137505
  0
LINE
  8
0
 10
-186.121887
 20
53.437492
 11
-184.621887
 21
53.237492
  0
LINE
  8
0
 10
-186.121887
 20
55.937504
 11
-184.621887
 21
56.137505
  0
LINE
  8
0
 10
-187.448318
 20
53.414349
 11
-186.121887
 21
53.237492
  0
LINE
  8
0
 10
-187.448334
 20
55.960644
 11
-186.121887
 21
56.137501
  0
LINE
  8
0
 10
-184.521881
 20
53.437500
 11
-182.721893
 21
53.437500
  0
LINE
  8
0
 10
-184.521881
 20
55.937500
 11
-182.721893
 21
55.937500
  0
LINE
  8
0
 10
-189.725754
 20
54.687500
 11
-182.483887
 21
54.687500
  0
LINE
  8
0
 10
-172.121887
 20
54.687500
 11
-172.121887
 21
54.687500
  0
LINE
  8
0
 10
-170.621887
 20
54.687500
 11
-170.621887
 21
54.687500
  0
LINE
  8
0
 10
-179.121887
 20
54.687500
 11
-179.121887
 21
54.687500
  0
LINE
  8
0
 10
-180.621887
 20
54.687500
 11
-180.621887
 21
54.687500
  0
LINE
  8
0
 10
-180.621887
 20
54.687500
 11
-180.621887
 21
54.687500
  0
LINE
  8
0
 10
-170.621887
 20
54.687500
 11
-170.621887
 21
54.687500
  0
LINE
  8
0
 10
-182.621887
 20
52.187500
 11
-179.121887
 21
52.187500
  0
LINE
  8
0
 10
-182.621887
 20
57.187500
 11
-179.121887
 21
57.187500
  0
LINE
  8
0
 10
-178.508636
 20
49.687500
 11
-172.735138
 21
49.687500
  0
LINE
  8
0
 10
-178.508636
 20
59.687500
 11
-172.735138
 21
59.687500
  0
LINE
  8
0
 10
-169.848389
 20
54.687496
 11
-172.735138
 21
59.687496
  0
LINE
  8
0
 10
-178.508636
 20
49.687500
 11
-179.952026
 21
52.187500
  0
LINE
  8
0
 10
-179.952011
 20
57.187500
 11
-178.508636
 21
59.687500
  0
LINE
  8
0
 10
-172.735138
 20
49.687496
 11
-169.848389
 21
54.687496
  0
LINE
  8
0
 10
-171.121887
 20
54.687500
 11
-171.121887
 21
54.687500
  0
LINE
  8
0
 10
-180.121887
 20
54.687500
 11
-180.121887
 21
54.687500
  0
LINE
  8
0
 10
-179.121887
 20
51.187500
 11
-179.121887
 21
52.201878
  0
LINE
  8
0
 10
-172.121887
 20
58.187500
 11
-173.136261
 21
58.187500
  0
LINE
  8
0
 10
-172.121887
 20
51.187500
 11
-173.136261
 21
51.187500
  0
LINE
  8
0
 10
-172.121887
 20
51.187500
 11
-172.121887
 21
52.201878
  0
LINE
  8
0
 10
-172.121887
 20
57.173122
 11
-172.121887
 21
58.187500
  0
LINE
  8
0
 10
-179.121887
 20
57.173122
 11
-179.121887
 21
58.187500
  0
LINE
  8
0
 10
-178.107513
 20
51.187500
 11
-179.121887
 21
51.187500
  0
LINE
  8
0
 10
-178.107513
 20
58.187500
 11
-179.121887
 21
58.187500
  0
LINE
  8
0
 10
-179.721893
 20
52.187500
 11
-179.721893
 21
53.062691
  0
LINE
  8
0
 10
-179.721893
 20
56.312309
 11
-179.721893
 21
57.187500
  0
LINE
  8
0
 10
-180.030090
 20
54.687500
 11
-167.288544
 21
54.687500
  0
LINE
  8
0
 10
-182.390945
 20
54.687500
 11
-180.121887
 21
54.687500
  0
ARC
  8
0
 10
-184.521881
 20
53.337502
 40
0.099998
 50
90.000000
 51
180.000000
  0
ARC
  8
0
 10
-182.721893
 20
53.337502
 40
0.100006
 50
0.000000
 51
90.000000
  0
ARC
  8
0
 10
-184.521881
 20
56.037502
 40
0.100006
 50
180.000000
 51
270.000000
  0
ARC
  8
0
 10
-182.721893
 20
56.037502
 40
0.099998
 50
270.000000
 51
0.000000
  0
ARC
  8
0
 10
-187.421890
 20
53.612602
 40
0.199997
 50
180.000000
 51
262.406647
  0
ARC
  8
0
 10
-187.421890
 20
55.762398
 40
0.200000
 50
97.593346
 51
180.000000
  0
ARC
  8
0
 10
-183.220306
 20
55.937504
 40
3.498420
 50
5.615990
 51
20.934704
  0
ARC
  8
0
 10
-183.220306
 20
53.437504
 40
3.498425
 50
339.065247
 51
354.383881
  0
ARC
  8
0
 10
-179.123474
 20
55.937500
 40
3.498410
 50
159.065201
 51
200.934799
  0
ARC
  8
0
 10
-179.123474
 20
53.437500
 40
3.498410
 50
159.065201
 51
200.934845
  0
ARC
  8
0
 10
-175.621887
 20
54.687500
 40
5.000000
 50
90.000000
 51
149.999985
  0
ARC
  8
0
 10
-175.621887
 20
54.687500
 40
4.999999
 50
210.000061
 51
90.000000
  0
CIRCLE
  8
0
 10
-175.621887
 20
54.687500
 40
4.000000
  0
CIRCLE
  8
0
 10
-175.621887
 20
54.687500
 40
4.292821
  0
CIRCLE
  8
0
 10
-175.621887
 20
54.687500
 40
1.000000
  0
ARC
  8
0
 10
-174.621887
 20
54.687500
 40
3.500004
 50
317.710846
 51
42.289165
  0
ARC
  8
0
 10
-176.621887
 20
54.687500
 40
3.500004
 50
137.710831
 51
222.289124
  0
POINT
  8
0
 10
-105.203133
 20
138.562500
  0
POINT
  8
0
 10
-99.453133
 20
138.562500
  0
LINE
  8
0
 10
-101.703133
 20
116.312500
 11
-101.703133
 21
135.562500
  0
LINE
  8
0
 10
-108.703133
 20
116.312500
 11
-108.703133
 21
135.562500
  0
LINE
  8
0
 10
-108.703133
 20
132.312500
 11
-101.703133
 21
132.312500
  0
LINE
  8
0
 10
-108.203133
 20
145.312500
 11
-102.203133
 21
145.312500
  0
LINE
  8
0
 10
-108.203133
 20
145.312500
 11
-108.703133
 21
144.812500
  0
LINE
  8
0
 10
-102.203133
 20
145.312500
 11
-101.703133
 21
144.812500
  0
LINE
  8
0
 10
-101.703133
 20
144.812500
 11
-108.703133
 21
144.812500
  0
LINE
  8
0
 10
-102.303131
 20
132.312500
 11
-102.303131
 21
135.562500
  0
LINE
  8
0
 10
-108.103134
 20
132.312500
 11
-108.103134
 21
135.562500
  0
LINE
  8
0
 10
-108.703133
 20
129.812500
 11
-101.703133
 21
129.812500
  0
LINE
  8
0
 10
-118.989365
 20
126.312500
 11
-106.536469
 21
126.312500
  0
LINE
  8
0
 10
-110.203133
 20
135.562500
 11
-100.203133
 21
135.562500
  0
LINE
  8
0
 10
-110.203125
 20
138.562500
 11
-100.203133
 21
138.562500
  0
LINE
  8
0
 10
-110.203133
 20
141.562500
 11
-100.203125
 21
141.562500
  0
LINE
  8
0
 10
-99.453133
 20
135.995514
 11
-99.453133
 21
138.129486
  0
LINE
  8
0
 10
-110.953133
 20
135.995514
 11
-110.953133
 21
138.129486
  0
LINE
  8
0
 10
-101.703133
 20
141.562500
 11
-101.703133
 21
144.812500
  0
LINE
  8
0
 10
-102.303131
 20
141.562500
 11
-102.303131
 21
145.312500
  0
LINE
  8
0
 10
-108.103134
 20
141.562500
 11
-108.103134
 21
145.312500
  0
LINE
  8
0
 10
-108.703133
 20
141.562500
 11
-108.703133
 21
144.812500
  0
LINE
  8
0
 10
-100.203133
 20
138.562500
 11
-99.453133
 21
138.995514
  0
LINE
  8
0
 10
-110.203133
 20
138.562500
 11
-110.953133
 21
138.995514
  0
LINE
  8
0
 10
-100.203125
 20
141.562515
 11
-99.453125
 21
141.129501
  0
LINE
  8
0
 10
-110.203140
 20
141.562515
 11
-110.953140
 21
141.129501
  0
LINE
  8
0
 10
-100.203125
 20
138.562515
 11
-99.453125
 21
138.129501
  0
LINE
  8
0
 10
-110.203140
 20
138.562515
 11
-110.953140
 21
138.129501
  0
LINE
  8
0
 10
-110.203133
 20
135.562500
 11
-110.953133
 21
135.995514
  0
LINE
  8
0
 10
-100.203133
 20
135.562500
 11
-99.453133
 21
135.995514
  0
LINE
  8
0
 10
-99.453133
 20
138.995514
 11
-99.453133
 21
141.129486
  0
LINE
  8
0
 10
-110.953133
 20
138.995514
 11
-110.953133
 21
141.129486
  0
LINE
  8
0
 10
-108.089882
 20
135.995514
 11
-108.089882
 21
138.129486
  0
LINE
  8
0
 10
-108.089966
 20
138.995514
 11
-108.089966
 21
141.129486
  0
LINE
  8
0
 10
-102.316475
 20
141.129486
 11
-102.316475
 21
138.995514
  0
LINE
  8
0
 10
-102.316391
 20
138.129486
 11
-102.316391
 21
135.995514
  0
LINE
  8
0
 10
-109.303139
 20
128.812500
 11
-109.534073
 21
129.212494
  0
LINE
  8
0
 10
-109.303131
 20
123.812500
 11
-109.534073
 21
123.412506
  0
LINE
  8
0
 10
-102.703133
 20
145.912506
 11
-102.303139
 21
146.143448
  0
LINE
  8
0
 10
-103.759758
 20
146.143433
 11
-103.759758
 21
148.581573
  0
LINE
  8
0
 10
-107.374817
 20
148.812500
 11
-105.703133
 21
148.812500
  0
LINE
  8
0
 10
-107.703133
 20
145.912506
 11
-108.103127
 21
146.143448
  0
LINE
  8
0
 10
-108.103134
 20
146.143433
 11
-108.103134
 21
148.581558
  0
LINE
  8
0
 10
-102.303131
 20
146.143433
 11
-102.303131
 21
148.581558
  0
LINE
  8
0
 10
-106.646576
 20
148.581573
 11
-106.646576
 21
146.143433
  0
LINE
  8
0
 10
-102.403137
 20
145.312500
 11
-102.403137
 21
145.912491
  0
LINE
  8
0
 10
-108.003136
 20
145.912491
 11
-102.403130
 21
145.912491
  0
LINE
  8
0
 10
-108.003136
 20
145.312500
 11
-108.003136
 21
145.912491
  0
LINE
  8
0
 10
-105.203133
 20
104.817657
 11
-105.203133
 21
151.197144
  0
LINE
  8
0
 10
-117.203133
 20
125.237602
 11
-117.203133
 21
127.387398
  0
LINE
  8
0
 10
-115.703133
 20
124.862503
 11
-115.703133
 21
127.762505
  0
LINE
  8
0
 10
-114.203133
 20
124.862503
 11
-114.203133
 21
127.762505
  0
LINE
  8
0
 10
-115.703133
 20
125.062508
 11
-114.203133
 21
124.862503
  0
LINE
  8
0
 10
-115.703133
 20
127.562508
 11
-114.203133
 21
127.762512
  0
LINE
  8
0
 10
-117.029572
 20
125.039360
 11
-115.703133
 21
124.862503
  0
LINE
  8
0
 10
-117.029572
 20
127.585648
 11
-115.703140
 21
127.762505
  0
LINE
  8
0
 10
-114.103134
 20
125.062500
 11
-112.303131
 21
125.062500
  0
LINE
  8
0
 10
-114.103134
 20
127.562500
 11
-112.303131
 21
127.562500
  0
LINE
  8
0
 10
-112.203133
 20
124.140808
 11
-112.203133
 21
128.484192
  0
LINE
  8
0
 10
-109.534065
 20
123.412498
 11
-111.972191
 21
123.412498
  0
LINE
  8
0
 10
-109.534065
 20
129.212494
 11
-111.972191
 21
129.212494
  0
LINE
  8
0
 10
-109.534073
 20
127.755875
 11
-111.972198
 21
127.755875
  0
LINE
  8
0
 10
-111.972198
 20
124.869064
 11
-109.534065
 21
124.869064
  0
LINE
  8
0
 10
-109.303131
 20
123.512497
 11
-109.303131
 21
129.112503
  0
LINE
  8
0
 10
-108.703133
 20
123.512497
 11
-109.303131
 21
123.512497
  0
LINE
  8
0
 10
-108.703133
 20
129.112503
 11
-109.303131
 21
129.112503
  0
LINE
  8
0
 10
-105.703133
 20
148.812500
 11
-105.703133
 21
147.812500
  0
LINE
  8
0
 10
-105.703133
 20
147.812500
 11
-104.703133
 21
147.812500
  0
LINE
  8
0
 10
-104.703133
 20
147.812500
 11
-104.703133
 21
148.812500
  0
LINE
  8
0
 10
-104.703133
 20
148.812500
 11
-103.031441
 21
148.812500
  0
LINE
  8
0
 10
-101.703133
 20
131.273270
 11
-102.303131
 21
132.312500
  0
LINE
  8
0
 10
-108.703133
 20
131.273270
 11
-108.103134
 21
132.312500
  0
LINE
  8
0
 10
-109.703133
 20
112.312500
 11
-109.703133
 21
116.312500
  0
LINE
  8
0
 10
-110.504128
 20
109.113487
 11
-108.423355
 21
110.083771
  0
LINE
  8
0
 10
-108.281113
 20
110.890480
 11
-109.703133
 21
112.312500
  0
LINE
  8
0
 10
-110.203133
 20
108.812500
 11
-110.504128
 21
109.113495
  0
LINE
  8
0
 10
-100.203133
 20
108.812500
 11
-110.203133
 21
108.812500
  0
LINE
  8
0
 10
-100.703133
 20
116.312500
 11
-109.703133
 21
116.312500
  0
LINE
  8
0
 10
-100.703133
 20
112.312500
 11
-100.703133
 21
116.312500
  0
LINE
  8
0
 10
-99.902138
 20
109.113503
 11
-101.982903
 21
110.083786
  0
LINE
  8
0
 10
-102.125153
 20
110.890480
 11
-100.703133
 21
112.312500
  0
LINE
  8
0
 10
-100.203133
 20
108.812500
 11
-99.902138
 21
109.113495
  0
LINE
  8
0
 10
-110.504128
 20
109.113495
 11
-99.902138
 21
109.113495
  0
LINE
  8
0
 10
-102.462723
 20
110.385559
 11
-107.934700
 21
110.385559
  0
LINE
  8
0
 10
-100.703133
 20
112.312500
 11
-109.703133
 21
112.312500
  0
ARC
  8
0
 10
-109.521507
 20
141.145615
 40
2.583111
 50
236.342834
 51
303.657318
  0
ARC
  8
0
 10
-100.884758
 20
141.145615
 40
2.583115
 50
236.342697
 51
303.657318
  0
ARC
  8
0
 10
-105.203133
 20
148.401489
 40
9.838986
 50
252.938477
 51
287.061554
  0
ARC
  8
0
 10
-100.884758
 20
138.979385
 40
2.583115
 50
56.342693
 51
123.657166
  0
ARC
  8
0
 10
-105.203133
 20
131.723511
 40
9.838990
 50
72.938400
 51
107.061516
  0
ARC
  8
0
 10
-109.521507
 20
138.979385
 40
2.583115
 50
56.342693
 51
123.657166
  0
ARC
  8
0
 10
-100.884758
 20
135.979385
 40
2.583115
 50
56.342693
 51
123.657166
  0
ARC
  8
0
 10
-105.203133
 20
128.723511
 40
9.838990
 50
72.938400
 51
107.061516
  0
ARC
  8
0
 10
-109.521507
 20
135.979385
 40
2.583115
 50
56.342693
 51
123.657166
  0
ARC
  8
0
 10
-109.521507
 20
138.145615
 40
2.583111
 50
236.342834
 51
303.657318
  0
ARC
  8
0
 10
-105.203133
 20
145.401489
 40
9.838986
 50
252.938477
 51
287.061554
  0
ARC
  8
0
 10
-100.884758
 20
138.145615
 40
2.583115
 50
236.342697
 51
303.657318
  0
ARC
  8
0
 10
-110.567039
 20
124.140808
 40
1.263911
 50
324.813843
 51
35.186447
  0
ARC
  8
0
 10
-110.567039
 20
128.484192
 40
1.263915
 50
324.813568
 51
35.185879
  0
ARC
  8
0
 10
-113.929199
 20
126.312500
 40
4.626064
 50
341.819641
 51
18.180359
  0
ARC
  8
0
 10
-103.031441
 20
147.176407
 40
1.263911
 50
234.813843
 51
305.186157
  0
ARC
  8
0
 10
-105.203133
 20
150.538559
 40
4.626064
 50
251.819641
 51
288.180359
  0
ARC
  8
0
 10
-107.374817
 20
147.548584
 40
1.263911
 50
54.813835
 51
125.186165
  0
ARC
  8
0
 10
-107.374817
 20
147.176407
 40
1.263911
 50
234.813843
 51
305.186157
  0
ARC
  8
0
 10
-103.031441
 20
147.548584
 40
1.263911
 50
54.813835
 51
125.186165
  0
ARC
  8
0
 10
-105.203133
 20
144.186432
 40
4.626066
 50
71.819550
 51
83.795174
  0
ARC
  8
0
 10
-117.003136
 20
127.387398
 40
0.199997
 50
97.595657
 51
180.000000
  0
ARC
  8
0
 10
-114.103134
 20
124.962502
 40
0.099998
 50
90.000000
 51
180.000000
  0
ARC
  8
0
 10
-114.103134
 20
127.662506
 40
0.099998
 50
180.000000
 51
270.000000
  0
ARC
  8
0
 10
-117.003136
 20
125.237602
 40
0.199997
 50
180.000000
 51
262.404358
  0
ARC
  8
0
 10
-112.303131
 20
127.662506
 40
0.100006
 50
270.000000
 51
0.000000
  0
ARC
  8
0
 10
-112.303131
 20
124.962502
 40
0.099998
 50
0.000000
 51
90.000000
  0
ARC
  8
0
 10
-110.939217
 20
128.484192
 40
1.263906
 50
144.814117
 51
215.186249
  0
ARC
  8
0
 10
-110.939217
 20
124.140808
 40
1.263915
 50
144.813553
 51
215.185959
  0
ARC
  8
0
 10
-107.577065
 20
126.312500
 40
4.626064
 50
161.819641
 51
198.180328
  0
ARC
  8
0
 10
-105.203133
 20
144.186432
 40
4.626069
 50
96.204826
 51
108.180267
  0
ARC
  8
0
 10
-108.634666
 20
110.536926
 40
0.500002
 50
295.000153
 51
45.000000
  0
ARC
  8
0
 10
-101.771599
 20
110.536926
 40
0.500001
 50
135.000000
 51
244.999847
  0
POINT
  8
0
 10
-105.203133
 20
54.687500
  0
POINT
  8
0
 10
-99.429626
 20
54.687492
  0
LINE
  8
0
 10
-112.203133
 20
52.187500
 11
-112.203133
 21
57.187500
  0
LINE
  8
0
 10
-117.203133
 20
53.612602
 11
-117.203133
 21
55.762398
  0
LINE
  8
0
 10
-115.703133
 20
53.237499
 11
-115.703133
 21
56.137501
  0
LINE
  8
0
 10
-114.203133
 20
53.237499
 11
-114.203133
 21
56.137505
  0
LINE
  8
0
 10
-115.703140
 20
53.437492
 11
-114.203140
 21
53.237492
  0
LINE
  8
0
 10
-115.703133
 20
55.937504
 11
-114.203133
 21
56.137505
  0
LINE
  8
0
 10
-117.029572
 20
53.414349
 11
-115.703133
 21
53.237488
  0
LINE
  8
0
 10
-117.029572
 20
55.960644
 11
-115.703140
 21
56.137505
  0
LINE
  8
0
 10
-114.103134
 20
53.437500
 11
-112.303131
 21
53.437500
  0
LINE
  8
0
 10
-114.103134
 20
55.937500
 11
-112.303131
 21
55.937500
  0
LINE
  8
0
 10
-119.306992
 20
54.687500
 11
-112.088188
 21
54.687500
  0
LINE
  8
0
 10
-101.703133
 20
54.687500
 11
-101.703133
 21
54.687500
  0
LINE
  8
0
 10
-100.203133
 20
54.687500
 11
-100.203133
 21
54.687500
  0
LINE
  8
0
 10
-108.703133
 20
54.687500
 11
-108.703133
 21
54.687500
  0
LINE
  8
0
 10
-110.203133
 20
54.687500
 11
-110.203133
 21
54.687500
  0
LINE
  8
0
 10
-110.203133
 20
54.687500
 11
-110.203133
 21
54.687500
  0
LINE
  8
0
 10
-100.203133
 20
54.687500
 11
-100.203133
 21
54.687500
  0
LINE
  8
0
 10
-112.203133
 20
52.187500
 11
-109.877586
 21
52.187500
  0
LINE
  8
0
 10
-112.203133
 20
57.187500
 11
-109.877586
 21
57.187500
  0
LINE
  8
0
 10
-108.089890
 20
49.687500
 11
-106.963966
 21
49.687500
  0
LINE
  8
0
 10
-108.089882
 20
59.687500
 11
-106.963966
 21
59.687500
  0
LINE
  8
0
 10
-99.429626
 20
54.687496
 11
-99.992584
 21
55.662567
  0
LINE
  8
0
 10
-108.089890
 20
49.687500
 11
-108.652855
 21
50.662579
  0
LINE
  8
0
 10
-108.652840
 20
58.712429
 11
-108.089882
 21
59.687500
  0
LINE
  8
0
 10
-102.316376
 20
49.687496
 11
-101.753418
 21
50.662579
  0
LINE
  8
0
 10
-110.504128
 20
54.687500
 11
-111.972198
 21
54.687500
  0
LINE
  8
0
 10
-98.823135
 20
54.687500
 11
-110.272354
 21
54.687500
  0
LINE
  8
0
 10
-105.203133
 20
48.437168
 11
-105.203133
 21
60.540977
  0
LINE
  8
0
 10
-100.703133
 20
54.687500
 11
-100.703133
 21
54.687500
  0
LINE
  8
0
 10
-99.992592
 20
53.712418
 11
-99.429626
 21
54.687496
  0
LINE
  8
0
 10
-101.753426
 20
58.712433
 11
-102.316383
 21
59.687500
  0
LINE
  8
0
 10
-103.442299
 20
59.687500
 11
-102.316383
 21
59.687500
  0
LINE
  8
0
 10
-103.442299
 20
49.687500
 11
-102.316383
 21
49.687500
  0
ARC
  8
0
 10
-114.103134
 20
53.337502
 40
0.099998
 50
90.000000
 51
180.000000
  0
ARC
  8
0
 10
-112.303131
 20
53.337502
 40
0.099998
 50
0.000000
 51
90.000000
  0
ARC
  8
0
 10
-114.103134
 20
56.037502
 40
0.099998
 50
180.000000
 51
270.000000
  0
ARC
  8
0
 10
-112.303131
 20
56.037502
 40
0.099998
 50
270.000000
 51
0.000000
  0
ARC
  8
0
 10
-117.003136
 20
53.612602
 40
0.199997
 50
180.000000
 51
262.404480
  0
ARC
  8
0
 10
-117.003136
 20
55.762398
 40
0.200001
 50
97.595512
 51
180.000000
  0
ARC
  8
0
 10
-108.704712
 20
55.937500
 40
3.498424
 50
159.065292
 51
200.934708
  0
ARC
  8
0
 10
-108.704720
 20
53.437500
 40
3.498410
 50
159.065201
 51
200.934845
  0
ARC
  8
0
 10
-105.203133
 20
54.687500
 40
5.000000
 50
90.000000
 51
149.999985
  0
ARC
  8
0
 10
-105.203133
 20
54.687500
 40
4.999997
 50
24.335651
 51
90.000000
  0
ARC
  8
0
 10
-105.203133
 20
54.687500
 40
4.999999
 50
210.000061
 51
335.664337
  0
CIRCLE
  8
0
 10
-105.203133
 20
54.687500
 40
5.300995
  0
CIRCLE
  8
0
 10
-105.203133
 20
54.687500
 40
5.000000
  0
CIRCLE
  8
0
 10
-105.203133
 20
54.687500
 40
1.000000
  0
POINT
  8
0
 10
-34.784386
 20
138.562500
  0
POINT
  8
0
 10
-29.034386
 20
138.562500
  0
LINE
  8
0
 10
-31.284386
 20
116.312500
 11
-31.284386
 21
135.562500
  0
LINE
  8
0
 10
-38.284386
 20
116.312500
 11
-38.284386
 21
135.562500
  0
LINE
  8
0
 10
-38.284386
 20
132.312500
 11
-31.284384
 21
132.312500
  0
LINE
  8
0
 10
-37.784382
 20
145.312500
 11
-31.784384
 21
145.312500
  0
LINE
  8
0
 10
-37.784382
 20
145.312500
 11
-38.284382
 21
144.812500
  0
LINE
  8
0
 10
-31.784386
 20
145.312500
 11
-31.284388
 21
144.812500
  0
LINE
  8
0
 10
-31.284384
 20
144.812500
 11
-38.284382
 21
144.812500
  0
LINE
  8
0
 10
-31.884386
 20
132.312500
 11
-31.884386
 21
135.562500
  0
LINE
  8
0
 10
-37.684387
 20
132.312500
 11
-37.684387
 21
135.562500
  0
LINE
  8
0
 10
-38.284386
 20
129.812500
 11
-31.284386
 21
129.812500
  0
LINE
  8
0
 10
-48.602837
 20
126.312500
 11
-36.117718
 21
126.312500
  0
LINE
  8
0
 10
-39.784386
 20
135.562500
 11
-29.784386
 21
135.562500
  0
LINE
  8
0
 10
-39.784378
 20
138.562500
 11
-29.784388
 21
138.562500
  0
LINE
  8
0
 10
-39.784386
 20
141.562500
 11
-29.784382
 21
141.562500
  0
LINE
  8
0
 10
-29.034386
 20
135.995514
 11
-29.034386
 21
138.129486
  0
LINE
  8
0
 10
-40.534386
 20
135.995514
 11
-40.534386
 21
138.129486
  0
LINE
  8
0
 10
-31.284386
 20
141.562500
 11
-31.284386
 21
144.812500
  0
LINE
  8
0
 10
-31.884386
 20
141.562500
 11
-31.884386
 21
145.312500
  0
LINE
  8
0
 10
-37.684387
 20
141.562500
 11
-37.684387
 21
145.312500
  0
LINE
  8
0
 10
-38.284386
 20
141.562500
 11
-38.284386
 21
144.812500
  0
LINE
  8
0
 10
-29.784388
 20
138.562500
 11
-29.034388
 21
138.995514
  0
LINE
  8
0
 10
-39.784386
 20
138.562500
 11
-40.534386
 21
138.995514
  0
LINE
  8
0
 10
-29.784374
 20
141.562515
 11
-29.034376
 21
141.129501
  0
LINE
  8
0
 10
-39.784393
 20
141.562515
 11
-40.534393
 21
141.129501
  0
LINE
  8
0
 10
-29.784380
 20
138.562515
 11
-29.034378
 21
138.129501
  0
LINE
  8
0
 10
-39.784393
 20
138.562515
 11
-40.534393
 21
138.129501
  0
LINE
  8
0
 10
-39.784386
 20
135.562500
 11
-40.534386
 21
135.995514
  0
LINE
  8
0
 10
-29.784389
 20
135.562500
 11
-29.034389
 21
135.995514
  0
LINE
  8
0
 10
-29.034386
 20
138.995514
 11
-29.034386
 21
141.129486
  0
LINE
  8
0
 10
-40.534386
 20
138.995514
 11
-40.534386
 21
141.129486
  0
LINE
  8
0
 10
-37.671135
 20
135.995514
 11
-37.671135
 21
138.129486
  0
LINE
  8
0
 10
-37.671215
 20
138.995514
 11
-37.671215
 21
141.129486
  0
LINE
  8
0
 10
-31.897728
 20
141.129486
 11
-31.897728
 21
138.995514
  0
LINE
  8
0
 10
-31.897646
 20
138.129486
 11
-31.897646
 21
135.995514
  0
LINE
  8
0
 10
-38.884388
 20
128.812500
 11
-39.115326
 21
129.212494
  0
LINE
  8
0
 10
-38.884384
 20
123.812500
 11
-39.115322
 21
123.412506
  0
LINE
  8
0
 10
-32.284386
 20
145.912506
 11
-31.884388
 21
146.143448
  0
LINE
  8
0
 10
-33.341011
 20
146.143433
 11
-33.341011
 21
148.581573
  0
LINE
  8
0
 10
-36.956070
 20
148.812500
 11
-35.284382
 21
148.812500
  0
LINE
  8
0
 10
-37.284386
 20
145.912506
 11
-37.684380
 21
146.143448
  0
LINE
  8
0
 10
-37.684387
 20
146.143433
 11
-37.684387
 21
148.581558
  0
LINE
  8
0
 10
-31.884386
 20
146.143433
 11
-31.884386
 21
148.581558
  0
LINE
  8
0
 10
-36.227825
 20
148.581573
 11
-36.227825
 21
146.143433
  0
LINE
  8
0
 10
-31.984386
 20
145.312500
 11
-31.984386
 21
145.912491
  0
LINE
  8
0
 10
-37.584385
 20
145.912491
 11
-31.984385
 21
145.912491
  0
LINE
  8
0
 10
-37.584389
 20
145.312500
 11
-37.584389
 21
145.912491
  0
LINE
  8
0
 10
-34.784386
 20
104.817657
 11
-34.784386
 21
151.197144
  0
LINE
  8
0
 10
-46.784386
 20
125.237602
 11
-46.784386
 21
127.387398
  0
LINE
  8
0
 10
-45.284386
 20
124.862503
 11
-45.284386
 21
127.762505
  0
LINE
  8
0
 10
-43.784386
 20
124.862503
 11
-43.784386
 21
127.762505
  0
LINE
  8
0
 10
-45.284389
 20
125.062508
 11
-43.784386
 21
124.862503
  0
LINE
  8
0
 10
-45.284386
 20
127.562508
 11
-43.784386
 21
127.762512
  0
LINE
  8
0
 10
-46.610821
 20
125.039360
 11
-45.284386
 21
124.862503
  0
LINE
  8
0
 10
-46.610825
 20
127.585648
 11
-45.284393
 21
127.762505
  0
LINE
  8
0
 10
-43.684387
 20
125.062500
 11
-41.884388
 21
125.062500
  0
LINE
  8
0
 10
-43.684387
 20
127.562500
 11
-41.884388
 21
127.562500
  0
LINE
  8
0
 10
-41.784386
 20
124.140808
 11
-41.784386
 21
128.484192
  0
LINE
  8
0
 10
-39.115322
 20
123.412498
 11
-41.553448
 21
123.412498
  0
LINE
  8
0
 10
-39.115322
 20
129.212494
 11
-41.553448
 21
129.212494
  0
LINE
  8
0
 10
-39.115326
 20
127.755875
 11
-41.553452
 21
127.755875
  0
LINE
  8
0
 10
-41.553452
 20
124.869064
 11
-39.115322
 21
124.869064
  0
LINE
  8
0
 10
-38.884384
 20
123.512497
 11
-38.884384
 21
129.112503
  0
LINE
  8
0
 10
-38.284386
 20
123.512497
 11
-38.884384
 21
123.512497
  0
LINE
  8
0
 10
-38.284386
 20
129.112503
 11
-38.884384
 21
129.112503
  0
LINE
  8
0
 10
-35.284386
 20
148.812500
 11
-35.284386
 21
147.812500
  0
LINE
  8
0
 10
-35.284382
 20
147.812500
 11
-34.284382
 21
147.812500
  0
LINE
  8
0
 10
-34.284386
 20
147.812500
 11
-34.284386
 21
148.812500
  0
LINE
  8
0
 10
-34.284382
 20
148.812500
 11
-32.612694
 21
148.812500
  0
LINE
  8
0
 10
-31.284382
 20
131.273270
 11
-31.884382
 21
132.312500
  0
LINE
  8
0
 10
-38.284386
 20
131.273270
 11
-37.684387
 21
132.312500
  0
LINE
  8
0
 10
-39.784386
 20
111.312500
 11
-39.784386
 21
116.312500
  0
LINE
  8
0
 10
-36.881882
 20
109.636742
 11
-39.784386
 21
111.312500
  0
LINE
  8
0
 10
-36.784386
 20
108.812500
 11
-37.067230
 21
109.095337
  0
LINE
  8
0
 10
-37.067230
 20
109.095337
 11
-36.840462
 21
109.322113
  0
LINE
  8
0
 10
-32.784386
 20
108.812500
 11
-36.784386
 21
108.812500
  0
LINE
  8
0
 10
-29.784386
 20
116.312500
 11
-39.784386
 21
116.312500
  0
LINE
  8
0
 10
-29.784386
 20
111.312500
 11
-29.784386
 21
116.312500
  0
LINE
  8
0
 10
-32.686890
 20
109.636742
 11
-29.784386
 21
111.312500
  0
LINE
  8
0
 10
-32.784382
 20
108.812492
 11
-32.501541
 21
109.095337
  0
LINE
  8
0
 10
-32.501545
 20
109.095345
 11
-32.728313
 21
109.322113
  0
LINE
  8
0
 10
-32.501545
 20
109.095345
 11
-37.067230
 21
109.095345
  0
LINE
  8
0
 10
-36.656155
 20
109.506416
 11
-32.912617
 21
109.506416
  0
LINE
  8
0
 10
-29.784386
 20
111.312500
 11
-39.784386
 21
111.312500
  0
ARC
  8
0
 10
-39.102760
 20
141.145615
 40
2.583113
 50
236.342758
 51
303.657318
  0
ARC
  8
0
 10
-30.466009
 20
141.145615
 40
2.583114
 50
236.342728
 51
303.657227
  0
ARC
  8
0
 10
-34.784382
 20
148.401489
 40
9.838988
 50
252.938446
 51
287.061554
  0
ARC
  8
0
 10
-30.466009
 20
138.979385
 40
2.583114
 50
56.342728
 51
123.657272
  0
ARC
  8
0
 10
-34.784386
 20
131.723511
 40
9.838989
 50
72.938423
 51
107.061516
  0
ARC
  8
0
 10
-39.102760
 20
138.979385
 40
2.583115
 50
56.342693
 51
123.657234
  0
ARC
  8
0
 10
-30.466009
 20
135.979385
 40
2.583113
 50
56.342762
 51
123.657272
  0
ARC
  8
0
 10
-34.784386
 20
128.723511
 40
9.838989
 50
72.938423
 51
107.061516
  0
ARC
  8
0
 10
-39.102760
 20
135.979385
 40
2.583115
 50
56.342693
 51
123.657234
  0
ARC
  8
0
 10
-39.102760
 20
138.145615
 40
2.583113
 50
236.342758
 51
303.657318
  0
ARC
  8
0
 10
-34.784382
 20
145.401489
 40
9.838988
 50
252.938446
 51
287.061554
  0
ARC
  8
0
 10
-30.466009
 20
138.145615
 40
2.583115
 50
236.342697
 51
303.657227
  0
ARC
  8
0
 10
-40.148296
 20
124.140808
 40
1.263911
 50
324.813843
 51
35.186447
  0
ARC
  8
0
 10
-40.148296
 20
128.484192
 40
1.263915
 50
324.813568
 51
35.185879
  0
ARC
  8
0
 10
-43.510452
 20
126.312500
 40
4.626067
 50
341.819672
 51
18.180344
  0
ARC
  8
0
 10
-32.612694
 20
147.176407
 40
1.263913
 50
234.813690
 51
305.186157
  0
ARC
  8
0
 10
-34.784382
 20
150.538559
 40
4.626065
 50
251.819595
 51
288.180328
  0
ARC
  8
0
 10
-36.956070
 20
147.548584
 40
1.263911
 50
54.813835
 51
125.186302
  0
ARC
  8
0
 10
-36.956070
 20
147.176407
 40
1.263913
 50
234.813690
 51
305.186157
  0
ARC
  8
0
 10
-32.612694
 20
147.548584
 40
1.263911
 50
54.813835
 51
125.186302
  0
ARC
  8
0
 10
-34.784382
 20
144.186432
 40
4.626064
 50
71.819641
 51
83.795174
  0
ARC
  8
0
 10
-46.584389
 20
127.387398
 40
0.199997
 50
97.594574
 51
180.000000
  0
ARC
  8
0
 10
-43.684387
 20
124.962502
 40
0.099998
 50
90.000000
 51
180.000000
  0
ARC
  8
0
 10
-43.684387
 20
127.662506
 40
0.099998
 50
180.000000
 51
270.000000
  0
ARC
  8
0
 10
-46.584389
 20
125.237602
 40
0.199997
 50
180.000000
 51
262.405426
  0
ARC
  8
0
 10
-41.884388
 20
127.662506
 40
0.100006
 50
270.000000
 51
0.000000
  0
ARC
  8
0
 10
-41.884388
 20
124.962502
 40
0.100002
 50
0.000000
 51
90.000000
  0
ARC
  8
0
 10
-40.520473
 20
128.484192
 40
1.263906
 50
144.814117
 51
215.186447
  0
ARC
  8
0
 10
-40.520473
 20
124.140808
 40
1.263915
 50
144.813553
 51
215.186157
  0
ARC
  8
0
 10
-37.158321
 20
126.312500
 40
4.626064
 50
161.819641
 51
198.180344
  0
ARC
  8
0
 10
-34.784382
 20
144.186432
 40
4.626069
 50
96.204826
 51
108.180359
  0
ARC
  8
0
 10
-36.981880
 20
109.463531
 40
0.199996
 50
315.000000
 51
60.000011
  0
ARC
  8
0
 10
-32.586891
 20
109.463531
 40
0.199997
 50
119.999992
 51
224.999222
  0
POINT
  8
0
 10
-29.010885
 20
54.687500
  0
POINT
  8
0
 10
-34.784386
 20
54.687500
  0
LINE
  8
0
 10
-41.784386
 20
52.187500
 11
-41.784386
 21
57.187500
  0
LINE
  8
0
 10
-46.784386
 20
53.612602
 11
-46.784386
 21
55.762398
  0
LINE
  8
0
 10
-45.284386
 20
53.237499
 11
-45.284386
 21
56.137501
  0
LINE
  8
0
 10
-43.784386
 20
53.237499
 11
-43.784386
 21
56.137505
  0
LINE
  8
0
 10
-45.284389
 20
53.437492
 11
-43.784389
 21
53.237492
  0
LINE
  8
0
 10
-45.284386
 20
55.937504
 11
-43.784386
 21
56.137505
  0
LINE
  8
0
 10
-46.610825
 20
53.414349
 11
-45.284389
 21
53.237492
  0
LINE
  8
0
 10
-46.610825
 20
55.960644
 11
-45.284389
 21
56.137501
  0
LINE
  8
0
 10
-43.684387
 20
53.437500
 11
-41.884388
 21
53.437500
  0
LINE
  8
0
 10
-43.684387
 20
55.937500
 11
-41.884388
 21
55.937500
  0
LINE
  8
0
 10
-48.888248
 20
54.687500
 11
-28.202169
 21
54.687500
  0
LINE
  8
0
 10
-29.784386
 20
54.687500
 11
-29.784386
 21
54.687500
  0
LINE
  8
0
 10
-39.784386
 20
54.687500
 11
-39.784386
 21
54.687500
  0
LINE
  8
0
 10
-39.784386
 20
54.687500
 11
-39.784386
 21
54.687500
  0
LINE
  8
0
 10
-29.784386
 20
54.687500
 11
-29.784386
 21
54.687500
  0
LINE
  8
0
 10
-41.784386
 20
52.187500
 11
-38.733871
 21
52.187500
  0
LINE
  8
0
 10
-41.784386
 20
57.187500
 11
-38.733875
 21
57.187500
  0
LINE
  8
0
 10
-37.671139
 20
49.687500
 11
-31.897635
 21
49.687500
  0
LINE
  8
0
 10
-37.671139
 20
59.687500
 11
-31.897635
 21
59.687500
  0
LINE
  8
0
 10
-29.010883
 20
54.687496
 11
-31.897633
 21
59.687496
  0
LINE
  8
0
 10
-37.671143
 20
49.687500
 11
-39.114517
 21
52.187500
  0
LINE
  8
0
 10
-39.114513
 20
57.187500
 11
-37.671139
 21
59.687500
  0
LINE
  8
0
 10
-31.897631
 20
49.687496
 11
-29.010880
 21
54.687496
  0
LINE
  8
0
 10
-39.784386
 20
54.687500
 11
-41.553448
 21
54.687500
  0
LINE
  8
0
 10
-38.284386
 20
51.187500
 11
-38.284386
 21
51.815220
  0
LINE
  8
0
 10
-31.284386
 20
51.187500
 11
-31.284386
 21
51.815220
  0
LINE
  8
0
 10
-38.284386
 20
51.187500
 11
-31.284386
 21
51.187500
  0
LINE
  8
0
 10
-38.884384
 20
52.187500
 11
-38.884384
 21
52.344425
  0
LINE
  8
0
 10
-34.784386
 20
47.731750
 11
-34.784386
 21
60.738140
  0
LINE
  8
0
 10
-29.784386
 20
54.687500
 11
-29.784386
 21
54.687500
  0
LINE
  8
0
 10
-39.784386
 20
54.687500
 11
-39.784386
 21
54.687500
  0
LINE
  8
0
 10
-38.284386
 20
58.187500
 11
-31.284386
 21
58.187500
  0
LINE
  8
0
 10
-32.784386
 20
54.687500
 11
-32.784386
 21
54.687500
  0
LINE
  8
0
 10
-36.784386
 20
54.687500
 11
-36.784386
 21
54.687500
  0
LINE
  8
0
 10
-35.784386
 20
53.687500
 11
-33.784386
 21
53.687500
  0
LINE
  8
0
 10
-35.784386
 20
55.687500
 11
-33.784386
 21
55.687500
  0
LINE
  8
0
 10
-35.784386
 20
53.404659
 11
-33.784386
 21
53.404659
  0
LINE
  8
0
 10
-35.784386
 20
55.970341
 11
-33.784386
 21
55.970341
  0
LINE
  8
0
 10
-31.284386
 20
57.559780
 11
-31.284386
 21
58.187500
  0
LINE
  8
0
 10
-38.284386
 20
57.559780
 11
-38.284386
 21
58.187500
  0
LINE
  8
0
 10
-38.884384
 20
57.030575
 11
-38.884384
 21
57.187500
  0
ARC
  8
0
 10
-43.684387
 20
53.337502
 40
0.099998
 50
90.000000
 51
180.000000
  0
ARC
  8
0
 10
-41.884388
 20
53.337502
 40
0.099998
 50
0.000000
 51
90.000000
  0
ARC
  8
0
 10
-43.684387
 20
56.037502
 40
0.099998
 50
180.000000
 51
270.000000
  0
ARC
  8
0
 10
-41.884388
 20
56.037502
 40
0.099998
 50
270.000000
 51
0.000000
  0
ARC
  8
0
 10
-46.584389
 20
53.612602
 40
0.200001
 50
180.000000
 51
262.405579
  0
ARC
  8
0
 10
-46.584389
 20
55.762398
 40
0.200000
 50
97.594429
 51
180.000000
  0
ARC
  8
0
 10
-42.382797
 20
55.937504
 40
3.498412
 50
15.610570
 51
20.934771
  0
ARC
  8
0
 10
-42.382801
 20
53.437504
 40
3.498418
 50
339.065186
 51
344.389313
  0
ARC
  8
0
 10
-38.285969
 20
55.937500
 40
3.498417
 50
159.065247
 51
200.934753
  0
ARC
  8
0
 10
-38.285973
 20
53.437500
 40
3.498413
 50
159.065231
 51
200.934830
  0
ARC
  8
0
 10
-34.784386
 20
54.687500
 40
5.000000
 50
90.000000
 51
150.000000
  0
ARC
  8
0
 10
-34.784386
 20
54.687500
 40
4.999999
 50
210.000061
 51
90.000000
  0
CIRCLE
  8
0
 10
-34.784386
 20
54.687500
 40
0.750000
  0
ARC
  8
0
 10
-33.284386
 20
54.687500
 40
3.500000
 50
270.000000
 51
90.000000
  0
ARC
  8
0
 10
-36.284386
 20
54.687500
 40
3.500000
 50
90.000061
 51
270.000061
  0
ARC
  8
0
 10
-33.784386
 20
54.687500
 40
1.000000
 50
270.000000
 51
90.000000
  0
ARC
  8
0
 10
-35.784386
 20
54.687500
 40
1.000000
 50
90.000000
 51
270.000000
  0
ARC
  8
0
 10
-33.784386
 20
54.687500
 40
1.282841
 50
270.000000
 51
90.000000
  0
ARC
  8
0
 10
-35.784386
 20
54.687500
 40
1.282841
 50
90.000000
 51
270.000000
  0
POINT
  8
0
 10
35.634361
 20
138.562500
  0
POINT
  8
0
 10
41.384361
 20
138.562500
  0
LINE
  8
0
 10
39.134361
 20
116.312500
 11
39.134361
 21
135.562500
  0
LINE
  8
0
 10
32.134361
 20
116.312500
 11
32.134361
 21
135.562500
  0
LINE
  8
0
 10
32.134361
 20
132.312500
 11
39.134361
 21
132.312500
  0
LINE
  8
0
 10
32.634365
 20
145.312500
 11
38.634365
 21
145.312500
  0
LINE
  8
0
 10
32.634361
 20
145.312500
 11
32.134365
 21
144.812500
  0
LINE
  8
0
 10
38.634361
 20
145.312500
 11
39.134357
 21
144.812500
  0
LINE
  8
0
 10
39.134365
 20
144.812500
 11
32.134365
 21
144.812500
  0
LINE
  8
0
 10
38.534363
 20
132.312500
 11
38.534363
 21
135.562500
  0
LINE
  8
0
 10
32.734360
 20
132.312500
 11
32.734360
 21
135.562500
  0
LINE
  8
0
 10
32.134361
 20
129.812500
 11
39.134361
 21
129.812500
  0
LINE
  8
0
 10
21.772230
 20
126.312500
 11
34.301029
 21
126.312500
  0
LINE
  8
0
 10
30.634363
 20
135.562500
 11
40.634361
 21
135.562500
  0
LINE
  8
0
 10
30.634367
 20
138.562500
 11
40.634361
 21
138.562500
  0
LINE
  8
0
 10
30.634363
 20
141.562500
 11
40.634365
 21
141.562500
  0
LINE
  8
0
 10
41.384361
 20
135.995514
 11
41.384361
 21
138.129486
  0
LINE
  8
0
 10
29.884361
 20
135.995514
 11
29.884361
 21
138.129486
  0
LINE
  8
0
 10
39.134361
 20
141.562500
 11
39.134361
 21
144.812500
  0
LINE
  8
0
 10
38.534363
 20
141.562500
 11
38.534363
 21
145.312500
  0
LINE
  8
0
 10
32.734360
 20
141.562500
 11
32.734360
 21
145.312500
  0
LINE
  8
0
 10
32.134361
 20
141.562500
 11
32.134361
 21
144.812500
  0
LINE
  8
0
 10
40.634357
 20
138.562515
 11
41.384357
 21
138.995514
  0
LINE
  8
0
 10
30.634361
 20
138.562500
 11
29.884361
 21
138.995514
  0
LINE
  8
0
 10
40.634373
 20
141.562515
 11
41.384373
 21
141.129501
  0
LINE
  8
0
 10
30.634348
 20
141.562515
 11
29.884350
 21
141.129501
  0
LINE
  8
0
 10
40.634369
 20
138.562515
 11
41.384369
 21
138.129501
  0
LINE
  8
0
 10
30.634352
 20
138.562515
 11
29.884352
 21
138.129501
  0
LINE
  8
0
 10
30.634361
 20
135.562500
 11
29.884363
 21
135.995514
  0
LINE
  8
0
 10
40.634357
 20
135.562500
 11
41.384357
 21
135.995514
  0
LINE
  8
0
 10
41.384361
 20
138.995514
 11
41.384361
 21
141.129486
  0
LINE
  8
0
 10
29.884361
 20
138.995514
 11
29.884361
 21
141.129486
  0
LINE
  8
0
 10
32.747612
 20
135.995514
 11
32.747612
 21
138.129486
  0
LINE
  8
0
 10
32.747532
 20
138.995514
 11
32.747532
 21
141.129486
  0
LINE
  8
0
 10
38.521019
 20
141.129486
 11
38.521019
 21
138.995514
  0
LINE
  8
0
 10
38.521103
 20
138.129486
 11
38.521103
 21
135.995514
  0
LINE
  8
0
 10
31.534359
 20
128.812500
 11
31.303421
 21
129.212494
  0
LINE
  8
0
 10
31.534361
 20
123.812500
 11
31.303423
 21
123.412506
  0
LINE
  8
0
 10
38.134357
 20
145.912506
 11
38.534355
 21
146.143448
  0
LINE
  8
0
 10
37.077736
 20
146.143433
 11
37.077736
 21
148.581573
  0
LINE
  8
0
 10
33.462677
 20
148.812500
 11
35.134365
 21
148.812500
  0
LINE
  8
0
 10
33.134361
 20
145.912506
 11
32.734367
 21
146.143448
  0
LINE
  8
0
 10
32.734360
 20
146.143433
 11
32.734360
 21
148.581558
  0
LINE
  8
0
 10
38.534363
 20
146.143433
 11
38.534363
 21
148.581558
  0
LINE
  8
0
 10
34.190922
 20
148.581573
 11
34.190922
 21
146.143433
  0
LINE
  8
0
 10
38.434361
 20
145.312500
 11
38.434361
 21
145.912491
  0
LINE
  8
0
 10
32.834362
 20
145.912491
 11
38.434364
 21
145.912491
  0
LINE
  8
0
 10
32.834358
 20
145.312500
 11
32.834358
 21
145.912491
  0
LINE
  8
0
 10
35.634361
 20
104.817657
 11
35.634361
 21
151.197144
  0
LINE
  8
0
 10
23.634361
 20
125.237602
 11
23.634361
 21
127.387398
  0
LINE
  8
0
 10
25.134361
 20
124.862503
 11
25.134361
 21
127.762505
  0
LINE
  8
0
 10
26.634361
 20
124.862503
 11
26.634361
 21
127.762505
  0
LINE
  8
0
 10
25.134357
 20
125.062508
 11
26.634357
 21
124.862503
  0
LINE
  8
0
 10
25.134361
 20
127.562515
 11
26.634361
 21
127.762512
  0
LINE
  8
0
 10
23.807926
 20
125.039360
 11
25.134361
 21
124.862503
  0
LINE
  8
0
 10
23.807922
 20
127.585648
 11
25.134357
 21
127.762505
  0
LINE
  8
0
 10
26.734360
 20
125.062500
 11
28.534359
 21
125.062500
  0
LINE
  8
0
 10
26.734360
 20
127.562500
 11
28.534359
 21
127.562500
  0
LINE
  8
0
 10
28.634361
 20
124.140808
 11
28.634361
 21
128.484192
  0
LINE
  8
0
 10
31.303425
 20
123.412498
 11
28.865299
 21
123.412498
  0
LINE
  8
0
 10
31.303425
 20
129.212494
 11
28.865299
 21
129.212494
  0
LINE
  8
0
 10
31.303421
 20
127.755875
 11
28.865295
 21
127.755875
  0
LINE
  8
0
 10
28.865295
 20
124.869064
 11
31.303425
 21
124.869064
  0
LINE
  8
0
 10
31.534363
 20
123.512497
 11
31.534363
 21
129.112503
  0
LINE
  8
0
 10
32.134361
 20
123.512497
 11
31.534363
 21
123.512497
  0
LINE
  8
0
 10
32.134361
 20
129.112503
 11
31.534363
 21
129.112503
  0
LINE
  8
0
 10
35.134361
 20
148.812500
 11
35.134361
 21
147.812500
  0
LINE
  8
0
 10
35.134365
 20
147.812500
 11
36.134365
 21
147.812500
  0
LINE
  8
0
 10
36.134361
 20
147.812500
 11
36.134361
 21
148.812500
  0
LINE
  8
0
 10
36.134365
 20
148.812500
 11
37.806053
 21
148.812500
  0
LINE
  8
0
 10
39.134365
 20
131.273270
 11
38.534367
 21
132.312500
  0
LINE
  8
0
 10
32.134357
 20
131.273270
 11
32.734360
 21
132.312500
  0
LINE
  8
0
 10
30.634361
 20
111.312500
 11
30.634361
 21
116.312500
  0
LINE
  8
0
 10
32.247314
 20
110.381264
 11
30.634361
 21
111.312500
  0
LINE
  8
0
 10
32.134357
 20
108.812500
 11
31.851515
 21
109.095337
  0
LINE
  8
0
 10
31.851517
 20
109.095337
 11
32.350868
 21
109.594696
  0
LINE
  8
0
 10
39.134361
 20
108.812500
 11
32.134361
 21
108.812500
  0
LINE
  8
0
 10
40.634361
 20
116.312500
 11
30.634361
 21
116.312500
  0
LINE
  8
0
 10
40.634361
 20
111.312500
 11
40.634361
 21
116.312500
  0
LINE
  8
0
 10
39.021404
 20
110.381264
 11
40.634361
 21
111.312500
  0
LINE
  8
0
 10
39.134369
 20
108.812485
 11
39.417210
 21
109.095329
  0
LINE
  8
0
 10
39.417206
 20
109.095345
 11
38.917854
 21
109.594696
  0
LINE
  8
0
 10
39.417206
 20
109.095345
 11
31.851517
 21
109.095345
  0
LINE
  8
0
 10
40.634361
 20
111.312500
 11
30.634361
 21
111.312500
  0
LINE
  8
0
 10
38.457092
 20
110.055450
 11
32.811630
 21
110.055450
  0
ARC
  8
0
 10
31.315989
 20
141.145615
 40
2.583114
 50
236.342728
 51
303.657257
  0
ARC
  8
0
 10
39.952736
 20
141.145615
 40
2.583113
 50
236.342758
 51
303.657318
  0
ARC
  8
0
 10
35.634365
 20
148.401489
 40
9.838988
 50
252.938446
 51
287.061523
  0
ARC
  8
0
 10
39.952736
 20
138.979385
 40
2.583115
 50
56.342693
 51
123.657234
  0
ARC
  8
0
 10
35.634361
 20
131.723511
 40
9.838989
 50
72.938423
 51
107.061516
  0
ARC
  8
0
 10
31.315989
 20
138.979385
 40
2.583114
 50
56.342728
 51
123.657234
  0
ARC
  8
0
 10
39.952736
 20
135.979385
 40
2.583115
 50
56.342693
 51
123.657234
  0
ARC
  8
0
 10
35.634361
 20
128.723511
 40
9.838989
 50
72.938423
 51
107.061516
  0
ARC
  8
0
 10
31.315989
 20
135.979385
 40
2.583114
 50
56.342728
 51
123.657272
  0
ARC
  8
0
 10
31.315989
 20
138.145615
 40
2.583114
 50
236.342728
 51
303.657257
  0
ARC
  8
0
 10
35.634365
 20
145.401489
 40
9.838988
 50
252.938446
 51
287.061523
  0
ARC
  8
0
 10
39.952736
 20
138.145615
 40
2.583113
 50
236.342758
 51
303.657227
  0
ARC
  8
0
 10
30.270451
 20
124.140808
 40
1.263911
 50
324.813843
 51
35.186447
  0
ARC
  8
0
 10
30.270451
 20
128.484192
 40
1.263915
 50
324.813568
 51
35.185829
  0
ARC
  8
0
 10
26.908295
 20
126.312500
 40
4.626066
 50
341.819641
 51
18.180344
  0
ARC
  8
0
 10
37.806053
 20
147.176407
 40
1.263913
 50
234.813690
 51
305.186157
  0
ARC
  8
0
 10
35.634365
 20
150.538559
 40
4.626065
 50
251.819595
 51
288.180328
  0
ARC
  8
0
 10
33.462677
 20
147.548584
 40
1.263911
 50
54.813835
 51
125.186302
  0
ARC
  8
0
 10
33.462677
 20
147.176407
 40
1.263913
 50
234.813690
 51
305.186157
  0
ARC
  8
0
 10
37.806053
 20
147.548584
 40
1.263911
 50
54.813835
 51
125.186302
  0
ARC
  8
0
 10
35.634365
 20
144.186432
 40
4.626064
 50
71.819641
 51
83.795174
  0
ARC
  8
0
 10
23.834358
 20
127.387398
 40
0.199997
 50
97.594574
 51
180.000000
  0
ARC
  8
0
 10
26.734360
 20
124.962502
 40
0.099998
 50
90.000000
 51
180.000000
  0
ARC
  8
0
 10
26.734360
 20
127.662506
 40
0.099998
 50
180.000000
 51
270.000000
  0
ARC
  8
0
 10
23.834358
 20
125.237602
 40
0.199999
 50
180.000000
 51
262.405426
  0
ARC
  8
0
 10
28.534359
 20
127.662506
 40
0.100006
 50
270.000000
 51
0.000000
  0
ARC
  8
0
 10
28.534359
 20
124.962502
 40
0.100000
 50
0.000000
 51
90.000000
  0
ARC
  8
0
 10
29.898273
 20
128.484192
 40
1.263905
 50
144.814072
 51
215.186447
  0
ARC
  8
0
 10
29.898273
 20
124.140808
 40
1.263915
 50
144.813553
 51
215.186157
  0
ARC
  8
0
 10
33.260426
 20
126.312500
 40
4.626064
 50
161.819641
 51
198.180344
  0
ARC
  8
0
 10
35.634365
 20
144.186432
 40
4.626069
 50
96.204826
 51
108.180359
  0
ARC
  8
0
 10
39.271408
 20
109.948242
 40
0.500001
 50
119.999931
 51
224.999374
  0
ARC
  8
0
 10
31.997314
 20
109.948250
 40
0.500001
 50
315.000000
 51
59.999634
  0
POINT
  8
0
 10
35.634361
 20
54.687500
  0
POINT
  8
0
 10
35.634361
 20
54.687500
  0
POINT
  8
0
 10
35.634361
 20
54.687500
  0
POINT
  8
0
 10
41.407864
 20
54.687492
  0
LINE
  8
0
 10
35.634361
 20
59.687500
 11
35.634361
 21
49.687500
  0
LINE
  8
0
 10
28.634361
 20
52.187500
 11
28.634361
 21
57.187500
  0
LINE
  8
0
 10
23.634361
 20
53.612602
 11
23.634361
 21
55.762398
  0
LINE
  8
0
 10
25.134361
 20
53.237499
 11
25.134361
 21
56.137501
  0
LINE
  8
0
 10
26.634361
 20
53.237499
 11
26.634361
 21
56.137505
  0
LINE
  8
0
 10
25.134357
 20
53.437492
 11
26.634357
 21
53.237492
  0
LINE
  8
0
 10
25.134359
 20
55.937504
 11
26.634361
 21
56.137505
  0
LINE
  8
0
 10
23.807924
 20
53.414349
 11
25.134357
 21
53.237492
  0
LINE
  8
0
 10
23.807922
 20
55.960644
 11
25.134357
 21
56.137501
  0
LINE
  8
0
 10
26.734360
 20
53.437500
 11
28.534359
 21
53.437500
  0
LINE
  8
0
 10
26.734360
 20
55.937500
 11
28.534359
 21
55.937500
  0
LINE
  8
0
 10
21.530499
 20
54.687500
 11
42.624908
 21
54.687500
  0
LINE
  8
0
 10
39.134361
 20
54.687500
 11
39.134361
 21
54.687500
  0
LINE
  8
0
 10
40.634361
 20
54.687500
 11
40.634361
 21
54.687500
  0
LINE
  8
0
 10
32.134361
 20
54.687500
 11
32.134361
 21
54.687500
  0
LINE
  8
0
 10
30.634361
 20
54.687500
 11
30.634361
 21
54.687500
  0
LINE
  8
0
 10
30.634361
 20
54.687500
 11
30.634361
 21
54.687500
  0
LINE
  8
0
 10
40.634361
 20
54.687500
 11
40.634361
 21
54.687500
  0
LINE
  8
0
 10
28.634361
 20
52.187500
 11
31.684874
 21
52.187500
  0
LINE
  8
0
 10
28.634361
 20
57.187500
 11
31.684872
 21
57.187500
  0
LINE
  8
0
 10
32.747608
 20
49.687500
 11
38.521111
 21
49.687500
  0
LINE
  8
0
 10
32.747608
 20
59.687500
 11
38.521114
 21
59.687500
  0
LINE
  8
0
 10
41.407864
 20
54.687496
 11
38.521114
 21
59.687496
  0
LINE
  8
0
 10
32.747604
 20
49.687500
 11
31.304230
 21
52.187500
  0
LINE
  8
0
 10
31.304234
 20
57.187500
 11
32.747608
 21
59.687500
  0
LINE
  8
0
 10
38.521114
 20
49.687496
 11
41.407867
 21
54.687496
  0
LINE
  8
0
 10
30.634361
 20
54.687500
 11
28.865299
 21
54.687500
  0
LINE
  8
0
 10
32.134361
 20
51.187500
 11
32.134361
 21
51.815220
  0
LINE
  8
0
 10
39.134361
 20
51.187500
 11
39.134361
 21
51.815220
  0
LINE
  8
0
 10
32.134361
 20
58.187500
 11
39.134361
 21
58.187500
  0
LINE
  8
0
 10
32.134361
 20
51.187500
 11
39.134361
 21
51.187500
  0
LINE
  8
0
 10
31.534361
 20
52.187500
 11
31.534361
 21
52.344425
  0
LINE
  8
0
 10
35.634361
 20
49.157501
 11
35.634361
 21
60.390831
  0
LINE
  8
0
 10
34.384361
 20
53.937500
 11
36.884361
 21
53.937500
  0
LINE
  8
0
 10
34.384361
 20
55.437500
 11
36.884361
 21
55.437500
  0
LINE
  8
0
 10
33.884361
 20
56.437500
 11
37.384361
 21
56.437500
  0
LINE
  8
0
 10
33.884361
 20
52.937500
 11
37.384361
 21
52.937500
  0
LINE
  8
0
 10
33.884361
 20
52.654659
 11
37.384361
 21
52.654659
  0
LINE
  8
0
 10
33.884361
 20
56.720341
 11
37.384361
 21
56.720341
  0
LINE
  8
0
 10
39.134361
 20
57.559780
 11
39.134361
 21
58.187500
  0
LINE
  8
0
 10
32.134361
 20
57.559780
 11
32.134361
 21
58.187500
  0
LINE
  8
0
 10
31.534361
 20
57.030575
 11
31.534361
 21
57.187500
  0
ARC
  8
0
 10
26.734360
 20
53.337502
 40
0.099998
 50
90.000000
 51
180.000000
  0
ARC
  8
0
 10
28.534359
 20
53.337502
 40
0.100000
 50
0.000000
 51
90.000000
  0
ARC
  8
0
 10
26.734360
 20
56.037502
 40
0.100000
 50
180.000000
 51
270.000000
  0
ARC
  8
0
 10
28.534359
 20
56.037502
 40
0.099998
 50
270.000000
 51
0.000000
  0
ARC
  8
0
 10
23.834358
 20
53.612602
 40
0.200001
 50
180.000000
 51
262.405579
  0
ARC
  8
0
 10
23.834358
 20
55.762398
 40
0.200000
 50
97.594429
 51
180.000000
  0
ARC
  8
0
 10
28.035950
 20
55.937504
 40
3.498412
 50
15.610570
 51
20.934771
  0
ARC
  8
0
 10
28.035946
 20
53.437504
 40
3.498418
 50
339.065186
 51
344.389313
  0
ARC
  8
0
 10
32.132778
 20
55.937500
 40
3.498417
 50
159.065247
 51
200.934753
  0
ARC
  8
0
 10
32.132774
 20
53.437500
 40
3.498413
 50
159.065231
 51
200.934845
  0
ARC
  8
0
 10
35.634361
 20
54.687500
 40
5.000000
 50
90.000000
 51
150.000000
  0
ARC
  8
0
 10
35.634361
 20
54.687500
 40
5.000001
 50
210.000046
 51
90.000000
  0
CIRCLE
  8
0
 10
35.634361
 20
54.687500
 40
0.750000
  0
ARC
  8
0
 10
37.134361
 20
54.687500
 40
3.500000
 50
270.000000
 51
90.000000
  0
ARC
  8
0
 10
34.134361
 20
54.687500
 40
3.500000
 50
90.000000
 51
269.999939
  0
ARC
  8
0
 10
36.884361
 20
54.687500
 40
0.750000
 50
270.000000
 51
90.000000
  0
ARC
  8
0
 10
34.384361
 20
54.687500
 40
0.750000
 50
90.000000
 51
270.000000
  0
ARC
  8
0
 10
33.884361
 20
54.687500
 40
1.750000
 50
90.000000
 51
270.000000
  0
ARC
  8
0
 10
37.384361
 20
54.687500
 40
1.750000
 50
270.000000
 51
90.000000
  0
ARC
  8
0
 10
33.884357
 20
54.687500
 40
2.032841
 50
90.000000
 51
270.000000
  0
ARC
  8
0
 10
37.384365
 20
54.687500
 40
2.032841
 50
270.000000
 51
90.000000
  0
POINT
  8
0
 10
106.053108
 20
138.562500
  0
POINT
  8
0
 10
111.803108
 20
138.562500
  0
LINE
  8
0
 10
109.553108
 20
116.312500
 11
109.553108
 21
135.562500
  0
LINE
  8
0
 10
102.553108
 20
116.312500
 11
102.553108
 21
135.562500
  0
LINE
  8
0
 10
102.553108
 20
132.312500
 11
109.553108
 21
132.312500
  0
LINE
  8
0
 10
103.053108
 20
145.312500
 11
109.053108
 21
145.312500
  0
LINE
  8
0
 10
103.053108
 20
145.312500
 11
102.553108
 21
144.812500
  0
LINE
  8
0
 10
109.053108
 20
145.312500
 11
109.553108
 21
144.812500
  0
LINE
  8
0
 10
109.553108
 20
144.812500
 11
102.553108
 21
144.812500
  0
LINE
  8
0
 10
108.953110
 20
132.312500
 11
108.953110
 21
135.562500
  0
LINE
  8
0
 10
103.153107
 20
132.312500
 11
103.153107
 21
135.562500
  0
LINE
  8
0
 10
102.553108
 20
129.812500
 11
109.553108
 21
129.812500
  0
LINE
  8
0
 10
91.364029
 20
126.312500
 11
104.719772
 21
126.312500
  0
LINE
  8
0
 10
101.053108
 20
135.562500
 11
111.053108
 21
135.562500
  0
LINE
  8
0
 10
101.053116
 20
138.562500
 11
111.053108
 21
138.562500
  0
LINE
  8
0
 10
101.053108
 20
141.562500
 11
111.053116
 21
141.562500
  0
LINE
  8
0
 10
111.803108
 20
135.995514
 11
111.803108
 21
138.129486
  0
LINE
  8
0
 10
100.303108
 20
135.995514
 11
100.303108
 21
138.129486
  0
LINE
  8
0
 10
109.553108
 20
141.562500
 11
109.553108
 21
144.812500
  0
LINE
  8
0
 10
108.953110
 20
141.562500
 11
108.953110
 21
145.312500
  0
LINE
  8
0
 10
103.153107
 20
141.562500
 11
103.153107
 21
145.312500
  0
LINE
  8
0
 10
102.553108
 20
141.562500
 11
102.553108
 21
144.812500
  0
LINE
  8
0
 10
111.053108
 20
138.562500
 11
111.803108
 21
138.995514
  0
LINE
  8
0
 10
101.053108
 20
138.562500
 11
100.303108
 21
138.995514
  0
LINE
  8
0
 10
111.053116
 20
141.562515
 11
111.803116
 21
141.129501
  0
LINE
  8
0
 10
101.053101
 20
141.562515
 11
100.303101
 21
141.129501
  0
LINE
  8
0
 10
111.053116
 20
138.562515
 11
111.803116
 21
138.129501
  0
LINE
  8
0
 10
101.053101
 20
138.562515
 11
100.303101
 21
138.129501
  0
LINE
  8
0
 10
101.053108
 20
135.562500
 11
100.303108
 21
135.995514
  0
LINE
  8
0
 10
111.053108
 20
135.562500
 11
111.803108
 21
135.995514
  0
LINE
  8
0
 10
111.803108
 20
138.995514
 11
111.803108
 21
141.129486
  0
LINE
  8
0
 10
100.303108
 20
138.995514
 11
100.303108
 21
141.129486
  0
LINE
  8
0
 10
103.166359
 20
135.995514
 11
103.166359
 21
138.129486
  0
LINE
  8
0
 10
103.166275
 20
138.995514
 11
103.166275
 21
141.129486
  0
LINE
  8
0
 10
108.939766
 20
141.129486
 11
108.939766
 21
138.995514
  0
LINE
  8
0
 10
108.939850
 20
138.129486
 11
108.939850
 21
135.995514
  0
LINE
  8
0
 10
101.953102
 20
128.812500
 11
101.722168
 21
129.212494
  0
LINE
  8
0
 10
101.953110
 20
123.812500
 11
101.722168
 21
123.412506
  0
LINE
  8
0
 10
108.553108
 20
145.912506
 11
108.953102
 21
146.143448
  0
LINE
  8
0
 10
107.496483
 20
146.143433
 11
107.496483
 21
148.581573
  0
LINE
  8
0
 10
103.881424
 20
148.812500
 11
105.553108
 21
148.812500
  0
LINE
  8
0
 10
103.553108
 20
145.912506
 11
103.153114
 21
146.143448
  0
LINE
  8
0
 10
103.153107
 20
146.143433
 11
103.153107
 21
148.581558
  0
LINE
  8
0
 10
108.953110
 20
146.143433
 11
108.953110
 21
148.581558
  0
LINE
  8
0
 10
104.609665
 20
148.581573
 11
104.609665
 21
146.143433
  0
LINE
  8
0
 10
108.853104
 20
145.312500
 11
108.853104
 21
145.912491
  0
LINE
  8
0
 10
103.253105
 20
145.912491
 11
108.853111
 21
145.912491
  0
LINE
  8
0
 10
103.253105
 20
145.312500
 11
103.253105
 21
145.912491
  0
LINE
  8
0
 10
106.053108
 20
104.817657
 11
106.053108
 21
151.197144
  0
LINE
  8
0
 10
94.053108
 20
125.237602
 11
94.053108
 21
127.387398
  0
LINE
  8
0
 10
95.553108
 20
124.862503
 11
95.553108
 21
127.762505
  0
LINE
  8
0
 10
97.053108
 20
124.862503
 11
97.053108
 21
127.762505
  0
LINE
  8
0
 10
95.553108
 20
125.062500
 11
97.053108
 21
124.862503
  0
LINE
  8
0
 10
95.553108
 20
127.562508
 11
97.053108
 21
127.762512
  0
LINE
  8
0
 10
94.226669
 20
125.039360
 11
95.553108
 21
124.862495
  0
LINE
  8
0
 10
94.226669
 20
127.585648
 11
95.553101
 21
127.762505
  0
LINE
  8
0
 10
97.153107
 20
125.062500
 11
98.953110
 21
125.062500
  0
LINE
  8
0
 10
97.153107
 20
127.562500
 11
98.953110
 21
127.562500
  0
LINE
  8
0
 10
99.053108
 20
124.140808
 11
99.053108
 21
128.484192
  0
LINE
  8
0
 10
101.722176
 20
123.412498
 11
99.284050
 21
123.412498
  0
LINE
  8
0
 10
101.722176
 20
129.212494
 11
99.284050
 21
129.212494
  0
LINE
  8
0
 10
101.722168
 20
127.755875
 11
99.284042
 21
127.755875
  0
LINE
  8
0
 10
99.284042
 20
124.869064
 11
101.722176
 21
124.869064
  0
LINE
  8
0
 10
101.953110
 20
123.512497
 11
101.953110
 21
129.112503
  0
LINE
  8
0
 10
102.553108
 20
123.512497
 11
101.953110
 21
123.512497
  0
LINE
  8
0
 10
102.553108
 20
129.112503
 11
101.953110
 21
129.112503
  0
LINE
  8
0
 10
105.553108
 20
148.812500
 11
105.553108
 21
147.812500
  0
LINE
  8
0
 10
105.553108
 20
147.812500
 11
106.553108
 21
147.812500
  0
LINE
  8
0
 10
106.553108
 20
147.812500
 11
106.553108
 21
148.812500
  0
LINE
  8
0
 10
106.553108
 20
148.812500
 11
108.224800
 21
148.812500
  0
LINE
  8
0
 10
109.553108
 20
131.273270
 11
108.953110
 21
132.312500
  0
LINE
  8
0
 10
102.553108
 20
131.273270
 11
103.153107
 21
132.312500
  0
LINE
  8
0
 10
106.053108
 20
108.032005
 11
106.053108
 21
117.094345
  0
LINE
  8
0
 10
101.053108
 20
111.312500
 11
101.053108
 21
116.312500
  0
LINE
  8
0
 10
101.940826
 20
110.799973
 11
101.053108
 21
111.312500
  0
LINE
  8
0
 10
101.053108
 20
108.812500
 11
100.770264
 21
109.095337
  0
LINE
  8
0
 10
100.770264
 20
109.095337
 11
102.002960
 21
110.328033
  0
LINE
  8
0
 10
111.053108
 20
108.812500
 11
101.053108
 21
108.812500
  0
LINE
  8
0
 10
111.053108
 20
116.312500
 11
101.053108
 21
116.312500
  0
LINE
  8
0
 10
111.053108
 20
111.312500
 11
111.053108
 21
116.312500
  0
LINE
  8
0
 10
110.165390
 20
110.799980
 11
111.053108
 21
111.312500
  0
LINE
  8
0
 10
111.053116
 20
108.812492
 11
111.335960
 21
109.095337
  0
LINE
  8
0
 10
111.335953
 20
109.095345
 11
110.103256
 21
110.328033
  0
LINE
  8
0
 10
111.335953
 20
109.095345
 11
100.770264
 21
109.095345
  0
LINE
  8
0
 10
111.053108
 20
111.312500
 11
101.053108
 21
111.312500
  0
LINE
  8
0
 10
109.826805
 20
110.604492
 11
102.279411
 21
110.604492
  0
ARC
  8
0
 10
101.734734
 20
141.145615
 40
2.583111
 50
236.342834
 51
303.657318
  0
ARC
  8
0
 10
110.371483
 20
141.145615
 40
2.583115
 50
236.342697
 51
303.657318
  0
ARC
  8
0
 10
106.053108
 20
148.401489
 40
9.838986
 50
252.938477
 51
287.061554
  0
ARC
  8
0
 10
110.371483
 20
138.979385
 40
2.583115
 50
56.342693
 51
123.657166
  0
ARC
  8
0
 10
106.053108
 20
131.723511
 40
9.838990
 50
72.938400
 51
107.061516
  0
ARC
  8
0
 10
101.734734
 20
138.979385
 40
2.583115
 50
56.342693
 51
123.657166
  0
ARC
  8
0
 10
110.371483
 20
135.979385
 40
2.583115
 50
56.342693
 51
123.657166
  0
ARC
  8
0
 10
106.053108
 20
128.723511
 40
9.838990
 50
72.938400
 51
107.061516
  0
ARC
  8
0
 10
101.734734
 20
135.979385
 40
2.583115
 50
56.342693
 51
123.657166
  0
ARC
  8
0
 10
101.734734
 20
138.145615
 40
2.583111
 50
236.342834
 51
303.657318
  0
ARC
  8
0
 10
106.053108
 20
145.401489
 40
9.838986
 50
252.938477
 51
287.061554
  0
ARC
  8
0
 10
110.371483
 20
138.145615
 40
2.583115
 50
236.342697
 51
303.657318
  0
ARC
  8
0
 10
100.689201
 20
124.140808
 40
1.263911
 50
324.813843
 51
35.186447
  0
ARC
  8
0
 10
100.689201
 20
128.484192
 40
1.263915
 50
324.813568
 51
35.185879
  0
ARC
  8
0
 10
97.327042
 20
126.312500
 40
4.626064
 50
341.819641
 51
18.180359
  0
ARC
  8
0
 10
108.224800
 20
147.176407
 40
1.263911
 50
234.813843
 51
305.186157
  0
ARC
  8
0
 10
106.053108
 20
150.538559
 40
4.626064
 50
251.819641
 51
288.180359
  0
ARC
  8
0
 10
103.881424
 20
147.548584
 40
1.263911
 50
54.813835
 51
125.186165
  0
ARC
  8
0
 10
103.881424
 20
147.176407
 40
1.263911
 50
234.813843
 51
305.186157
  0
ARC
  8
0
 10
108.224800
 20
147.548584
 40
1.263911
 50
54.813835
 51
125.186165
  0
ARC
  8
0
 10
106.053108
 20
144.186432
 40
4.626066
 50
71.819550
 51
83.795174
  0
ARC
  8
0
 10
94.253105
 20
127.387398
 40
0.199997
 50
97.595657
 51
180.000000
  0
ARC
  8
0
 10
97.153107
 20
124.962502
 40
0.099998
 50
90.000000
 51
180.000000
  0
ARC
  8
0
 10
97.153107
 20
127.662506
 40
0.099998
 50
180.000000
 51
270.000000
  0
ARC
  8
0
 10
94.253105
 20
125.237602
 40
0.199997
 50
180.000000
 51
262.404358
  0
ARC
  8
0
 10
98.953110
 20
127.662506
 40
0.100006
 50
270.000000
 51
0.000000
  0
ARC
  8
0
 10
98.953110
 20
124.962502
 40
0.099998
 50
0.000000
 51
90.000000
  0
ARC
  8
0
 10
100.317024
 20
128.484192
 40
1.263906
 50
144.814117
 51
215.186249
  0
ARC
  8
0
 10
100.317024
 20
124.140808
 40
1.263915
 50
144.813553
 51
215.185959
  0
ARC
  8
0
 10
103.679176
 20
126.312500
 40
4.626064
 50
161.819641
 51
198.180328
  0
ARC
  8
0
 10
106.053108
 20
144.186432
 40
4.626069
 50
96.204826
 51
108.180267
  0
ARC
  8
0
 10
110.315392
 20
110.540169
 40
0.299997
 50
120.000618
 51
225.000000
  0
ARC
  8
0
 10
101.790825
 20
110.540169
 40
0.300005
 50
315.000000
 51
59.999378
  0
POINT
  8
0
 10
106.053108
 20
54.687500
  0
POINT
  8
0
 10
111.826614
 20
54.687492
  0
LINE
  8
0
 10
99.053108
 20
52.187500
 11
99.053108
 21
57.187500
  0
LINE
  8
0
 10
94.053108
 20
53.612602
 11
94.053108
 21
55.762398
  0
LINE
  8
0
 10
95.553108
 20
53.237499
 11
95.553108
 21
56.137501
  0
LINE
  8
0
 10
97.053108
 20
53.237499
 11
97.053108
 21
56.137505
  0
LINE
  8
0
 10
95.553101
 20
53.437492
 11
97.053101
 21
53.237492
  0
LINE
  8
0
 10
95.553108
 20
55.937504
 11
97.053108
 21
56.137505
  0
LINE
  8
0
 10
94.226669
 20
53.414349
 11
95.553108
 21
53.237492
  0
LINE
  8
0
 10
94.226669
 20
55.960644
 11
95.553101
 21
56.137501
  0
LINE
  8
0
 10
97.153107
 20
53.437500
 11
98.953110
 21
53.437500
  0
LINE
  8
0
 10
97.153107
 20
55.937500
 11
98.953110
 21
55.937500
  0
LINE
  8
0
 10
91.949249
 20
54.687500
 11
112.932487
 21
54.687500
  0
LINE
  8
0
 10
109.553108
 20
54.687500
 11
109.553108
 21
54.687500
  0
LINE
  8
0
 10
111.053108
 20
54.687500
 11
111.053108
 21
54.687500
  0
LINE
  8
0
 10
102.553108
 20
54.687500
 11
102.553108
 21
54.687500
  0
LINE
  8
0
 10
101.053108
 20
54.687500
 11
101.053108
 21
54.687500
  0
LINE
  8
0
 10
101.053108
 20
54.687500
 11
101.053108
 21
54.687500
  0
LINE
  8
0
 10
111.053108
 20
54.687500
 11
111.053108
 21
54.687500
  0
LINE
  8
0
 10
99.053108
 20
52.187500
 11
102.103622
 21
52.187500
  0
LINE
  8
0
 10
99.053108
 20
57.187500
 11
102.103615
 21
57.187500
  0
LINE
  8
0
 10
103.166351
 20
49.687500
 11
108.939857
 21
49.687500
  0
LINE
  8
0
 10
103.166359
 20
59.687500
 11
108.939857
 21
59.687500
  0
LINE
  8
0
 10
111.826614
 20
54.687496
 11
108.939857
 21
59.687496
  0
LINE
  8
0
 10
103.166351
 20
49.687500
 11
101.722977
 21
52.187500
  0
LINE
  8
0
 10
101.722977
 20
57.187500
 11
103.166359
 21
59.687500
  0
LINE
  8
0
 10
108.939865
 20
49.687496
 11
111.826614
 21
54.687496
  0
LINE
  8
0
 10
100.770271
 20
54.687500
 11
99.284042
 21
54.687500
  0
LINE
  8
0
 10
102.553108
 20
51.187500
 11
102.553108
 21
51.815220
  0
LINE
  8
0
 10
109.553108
 20
51.187500
 11
109.553108
 21
51.815220
  0
LINE
  8
0
 10
102.553108
 20
58.187500
 11
109.553108
 21
58.187500
  0
LINE
  8
0
 10
102.553108
 20
51.187500
 11
109.553108
 21
51.187500
  0
LINE
  8
0
 10
101.953110
 20
52.187500
 11
101.953110
 21
52.344425
  0
LINE
  8
0
 10
106.053108
 20
49.295319
 11
106.053108
 21
60.124817
  0
LINE
  8
0
 10
111.053108
 20
54.687500
 11
111.053108
 21
54.687500
  0
LINE
  8
0
 10
101.053108
 20
54.687500
 11
101.053108
 21
54.687500
  0
LINE
  8
0
 10
103.053108
 20
56.687500
 11
109.053108
 21
56.687500
  0
LINE
  8
0
 10
103.053108
 20
52.687500
 11
109.053108
 21
52.687500
  0
LINE
  8
0
 10
103.553108
 20
53.687500
 11
108.553108
 21
53.687500
  0
LINE
  8
0
 10
103.553108
 20
55.687500
 11
108.553108
 21
55.687500
  0
LINE
  8
0
 10
109.553108
 20
54.687500
 11
109.553108
 21
54.687500
  0
LINE
  8
0
 10
102.553108
 20
54.687500
 11
102.553108
 21
54.687500
  0
LINE
  8
0
 10
101.053108
 20
54.687500
 11
101.053108
 21
54.687500
  0
LINE
  8
0
 10
111.053108
 20
54.687500
 11
111.053108
 21
54.687500
  0
LINE
  8
0
 10
103.053108
 20
56.970341
 11
109.053108
 21
56.970341
  0
LINE
  8
0
 10
103.053108
 20
52.404659
 11
109.053108
 21
52.404659
  0
LINE
  8
0
 10
109.553108
 20
57.559780
 11
109.553108
 21
58.187500
  0
LINE
  8
0
 10
102.553108
 20
57.559780
 11
102.553108
 21
58.187500
  0
LINE
  8
0
 10
101.953110
 20
57.030575
 11
101.953110
 21
57.187500
  0
ARC
  8
0
 10
97.153107
 20
53.337502
 40
0.099998
 50
90.000000
 51
180.000000
  0
ARC
  8
0
 10
98.953110
 20
53.337502
 40
0.099998
 50
0.000000
 51
90.000000
  0
ARC
  8
0
 10
97.153107
 20
56.037502
 40
0.099998
 50
180.000000
 51
270.000000
  0
ARC
  8
0
 10
98.953110
 20
56.037502
 40
0.099998
 50
270.000000
 51
0.000000
  0
ARC
  8
0
 10
94.253105
 20
53.612602
 40
0.199997
 50
180.000000
 51
262.404480
  0
ARC
  8
0
 10
94.253105
 20
55.762398
 40
0.200001
 50
97.595512
 51
180.000000
  0
ARC
  8
0
 10
98.454697
 20
55.937504
 40
3.498415
 50
15.610553
 51
20.934793
  0
ARC
  8
0
 10
98.454697
 20
53.437504
 40
3.498418
 50
339.065186
 51
344.389313
  0
ARC
  8
0
 10
102.551529
 20
55.937500
 40
3.498424
 50
159.065292
 51
200.934708
  0
ARC
  8
0
 10
102.551521
 20
53.437500
 40
3.498410
 50
159.065201
 51
200.934845
  0
ARC
  8
0
 10
106.053108
 20
54.687500
 40
5.000000
 50
90.000000
 51
149.999985
  0
ARC
  8
0
 10
106.053108
 20
54.687500
 40
4.999996
 50
16.337479
 51
90.000000
  0
ARC
  8
0
 10
106.053108
 20
54.687500
 40
4.999999
 50
210.000061
 51
343.662476
  0
ARC
  8
0
 10
107.553108
 20
54.687500
 40
3.500000
 50
270.000000
 51
332.206329
  0
ARC
  8
0
 10
104.553108
 20
54.687500
 40
3.500000
 50
90.000000
 51
152.206329
  0
ARC
  8
0
 10
103.053108
 20
54.687500
 40
2.000000
 50
90.000000
 51
270.000000
  0
ARC
  8
0
 10
109.053108
 20
54.687500
 40
2.000000
 50
270.000000
 51
90.000000
  0
ARC
  8
0
 10
108.553108
 20
54.687500
 40
1.000000
 50
270.000000
 51
90.000000
  0
ARC
  8
0
 10
103.553108
 20
54.687500
 40
1.000000
 50
90.000000
 51
270.000000
  0
CIRCLE
  8
0
 10
106.053108
 20
54.687500
 40
1.000000
  0
ARC
  8
0
 10
103.053108
 20
54.687500
 40
2.282841
 50
90.000000
 51
270.000000
  0
ARC
  8
0
 10
109.053108
 20
54.687500
 40
2.282841
 50
270.000000
 51
90.000000
  0
ARC
  8
0
 10
104.553108
 20
54.687500
 40
3.500001
 50
207.793671
 51
270.000000
  0
ARC
  8
0
 10
107.553108
 20
54.687500
 40
3.500001
 50
27.793669
 51
90.000000
  0
POINT
  8
0
 10
176.471863
 20
138.562500
  0
POINT
  8
0
 10
182.221863
 20
138.562500
  0
LINE
  8
0
 10
179.971863
 20
116.312500
 11
179.971863
 21
135.562500
  0
LINE
  8
0
 10
172.971863
 20
116.312500
 11
172.971863
 21
135.562500
  0
LINE
  8
0
 10
172.971863
 20
132.312500
 11
179.971863
 21
132.312500
  0
LINE
  8
0
 10
173.471863
 20
145.312500
 11
179.471863
 21
145.312500
  0
LINE
  8
0
 10
173.471863
 20
145.312500
 11
172.971863
 21
144.812500
  0
LINE
  8
0
 10
179.471863
 20
145.312500
 11
179.971863
 21
144.812500
  0
LINE
  8
0
 10
179.971863
 20
144.812500
 11
172.971863
 21
144.812500
  0
LINE
  8
0
 10
179.371857
 20
132.312500
 11
179.371857
 21
135.562500
  0
LINE
  8
0
 10
173.571869
 20
132.312500
 11
173.571869
 21
135.562500
  0
LINE
  8
0
 10
172.971863
 20
129.812500
 11
179.971863
 21
129.812500
  0
LINE
  8
0
 10
162.112793
 20
126.312500
 11
175.138535
 21
126.312500
  0
LINE
  8
0
 10
171.471863
 20
135.562500
 11
181.471863
 21
135.562500
  0
LINE
  8
0
 10
171.471863
 20
138.562500
 11
181.471863
 21
138.562500
  0
LINE
  8
0
 10
171.471863
 20
141.562500
 11
181.471863
 21
141.562500
  0
LINE
  8
0
 10
182.221863
 20
135.995514
 11
182.221863
 21
138.129486
  0
LINE
  8
0
 10
170.721863
 20
135.995514
 11
170.721863
 21
138.129486
  0
LINE
  8
0
 10
179.971863
 20
141.562500
 11
179.971863
 21
144.812500
  0
LINE
  8
0
 10
179.371857
 20
141.562500
 11
179.371857
 21
145.312500
  0
LINE
  8
0
 10
173.571869
 20
141.562500
 11
173.571869
 21
145.312500
  0
LINE
  8
0
 10
172.971863
 20
141.562500
 11
172.971863
 21
144.812500
  0
LINE
  8
0
 10
181.471863
 20
138.562500
 11
182.221863
 21
138.995514
  0
LINE
  8
0
 10
171.471863
 20
138.562500
 11
170.721863
 21
138.995514
  0
LINE
  8
0
 10
181.471878
 20
141.562515
 11
182.221878
 21
141.129501
  0
LINE
  8
0
 10
171.471848
 20
141.562515
 11
170.721848
 21
141.129501
  0
LINE
  8
0
 10
181.471863
 20
138.562515
 11
182.221878
 21
138.129501
  0
LINE
  8
0
 10
171.471863
 20
138.562515
 11
170.721863
 21
138.129501
  0
LINE
  8
0
 10
171.471863
 20
135.562500
 11
170.721863
 21
135.995514
  0
LINE
  8
0
 10
181.471863
 20
135.562500
 11
182.221863
 21
135.995514
  0
LINE
  8
0
 10
182.221863
 20
138.995514
 11
182.221863
 21
141.129486
  0
LINE
  8
0
 10
170.721863
 20
138.995514
 11
170.721863
 21
141.129486
  0
LINE
  8
0
 10
173.585114
 20
135.995514
 11
173.585114
 21
138.129486
  0
LINE
  8
0
 10
173.585037
 20
138.995514
 11
173.585037
 21
141.129486
  0
LINE
  8
0
 10
179.358521
 20
141.129486
 11
179.358521
 21
138.995514
  0
LINE
  8
0
 10
179.358597
 20
138.129486
 11
179.358597
 21
135.995514
  0
LINE
  8
0
 10
172.371857
 20
128.812500
 11
172.140915
 21
129.212494
  0
LINE
  8
0
 10
172.371857
 20
123.812500
 11
172.140930
 21
123.412506
  0
LINE
  8
0
 10
178.971863
 20
145.912506
 11
179.371857
 21
146.143448
  0
LINE
  8
0
 10
177.915237
 20
146.143433
 11
177.915237
 21
148.581573
  0
LINE
  8
0
 10
174.300171
 20
148.812500
 11
175.971863
 21
148.812500
  0
LINE
  8
0
 10
173.971863
 20
145.912506
 11
173.571869
 21
146.143448
  0
LINE
  8
0
 10
173.571869
 20
146.143433
 11
173.571869
 21
148.581558
  0
LINE
  8
0
 10
179.371857
 20
146.143433
 11
179.371857
 21
148.581558
  0
LINE
  8
0
 10
175.028427
 20
148.581573
 11
175.028427
 21
146.143433
  0
LINE
  8
0
 10
179.271866
 20
145.312500
 11
179.271866
 21
145.912491
  0
LINE
  8
0
 10
173.671860
 20
145.912491
 11
179.271866
 21
145.912491
  0
LINE
  8
0
 10
173.671860
 20
145.312500
 11
173.671860
 21
145.912491
  0
LINE
  8
0
 10
176.471863
 20
104.817657
 11
176.471863
 21
151.197144
  0
LINE
  8
0
 10
164.471863
 20
125.237602
 11
164.471863
 21
127.387398
  0
LINE
  8
0
 10
165.971863
 20
124.862503
 11
165.971863
 21
127.762505
  0
LINE
  8
0
 10
167.471863
 20
124.862503
 11
167.471863
 21
127.762505
  0
LINE
  8
0
 10
165.971863
 20
125.062508
 11
167.471863
 21
124.862503
  0
LINE
  8
0
 10
165.971863
 20
127.562508
 11
167.471863
 21
127.762512
  0
LINE
  8
0
 10
164.645432
 20
125.039360
 11
165.971863
 21
124.862503
  0
LINE
  8
0
 10
164.645416
 20
127.585648
 11
165.971863
 21
127.762505
  0
LINE
  8
0
 10
167.571869
 20
125.062500
 11
169.371857
 21
125.062500
  0
LINE
  8
0
 10
167.571869
 20
127.562500
 11
169.371857
 21
127.562500
  0
LINE
  8
0
 10
169.471863
 20
124.140808
 11
169.471863
 21
128.484192
  0
LINE
  8
0
 10
172.140930
 20
123.412498
 11
169.702805
 21
123.412498
  0
LINE
  8
0
 10
172.140930
 20
129.212494
 11
169.702805
 21
129.212494
  0
LINE
  8
0
 10
172.140930
 20
127.755875
 11
169.702805
 21
127.755875
  0
LINE
  8
0
 10
169.702805
 20
124.869064
 11
172.140930
 21
124.869064
  0
LINE
  8
0
 10
172.371857
 20
123.512497
 11
172.371857
 21
129.112503
  0
LINE
  8
0
 10
172.971863
 20
123.512497
 11
172.371872
 21
123.512497
  0
LINE
  8
0
 10
172.971863
 20
129.112503
 11
172.371872
 21
129.112503
  0
LINE
  8
0
 10
175.971863
 20
148.812500
 11
175.971863
 21
147.812500
  0
LINE
  8
0
 10
175.971863
 20
147.812500
 11
176.971863
 21
147.812500
  0
LINE
  8
0
 10
176.971863
 20
147.812500
 11
176.971863
 21
148.812500
  0
LINE
  8
0
 10
176.971863
 20
148.812500
 11
178.643555
 21
148.812500
  0
LINE
  8
0
 10
179.971863
 20
131.273270
 11
179.371872
 21
132.312500
  0
LINE
  8
0
 10
172.971863
 20
131.273270
 11
173.571869
 21
132.312500
  0
LINE
  8
0
 10
171.471863
 20
116.312500
 11
181.471863
 21
116.312500
  0
LINE
  8
0
 10
171.471863
 20
111.312500
 11
171.471863
 21
116.312500
  0
LINE
  8
0
 10
172.359573
 20
110.799973
 11
171.471863
 21
111.312500
  0
LINE
  8
0
 10
171.471863
 20
108.812500
 11
171.189011
 21
109.095337
  0
LINE
  8
0
 10
171.189026
 20
109.095337
 11
172.421707
 21
110.328033
  0
LINE
  8
0
 10
181.471863
 20
108.812500
 11
171.471863
 21
108.812500
  0
LINE
  8
0
 10
181.471863
 20
111.312500
 11
181.471863
 21
116.312500
  0
LINE
  8
0
 10
180.584137
 20
110.799980
 11
181.471863
 21
111.312500
  0
LINE
  8
0
 10
181.471863
 20
108.812492
 11
181.754715
 21
109.095337
  0
LINE
  8
0
 10
181.754715
 20
109.095345
 11
180.522018
 21
110.328033
  0
LINE
  8
0
 10
181.754700
 20
109.095345
 11
171.189026
 21
109.095345
  0
LINE
  8
0
 10
181.471863
 20
111.312500
 11
171.471863
 21
111.312500
  0
LINE
  8
0
 10
180.245560
 20
110.604492
 11
172.698166
 21
110.604492
  0
ARC
  8
0
 10
172.153488
 20
141.145615
 40
2.583115
 50
236.342697
 51
303.657318
  0
ARC
  8
0
 10
180.790237
 20
141.145615
 40
2.583115
 50
236.342697
 51
303.657318
  0
ARC
  8
0
 10
176.471863
 20
148.401489
 40
9.838988
 50
252.938446
 51
287.061554
  0
ARC
  8
0
 10
180.790237
 20
138.979385
 40
2.583115
 50
56.342693
 51
123.657310
  0
ARC
  8
0
 10
176.471863
 20
131.723511
 40
9.838988
 50
72.938438
 51
107.061470
  0
ARC
  8
0
 10
172.153488
 20
138.979385
 40
2.583115
 50
56.342693
 51
123.657310
  0
ARC
  8
0
 10
180.790237
 20
135.979385
 40
2.583115
 50
56.342693
 51
123.657310
  0
ARC
  8
0
 10
176.471863
 20
128.723511
 40
9.838988
 50
72.938438
 51
107.061470
  0
ARC
  8
0
 10
172.153488
 20
135.979385
 40
2.583115
 50
56.342693
 51
123.657310
  0
ARC
  8
0
 10
172.153488
 20
138.145615
 40
2.583115
 50
236.342697
 51
303.657318
  0
ARC
  8
0
 10
176.471863
 20
145.401489
 40
9.838988
 50
252.938446
 51
287.061554
  0
ARC
  8
0
 10
180.790237
 20
138.145615
 40
2.583115
 50
236.342697
 51
303.657318
  0
ARC
  8
0
 10
171.107956
 20
124.140808
 40
1.263911
 50
324.813843
 51
35.186447
  0
ARC
  8
0
 10
171.107956
 20
128.484192
 40
1.263915
 50
324.813568
 51
35.185879
  0
ARC
  8
0
 10
167.745804
 20
126.312500
 40
4.626064
 50
341.819641
 51
18.180359
  0
ARC
  8
0
 10
178.643555
 20
147.176407
 40
1.263915
 50
234.813553
 51
305.185883
  0
ARC
  8
0
 10
176.471863
 20
150.538559
 40
4.626064
 50
251.819641
 51
288.180359
  0
ARC
  8
0
 10
174.300171
 20
147.548584
 40
1.263915
 50
54.813553
 51
125.185883
  0
ARC
  8
0
 10
174.300171
 20
147.176407
 40
1.263906
 50
234.814117
 51
305.186432
  0
ARC
  8
0
 10
178.643555
 20
147.548584
 40
1.263915
 50
54.813553
 51
125.186447
  0
ARC
  8
0
 10
176.471863
 20
144.186432
 40
4.626064
 50
71.819641
 51
83.795174
  0
ARC
  8
0
 10
164.671860
 20
127.387398
 40
0.199996
 50
97.593491
 51
180.000000
  0
ARC
  8
0
 10
167.571869
 20
124.962502
 40
0.099998
 50
90.000000
 51
180.000000
  0
ARC
  8
0
 10
167.571869
 20
127.662506
 40
0.100006
 50
180.000000
 51
270.000000
  0
ARC
  8
0
 10
164.671860
 20
125.237602
 40
0.199997
 50
180.000000
 51
262.406525
  0
ARC
  8
0
 10
169.371857
 20
127.662506
 40
0.100006
 50
270.000000
 51
0.000000
  0
ARC
  8
0
 10
169.371857
 20
124.962502
 40
0.100006
 50
0.000000
 51
90.000000
  0
ARC
  8
0
 10
170.735779
 20
128.484192
 40
1.263906
 50
144.814117
 51
215.186447
  0
ARC
  8
0
 10
170.735779
 20
124.140808
 40
1.263915
 50
144.813553
 51
215.186157
  0
ARC
  8
0
 10
174.097931
 20
126.312500
 40
4.626064
 50
161.819641
 51
198.180359
  0
ARC
  8
0
 10
176.471863
 20
144.186432
 40
4.626069
 50
96.204826
 51
108.180359
  0
ARC
  8
0
 10
180.734146
 20
110.540169
 40
0.299994
 50
119.999359
 51
225.001038
  0
ARC
  8
0
 10
172.209579
 20
110.540169
 40
0.299999
 50
314.998962
 51
60.000641
  0
POINT
  8
0
 10
176.471863
 20
54.687500
  0
POINT
  8
0
 10
182.245361
 20
54.687492
  0
LINE
  8
0
 10
169.471863
 20
52.187500
 11
169.471863
 21
57.187500
  0
LINE
  8
0
 10
164.471863
 20
53.612602
 11
164.471863
 21
55.762398
  0
LINE
  8
0
 10
165.971863
 20
53.237499
 11
165.971863
 21
56.137501
  0
LINE
  8
0
 10
167.471863
 20
53.237499
 11
167.471863
 21
56.137505
  0
LINE
  8
0
 10
165.971863
 20
53.437492
 11
167.471863
 21
53.237492
  0
LINE
  8
0
 10
165.971863
 20
55.937504
 11
167.471863
 21
56.137505
  0
LINE
  8
0
 10
164.645432
 20
53.414349
 11
165.971863
 21
53.237488
  0
LINE
  8
0
 10
164.645416
 20
55.960644
 11
165.971863
 21
56.137505
  0
LINE
  8
0
 10
167.571869
 20
53.437500
 11
169.371857
 21
53.437500
  0
LINE
  8
0
 10
167.571869
 20
55.937500
 11
169.371857
 21
55.937500
  0
LINE
  8
0
 10
162.367996
 20
54.687500
 11
183.367950
 21
54.687500
  0
LINE
  8
0
 10
179.971863
 20
54.687500
 11
179.971863
 21
54.687500
  0
LINE
  8
0
 10
181.471863
 20
54.687500
 11
181.471863
 21
54.687500
  0
LINE
  8
0
 10
172.971863
 20
54.687500
 11
172.971863
 21
54.687500
  0
LINE
  8
0
 10
171.471863
 20
54.687500
 11
171.471863
 21
54.687500
  0
LINE
  8
0
 10
171.471863
 20
54.687500
 11
171.471863
 21
54.687500
  0
LINE
  8
0
 10
181.471863
 20
54.687500
 11
181.471863
 21
54.687500
  0
LINE
  8
0
 10
169.471863
 20
52.187500
 11
172.522369
 21
52.187500
  0
LINE
  8
0
 10
169.471863
 20
57.187500
 11
172.522369
 21
57.187500
  0
LINE
  8
0
 10
173.585114
 20
49.687500
 11
179.358612
 21
49.687500
  0
LINE
  8
0
 10
173.585114
 20
59.687500
 11
179.358612
 21
59.687500
  0
LINE
  8
0
 10
182.245361
 20
54.687496
 11
179.358612
 21
59.687496
  0
LINE
  8
0
 10
173.585114
 20
49.687500
 11
172.141724
 21
52.187500
  0
LINE
  8
0
 10
172.141739
 20
57.187500
 11
173.585114
 21
59.687500
  0
LINE
  8
0
 10
179.358612
 20
49.687496
 11
182.245361
 21
54.687496
  0
LINE
  8
0
 10
171.189026
 20
54.687500
 11
169.702805
 21
54.687500
  0
LINE
  8
0
 10
172.971863
 20
51.187500
 11
172.971863
 21
51.815220
  0
LINE
  8
0
 10
179.971863
 20
51.187500
 11
179.971863
 21
51.815220
  0
LINE
  8
0
 10
172.971863
 20
58.187500
 11
179.971863
 21
58.187500
  0
LINE
  8
0
 10
172.971863
 20
51.187500
 11
179.971863
 21
51.187500
  0
LINE
  8
0
 10
172.371857
 20
52.187500
 11
172.371857
 21
52.344425
  0
LINE
  8
0
 10
176.471863
 20
49.303673
 11
176.471863
 21
60.144382
  0
LINE
  8
0
 10
181.471863
 20
54.687500
 11
181.471863
 21
54.687500
  0
LINE
  8
0
 10
171.471863
 20
54.687500
 11
171.471863
 21
54.687500
  0
LINE
  8
0
 10
179.971863
 20
54.687500
 11
179.971863
 21
54.687500
  0
LINE
  8
0
 10
172.971863
 20
54.687500
 11
172.971863
 21
54.687500
  0
LINE
  8
0
 10
171.471863
 20
54.687500
 11
171.471863
 21
54.687500
  0
LINE
  8
0
 10
181.471863
 20
54.687500
 11
181.471863
 21
54.687500
  0
LINE
  8
0
 10
171.189026
 20
54.687500
 11
171.189026
 21
54.687500
  0
LINE
  8
0
 10
174.371857
 20
56.087502
 11
178.571869
 21
56.087502
  0
LINE
  8
0
 10
174.371857
 20
53.287498
 11
178.571869
 21
53.287498
  0
LINE
  8
0
 10
173.971863
 20
57.187500
 11
178.971863
 21
57.187500
  0
LINE
  8
0
 10
173.971863
 20
52.187500
 11
178.971863
 21
52.187500
  0
LINE
  8
0
 10
173.971863
 20
57.470341
 11
178.971863
 21
57.470341
  0
LINE
  8
0
 10
173.971863
 20
51.904659
 11
178.971863
 21
51.904659
  0
LINE
  8
0
 10
179.971863
 20
57.559780
 11
179.971863
 21
58.187500
  0
LINE
  8
0
 10
172.971863
 20
57.559780
 11
172.971863
 21
58.187500
  0
LINE
  8
0
 10
172.371857
 20
57.030575
 11
172.371857
 21
57.187500
  0
ARC
  8
0
 10
167.571869
 20
53.337502
 40
0.099998
 50
90.000000
 51
180.000000
  0
ARC
  8
0
 10
169.371857
 20
53.337502
 40
0.100006
 50
0.000000
 51
90.000000
  0
ARC
  8
0
 10
167.571869
 20
56.037502
 40
0.100006
 50
180.000000
 51
270.000000
  0
ARC
  8
0
 10
169.371857
 20
56.037502
 40
0.099998
 50
270.000000
 51
0.000000
  0
ARC
  8
0
 10
164.671860
 20
53.612602
 40
0.199997
 50
180.000000
 51
262.406647
  0
ARC
  8
0
 10
164.671860
 20
55.762398
 40
0.200000
 50
97.593346
 51
180.000000
  0
ARC
  8
0
 10
168.873444
 20
55.937504
 40
3.498416
 50
15.458490
 51
20.934704
  0
ARC
  8
0
 10
168.873444
 20
53.437504
 40
3.498425
 50
339.065247
 51
344.541321
  0
ARC
  8
0
 10
172.970276
 20
55.937500
 40
3.498410
 50
159.065201
 51
200.934799
  0
ARC
  8
0
 10
172.970276
 20
53.437500
 40
3.498410
 50
159.065201
 51
200.934845
  0
ARC
  8
0
 10
176.471863
 20
54.687500
 40
5.000000
 50
90.000000
 51
149.999985
  0
ARC
  8
0
 10
176.471863
 20
54.687500
 40
4.999996
 50
19.909441
 51
90.000000
  0
ARC
  8
0
 10
176.471863
 20
54.687500
 40
4.999999
 50
210.000061
 51
340.090515
  0
ARC
  8
0
 10
177.971863
 20
54.687500
 40
3.500000
 50
270.000000
 51
321.863556
  0
ARC
  8
0
 10
174.971863
 20
54.687500
 40
3.500000
 50
90.000000
 51
141.863617
  0
CIRCLE
  8
0
 10
176.471863
 20
54.687500
 40
1.000000
  0
ARC
  8
0
 10
173.971863
 20
54.687500
 40
2.500000
 50
90.000000
 51
270.000000
  0
ARC
  8
0
 10
178.971863
 20
54.687500
 40
2.500000
 50
270.000000
 51
90.000000
  0
ARC
  8
0
 10
178.971863
 20
54.687500
 40
2.782841
 50
270.000000
 51
90.000000
  0
ARC
  8
0
 10
173.971863
 20
54.687500
 40
2.782841
 50
90.000000
 51
270.000000
  0
ARC
  8
0
 10
174.371857
 20
54.687500
 40
1.400002
 50
90.000000
 51
270.000000
  0
ARC
  8
0
 10
178.571869
 20
54.687500
 40
1.400002
 50
270.000000
 51
90.000000
  0
ARC
  8
0
 10
174.971863
 20
54.687500
 40
3.500001
 50
218.136429
 51
270.000000
  0
ARC
  8
0
 10
177.971863
 20
54.687500
 40
3.499998
 50
38.136387
 51
90.000000
  0
POINT
  8
0
 10
246.890594
 20
138.562500
  0
POINT
  8
0
 10
252.640594
 20
138.562500
  0
LINE
  8
0
 10
250.390594
 20
116.312500
 11
250.390594
 21
135.562500
  0
LINE
  8
0
 10
243.390594
 20
116.312500
 11
243.390594
 21
135.562500
  0
LINE
  8
0
 10
243.390594
 20
132.312500
 11
250.390594
 21
132.312500
  0
LINE
  8
0
 10
243.890594
 20
145.312500
 11
249.890594
 21
145.312500
  0
LINE
  8
0
 10
243.890594
 20
145.312500
 11
243.390594
 21
144.812500
  0
LINE
  8
0
 10
249.890594
 20
145.312500
 11
250.390594
 21
144.812500
  0
LINE
  8
0
 10
250.390594
 20
144.812500
 11
243.390594
 21
144.812500
  0
LINE
  8
0
 10
249.790588
 20
132.312500
 11
249.790588
 21
135.562500
  0
LINE
  8
0
 10
243.990601
 20
132.312500
 11
243.990601
 21
135.562500
  0
LINE
  8
0
 10
243.390594
 20
129.812500
 11
250.390594
 21
129.812500
  0
LINE
  8
0
 10
232.968994
 20
126.312500
 11
245.557266
 21
126.312500
  0
LINE
  8
0
 10
241.890594
 20
135.562500
 11
251.890594
 21
135.562500
  0
LINE
  8
0
 10
241.890594
 20
138.562500
 11
251.890594
 21
138.562500
  0
LINE
  8
0
 10
241.890594
 20
141.562500
 11
251.890594
 21
141.562500
  0
LINE
  8
0
 10
252.640594
 20
135.995514
 11
252.640594
 21
138.129486
  0
LINE
  8
0
 10
241.140594
 20
135.995514
 11
241.140594
 21
138.129486
  0
LINE
  8
0
 10
250.390594
 20
141.562500
 11
250.390594
 21
144.812500
  0
LINE
  8
0
 10
249.790588
 20
141.562500
 11
249.790588
 21
145.312500
  0
LINE
  8
0
 10
243.990601
 20
141.562500
 11
243.990601
 21
145.312500
  0
LINE
  8
0
 10
243.390594
 20
141.562500
 11
243.390594
 21
144.812500
  0
LINE
  8
0
 10
251.890594
 20
138.562500
 11
252.640594
 21
138.995514
  0
LINE
  8
0
 10
241.890594
 20
138.562500
 11
241.140594
 21
138.995514
  0
LINE
  8
0
 10
251.890610
 20
141.562515
 11
252.640610
 21
141.129501
  0
LINE
  8
0
 10
241.890579
 20
141.562515
 11
241.140579
 21
141.129501
  0
LINE
  8
0
 10
251.890594
 20
138.562515
 11
252.640610
 21
138.129501
  0
LINE
  8
0
 10
241.890594
 20
138.562515
 11
241.140594
 21
138.129501
  0
LINE
  8
0
 10
241.890594
 20
135.562500
 11
241.140594
 21
135.995514
  0
LINE
  8
0
 10
251.890594
 20
135.562500
 11
252.640594
 21
135.995514
  0
LINE
  8
0
 10
252.640594
 20
138.995514
 11
252.640594
 21
141.129486
  0
LINE
  8
0
 10
241.140594
 20
138.995514
 11
241.140594
 21
141.129486
  0
LINE
  8
0
 10
244.003845
 20
135.995514
 11
244.003845
 21
138.129486
  0
LINE
  8
0
 10
244.003769
 20
138.995514
 11
244.003769
 21
141.129486
  0
LINE
  8
0
 10
249.777252
 20
141.129486
 11
249.777252
 21
138.995514
  0
LINE
  8
0
 10
249.777328
 20
138.129486
 11
249.777328
 21
135.995514
  0
LINE
  8
0
 10
242.790588
 20
128.812500
 11
242.559647
 21
129.212494
  0
LINE
  8
0
 10
242.790588
 20
123.812500
 11
242.559662
 21
123.412506
  0
LINE
  8
0
 10
249.390594
 20
145.912506
 11
249.790588
 21
146.143448
  0
LINE
  8
0
 10
248.333969
 20
146.143433
 11
248.333969
 21
148.581573
  0
LINE
  8
0
 10
244.718903
 20
148.812500
 11
246.390594
 21
148.812500
  0
LINE
  8
0
 10
244.390594
 20
145.912506
 11
243.990601
 21
146.143448
  0
LINE
  8
0
 10
243.990601
 20
146.143433
 11
243.990601
 21
148.581558
  0
LINE
  8
0
 10
249.790588
 20
146.143433
 11
249.790588
 21
148.581558
  0
LINE
  8
0
 10
245.447159
 20
148.581573
 11
245.447159
 21
146.143433
  0
LINE
  8
0
 10
249.690598
 20
145.312500
 11
249.690598
 21
145.912491
  0
LINE
  8
0
 10
244.090591
 20
145.912491
 11
249.690598
 21
145.912491
  0
LINE
  8
0
 10
244.090591
 20
145.312500
 11
244.090591
 21
145.912491
  0
LINE
  8
0
 10
246.890594
 20
104.817657
 11
246.890594
 21
151.197144
  0
LINE
  8
0
 10
234.890594
 20
125.237602
 11
234.890594
 21
127.387398
  0
LINE
  8
0
 10
236.390594
 20
124.862503
 11
236.390594
 21
127.762505
  0
LINE
  8
0
 10
237.890594
 20
124.862503
 11
237.890594
 21
127.762505
  0
LINE
  8
0
 10
236.390594
 20
125.062508
 11
237.890594
 21
124.862503
  0
LINE
  8
0
 10
236.390594
 20
127.562508
 11
237.890594
 21
127.762512
  0
LINE
  8
0
 10
235.064163
 20
125.039360
 11
236.390594
 21
124.862503
  0
LINE
  8
0
 10
235.064148
 20
127.585648
 11
236.390594
 21
127.762505
  0
LINE
  8
0
 10
237.990601
 20
125.062500
 11
239.790588
 21
125.062500
  0
LINE
  8
0
 10
237.990601
 20
127.562500
 11
239.790588
 21
127.562500
  0
LINE
  8
0
 10
239.890594
 20
124.140808
 11
239.890594
 21
128.484192
  0
LINE
  8
0
 10
242.559662
 20
123.412498
 11
240.121536
 21
123.412498
  0
LINE
  8
0
 10
242.559662
 20
129.212494
 11
240.121536
 21
129.212494
  0
LINE
  8
0
 10
242.559662
 20
127.755875
 11
240.121536
 21
127.755875
  0
LINE
  8
0
 10
240.121536
 20
124.869064
 11
242.559662
 21
124.869064
  0
LINE
  8
0
 10
242.790588
 20
123.512497
 11
242.790588
 21
129.112503
  0
LINE
  8
0
 10
243.390594
 20
123.512497
 11
242.790604
 21
123.512497
  0
LINE
  8
0
 10
243.390594
 20
129.112503
 11
242.790604
 21
129.112503
  0
LINE
  8
0
 10
246.390594
 20
148.812500
 11
246.390594
 21
147.812500
  0
LINE
  8
0
 10
246.390594
 20
147.812500
 11
247.390594
 21
147.812500
  0
LINE
  8
0
 10
247.390594
 20
147.812500
 11
247.390594
 21
148.812500
  0
LINE
  8
0
 10
247.390594
 20
148.812500
 11
249.062286
 21
148.812500
  0
LINE
  8
0
 10
250.390594
 20
131.273270
 11
249.790604
 21
132.312500
  0
LINE
  8
0
 10
243.390594
 20
131.273270
 11
243.990601
 21
132.312500
  0
LINE
  8
0
 10
241.890594
 20
111.312500
 11
241.890594
 21
116.312500
  0
LINE
  8
0
 10
242.778305
 20
110.799973
 11
241.890594
 21
111.312500
  0
LINE
  8
0
 10
241.890594
 20
108.812500
 11
241.607742
 21
109.095337
  0
LINE
  8
0
 10
241.607758
 20
109.095337
 11
242.840439
 21
110.328033
  0
LINE
  8
0
 10
251.890594
 20
108.812500
 11
241.890594
 21
108.812500
  0
LINE
  8
0
 10
251.890594
 20
116.312500
 11
241.890594
 21
116.312500
  0
LINE
  8
0
 10
251.890594
 20
111.312500
 11
251.890594
 21
116.312500
  0
LINE
  8
0
 10
251.002869
 20
110.799980
 11
251.890594
 21
111.312500
  0
LINE
  8
0
 10
251.890594
 20
108.812492
 11
252.173447
 21
109.095337
  0
LINE
  8
0
 10
252.173447
 20
109.095345
 11
250.940750
 21
110.328033
  0
LINE
  8
0
 10
252.173431
 20
109.095345
 11
241.607758
 21
109.095345
  0
LINE
  8
0
 10
251.890594
 20
111.312500
 11
241.890594
 21
111.312500
  0
LINE
  8
0
 10
250.664291
 20
110.604492
 11
243.116898
 21
110.604492
  0
ARC
  8
0
 10
242.572220
 20
141.145615
 40
2.583115
 50
236.342697
 51
303.657318
  0
ARC
  8
0
 10
251.208969
 20
141.145615
 40
2.583115
 50
236.342697
 51
303.657318
  0
ARC
  8
0
 10
246.890594
 20
148.401489
 40
9.838988
 50
252.938446
 51
287.061554
  0
ARC
  8
0
 10
251.208969
 20
138.979385
 40
2.583115
 50
56.342693
 51
123.657310
  0
ARC
  8
0
 10
246.890594
 20
131.723511
 40
9.838988
 50
72.938438
 51
107.061470
  0
ARC
  8
0
 10
242.572220
 20
138.979385
 40
2.583115
 50
56.342693
 51
123.657310
  0
ARC
  8
0
 10
251.208969
 20
135.979385
 40
2.583115
 50
56.342693
 51
123.657310
  0
ARC
  8
0
 10
246.890594
 20
128.723511
 40
9.838988
 50
72.938438
 51
107.061470
  0
ARC
  8
0
 10
242.572220
 20
135.979385
 40
2.583115
 50
56.342693
 51
123.657310
  0
ARC
  8
0
 10
242.572220
 20
138.145615
 40
2.583115
 50
236.342697
 51
303.657318
  0
ARC
  8
0
 10
246.890594
 20
145.401489
 40
9.838988
 50
252.938446
 51
287.061554
  0
ARC
  8
0
 10
251.208969
 20
138.145615
 40
2.583115
 50
236.342697
 51
303.657318
  0
ARC
  8
0
 10
241.526688
 20
124.140808
 40
1.263911
 50
324.813843
 51
35.186447
  0
ARC
  8
0
 10
241.526688
 20
128.484192
 40
1.263915
 50
324.813568
 51
35.185879
  0
ARC
  8
0
 10
238.164536
 20
126.312500
 40
4.626064
 50
341.819641
 51
18.180359
  0
ARC
  8
0
 10
249.062286
 20
147.176407
 40
1.263915
 50
234.813553
 51
305.185883
  0
ARC
  8
0
 10
246.890594
 20
150.538559
 40
4.626064
 50
251.819641
 51
288.180359
  0
ARC
  8
0
 10
244.718903
 20
147.548584
 40
1.263915
 50
54.813553
 51
125.185883
  0
ARC
  8
0
 10
244.718903
 20
147.176407
 40
1.263906
 50
234.814117
 51
305.186432
  0
ARC
  8
0
 10
249.062286
 20
147.548584
 40
1.263915
 50
54.813553
 51
125.186447
  0
ARC
  8
0
 10
246.890594
 20
144.186432
 40
4.626064
 50
71.819641
 51
83.795174
  0
ARC
  8
0
 10
235.090591
 20
127.387398
 40
0.199996
 50
97.593491
 51
180.000000
  0
ARC
  8
0
 10
237.990601
 20
124.962502
 40
0.099998
 50
90.000000
 51
180.000000
  0
ARC
  8
0
 10
237.990601
 20
127.662506
 40
0.100006
 50
180.000000
 51
270.000000
  0
ARC
  8
0
 10
235.090591
 20
125.237602
 40
0.199997
 50
180.000000
 51
262.406525
  0
ARC
  8
0
 10
239.790588
 20
127.662506
 40
0.100006
 50
270.000000
 51
0.000000
  0
ARC
  8
0
 10
239.790588
 20
124.962502
 40
0.100006
 50
0.000000
 51
90.000000
  0
ARC
  8
0
 10
241.154510
 20
128.484192
 40
1.263906
 50
144.814117
 51
215.186447
  0
ARC
  8
0
 10
241.154510
 20
124.140808
 40
1.263915
 50
144.813553
 51
215.186157
  0
ARC
  8
0
 10
244.516663
 20
126.312500
 40
4.626064
 50
161.819641
 51
198.180359
  0
ARC
  8
0
 10
246.890594
 20
144.186432
 40
4.626069
 50
96.204826
 51
108.180359
  0
ARC
  8
0
 10
251.152878
 20
110.540169
 40
0.299994
 50
119.999359
 51
225.001038
  0
ARC
  8
0
 10
242.628311
 20
110.540169
 40
0.299999
 50
314.998962
 51
60.000641
  0
POINT
  8
0
 10
246.890594
 20
54.687500
  0
POINT
  8
0
 10
252.664093
 20
54.687492
  0
LINE
  8
0
 10
239.890594
 20
52.187500
 11
239.890594
 21
57.187500
  0
LINE
  8
0
 10
234.890594
 20
53.612602
 11
234.890594
 21
55.762398
  0
LINE
  8
0
 10
236.390594
 20
53.237499
 11
236.390594
 21
56.137501
  0
LINE
  8
0
 10
237.890594
 20
53.237499
 11
237.890594
 21
56.137505
  0
LINE
  8
0
 10
236.390594
 20
53.437492
 11
237.890594
 21
53.237492
  0
LINE
  8
0
 10
236.390594
 20
55.937504
 11
237.890594
 21
56.137505
  0
LINE
  8
0
 10
235.064163
 20
53.414349
 11
236.390594
 21
53.237488
  0
LINE
  8
0
 10
235.064148
 20
55.960644
 11
236.390594
 21
56.137505
  0
LINE
  8
0
 10
237.990601
 20
53.437500
 11
239.790588
 21
53.437500
  0
LINE
  8
0
 10
237.990601
 20
55.937500
 11
239.790588
 21
55.937500
  0
LINE
  8
0
 10
232.786728
 20
54.687500
 11
253.305298
 21
54.687500
  0
LINE
  8
0
 10
239.890594
 20
52.187500
 11
242.762909
 21
52.187500
  0
LINE
  8
0
 10
239.890594
 20
57.187500
 11
242.762909
 21
57.187500
  0
LINE
  8
0
 10
244.003845
 20
49.687500
 11
249.777344
 21
49.687500
  0
LINE
  8
0
 10
244.003845
 20
59.687500
 11
249.777344
 21
59.687500
  0
LINE
  8
0
 10
252.664093
 20
54.687496
 11
249.777344
 21
59.687500
  0
LINE
  8
0
 10
244.003830
 20
49.687500
 11
242.560455
 21
52.187500
  0
LINE
  8
0
 10
242.560471
 20
57.187500
 11
244.003845
 21
59.687500
  0
LINE
  8
0
 10
249.777344
 20
49.687496
 11
252.664093
 21
54.687496
  0
LINE
  8
0
 10
241.607758
 20
54.687500
 11
240.121536
 21
54.687500
  0
LINE
  8
0
 10
243.390594
 20
51.187500
 11
243.390594
 21
51.767391
  0
LINE
  8
0
 10
250.390594
 20
51.187500
 11
250.390594
 21
51.767391
  0
LINE
  8
0
 10
243.390594
 20
58.187500
 11
250.390594
 21
58.187500
  0
LINE
  8
0
 10
243.390594
 20
51.187500
 11
250.390594
 21
51.187500
  0
LINE
  8
0
 10
246.890594
 20
49.475258
 11
246.890594
 21
60.091778
  0
LINE
  8
0
 10
241.607758
 20
54.687500
 11
241.607758
 21
54.687500
  0
LINE
  8
0
 10
245.290588
 20
56.587502
 11
248.490601
 21
56.587502
  0
LINE
  8
0
 10
245.290588
 20
52.787498
 11
248.490601
 21
52.787498
  0
LINE
  8
0
 10
244.890594
 20
57.687500
 11
248.890594
 21
57.687500
  0
LINE
  8
0
 10
244.890594
 20
51.687500
 11
248.890594
 21
51.687500
  0
LINE
  8
0
 10
244.890594
 20
57.970341
 11
248.890594
 21
57.970341
  0
LINE
  8
0
 10
244.890594
 20
51.404659
 11
248.890594
 21
51.404659
  0
LINE
  8
0
 10
241.607758
 20
54.687500
 11
241.607758
 21
54.687500
  0
LINE
  8
0
 10
243.390594
 20
57.607609
 11
243.390594
 21
58.187500
  0
LINE
  8
0
 10
250.390594
 20
57.607609
 11
250.390594
 21
58.187500
  0
ARC
  8
0
 10
237.990601
 20
53.337502
 40
0.099998
 50
90.000000
 51
180.000000
  0
ARC
  8
0
 10
239.790588
 20
53.337502
 40
0.100006
 50
0.000000
 51
90.000000
  0
ARC
  8
0
 10
237.990601
 20
56.037502
 40
0.100006
 50
180.000000
 51
270.000000
  0
ARC
  8
0
 10
239.790588
 20
56.037502
 40
0.099998
 50
270.000000
 51
0.000000
  0
ARC
  8
0
 10
235.090591
 20
53.612602
 40
0.199997
 50
180.000000
 51
262.406647
  0
ARC
  8
0
 10
235.090591
 20
55.762398
 40
0.200000
 50
97.593346
 51
180.000000
  0
ARC
  8
0
 10
239.292175
 20
55.937504
 40
3.498413
 50
18.514212
 51
20.934704
  0
ARC
  8
0
 10
239.292175
 20
53.437504
 40
3.498425
 50
339.065247
 51
341.485596
  0
ARC
  8
0
 10
243.389008
 20
55.937500
 40
3.498410
 50
159.065201
 51
200.934799
  0
ARC
  8
0
 10
243.389008
 20
53.437500
 40
3.498410
 50
159.065201
 51
200.934845
  0
ARC
  8
0
 10
246.890594
 20
54.687500
 40
5.000000
 50
90.000000
 51
149.999985
  0
ARC
  8
0
 10
246.890594
 20
54.687500
 40
5.000000
 50
24.335495
 51
90.000000
  0
ARC
  8
0
 10
246.890594
 20
54.687500
 40
4.999999
 50
210.000061
 51
335.664459
  0
ARC
  8
0
 10
248.390594
 20
54.687500
 40
3.500000
 50
270.000000
 51
299.490204
  0
ARC
  8
0
 10
245.390594
 20
54.687500
 40
3.500000
 50
90.000000
 51
119.490204
  0
CIRCLE
  8
0
 10
246.890594
 20
54.687500
 40
1.000000
  0
ARC
  8
0
 10
248.490601
 20
54.687500
 40
1.900002
 50
270.000000
 51
90.000000
  0
ARC
  8
0
 10
245.290588
 20
54.687500
 40
1.900002
 50
90.000000
 51
270.000000
  0
ARC
  8
0
 10
244.890594
 20
54.687500
 40
3.282841
 50
90.000000
 51
270.000000
  0
ARC
  8
0
 10
244.890594
 20
54.687500
 40
3.000000
 50
90.000000
 51
270.000000
  0
ARC
  8
0
 10
248.890594
 20
54.687500
 40
3.282841
 50
270.000000
 51
90.000000
  0
ARC
  8
0
 10
248.890594
 20
54.687500
 40
3.000000
 50
270.000000
 51
90.000000
  0
ARC
  8
0
 10
248.390594
 20
54.687500
 40
3.500000
 50
60.509796
 51
90.000000
  0
ARC
  8
0
 10
245.390594
 20
54.687500
 40
3.500000
 50
240.509796
 51
270.000000
  0
POINT
  8
0
 10
-246.040619
 20
-44.187500
  0
POINT
  8
0
 10
-240.290619
 20
-44.187500
  0
LINE
  8
0
 10
-242.540619
 20
-64.437500
 11
-242.540619
 21
-47.187500
  0
LINE
  8
0
 10
-249.540619
 20
-64.437500
 11
-249.540619
 21
-47.187500
  0
LINE
  8
0
 10
-249.540619
 20
-50.437500
 11
-242.540619
 21
-50.437500
  0
LINE
  8
0
 10
-249.040619
 20
-37.437500
 11
-243.040619
 21
-37.437500
  0
LINE
  8
0
 10
-249.040619
 20
-37.437504
 11
-249.540619
 21
-37.937504
  0
LINE
  8
0
 10
-243.040619
 20
-37.437504
 11
-242.540619
 21
-37.937500
  0
LINE
  8
0
 10
-242.540619
 20
-37.937500
 11
-249.540619
 21
-37.937500
  0
LINE
  8
0
 10
-243.140625
 20
-50.437500
 11
-243.140625
 21
-47.187500
  0
LINE
  8
0
 10
-248.940613
 20
-50.437500
 11
-248.940613
 21
-47.187500
  0
LINE
  8
0
 10
-249.540619
 20
-52.937500
 11
-242.540619
 21
-52.937500
  0
LINE
  8
0
 10
-259.684143
 20
-56.437500
 11
-247.373947
 21
-56.437500
  0
LINE
  8
0
 10
-251.040619
 20
-47.187500
 11
-241.040619
 21
-47.187500
  0
LINE
  8
0
 10
-251.040619
 20
-44.187500
 11
-241.040619
 21
-44.187500
  0
LINE
  8
0
 10
-251.040619
 20
-41.187500
 11
-241.040619
 21
-41.187500
  0
LINE
  8
0
 10
-240.290619
 20
-46.754486
 11
-240.290619
 21
-44.620514
  0
LINE
  8
0
 10
-251.790619
 20
-46.754486
 11
-251.790619
 21
-44.620514
  0
LINE
  8
0
 10
-242.540619
 20
-41.187500
 11
-242.540619
 21
-37.937500
  0
LINE
  8
0
 10
-243.140625
 20
-41.187500
 11
-243.140625
 21
-37.437500
  0
LINE
  8
0
 10
-248.940613
 20
-41.187500
 11
-248.940613
 21
-37.437500
  0
LINE
  8
0
 10
-249.540619
 20
-41.187500
 11
-249.540619
 21
-37.937500
  0
LINE
  8
0
 10
-241.040619
 20
-44.187489
 11
-240.290619
 21
-43.754478
  0
LINE
  8
0
 10
-251.040619
 20
-44.187496
 11
-251.790619
 21
-43.754486
  0
LINE
  8
0
 10
-241.040604
 20
-41.187485
 11
-240.290604
 21
-41.620495
  0
LINE
  8
0
 10
-251.040634
 20
-41.187481
 11
-251.790634
 21
-41.620491
  0
LINE
  8
0
 10
-241.040604
 20
-44.187485
 11
-240.290604
 21
-44.620499
  0
LINE
  8
0
 10
-251.040634
 20
-44.187485
 11
-251.790634
 21
-44.620495
  0
LINE
  8
0
 10
-251.040619
 20
-47.187496
 11
-251.790619
 21
-46.754482
  0
LINE
  8
0
 10
-241.040619
 20
-47.187492
 11
-240.290619
 21
-46.754478
  0
LINE
  8
0
 10
-240.290619
 20
-43.754486
 11
-240.290619
 21
-41.620510
  0
LINE
  8
0
 10
-251.790619
 20
-43.754486
 11
-251.790619
 21
-41.620510
  0
LINE
  8
0
 10
-248.927368
 20
-46.754486
 11
-248.927368
 21
-44.620514
  0
LINE
  8
0
 10
-248.927444
 20
-43.754486
 11
-248.927444
 21
-41.620510
  0
LINE
  8
0
 10
-243.153961
 20
-41.620514
 11
-243.153961
 21
-43.754490
  0
LINE
  8
0
 10
-243.153885
 20
-44.620514
 11
-243.153885
 21
-46.754486
  0
LINE
  8
0
 10
-250.140625
 20
-53.937496
 11
-250.371567
 21
-53.537502
  0
LINE
  8
0
 10
-250.140625
 20
-58.937496
 11
-250.371552
 21
-59.337494
  0
LINE
  8
0
 10
-243.540619
 20
-36.837494
 11
-243.140625
 21
-36.606556
  0
LINE
  8
0
 10
-244.597244
 20
-36.606560
 11
-244.597244
 21
-34.168434
  0
LINE
  8
0
 10
-248.212311
 20
-33.937500
 11
-246.540619
 21
-33.937500
  0
LINE
  8
0
 10
-248.540619
 20
-36.837494
 11
-248.940613
 21
-36.606556
  0
LINE
  8
0
 10
-248.940613
 20
-36.606567
 11
-248.940613
 21
-34.168442
  0
LINE
  8
0
 10
-243.140625
 20
-36.606567
 11
-243.140625
 21
-34.168442
  0
LINE
  8
0
 10
-247.484055
 20
-34.168434
 11
-247.484055
 21
-36.606567
  0
LINE
  8
0
 10
-243.240616
 20
-37.437500
 11
-243.240616
 21
-36.837502
  0
LINE
  8
0
 10
-248.840622
 20
-36.837502
 11
-243.240616
 21
-36.837502
  0
LINE
  8
0
 10
-248.840622
 20
-37.437500
 11
-248.840622
 21
-36.837502
  0
LINE
  8
0
 10
-246.040619
 20
-77.796883
 11
-246.040619
 21
-31.552849
  0
LINE
  8
0
 10
-255.040619
 20
-57.887501
 11
-255.040619
 21
-54.987495
  0
LINE
  8
0
 10
-254.940613
 20
-57.687500
 11
-253.140625
 21
-57.687500
  0
LINE
  8
0
 10
-254.940613
 20
-55.187500
 11
-253.140625
 21
-55.187500
  0
LINE
  8
0
 10
-253.040619
 20
-58.609188
 11
-253.040619
 21
-54.265812
  0
LINE
  8
0
 10
-250.371552
 20
-59.337502
 11
-252.809677
 21
-59.337502
  0
LINE
  8
0
 10
-250.371552
 20
-53.537498
 11
-252.809677
 21
-53.537498
  0
LINE
  8
0
 10
-250.371552
 20
-54.994125
 11
-252.809677
 21
-54.994125
  0
LINE
  8
0
 10
-252.809677
 20
-57.880936
 11
-250.371552
 21
-57.880936
  0
LINE
  8
0
 10
-250.140625
 20
-59.237499
 11
-250.140625
 21
-53.637501
  0
LINE
  8
0
 10
-249.540619
 20
-59.237499
 11
-250.140610
 21
-59.237499
  0
LINE
  8
0
 10
-249.540619
 20
-53.637501
 11
-250.140610
 21
-53.637501
  0
LINE
  8
0
 10
-246.540619
 20
-33.937500
 11
-246.540619
 21
-34.937500
  0
LINE
  8
0
 10
-246.540619
 20
-34.937500
 11
-245.540619
 21
-34.937500
  0
LINE
  8
0
 10
-245.540619
 20
-34.937500
 11
-245.540619
 21
-33.937500
  0
LINE
  8
0
 10
-245.540619
 20
-33.937500
 11
-243.868927
 21
-33.937500
  0
LINE
  8
0
 10
-258.040619
 20
-57.512398
 11
-258.040619
 21
-55.362602
  0
LINE
  8
0
 10
-257.867065
 20
-57.710640
 11
-256.540619
 21
-57.887497
  0
LINE
  8
0
 10
-257.867065
 20
-55.164349
 11
-256.540619
 21
-54.987492
  0
LINE
  8
0
 10
-256.540619
 20
-57.687492
 11
-255.040619
 21
-57.887493
  0
LINE
  8
0
 10
-256.540619
 20
-55.187485
 11
-255.040619
 21
-54.987488
  0
LINE
  8
0
 10
-256.540619
 20
-57.887501
 11
-256.540619
 21
-54.987499
  0
LINE
  8
0
 10
-253.540619
 20
-66.437500
 11
-253.540619
 21
-64.437500
  0
LINE
  8
0
 10
-238.540619
 20
-66.437500
 11
-238.540619
 21
-64.437500
  0
LINE
  8
0
 10
-253.540619
 20
-64.437500
 11
-238.540619
 21
-64.437500
  0
LINE
  8
0
 10
-249.540619
 20
-51.476727
 11
-248.940613
 21
-50.437496
  0
LINE
  8
0
 10
-242.540619
 20
-51.476734
 11
-243.140610
 21
-50.437504
  0
LINE
  8
0
 10
-256.040619
 20
-73.937500
 11
-236.040619
 21
-73.937500
  0
LINE
  8
0
 10
-236.040619
 20
-73.937500
 11
-235.757782
 21
-73.654655
  0
LINE
  8
0
 10
-235.757782
 20
-73.654663
 11
-236.795654
 21
-72.616791
  0
LINE
  8
0
 10
-256.040619
 20
-66.437500
 11
-236.040619
 21
-66.437500
  0
LINE
  8
0
 10
-236.040619
 20
-71.437500
 11
-236.040619
 21
-66.437500
  0
LINE
  8
0
 10
-236.795654
 20
-72.192520
 11
-236.040619
 21
-71.437500
  0
LINE
  8
0
 10
-256.323456
 20
-73.654655
 11
-255.285599
 21
-72.616783
  0
LINE
  8
0
 10
-255.285583
 20
-72.192520
 11
-256.040619
 21
-71.437492
  0
LINE
  8
0
 10
-256.040619
 20
-73.937492
 11
-256.323456
 21
-73.654648
  0
LINE
  8
0
 10
-256.040619
 20
-71.437500
 11
-256.040619
 21
-66.437500
  0
LINE
  8
0
 10
-236.040619
 20
-71.437500
 11
-256.040619
 21
-71.437500
  0
LINE
  8
0
 10
-256.323456
 20
-73.654655
 11
-235.757782
 21
-73.654655
  0
LINE
  8
0
 10
-237.440613
 20
-72.404663
 11
-254.780624
 21
-72.404663
  0
ARC
  8
0
 10
-250.358994
 20
-41.604385
 40
2.583115
 50
236.342697
 51
303.657318
  0
ARC
  8
0
 10
-241.722244
 20
-41.604385
 40
2.583115
 50
236.342697
 51
303.657318
  0
ARC
  8
0
 10
-246.040619
 20
-34.348518
 40
9.838984
 50
252.938431
 51
287.061554
  0
ARC
  8
0
 10
-241.722244
 20
-43.770615
 40
2.583115
 50
56.342693
 51
123.657310
  0
ARC
  8
0
 10
-246.040619
 20
-51.026485
 40
9.838984
 50
72.938438
 51
107.061470
  0
ARC
  8
0
 10
-250.358994
 20
-43.770615
 40
2.583115
 50
56.342693
 51
123.657310
  0
ARC
  8
0
 10
-241.722244
 20
-46.770615
 40
2.583115
 50
56.342693
 51
123.657310
  0
ARC
  8
0
 10
-246.040619
 20
-54.026485
 40
9.838984
 50
72.938438
 51
107.061470
  0
ARC
  8
0
 10
-250.358994
 20
-46.770615
 40
2.583115
 50
56.342693
 51
123.657310
  0
ARC
  8
0
 10
-250.358994
 20
-44.604385
 40
2.583115
 50
236.342697
 51
303.657318
  0
ARC
  8
0
 10
-246.040619
 20
-37.348518
 40
9.838984
 50
252.938431
 51
287.061554
  0
ARC
  8
0
 10
-241.722244
 20
-44.604385
 40
2.583115
 50
236.342697
 51
303.657318
  0
ARC
  8
0
 10
-251.404526
 20
-58.609188
 40
1.263913
 50
324.813690
 51
35.186165
  0
ARC
  8
0
 10
-251.404526
 20
-54.265812
 40
1.263913
 50
324.813690
 51
35.186165
  0
ARC
  8
0
 10
-254.766678
 20
-56.437500
 40
4.626064
 50
341.819641
 51
18.180359
  0
ARC
  8
0
 10
-243.868927
 20
-35.573593
 40
1.263915
 50
234.813553
 51
305.185883
  0
ARC
  8
0
 10
-246.040619
 20
-32.211441
 40
4.626064
 50
251.819641
 51
288.180359
  0
ARC
  8
0
 10
-248.212311
 20
-35.201416
 40
1.263915
 50
54.813553
 51
125.185783
  0
ARC
  8
0
 10
-248.212311
 20
-35.573593
 40
1.263906
 50
234.814117
 51
305.186432
  0
ARC
  8
0
 10
-243.868927
 20
-35.201416
 40
1.263915
 50
54.813553
 51
125.186348
  0
ARC
  8
0
 10
-246.040619
 20
-38.563568
 40
4.626067
 50
71.819656
 51
83.795174
  0
ARC
  8
0
 10
-254.940613
 20
-57.787498
 40
0.099998
 50
90.000000
 51
180.000000
  0
ARC
  8
0
 10
-254.940613
 20
-55.087498
 40
0.100006
 50
180.000000
 51
270.000000
  0
ARC
  8
0
 10
-253.140625
 20
-55.087498
 40
0.099998
 50
270.000000
 51
0.000000
  0
ARC
  8
0
 10
-253.140625
 20
-57.787498
 40
0.100006
 50
0.000000
 51
90.000000
  0
ARC
  8
0
 10
-251.776703
 20
-54.265812
 40
1.263913
 50
144.813690
 51
215.186157
  0
ARC
  8
0
 10
-251.776703
 20
-58.609188
 40
1.263913
 50
144.813690
 51
215.186157
  0
ARC
  8
0
 10
-248.414551
 20
-56.437500
 40
4.626065
 50
161.819595
 51
198.180313
  0
ARC
  8
0
 10
-246.040619
 20
-38.563568
 40
4.626069
 50
96.204826
 51
108.180344
  0
ARC
  8
0
 10
-257.840607
 20
-57.512398
 40
0.200012
 50
180.000000
 51
262.397980
  0
ARC
  8
0
 10
-257.840607
 20
-55.362602
 40
0.200004
 50
97.602013
 51
180.000000
  0
ARC
  8
0
 10
-236.583511
 20
-72.404655
 40
0.299994
 50
135.000000
 51
225.001038
  0
ARC
  8
0
 10
-255.497726
 20
-72.404655
 40
0.299999
 50
314.998962
 51
45.000000
  0
POINT
  8
0
 10
-246.040619
 20
-138.062500
  0
POINT
  8
0
 10
-235.757782
 20
-138.062500
  0
LINE
  8
0
 10
-258.040619
 20
-139.137405
 11
-258.040619
 21
-136.987610
  0
LINE
  8
0
 10
-256.540619
 20
-139.512497
 11
-256.540619
 21
-136.612503
  0
LINE
  8
0
 10
-256.540619
 20
-139.312515
 11
-255.891281
 21
-139.399094
  0
LINE
  8
0
 10
-256.540619
 20
-136.812500
 11
-255.891266
 21
-136.725906
  0
LINE
  8
0
 10
-257.867065
 20
-139.335648
 11
-256.540619
 21
-139.512497
  0
LINE
  8
0
 10
-257.867065
 20
-136.789352
 11
-256.540619
 21
-136.612503
  0
LINE
  8
0
 10
-260.343658
 20
-138.062500
 11
-233.748138
 21
-138.062500
  0
LINE
  8
0
 10
-252.540619
 20
-141.562500
 11
-239.540619
 21
-141.562500
  0
LINE
  8
0
 10
-252.540619
 20
-134.562500
 11
-239.540619
 21
-134.562500
  0
LINE
  8
0
 10
-243.153870
 20
-143.062500
 11
-242.287842
 21
-141.562500
  0
LINE
  8
0
 10
-249.793396
 20
-134.562500
 11
-248.927368
 21
-133.062500
  0
LINE
  8
0
 10
-248.927368
 20
-143.062500
 11
-249.793396
 21
-141.562500
  0
LINE
  8
0
 10
-242.287842
 20
-134.562500
 11
-243.153870
 21
-133.062500
  0
LINE
  8
0
 10
-248.927368
 20
-143.062500
 11
-243.153870
 21
-143.062500
  0
LINE
  8
0
 10
-248.927368
 20
-133.062500
 11
-243.153870
 21
-133.062500
  0
LINE
  8
0
 10
-256.707275
 20
-138.062500
 11
-235.373947
 21
-138.062500
  0
LINE
  8
0
 10
-246.040619
 20
-143.412506
 11
-246.040619
 21
-132.612503
  0
LINE
  8
0
 10
-236.040619
 20
-138.062500
 11
-236.040619
 21
-138.062500
  0
LINE
  8
0
 10
-256.040619
 20
-138.062500
 11
-256.040619
 21
-138.062500
  0
LINE
  8
0
 10
-254.540619
 20
-138.062500
 11
-254.540619
 21
-138.062500
  0
LINE
  8
0
 10
-237.540619
 20
-138.062500
 11
-237.540619
 21
-138.062500
  0
LINE
  8
0
 10
-256.040619
 20
-138.062500
 11
-256.040619
 21
-138.062500
  0
LINE
  8
0
 10
-236.040619
 20
-138.062500
 11
-236.040619
 21
-138.062500
  0
LINE
  8
0
 10
-253.540619
 20
-137.062500
 11
-238.540619
 21
-137.062500
  0
LINE
  8
0
 10
-253.540619
 20
-139.062500
 11
-238.540619
 21
-139.062500
  0
LINE
  8
0
 10
-254.040619
 20
-136.062500
 11
-238.040619
 21
-136.062500
  0
LINE
  8
0
 10
-254.040619
 20
-140.062500
 11
-238.040619
 21
-140.062500
  0
LINE
  8
0
 10
-256.323456
 20
-138.062500
 11
-256.323456
 21
-138.062500
  0
LINE
  8
0
 10
-235.757782
 20
-138.062500
 11
-235.757782
 21
-138.062500
  0
LINE
  8
0
 10
-254.040619
 20
-140.345337
 11
-238.040619
 21
-140.345337
  0
LINE
  8
0
 10
-254.040619
 20
-135.779663
 11
-238.040619
 21
-135.779663
  0
ARC
  8
0
 10
-257.840637
 20
-136.987610
 40
0.200011
 50
97.592911
 51
180.000000
  0
ARC
  8
0
 10
-257.840637
 20
-139.137405
 40
0.199982
 50
180.000000
 51
262.406525
  0
ARC
  8
0
 10
-239.540619
 20
-138.062500
 40
3.500000
 50
270.000000
 51
332.206177
  0
ARC
  8
0
 10
-239.540619
 20
-138.062500
 40
3.499997
 50
27.793839
 51
90.000000
  0
ARC
  8
0
 10
-252.540619
 20
-138.062500
 40
3.500000
 50
90.000000
 51
152.206161
  0
ARC
  8
0
 10
-252.540619
 20
-138.062500
 40
3.499997
 50
207.793839
 51
270.000000
  0
ARC
  8
0
 10
-246.040619
 20
-138.062500
 40
5.000000
 50
90.000000
 51
135.572952
  0
ARC
  8
0
 10
-246.040619
 20
-138.062500
 40
4.999997
 50
44.427044
 51
90.000000
  0
ARC
  8
0
 10
-246.040619
 20
-138.062500
 40
4.999997
 50
224.427048
 51
315.572968
  0
CIRCLE
  8
0
 10
-246.040619
 20
-138.062500
 40
1.000000
  0
ARC
  8
0
 10
-238.040619
 20
-138.062500
 40
2.000000
 50
270.000000
 51
90.000000
  0
ARC
  8
0
 10
-254.040619
 20
-138.062500
 40
2.000000
 50
90.000000
 51
270.000000
  0
ARC
  8
0
 10
-253.540619
 20
-138.062500
 40
1.000000
 50
90.000000
 51
270.000000
  0
ARC
  8
0
 10
-238.540619
 20
-138.062500
 40
1.000000
 50
270.000000
 51
90.000000
  0
ARC
  8
0
 10
-238.040619
 20
-138.062500
 40
2.282837
 50
270.000000
 51
90.000000
  0
ARC
  8
0
 10
-254.040619
 20
-138.062500
 40
2.282837
 50
90.000000
 51
270.000000
  0
POINT
  8
0
 10
-175.621887
 20
-44.187500
  0
POINT
  8
0
 10
-169.871887
 20
-44.187500
  0
LINE
  8
0
 10
-172.121887
 20
-64.437500
 11
-172.121887
 21
-47.187500
  0
LINE
  8
0
 10
-179.121887
 20
-64.437500
 11
-179.121887
 21
-47.187500
  0
LINE
  8
0
 10
-179.121887
 20
-50.437500
 11
-172.121887
 21
-50.437500
  0
LINE
  8
0
 10
-178.621887
 20
-37.437500
 11
-172.621887
 21
-37.437500
  0
LINE
  8
0
 10
-178.621887
 20
-37.437504
 11
-179.121887
 21
-37.937504
  0
LINE
  8
0
 10
-172.621887
 20
-37.437504
 11
-172.121887
 21
-37.937500
  0
LINE
  8
0
 10
-172.121887
 20
-37.937500
 11
-179.121887
 21
-37.937500
  0
LINE
  8
0
 10
-172.721893
 20
-50.437500
 11
-172.721893
 21
-47.187500
  0
LINE
  8
0
 10
-178.521881
 20
-50.437500
 11
-178.521881
 21
-47.187500
  0
LINE
  8
0
 10
-179.121887
 20
-52.937500
 11
-172.121887
 21
-52.937500
  0
LINE
  8
0
 10
-190.116562
 20
-56.437500
 11
-176.955215
 21
-56.437500
  0
LINE
  8
0
 10
-180.621887
 20
-47.187500
 11
-170.621887
 21
-47.187500
  0
LINE
  8
0
 10
-180.621887
 20
-44.187500
 11
-170.621887
 21
-44.187500
  0
LINE
  8
0
 10
-180.621887
 20
-41.187500
 11
-170.621887
 21
-41.187500
  0
LINE
  8
0
 10
-169.871887
 20
-46.754486
 11
-169.871887
 21
-44.620514
  0
LINE
  8
0
 10
-181.371887
 20
-46.754486
 11
-181.371887
 21
-44.620514
  0
LINE
  8
0
 10
-172.121887
 20
-41.187500
 11
-172.121887
 21
-37.937500
  0
LINE
  8
0
 10
-172.721893
 20
-41.187500
 11
-172.721893
 21
-37.437500
  0
LINE
  8
0
 10
-178.521881
 20
-41.187500
 11
-178.521881
 21
-37.437500
  0
LINE
  8
0
 10
-179.121887
 20
-41.187500
 11
-179.121887
 21
-37.937500
  0
LINE
  8
0
 10
-170.621887
 20
-44.187489
 11
-169.871887
 21
-43.754478
  0
LINE
  8
0
 10
-180.621887
 20
-44.187496
 11
-181.371887
 21
-43.754486
  0
LINE
  8
0
 10
-170.621872
 20
-41.187485
 11
-169.871872
 21
-41.620495
  0
LINE
  8
0
 10
-180.621902
 20
-41.187481
 11
-181.371902
 21
-41.620491
  0
LINE
  8
0
 10
-170.621872
 20
-44.187485
 11
-169.871872
 21
-44.620499
  0
LINE
  8
0
 10
-180.621902
 20
-44.187485
 11
-181.371902
 21
-44.620495
  0
LINE
  8
0
 10
-180.621887
 20
-47.187496
 11
-181.371887
 21
-46.754482
  0
LINE
  8
0
 10
-170.621887
 20
-47.187492
 11
-169.871887
 21
-46.754478
  0
LINE
  8
0
 10
-169.871887
 20
-43.754486
 11
-169.871887
 21
-41.620510
  0
LINE
  8
0
 10
-181.371887
 20
-43.754486
 11
-181.371887
 21
-41.620510
  0
LINE
  8
0
 10
-178.508636
 20
-46.754486
 11
-178.508636
 21
-44.620514
  0
LINE
  8
0
 10
-178.508713
 20
-43.754486
 11
-178.508713
 21
-41.620510
  0
LINE
  8
0
 10
-172.735229
 20
-41.620514
 11
-172.735229
 21
-43.754490
  0
LINE
  8
0
 10
-172.735153
 20
-44.620514
 11
-172.735153
 21
-46.754486
  0
LINE
  8
0
 10
-179.721893
 20
-53.937496
 11
-179.952835
 21
-53.537502
  0
LINE
  8
0
 10
-179.721893
 20
-58.937496
 11
-179.952820
 21
-59.337494
  0
LINE
  8
0
 10
-173.121887
 20
-36.837494
 11
-172.721893
 21
-36.606556
  0
LINE
  8
0
 10
-174.178513
 20
-36.606560
 11
-174.178513
 21
-34.168434
  0
LINE
  8
0
 10
-177.793579
 20
-33.937500
 11
-176.121887
 21
-33.937500
  0
LINE
  8
0
 10
-178.121887
 20
-36.837494
 11
-178.521881
 21
-36.606556
  0
LINE
  8
0
 10
-178.521881
 20
-36.606567
 11
-178.521881
 21
-34.168442
  0
LINE
  8
0
 10
-172.721893
 20
-36.606567
 11
-172.721893
 21
-34.168442
  0
LINE
  8
0
 10
-177.065323
 20
-34.168434
 11
-177.065323
 21
-36.606567
  0
LINE
  8
0
 10
-172.821884
 20
-37.437500
 11
-172.821884
 21
-36.837502
  0
LINE
  8
0
 10
-178.421890
 20
-36.837502
 11
-172.821884
 21
-36.837502
  0
LINE
  8
0
 10
-178.421890
 20
-37.437500
 11
-178.421890
 21
-36.837502
  0
LINE
  8
0
 10
-175.621887
 20
-77.796883
 11
-175.621887
 21
-31.552849
  0
LINE
  8
0
 10
-184.621887
 20
-57.887501
 11
-184.621887
 21
-54.987495
  0
LINE
  8
0
 10
-184.521881
 20
-57.687500
 11
-182.721893
 21
-57.687500
  0
LINE
  8
0
 10
-184.521881
 20
-55.187500
 11
-182.721893
 21
-55.187500
  0
LINE
  8
0
 10
-182.621887
 20
-58.609188
 11
-182.621887
 21
-54.265812
  0
LINE
  8
0
 10
-179.952820
 20
-59.337502
 11
-182.390945
 21
-59.337502
  0
LINE
  8
0
 10
-179.952820
 20
-53.537498
 11
-182.390945
 21
-53.537498
  0
LINE
  8
0
 10
-179.952820
 20
-54.994125
 11
-182.390945
 21
-54.994125
  0
LINE
  8
0
 10
-182.390945
 20
-57.880936
 11
-179.952820
 21
-57.880936
  0
LINE
  8
0
 10
-179.721893
 20
-59.237499
 11
-179.721893
 21
-53.637501
  0
LINE
  8
0
 10
-179.121887
 20
-59.237499
 11
-179.721878
 21
-59.237499
  0
LINE
  8
0
 10
-179.121887
 20
-53.637501
 11
-179.721878
 21
-53.637501
  0
LINE
  8
0
 10
-176.121887
 20
-33.937500
 11
-176.121887
 21
-34.937500
  0
LINE
  8
0
 10
-176.121887
 20
-34.937500
 11
-175.121887
 21
-34.937500
  0
LINE
  8
0
 10
-175.121887
 20
-34.937500
 11
-175.121887
 21
-33.937500
  0
LINE
  8
0
 10
-175.121887
 20
-33.937500
 11
-173.450195
 21
-33.937500
  0
LINE
  8
0
 10
-187.621887
 20
-57.512398
 11
-187.621887
 21
-55.362602
  0
LINE
  8
0
 10
-187.448318
 20
-57.710640
 11
-186.121887
 21
-57.887497
  0
LINE
  8
0
 10
-187.448334
 20
-55.164349
 11
-186.121887
 21
-54.987492
  0
LINE
  8
0
 10
-186.121887
 20
-57.687492
 11
-184.621887
 21
-57.887493
  0
LINE
  8
0
 10
-186.121887
 20
-55.187485
 11
-184.621887
 21
-54.987488
  0
LINE
  8
0
 10
-186.121887
 20
-57.887501
 11
-186.121887
 21
-54.987499
  0
LINE
  8
0
 10
-183.121887
 20
-66.437500
 11
-183.121887
 21
-64.437500
  0
LINE
  8
0
 10
-168.121887
 20
-66.437500
 11
-168.121887
 21
-64.437500
  0
LINE
  8
0
 10
-183.121887
 20
-64.437500
 11
-168.121887
 21
-64.437500
  0
LINE
  8
0
 10
-179.121887
 20
-51.476727
 11
-178.521881
 21
-50.437496
  0
LINE
  8
0
 10
-172.121887
 20
-51.476734
 11
-172.721878
 21
-50.437504
  0
LINE
  8
0
 10
-185.621887
 20
-73.937500
 11
-165.621887
 21
-73.937500
  0
LINE
  8
0
 10
-165.621887
 20
-73.937500
 11
-165.339050
 21
-73.654655
  0
LINE
  8
0
 10
-165.339050
 20
-73.654663
 11
-166.376923
 21
-72.616791
  0
LINE
  8
0
 10
-185.621887
 20
-66.437500
 11
-165.621887
 21
-66.437500
  0
LINE
  8
0
 10
-165.621887
 20
-71.437500
 11
-165.621887
 21
-66.437500
  0
LINE
  8
0
 10
-166.376923
 20
-72.192520
 11
-165.621887
 21
-71.437500
  0
LINE
  8
0
 10
-185.904724
 20
-73.654655
 11
-184.866867
 21
-72.616783
  0
LINE
  8
0
 10
-184.866852
 20
-72.192520
 11
-185.621887
 21
-71.437492
  0
LINE
  8
0
 10
-185.621887
 20
-73.937492
 11
-185.904724
 21
-73.654648
  0
LINE
  8
0
 10
-185.621887
 20
-71.437500
 11
-185.621887
 21
-66.437500
  0
LINE
  8
0
 10
-165.621887
 20
-71.437500
 11
-185.621887
 21
-71.437500
  0
LINE
  8
0
 10
-185.904739
 20
-73.654655
 11
-165.339050
 21
-73.654655
  0
LINE
  8
0
 10
-167.021881
 20
-72.404663
 11
-184.361893
 21
-72.404663
  0
ARC
  8
0
 10
-179.940262
 20
-41.604385
 40
2.583115
 50
236.342697
 51
303.657318
  0
ARC
  8
0
 10
-171.303513
 20
-41.604385
 40
2.583115
 50
236.342697
 51
303.657318
  0
ARC
  8
0
 10
-175.621887
 20
-34.348518
 40
9.838984
 50
252.938431
 51
287.061554
  0
ARC
  8
0
 10
-171.303513
 20
-43.770615
 40
2.583115
 50
56.342693
 51
123.657310
  0
ARC
  8
0
 10
-175.621887
 20
-51.026485
 40
9.838984
 50
72.938438
 51
107.061470
  0
ARC
  8
0
 10
-179.940262
 20
-43.770615
 40
2.583115
 50
56.342693
 51
123.657310
  0
ARC
  8
0
 10
-171.303513
 20
-46.770615
 40
2.583115
 50
56.342693
 51
123.657310
  0
ARC
  8
0
 10
-175.621887
 20
-54.026485
 40
9.838984
 50
72.938438
 51
107.061470
  0
ARC
  8
0
 10
-179.940262
 20
-46.770615
 40
2.583115
 50
56.342693
 51
123.657310
  0
ARC
  8
0
 10
-179.940262
 20
-44.604385
 40
2.583115
 50
236.342697
 51
303.657318
  0
ARC
  8
0
 10
-175.621887
 20
-37.348518
 40
9.838984
 50
252.938431
 51
287.061554
  0
ARC
  8
0
 10
-171.303513
 20
-44.604385
 40
2.583115
 50
236.342697
 51
303.657318
  0
ARC
  8
0
 10
-180.985794
 20
-58.609188
 40
1.263913
 50
324.813690
 51
35.186165
  0
ARC
  8
0
 10
-180.985794
 20
-54.265812
 40
1.263913
 50
324.813690
 51
35.186165
  0
ARC
  8
0
 10
-184.347946
 20
-56.437500
 40
4.626064
 50
341.819641
 51
18.180359
  0
ARC
  8
0
 10
-173.450195
 20
-35.573593
 40
1.263915
 50
234.813553
 51
305.185883
  0
ARC
  8
0
 10
-175.621887
 20
-32.211441
 40
4.626064
 50
251.819641
 51
288.180359
  0
ARC
  8
0
 10
-177.793579
 20
-35.201416
 40
1.263915
 50
54.813553
 51
125.185783
  0
ARC
  8
0
 10
-177.793579
 20
-35.573593
 40
1.263906
 50
234.814117
 51
305.186432
  0
ARC
  8
0
 10
-173.450195
 20
-35.201416
 40
1.263915
 50
54.813553
 51
125.186348
  0
ARC
  8
0
 10
-175.621887
 20
-38.563568
 40
4.626067
 50
71.819656
 51
83.795174
  0
ARC
  8
0
 10
-184.521881
 20
-57.787498
 40
0.099998
 50
90.000000
 51
180.000000
  0
ARC
  8
0
 10
-184.521881
 20
-55.087498
 40
0.100006
 50
180.000000
 51
270.000000
  0
ARC
  8
0
 10
-182.721893
 20
-55.087498
 40
0.099998
 50
270.000000
 51
0.000000
  0
ARC
  8
0
 10
-182.721893
 20
-57.787498
 40
0.100006
 50
0.000000
 51
90.000000
  0
ARC
  8
0
 10
-181.357971
 20
-54.265812
 40
1.263913
 50
144.813690
 51
215.186157
  0
ARC
  8
0
 10
-181.357971
 20
-58.609188
 40
1.263913
 50
144.813690
 51
215.186157
  0
ARC
  8
0
 10
-177.995819
 20
-56.437500
 40
4.626065
 50
161.819595
 51
198.180313
  0
ARC
  8
0
 10
-175.621887
 20
-38.563568
 40
4.626069
 50
96.204826
 51
108.180344
  0
ARC
  8
0
 10
-187.421890
 20
-57.512398
 40
0.199997
 50
180.000000
 51
262.406647
  0
ARC
  8
0
 10
-187.421890
 20
-55.362602
 40
0.200000
 50
97.593346
 51
180.000000
  0
ARC
  8
0
 10
-166.164780
 20
-72.404655
 40
0.299994
 50
135.000000
 51
225.001038
  0
ARC
  8
0
 10
-185.078995
 20
-72.404655
 40
0.299999
 50
314.998962
 51
45.000000
  0
POINT
  8
0
 10
-175.621887
 20
-138.062500
  0
POINT
  8
0
 10
-165.339050
 20
-138.062500
  0
LINE
  8
0
 10
-187.621887
 20
-139.137405
 11
-187.621887
 21
-136.987610
  0
LINE
  8
0
 10
-186.121887
 20
-139.512497
 11
-186.121887
 21
-136.612503
  0
LINE
  8
0
 10
-186.121902
 20
-139.312515
 11
-185.569794
 21
-139.386124
  0
LINE
  8
0
 10
-186.121887
 20
-136.812500
 11
-185.569794
 21
-136.738876
  0
LINE
  8
0
 10
-187.448318
 20
-139.335648
 11
-186.121887
 21
-139.512497
  0
LINE
  8
0
 10
-187.448334
 20
-136.789352
 11
-186.121887
 21
-136.612503
  0
LINE
  8
0
 10
-189.924927
 20
-138.062500
 11
-163.329407
 21
-138.062500
  0
LINE
  8
0
 10
-175.621887
 20
-145.183716
 11
-175.621887
 21
-131.092804
  0
LINE
  8
0
 10
-182.121887
 20
-141.562500
 11
-169.121887
 21
-141.562500
  0
LINE
  8
0
 10
-182.121887
 20
-134.562500
 11
-169.121887
 21
-134.562500
  0
LINE
  8
0
 10
-172.735138
 20
-143.062500
 11
-171.869110
 21
-141.562500
  0
LINE
  8
0
 10
-179.374664
 20
-134.562500
 11
-178.508636
 21
-133.062500
  0
LINE
  8
0
 10
-178.508636
 20
-143.062500
 11
-179.374664
 21
-141.562500
  0
LINE
  8
0
 10
-171.869110
 20
-134.562500
 11
-172.735138
 21
-133.062500
  0
LINE
  8
0
 10
-178.508636
 20
-143.062500
 11
-172.735138
 21
-143.062500
  0
LINE
  8
0
 10
-178.508636
 20
-133.062500
 11
-172.735138
 21
-133.062500
  0
LINE
  8
0
 10
-186.275375
 20
-138.062500
 11
-164.951187
 21
-138.062500
  0
LINE
  8
0
 10
-175.621887
 20
-142.299164
 11
-175.621887
 21
-133.852509
  0
LINE
  8
0
 10
-165.621887
 20
-138.062500
 11
-165.621887
 21
-138.062500
  0
LINE
  8
0
 10
-185.621887
 20
-138.062500
 11
-185.621887
 21
-138.062500
  0
LINE
  8
0
 10
-184.121887
 20
-138.062500
 11
-184.121887
 21
-138.062500
  0
LINE
  8
0
 10
-167.121887
 20
-138.062500
 11
-167.121887
 21
-138.062500
  0
LINE
  8
0
 10
-185.621887
 20
-138.062500
 11
-185.621887
 21
-138.062500
  0
LINE
  8
0
 10
-165.621887
 20
-138.062500
 11
-165.621887
 21
-138.062500
  0
LINE
  8
0
 10
-185.904724
 20
-138.062500
 11
-185.904724
 21
-138.062500
  0
LINE
  8
0
 10
-165.339050
 20
-138.062500
 11
-165.339050
 21
-138.062500
  0
LINE
  8
0
 10
-184.121887
 20
-138.062500
 11
-184.121887
 21
-138.062500
  0
LINE
  8
0
 10
-167.121887
 20
-138.062500
 11
-167.121887
 21
-138.062500
  0
LINE
  8
0
 10
-165.621887
 20
-138.062500
 11
-165.621887
 21
-138.062500
  0
LINE
  8
0
 10
-185.621887
 20
-138.062500
 11
-185.621887
 21
-138.062500
  0
LINE
  8
0
 10
-182.721893
 20
-139.462494
 11
-168.521881
 21
-139.462494
  0
LINE
  8
0
 10
-182.721893
 20
-136.662506
 11
-168.521881
 21
-136.662506
  0
LINE
  8
0
 10
-183.121887
 20
-140.562500
 11
-168.121887
 21
-140.562500
  0
LINE
  8
0
 10
-183.121887
 20
-135.562500
 11
-168.121887
 21
-135.562500
  0
LINE
  8
0
 10
-165.621887
 20
-138.062500
 11
-165.621887
 21
-138.062500
  0
LINE
  8
0
 10
-185.621887
 20
-138.062500
 11
-185.621887
 21
-138.062500
  0
LINE
  8
0
 10
-185.904724
 20
-138.062500
 11
-185.904724
 21
-138.062500
  0
LINE
  8
0
 10
-165.339050
 20
-138.062500
 11
-165.339050
 21
-138.062500
  0
LINE
  8
0
 10
-183.121887
 20
-140.845337
 11
-168.121887
 21
-140.845337
  0
LINE
  8
0
 10
-183.121887
 20
-135.279663
 11
-168.121887
 21
-135.279663
  0
ARC
  8
0
 10
-187.421890
 20
-136.987610
 40
0.200011
 50
97.592911
 51
180.000000
  0
ARC
  8
0
 10
-187.421890
 20
-139.137405
 40
0.199997
 50
180.000000
 51
262.406525
  0
ARC
  8
0
 10
-169.121887
 20
-138.062500
 40
3.500000
 50
270.000000
 51
321.863220
  0
ARC
  8
0
 10
-169.121887
 20
-138.062500
 40
3.499989
 50
38.136589
 51
90.000000
  0
ARC
  8
0
 10
-175.621887
 20
-138.062500
 40
5.000000
 50
90.000000
 51
135.572952
  0
ARC
  8
0
 10
-175.621887
 20
-138.062500
 40
4.999997
 50
44.427044
 51
90.000000
  0
ARC
  8
0
 10
-175.621887
 20
-138.062500
 40
4.999997
 50
224.427048
 51
315.572968
  0
CIRCLE
  8
0
 10
-175.621887
 20
-138.062500
 40
1.000000
  0
ARC
  8
0
 10
-169.121887
 20
-138.062500
 40
3.500000
 50
270.000000
 51
321.863556
  0
ARC
  8
0
 10
-182.121887
 20
-138.062500
 40
3.500000
 50
90.000000
 51
141.863571
  0
ARC
  8
0
 10
-182.121887
 20
-138.062500
 40
3.500001
 50
218.136429
 51
270.000000
  0
ARC
  8
0
 10
-169.121887
 20
-138.062500
 40
3.500001
 50
38.136436
 51
90.000000
  0
ARC
  8
0
 10
-168.521881
 20
-138.062500
 40
1.399994
 50
270.000000
 51
90.000000
  0
ARC
  8
0
 10
-182.721893
 20
-138.062500
 40
1.399994
 50
90.000000
 51
270.000000
  0
ARC
  8
0
 10
-168.121887
 20
-138.062500
 40
2.782837
 50
270.000000
 51
90.000000
  0
ARC
  8
0
 10
-168.121887
 20
-138.062500
 40
2.500000
 50
270.000000
 51
90.000000
  0
ARC
  8
0
 10
-183.121887
 20
-138.062500
 40
2.500000
 50
90.000000
 51
270.000000
  0
ARC
  8
0
 10
-183.121887
 20
-138.062500
 40
2.782837
 50
90.000000
 51
270.000000
  0
POINT
  8
0
 10
-105.203133
 20
-44.187500
  0
POINT
  8
0
 10
-99.453133
 20
-44.187500
  0
LINE
  8
0
 10
-101.703133
 20
-64.437500
 11
-101.703133
 21
-47.187500
  0
LINE
  8
0
 10
-108.703133
 20
-64.437500
 11
-108.703133
 21
-47.187500
  0
LINE
  8
0
 10
-108.703133
 20
-50.437500
 11
-101.703133
 21
-50.437500
  0
LINE
  8
0
 10
-108.203133
 20
-37.437500
 11
-102.203133
 21
-37.437500
  0
LINE
  8
0
 10
-108.203133
 20
-37.437504
 11
-108.703133
 21
-37.937504
  0
LINE
  8
0
 10
-102.203133
 20
-37.437504
 11
-101.703133
 21
-37.937500
  0
LINE
  8
0
 10
-101.703133
 20
-37.937500
 11
-108.703133
 21
-37.937500
  0
LINE
  8
0
 10
-102.303131
 20
-50.437500
 11
-102.303131
 21
-47.187500
  0
LINE
  8
0
 10
-108.103134
 20
-50.437500
 11
-108.103134
 21
-47.187500
  0
LINE
  8
0
 10
-108.703133
 20
-52.937500
 11
-101.703133
 21
-52.937500
  0
LINE
  8
0
 10
-119.425110
 20
-56.437500
 11
-106.536469
 21
-56.437500
  0
LINE
  8
0
 10
-110.203133
 20
-47.187500
 11
-100.203133
 21
-47.187500
  0
LINE
  8
0
 10
-110.203125
 20
-44.187500
 11
-100.203133
 21
-44.187500
  0
LINE
  8
0
 10
-110.203133
 20
-41.187500
 11
-100.203125
 21
-41.187500
  0
LINE
  8
0
 10
-99.453133
 20
-46.754486
 11
-99.453133
 21
-44.620514
  0
LINE
  8
0
 10
-110.953133
 20
-46.754486
 11
-110.953133
 21
-44.620514
  0
LINE
  8
0
 10
-101.703133
 20
-41.187500
 11
-101.703133
 21
-37.937500
  0
LINE
  8
0
 10
-102.303131
 20
-41.187500
 11
-102.303131
 21
-37.437500
  0
LINE
  8
0
 10
-108.103134
 20
-41.187500
 11
-108.103134
 21
-37.437500
  0
LINE
  8
0
 10
-108.703133
 20
-41.187500
 11
-108.703133
 21
-37.937500
  0
LINE
  8
0
 10
-100.203133
 20
-44.187489
 11
-99.453133
 21
-43.754478
  0
LINE
  8
0
 10
-110.203133
 20
-44.187496
 11
-110.953133
 21
-43.754486
  0
LINE
  8
0
 10
-100.203117
 20
-41.187485
 11
-99.453117
 21
-41.620499
  0
LINE
  8
0
 10
-110.203148
 20
-41.187485
 11
-110.953148
 21
-41.620495
  0
LINE
  8
0
 10
-100.203125
 20
-44.187489
 11
-99.453125
 21
-44.620502
  0
LINE
  8
0
 10
-110.203140
 20
-44.187485
 11
-110.953140
 21
-44.620499
  0
LINE
  8
0
 10
-110.203133
 20
-47.187496
 11
-110.953133
 21
-46.754486
  0
LINE
  8
0
 10
-100.203133
 20
-47.187492
 11
-99.453133
 21
-46.754478
  0
LINE
  8
0
 10
-99.453133
 20
-43.754486
 11
-99.453133
 21
-41.620510
  0
LINE
  8
0
 10
-110.953133
 20
-43.754486
 11
-110.953133
 21
-41.620510
  0
LINE
  8
0
 10
-108.089882
 20
-46.754486
 11
-108.089882
 21
-44.620514
  0
LINE
  8
0
 10
-108.089966
 20
-43.754486
 11
-108.089966
 21
-41.620510
  0
LINE
  8
0
 10
-102.316475
 20
-41.620514
 11
-102.316475
 21
-43.754490
  0
LINE
  8
0
 10
-102.316391
 20
-44.620514
 11
-102.316391
 21
-46.754486
  0
LINE
  8
0
 10
-109.303139
 20
-53.937496
 11
-109.534073
 21
-53.537498
  0
LINE
  8
0
 10
-109.303131
 20
-58.937496
 11
-109.534073
 21
-59.337494
  0
LINE
  8
0
 10
-102.703133
 20
-36.837494
 11
-102.303139
 21
-36.606556
  0
LINE
  8
0
 10
-103.759758
 20
-36.606560
 11
-103.759758
 21
-34.168434
  0
LINE
  8
0
 10
-107.374817
 20
-33.937500
 11
-105.703133
 21
-33.937500
  0
LINE
  8
0
 10
-107.703133
 20
-36.837494
 11
-108.103127
 21
-36.606560
  0
LINE
  8
0
 10
-108.103134
 20
-36.606567
 11
-108.103134
 21
-34.168442
  0
LINE
  8
0
 10
-102.303131
 20
-36.606567
 11
-102.303131
 21
-34.168442
  0
LINE
  8
0
 10
-106.646576
 20
-34.168434
 11
-106.646576
 21
-36.606567
  0
LINE
  8
0
 10
-102.403137
 20
-37.437500
 11
-102.403137
 21
-36.837502
  0
LINE
  8
0
 10
-108.003136
 20
-36.837502
 11
-102.403130
 21
-36.837502
  0
LINE
  8
0
 10
-108.003136
 20
-37.437500
 11
-108.003136
 21
-36.837502
  0
LINE
  8
0
 10
-105.203133
 20
-77.796883
 11
-105.203133
 21
-31.552849
  0
LINE
  8
0
 10
-114.203133
 20
-57.887501
 11
-114.203133
 21
-54.987495
  0
LINE
  8
0
 10
-114.103134
 20
-57.687500
 11
-112.303131
 21
-57.687500
  0
LINE
  8
0
 10
-114.103134
 20
-55.187500
 11
-112.303131
 21
-55.187500
  0
LINE
  8
0
 10
-112.203133
 20
-58.609188
 11
-112.203133
 21
-54.265812
  0
LINE
  8
0
 10
-109.534065
 20
-59.337502
 11
-111.972191
 21
-59.337502
  0
LINE
  8
0
 10
-109.534065
 20
-53.537498
 11
-111.972191
 21
-53.537498
  0
LINE
  8
0
 10
-109.534073
 20
-54.994125
 11
-111.972198
 21
-54.994125
  0
LINE
  8
0
 10
-111.972198
 20
-57.880936
 11
-109.534065
 21
-57.880936
  0
LINE
  8
0
 10
-109.303131
 20
-59.237499
 11
-109.303131
 21
-53.637501
  0
LINE
  8
0
 10
-108.703133
 20
-59.237499
 11
-109.303131
 21
-59.237499
  0
LINE
  8
0
 10
-108.703133
 20
-53.637501
 11
-109.303131
 21
-53.637501
  0
LINE
  8
0
 10
-105.703133
 20
-33.937500
 11
-105.703133
 21
-34.937500
  0
LINE
  8
0
 10
-105.703133
 20
-34.937500
 11
-104.703133
 21
-34.937500
  0
LINE
  8
0
 10
-104.703133
 20
-34.937500
 11
-104.703133
 21
-33.937500
  0
LINE
  8
0
 10
-104.703133
 20
-33.937500
 11
-103.031441
 21
-33.937500
  0
LINE
  8
0
 10
-117.203133
 20
-57.512398
 11
-117.203133
 21
-55.362602
  0
LINE
  8
0
 10
-117.029572
 20
-57.710640
 11
-115.703140
 21
-57.887497
  0
LINE
  8
0
 10
-117.029572
 20
-55.164352
 11
-115.703140
 21
-54.987492
  0
LINE
  8
0
 10
-115.703140
 20
-57.687492
 11
-114.203140
 21
-57.887493
  0
LINE
  8
0
 10
-115.703133
 20
-55.187485
 11
-114.203133
 21
-54.987488
  0
LINE
  8
0
 10
-115.703133
 20
-57.887501
 11
-115.703133
 21
-54.987499
  0
LINE
  8
0
 10
-112.703133
 20
-66.437500
 11
-112.703133
 21
-64.437500
  0
LINE
  8
0
 10
-97.703133
 20
-66.437500
 11
-97.703133
 21
-64.437500
  0
LINE
  8
0
 10
-112.703133
 20
-64.437500
 11
-97.703133
 21
-64.437500
  0
LINE
  8
0
 10
-108.703133
 20
-51.476730
 11
-108.103134
 21
-50.437500
  0
LINE
  8
0
 10
-101.703133
 20
-51.476734
 11
-102.303131
 21
-50.437504
  0
LINE
  8
0
 10
-115.203133
 20
-73.937500
 11
-95.203133
 21
-73.937500
  0
LINE
  8
0
 10
-95.203140
 20
-73.937500
 11
-94.920296
 21
-73.654655
  0
LINE
  8
0
 10
-94.920288
 20
-73.654663
 11
-95.958160
 21
-72.616791
  0
LINE
  8
0
 10
-115.203133
 20
-66.437500
 11
-95.203133
 21
-66.437500
  0
LINE
  8
0
 10
-95.203133
 20
-71.437500
 11
-95.203133
 21
-66.437500
  0
LINE
  8
0
 10
-95.958160
 20
-72.192528
 11
-95.203133
 21
-71.437500
  0
LINE
  8
0
 10
-115.485977
 20
-73.654648
 11
-114.448105
 21
-72.616783
  0
LINE
  8
0
 10
-114.448105
 20
-72.192520
 11
-115.203133
 21
-71.437492
  0
LINE
  8
0
 10
-115.203140
 20
-73.937492
 11
-115.485977
 21
-73.654655
  0
LINE
  8
0
 10
-115.203133
 20
-71.437500
 11
-115.203133
 21
-66.437500
  0
LINE
  8
0
 10
-95.203133
 20
-71.437500
 11
-115.203140
 21
-71.437500
  0
LINE
  8
0
 10
-115.485977
 20
-73.654655
 11
-94.920288
 21
-73.654655
  0
LINE
  8
0
 10
-96.603134
 20
-72.404663
 11
-113.943138
 21
-72.404663
  0
ARC
  8
0
 10
-109.521507
 20
-41.604385
 40
2.583111
 50
236.342834
 51
303.657318
  0
ARC
  8
0
 10
-100.884758
 20
-41.604385
 40
2.583115
 50
236.342697
 51
303.657318
  0
ARC
  8
0
 10
-105.203133
 20
-34.348518
 40
9.838983
 50
252.938477
 51
287.061554
  0
ARC
  8
0
 10
-100.884758
 20
-43.770615
 40
2.583115
 50
56.342693
 51
123.657166
  0
ARC
  8
0
 10
-105.203133
 20
-51.026485
 40
9.838987
 50
72.938393
 51
107.061516
  0
ARC
  8
0
 10
-109.521507
 20
-43.770615
 40
2.583115
 50
56.342693
 51
123.657166
  0
ARC
  8
0
 10
-100.884758
 20
-46.770615
 40
2.583115
 50
56.342693
 51
123.657166
  0
ARC
  8
0
 10
-105.203133
 20
-54.026485
 40
9.838987
 50
72.938393
 51
107.061516
  0
ARC
  8
0
 10
-109.521507
 20
-46.770615
 40
2.583115
 50
56.342693
 51
123.657166
  0
ARC
  8
0
 10
-109.521507
 20
-44.604385
 40
2.583111
 50
236.342834
 51
303.657318
  0
ARC
  8
0
 10
-105.203133
 20
-37.348518
 40
9.838983
 50
252.938477
 51
287.061554
  0
ARC
  8
0
 10
-100.884758
 20
-44.604385
 40
2.583115
 50
236.342697
 51
303.657318
  0
ARC
  8
0
 10
-110.567039
 20
-58.609188
 40
1.263913
 50
324.813690
 51
35.186165
  0
ARC
  8
0
 10
-110.567039
 20
-54.265812
 40
1.263913
 50
324.813690
 51
35.186165
  0
ARC
  8
0
 10
-113.929199
 20
-56.437500
 40
4.626064
 50
341.819641
 51
18.180359
  0
ARC
  8
0
 10
-103.031441
 20
-35.573593
 40
1.263911
 50
234.813843
 51
305.186157
  0
ARC
  8
0
 10
-105.203133
 20
-32.211441
 40
4.626064
 50
251.819641
 51
288.180359
  0
ARC
  8
0
 10
-107.374817
 20
-35.201416
 40
1.263911
 50
54.813835
 51
125.186066
  0
ARC
  8
0
 10
-107.374817
 20
-35.573593
 40
1.263911
 50
234.813843
 51
305.186157
  0
ARC
  8
0
 10
-103.031441
 20
-35.201416
 40
1.263911
 50
54.813835
 51
125.186066
  0
ARC
  8
0
 10
-105.203133
 20
-38.563568
 40
4.626070
 50
71.819565
 51
83.795174
  0
ARC
  8
0
 10
-114.103134
 20
-57.787498
 40
0.099998
 50
90.000000
 51
180.000000
  0
ARC
  8
0
 10
-114.103134
 20
-55.087498
 40
0.099998
 50
180.000000
 51
270.000000
  0
ARC
  8
0
 10
-112.303131
 20
-55.087498
 40
0.099998
 50
270.000000
 51
0.000000
  0
ARC
  8
0
 10
-112.303131
 20
-57.787498
 40
0.099998
 50
0.000000
 51
90.000000
  0
ARC
  8
0
 10
-110.939217
 20
-54.265812
 40
1.263913
 50
144.813690
 51
215.185959
  0
ARC
  8
0
 10
-110.939217
 20
-58.609188
 40
1.263913
 50
144.813690
 51
215.185959
  0
ARC
  8
0
 10
-107.577065
 20
-56.437500
 40
4.626065
 50
161.819595
 51
198.180283
  0
ARC
  8
0
 10
-105.203133
 20
-38.563568
 40
4.626069
 50
96.204826
 51
108.180252
  0
ARC
  8
0
 10
-117.003136
 20
-57.512398
 40
0.199997
 50
180.000000
 51
262.404480
  0
ARC
  8
0
 10
-117.003136
 20
-55.362602
 40
0.200001
 50
97.595512
 51
180.000000
  0
ARC
  8
0
 10
-95.746025
 20
-72.404663
 40
0.300005
 50
135.000000
 51
224.998962
  0
ARC
  8
0
 10
-114.660240
 20
-72.404655
 40
0.299999
 50
314.998962
 51
45.000000
  0
POINT
  8
0
 10
-105.203133
 20
-138.062500
  0
POINT
  8
0
 10
-94.920288
 20
-138.062500
  0
LINE
  8
0
 10
-111.703133
 20
-134.562500
 11
-98.703133
 21
-134.562500
  0
LINE
  8
0
 10
-111.703133
 20
-141.562500
 11
-98.703133
 21
-141.562500
  0
LINE
  8
0
 10
-95.203133
 20
-138.062500
 11
-95.203133
 21
-138.062500
  0
LINE
  8
0
 10
-115.203133
 20
-138.062500
 11
-115.203133
 21
-138.062500
  0
LINE
  8
0
 10
-113.703133
 20
-138.062500
 11
-113.703133
 21
-138.062500
  0
LINE
  8
0
 10
-96.703133
 20
-138.062500
 11
-96.703133
 21
-138.062500
  0
LINE
  8
0
 10
-115.203133
 20
-138.062500
 11
-115.203133
 21
-138.062500
  0
LINE
  8
0
 10
-95.203133
 20
-138.062500
 11
-95.203133
 21
-138.062500
  0
LINE
  8
0
 10
-115.485977
 20
-138.062500
 11
-115.485977
 21
-138.062500
  0
LINE
  8
0
 10
-94.920288
 20
-138.062500
 11
-94.920288
 21
-138.062500
  0
LINE
  8
0
 10
-113.703133
 20
-138.062500
 11
-113.703133
 21
-138.062500
  0
LINE
  8
0
 10
-96.703133
 20
-138.062500
 11
-96.703133
 21
-138.062500
  0
LINE
  8
0
 10
-95.203133
 20
-138.062500
 11
-95.203133
 21
-138.062500
  0
LINE
  8
0
 10
-115.203133
 20
-138.062500
 11
-115.203133
 21
-138.062500
  0
LINE
  8
0
 10
-95.203133
 20
-138.062500
 11
-95.203133
 21
-138.062500
  0
LINE
  8
0
 10
-115.203133
 20
-138.062500
 11
-115.203133
 21
-138.062500
  0
LINE
  8
0
 10
-115.485977
 20
-138.062500
 11
-115.485977
 21
-138.062500
  0
LINE
  8
0
 10
-94.920296
 20
-138.062500
 11
-94.920296
 21
-138.062500
  0
LINE
  8
0
 10
-115.203133
 20
-138.062500
 11
-115.203133
 21
-138.062500
  0
LINE
  8
0
 10
-95.203133
 20
-138.062500
 11
-95.203133
 21
-138.062500
  0
LINE
  8
0
 10
-112.203133
 20
-141.062500
 11
-98.203133
 21
-141.062500
  0
LINE
  8
0
 10
-112.203133
 20
-135.062500
 11
-98.203133
 21
-135.062500
  0
LINE
  8
0
 10
-112.203133
 20
-141.345337
 11
-98.203133
 21
-141.345337
  0
LINE
  8
0
 10
-112.203133
 20
-134.779663
 11
-98.203133
 21
-134.779663
  0
LINE
  8
0
 10
-111.803131
 20
-139.962494
 11
-98.603134
 21
-139.962494
  0
LINE
  8
0
 10
-111.803131
 20
-136.162506
 11
-98.603134
 21
-136.162506
  0
LINE
  8
0
 10
-96.703133
 20
-138.062500
 11
-96.703133
 21
-138.062500
  0
LINE
  8
0
 10
-113.703133
 20
-138.062500
 11
-113.703133
 21
-138.062500
  0
LINE
  8
0
 10
-94.920288
 20
-138.062500
 11
-94.920288
 21
-138.062500
  0
LINE
  8
0
 10
-115.485977
 20
-138.062500
 11
-115.485977
 21
-138.062500
  0
LINE
  8
0
 10
-117.203133
 20
-139.137390
 11
-117.203133
 21
-136.987595
  0
LINE
  8
0
 10
-115.703133
 20
-139.512497
 11
-115.703133
 21
-136.612503
  0
LINE
  8
0
 10
-115.703140
 20
-139.312500
 11
-115.210808
 21
-139.378159
  0
LINE
  8
0
 10
-115.703133
 20
-136.812500
 11
-115.210808
 21
-136.746857
  0
LINE
  8
0
 10
-117.029572
 20
-139.335648
 11
-115.703140
 21
-139.512497
  0
LINE
  8
0
 10
-117.029572
 20
-136.789352
 11
-115.703140
 21
-136.612488
  0
LINE
  8
0
 10
-119.506165
 20
-138.062500
 11
-92.910660
 21
-138.062500
  0
LINE
  8
0
 10
-105.203133
 20
-145.183716
 11
-105.203133
 21
-131.092804
  0
LINE
  8
0
 10
-111.703133
 20
-141.562500
 11
-98.703140
 21
-141.562500
  0
LINE
  8
0
 10
-111.703133
 20
-134.562500
 11
-98.703133
 21
-134.562500
  0
LINE
  8
0
 10
-102.316383
 20
-143.062500
 11
-101.450356
 21
-141.562500
  0
LINE
  8
0
 10
-108.955910
 20
-134.562500
 11
-108.089882
 21
-133.062500
  0
LINE
  8
0
 10
-108.089890
 20
-143.062500
 11
-108.955917
 21
-141.562500
  0
LINE
  8
0
 10
-101.450356
 20
-134.562500
 11
-102.316376
 21
-133.062500
  0
LINE
  8
0
 10
-108.089890
 20
-143.062500
 11
-102.316383
 21
-143.062500
  0
LINE
  8
0
 10
-108.089882
 20
-133.062500
 11
-102.316383
 21
-133.062500
  0
CIRCLE
  8
0
 10
-105.203133
 20
-138.062500
 40
1.000000
  0
ARC
  8
0
 10
-98.703133
 20
-138.062500
 40
3.500000
 50
270.000000
 51
299.490082
  0
ARC
  8
0
 10
-111.703133
 20
-138.062500
 40
3.500000
 50
90.000000
 51
119.490204
  0
ARC
  8
0
 10
-111.703133
 20
-138.062500
 40
3.499996
 50
240.509903
 51
270.000000
  0
ARC
  8
0
 10
-98.703133
 20
-138.062500
 40
3.500003
 50
60.509689
 51
90.470238
  0
ARC
  8
0
 10
-111.803131
 20
-138.062500
 40
1.899994
 50
90.000000
 51
270.000000
  0
ARC
  8
0
 10
-98.603134
 20
-138.062500
 40
1.899994
 50
270.000000
 51
90.000000
  0
ARC
  8
0
 10
-98.203133
 20
-138.062500
 40
3.000000
 50
270.000000
 51
90.000000
  0
ARC
  8
0
 10
-112.203133
 20
-138.062500
 40
3.000000
 50
90.000000
 51
270.000000
  0
ARC
  8
0
 10
-112.203133
 20
-138.062500
 40
3.282837
 50
90.000000
 51
269.999878
  0
ARC
  8
0
 10
-98.203133
 20
-138.062500
 40
3.282837
 50
270.000000
 51
90.000000
  0
ARC
  8
0
 10
-117.003136
 20
-136.987595
 40
0.199997
 50
97.595657
 51
180.000000
  0
ARC
  8
0
 10
-117.003136
 20
-139.137390
 40
0.199997
 50
180.000000
 51
262.404938
  0
ARC
  8
0
 10
-98.703140
 20
-138.062500
 40
3.500000
 50
270.000000
 51
299.490204
  0
ARC
  8
0
 10
-98.703140
 20
-138.062500
 40
3.500005
 50
60.510136
 51
89.999878
  0
ARC
  8
0
 10
-111.703133
 20
-138.062500
 40
3.500000
 50
90.000000
 51
119.490311
  0
ARC
  8
0
 10
-111.703133
 20
-138.062500
 40
3.499992
 50
240.510010
 51
270.000000
  0
ARC
  8
0
 10
-105.203133
 20
-138.062500
 40
5.000000
 50
90.000000
 51
135.572952
  0
ARC
  8
0
 10
-105.203133
 20
-138.062500
 40
5.000002
 50
44.426983
 51
90.000000
  0
ARC
  8
0
 10
-105.203133
 20
-138.062500
 40
5.000002
 50
224.426987
 51
315.572968
  0
POINT
  8
0
 10
-34.784386
 20
-44.187500
  0
POINT
  8
0
 10
-29.034386
 20
-44.187500
  0
LINE
  8
0
 10
-31.284386
 20
-64.437500
 11
-31.284386
 21
-47.187500
  0
LINE
  8
0
 10
-38.284386
 20
-64.437500
 11
-38.284386
 21
-47.187500
  0
LINE
  8
0
 10
-38.284386
 20
-50.437500
 11
-31.284384
 21
-50.437500
  0
LINE
  8
0
 10
-37.784382
 20
-37.437500
 11
-31.784384
 21
-37.437500
  0
LINE
  8
0
 10
-37.784382
 20
-37.437504
 11
-38.284382
 21
-37.937504
  0
LINE
  8
0
 10
-31.784386
 20
-37.437504
 11
-31.284388
 21
-37.937500
  0
LINE
  8
0
 10
-31.284384
 20
-37.937500
 11
-38.284382
 21
-37.937500
  0
LINE
  8
0
 10
-31.884386
 20
-50.437500
 11
-31.884386
 21
-47.187500
  0
LINE
  8
0
 10
-37.684387
 20
-50.437500
 11
-37.684387
 21
-47.187500
  0
LINE
  8
0
 10
-38.284386
 20
-52.937500
 11
-31.284386
 21
-52.937500
  0
LINE
  8
0
 10
-50.179306
 20
-56.437500
 11
-36.117718
 21
-56.437500
  0
LINE
  8
0
 10
-39.784386
 20
-47.187500
 11
-29.784386
 21
-47.187500
  0
LINE
  8
0
 10
-39.784378
 20
-44.187500
 11
-29.784388
 21
-44.187500
  0
LINE
  8
0
 10
-39.784386
 20
-41.187500
 11
-29.784382
 21
-41.187500
  0
LINE
  8
0
 10
-29.034386
 20
-46.754486
 11
-29.034386
 21
-44.620514
  0
LINE
  8
0
 10
-40.534386
 20
-46.754486
 11
-40.534386
 21
-44.620514
  0
LINE
  8
0
 10
-31.284386
 20
-41.187500
 11
-31.284386
 21
-37.937500
  0
LINE
  8
0
 10
-31.884386
 20
-41.187500
 11
-31.884386
 21
-37.437500
  0
LINE
  8
0
 10
-37.684387
 20
-41.187500
 11
-37.684387
 21
-37.437500
  0
LINE
  8
0
 10
-38.284386
 20
-41.187500
 11
-38.284386
 21
-37.937500
  0
LINE
  8
0
 10
-29.784388
 20
-44.187489
 11
-29.034388
 21
-43.754478
  0
LINE
  8
0
 10
-39.784386
 20
-44.187496
 11
-40.534386
 21
-43.754486
  0
LINE
  8
0
 10
-29.784370
 20
-41.187485
 11
-29.034372
 21
-41.620499
  0
LINE
  8
0
 10
-39.784401
 20
-41.187485
 11
-40.534397
 21
-41.620495
  0
LINE
  8
0
 10
-29.784378
 20
-44.187489
 11
-29.034374
 21
-44.620502
  0
LINE
  8
0
 10
-39.784393
 20
-44.187485
 11
-40.534393
 21
-44.620499
  0
LINE
  8
0
 10
-39.784386
 20
-47.187496
 11
-40.534386
 21
-46.754486
  0
LINE
  8
0
 10
-29.784389
 20
-47.187492
 11
-29.034388
 21
-46.754478
  0
LINE
  8
0
 10
-29.034386
 20
-43.754486
 11
-29.034386
 21
-41.620510
  0
LINE
  8
0
 10
-40.534386
 20
-43.754486
 11
-40.534386
 21
-41.620510
  0
LINE
  8
0
 10
-37.671135
 20
-46.754486
 11
-37.671135
 21
-44.620514
  0
LINE
  8
0
 10
-37.671215
 20
-43.754486
 11
-37.671215
 21
-41.620510
  0
LINE
  8
0
 10
-31.897728
 20
-41.620514
 11
-31.897728
 21
-43.754490
  0
LINE
  8
0
 10
-31.897646
 20
-44.620514
 11
-31.897646
 21
-46.754486
  0
LINE
  8
0
 10
-38.884392
 20
-53.937500
 11
-39.115330
 21
-53.537502
  0
LINE
  8
0
 10
-38.884384
 20
-58.937496
 11
-39.115322
 21
-59.337494
  0
LINE
  8
0
 10
-32.284386
 20
-36.837494
 11
-31.884390
 21
-36.606552
  0
LINE
  8
0
 10
-33.341011
 20
-36.606560
 11
-33.341011
 21
-34.168434
  0
LINE
  8
0
 10
-36.956070
 20
-33.937500
 11
-35.284382
 21
-33.937500
  0
LINE
  8
0
 10
-37.284386
 20
-36.837494
 11
-37.684380
 21
-36.606560
  0
LINE
  8
0
 10
-37.684387
 20
-36.606567
 11
-37.684387
 21
-34.168442
  0
LINE
  8
0
 10
-31.884386
 20
-36.606567
 11
-31.884386
 21
-34.168442
  0
LINE
  8
0
 10
-36.227825
 20
-34.168434
 11
-36.227825
 21
-36.606567
  0
LINE
  8
0
 10
-31.984386
 20
-37.437500
 11
-31.984386
 21
-36.837502
  0
LINE
  8
0
 10
-37.584385
 20
-36.837502
 11
-31.984385
 21
-36.837502
  0
LINE
  8
0
 10
-37.584389
 20
-37.437500
 11
-37.584389
 21
-36.837502
  0
LINE
  8
0
 10
-34.784386
 20
-77.796883
 11
-34.784386
 21
-31.552849
  0
LINE
  8
0
 10
-43.784386
 20
-57.887501
 11
-43.784386
 21
-54.987495
  0
LINE
  8
0
 10
-43.684387
 20
-57.687500
 11
-41.884388
 21
-57.687500
  0
LINE
  8
0
 10
-43.684387
 20
-55.187500
 11
-41.884388
 21
-55.187500
  0
LINE
  8
0
 10
-41.784386
 20
-58.609188
 11
-41.784386
 21
-54.265812
  0
LINE
  8
0
 10
-39.115322
 20
-59.337502
 11
-41.553448
 21
-59.337502
  0
LINE
  8
0
 10
-39.115322
 20
-53.537498
 11
-41.553448
 21
-53.537498
  0
LINE
  8
0
 10
-39.115326
 20
-54.994125
 11
-41.553452
 21
-54.994125
  0
LINE
  8
0
 10
-41.553452
 20
-57.880936
 11
-39.115322
 21
-57.880936
  0
LINE
  8
0
 10
-38.884384
 20
-59.237499
 11
-38.884384
 21
-53.637501
  0
LINE
  8
0
 10
-38.284386
 20
-59.237499
 11
-38.884384
 21
-59.237499
  0
LINE
  8
0
 10
-38.284386
 20
-53.637501
 11
-38.884384
 21
-53.637501
  0
LINE
  8
0
 10
-35.284386
 20
-33.937500
 11
-35.284386
 21
-34.937500
  0
LINE
  8
0
 10
-35.284382
 20
-34.937500
 11
-34.284382
 21
-34.937500
  0
LINE
  8
0
 10
-34.284386
 20
-34.937500
 11
-34.284386
 21
-33.937500
  0
LINE
  8
0
 10
-34.284382
 20
-33.937500
 11
-32.612694
 21
-33.937500
  0
LINE
  8
0
 10
-46.784386
 20
-57.512398
 11
-46.784386
 21
-55.362602
  0
LINE
  8
0
 10
-46.610825
 20
-57.710640
 11
-45.284389
 21
-57.887497
  0
LINE
  8
0
 10
-46.610825
 20
-55.164352
 11
-45.284393
 21
-54.987492
  0
LINE
  8
0
 10
-45.284393
 20
-57.687492
 11
-43.784393
 21
-57.887497
  0
LINE
  8
0
 10
-45.284386
 20
-55.187489
 11
-43.784386
 21
-54.987488
  0
LINE
  8
0
 10
-45.284386
 20
-57.887501
 11
-45.284386
 21
-54.987499
  0
LINE
  8
0
 10
-42.284386
 20
-66.437500
 11
-42.284386
 21
-64.437500
  0
LINE
  8
0
 10
-27.284386
 20
-66.437500
 11
-27.284386
 21
-64.437500
  0
LINE
  8
0
 10
-42.284386
 20
-64.437500
 11
-27.284386
 21
-64.437500
  0
LINE
  8
0
 10
-38.284386
 20
-51.476730
 11
-37.684387
 21
-50.437500
  0
LINE
  8
0
 10
-31.284382
 20
-51.476734
 11
-31.884382
 21
-50.437504
  0
LINE
  8
0
 10
-44.784386
 20
-73.937500
 11
-24.784388
 21
-73.937500
  0
LINE
  8
0
 10
-24.784389
 20
-73.937500
 11
-24.501547
 21
-73.654655
  0
LINE
  8
0
 10
-24.501545
 20
-73.654663
 11
-25.539413
 21
-72.616791
  0
LINE
  8
0
 10
-44.784386
 20
-66.437500
 11
-24.784386
 21
-66.437500
  0
LINE
  8
0
 10
-24.784386
 20
-71.437500
 11
-24.784386
 21
-66.437500
  0
LINE
  8
0
 10
-25.539413
 20
-72.192528
 11
-24.784388
 21
-71.437500
  0
LINE
  8
0
 10
-45.067234
 20
-73.654648
 11
-44.029362
 21
-72.616783
  0
LINE
  8
0
 10
-44.029358
 20
-72.192520
 11
-44.784386
 21
-71.437492
  0
LINE
  8
0
 10
-44.784389
 20
-73.937492
 11
-45.067230
 21
-73.654648
  0
LINE
  8
0
 10
-44.784386
 20
-71.437500
 11
-44.784386
 21
-66.437500
  0
LINE
  8
0
 10
-24.784389
 20
-71.437500
 11
-44.784393
 21
-71.437500
  0
LINE
  8
0
 10
-45.067234
 20
-73.654655
 11
-24.501545
 21
-73.654655
  0
LINE
  8
0
 10
-26.184387
 20
-72.404663
 11
-43.524387
 21
-72.404663
  0
ARC
  8
0
 10
-39.102760
 20
-41.604385
 40
2.583113
 50
236.342758
 51
303.657318
  0
ARC
  8
0
 10
-30.466009
 20
-41.604385
 40
2.583114
 50
236.342728
 51
303.657227
  0
ARC
  8
0
 10
-34.784382
 20
-34.348518
 40
9.838984
 50
252.938431
 51
287.061554
  0
ARC
  8
0
 10
-30.466009
 20
-43.770615
 40
2.583114
 50
56.342728
 51
123.657272
  0
ARC
  8
0
 10
-34.784386
 20
-51.026485
 40
9.838985
 50
72.938416
 51
107.061516
  0
ARC
  8
0
 10
-39.102760
 20
-43.770615
 40
2.583115
 50
56.342693
 51
123.657234
  0
ARC
  8
0
 10
-30.466009
 20
-46.770615
 40
2.583113
 50
56.342762
 51
123.657272
  0
ARC
  8
0
 10
-34.784386
 20
-54.026485
 40
9.838985
 50
72.938416
 51
107.061516
  0
ARC
  8
0
 10
-39.102760
 20
-46.770615
 40
2.583115
 50
56.342693
 51
123.657234
  0
ARC
  8
0
 10
-39.102760
 20
-44.604385
 40
2.583113
 50
236.342758
 51
303.657318
  0
ARC
  8
0
 10
-34.784382
 20
-37.348518
 40
9.838984
 50
252.938431
 51
287.061554
  0
ARC
  8
0
 10
-30.466009
 20
-44.604385
 40
2.583115
 50
236.342697
 51
303.657227
  0
ARC
  8
0
 10
-40.148296
 20
-58.609188
 40
1.263913
 50
324.813690
 51
35.186165
  0
ARC
  8
0
 10
-40.148296
 20
-54.265812
 40
1.263913
 50
324.813690
 51
35.186165
  0
ARC
  8
0
 10
-43.510452
 20
-56.437500
 40
4.626067
 50
341.819672
 51
18.180344
  0
ARC
  8
0
 10
-32.612694
 20
-35.573593
 40
1.263913
 50
234.813690
 51
305.186157
  0
ARC
  8
0
 10
-34.784382
 20
-32.211441
 40
4.626065
 50
251.819595
 51
288.180328
  0
ARC
  8
0
 10
-36.956070
 20
-35.201416
 40
1.263911
 50
54.813835
 51
125.186203
  0
ARC
  8
0
 10
-36.956070
 20
-35.573593
 40
1.263913
 50
234.813690
 51
305.186157
  0
ARC
  8
0
 10
-32.612694
 20
-35.201416
 40
1.263911
 50
54.813835
 51
125.186203
  0
ARC
  8
0
 10
-34.784382
 20
-38.563568
 40
4.626067
 50
71.819656
 51
83.795174
  0
ARC
  8
0
 10
-43.684387
 20
-57.787498
 40
0.099998
 50
90.000000
 51
180.000000
  0
ARC
  8
0
 10
-43.684387
 20
-55.087498
 40
0.099998
 50
180.000000
 51
270.000000
  0
ARC
  8
0
 10
-41.884388
 20
-55.087498
 40
0.099998
 50
270.000000
 51
0.000000
  0
ARC
  8
0
 10
-41.884388
 20
-57.787498
 40
0.100002
 50
0.000000
 51
90.000000
  0
ARC
  8
0
 10
-40.520473
 20
-54.265812
 40
1.263913
 50
144.813690
 51
215.186157
  0
ARC
  8
0
 10
-40.520473
 20
-58.609188
 40
1.263913
 50
144.813690
 51
215.186157
  0
ARC
  8
0
 10
-37.158321
 20
-56.437500
 40
4.626065
 50
161.819595
 51
198.180298
  0
ARC
  8
0
 10
-34.784382
 20
-38.563568
 40
4.626069
 50
96.204826
 51
108.180344
  0
ARC
  8
0
 10
-46.584389
 20
-57.512398
 40
0.199997
 50
180.000000
 51
262.405579
  0
ARC
  8
0
 10
-46.584389
 20
-55.362602
 40
0.200000
 50
97.594429
 51
180.000000
  0
ARC
  8
0
 10
-25.327282
 20
-72.404663
 40
0.300002
 50
134.999481
 51
224.999481
  0
ARC
  8
0
 10
-44.241493
 20
-72.404655
 40
0.300002
 50
314.999481
 51
45.000515
  0
POINT
  8
0
 10
-34.784386
 20
-138.062500
  0
POINT
  8
0
 10
-24.501545
 20
-138.062500
  0
LINE
  8
0
 10
-46.784382
 20
-139.137405
 11
-46.784382
 21
-136.987610
  0
LINE
  8
0
 10
-45.284382
 20
-139.512497
 11
-45.284382
 21
-136.612503
  0
LINE
  8
0
 10
-45.284393
 20
-139.312515
 11
-44.863190
 21
-139.368668
  0
LINE
  8
0
 10
-45.284389
 20
-136.812500
 11
-44.863194
 21
-136.756332
  0
LINE
  8
0
 10
-46.610825
 20
-139.335648
 11
-45.284393
 21
-139.512497
  0
LINE
  8
0
 10
-46.610821
 20
-136.789352
 11
-45.284386
 21
-136.612503
  0
LINE
  8
0
 10
-49.087421
 20
-138.062500
 11
-22.491909
 21
-138.062500
  0
LINE
  8
0
 10
-34.784386
 20
-145.183716
 11
-34.784386
 21
-131.092804
  0
LINE
  8
0
 10
-31.897629
 20
-143.062500
 11
-31.483576
 21
-142.345337
  0
LINE
  8
0
 10
-38.085194
 20
-133.779663
 11
-37.671143
 21
-133.062500
  0
LINE
  8
0
 10
-37.671146
 20
-143.062500
 11
-38.085197
 21
-142.345337
  0
LINE
  8
0
 10
-31.483589
 20
-133.779663
 11
-31.897636
 21
-133.062500
  0
LINE
  8
0
 10
-37.671139
 20
-143.062500
 11
-31.897636
 21
-143.062500
  0
LINE
  8
0
 10
-37.671139
 20
-133.062500
 11
-31.897633
 21
-133.062500
  0
LINE
  8
0
 10
-24.784386
 20
-138.062500
 11
-24.784386
 21
-138.062500
  0
LINE
  8
0
 10
-44.784386
 20
-138.062500
 11
-44.784386
 21
-138.062500
  0
LINE
  8
0
 10
-43.284386
 20
-138.062500
 11
-43.284386
 21
-138.062500
  0
LINE
  8
0
 10
-26.284386
 20
-138.062500
 11
-26.284386
 21
-138.062500
  0
LINE
  8
0
 10
-44.784386
 20
-138.062500
 11
-44.784386
 21
-138.062500
  0
LINE
  8
0
 10
-24.784386
 20
-138.062500
 11
-24.784386
 21
-138.062500
  0
LINE
  8
0
 10
-45.067226
 20
-138.062500
 11
-45.067226
 21
-138.062500
  0
LINE
  8
0
 10
-24.501545
 20
-138.062500
 11
-24.501545
 21
-138.062500
  0
LINE
  8
0
 10
-43.284386
 20
-138.062500
 11
-43.284386
 21
-138.062500
  0
LINE
  8
0
 10
-26.284386
 20
-138.062500
 11
-26.284386
 21
-138.062500
  0
LINE
  8
0
 10
-24.784386
 20
-138.062500
 11
-24.784386
 21
-138.062500
  0
LINE
  8
0
 10
-44.784386
 20
-138.062500
 11
-44.784386
 21
-138.062500
  0
LINE
  8
0
 10
-24.784386
 20
-138.062500
 11
-24.784386
 21
-138.062500
  0
LINE
  8
0
 10
-44.784386
 20
-138.062500
 11
-44.784386
 21
-138.062500
  0
LINE
  8
0
 10
-45.067230
 20
-138.062500
 11
-45.067230
 21
-138.062500
  0
LINE
  8
0
 10
-24.501545
 20
-138.062500
 11
-24.501545
 21
-138.062500
  0
LINE
  8
0
 10
-44.784386
 20
-138.062500
 11
-44.784386
 21
-138.062500
  0
LINE
  8
0
 10
-24.784386
 20
-138.062500
 11
-24.784386
 21
-138.062500
  0
LINE
  8
0
 10
-26.284386
 20
-138.062500
 11
-26.284386
 21
-138.062500
  0
LINE
  8
0
 10
-43.284386
 20
-138.062500
 11
-43.284386
 21
-138.062500
  0
LINE
  8
0
 10
-24.501545
 20
-138.062500
 11
-24.501545
 21
-138.062500
  0
LINE
  8
0
 10
-45.067226
 20
-138.062500
 11
-45.067226
 21
-138.062500
  0
LINE
  8
0
 10
-44.784386
 20
-138.062500
 11
-44.784386
 21
-138.062500
  0
LINE
  8
0
 10
-24.784386
 20
-138.062500
 11
-24.784386
 21
-138.062500
  0
LINE
  8
0
 10
-24.501545
 20
-138.062500
 11
-24.501545
 21
-138.062500
  0
LINE
  8
0
 10
-45.067226
 20
-138.062500
 11
-45.067226
 21
-138.062500
  0
LINE
  8
0
 10
-40.384384
 20
-140.962494
 11
-29.184385
 21
-140.962494
  0
LINE
  8
0
 10
-40.384384
 20
-135.162506
 11
-29.184385
 21
-135.162506
  0
LINE
  8
0
 10
-40.784386
 20
-133.779663
 11
-28.784386
 21
-133.779663
  0
LINE
  8
0
 10
-40.784386
 20
-142.345337
 11
-28.784386
 21
-142.345337
  0
LINE
  8
0
 10
-40.784386
 20
-134.062500
 11
-28.784386
 21
-134.062500
  0
LINE
  8
0
 10
-40.784386
 20
-142.062500
 11
-28.784386
 21
-142.062500
  0
LINE
  8
0
 10
-26.284386
 20
-138.062500
 11
-26.284386
 21
-138.062500
  0
LINE
  8
0
 10
-43.284386
 20
-138.062500
 11
-43.284386
 21
-138.062500
  0
ARC
  8
0
 10
-46.584385
 20
-136.987610
 40
0.200012
 50
97.593994
 51
180.000000
  0
ARC
  8
0
 10
-46.584385
 20
-139.137405
 40
0.200001
 50
180.000000
 51
262.405426
  0
ARC
  8
0
 10
-34.784386
 20
-138.062500
 40
4.999997
 50
58.933388
 51
121.066650
  0
ARC
  8
0
 10
-34.784386
 20
-138.062500
 40
4.999999
 50
238.933350
 51
301.066620
  0
CIRCLE
  8
0
 10
-34.784386
 20
-138.062500
 40
1.000000
  0
ARC
  8
0
 10
-40.384384
 20
-138.062500
 40
2.899994
 50
90.000000
 51
269.999939
  0
ARC
  8
0
 10
-29.184385
 20
-138.062500
 40
2.899994
 50
269.999969
 51
90.000000
  0
ARC
  8
0
 10
-40.784386
 20
-138.062500
 40
4.000000
 50
90.000000
 51
269.999939
  0
ARC
  8
0
 10
-28.784386
 20
-138.062500
 40
4.000000
 50
269.999969
 51
90.000000
  0
ARC
  8
0
 10
-28.784386
 20
-138.062500
 40
4.282837
 50
269.999969
 51
90.000000
  0
ARC
  8
0
 10
-40.784386
 20
-138.062500
 40
4.282837
 50
90.000000
 51
269.999939
  0
POINT
  8
0
 10
35.634361
 20
-44.187500
  0
POINT
  8
0
 10
41.384361
 20
-44.187500
  0
LINE
  8
0
 10
39.134361
 20
-64.437500
 11
39.134361
 21
-47.187500
  0
LINE
  8
0
 10
32.134361
 20
-64.437500
 11
32.134361
 21
-47.187500
  0
LINE
  8
0
 10
32.134361
 20
-50.437500
 11
39.134361
 21
-50.437500
  0
LINE
  8
0
 10
32.634365
 20
-37.437500
 11
38.634365
 21
-37.437500
  0
LINE
  8
0
 10
32.634365
 20
-37.437504
 11
32.134365
 21
-37.937504
  0
LINE
  8
0
 10
38.634361
 20
-37.437504
 11
39.134361
 21
-37.937500
  0
LINE
  8
0
 10
39.134365
 20
-37.937500
 11
32.134365
 21
-37.937500
  0
LINE
  8
0
 10
38.534363
 20
-50.437500
 11
38.534363
 21
-47.187500
  0
LINE
  8
0
 10
32.734360
 20
-50.437500
 11
32.734360
 21
-47.187500
  0
LINE
  8
0
 10
32.134361
 20
-52.937500
 11
39.134361
 21
-52.937500
  0
LINE
  8
0
 10
20.373083
 20
-56.437500
 11
34.301029
 21
-56.437500
  0
LINE
  8
0
 10
30.634363
 20
-47.187500
 11
40.634361
 21
-47.187500
  0
LINE
  8
0
 10
30.634367
 20
-44.187500
 11
40.634361
 21
-44.187500
  0
LINE
  8
0
 10
30.634363
 20
-41.187500
 11
40.634365
 21
-41.187500
  0
LINE
  8
0
 10
41.384361
 20
-46.754486
 11
41.384361
 21
-44.620514
  0
LINE
  8
0
 10
29.884361
 20
-46.754486
 11
29.884361
 21
-44.620514
  0
LINE
  8
0
 10
39.134361
 20
-41.187500
 11
39.134361
 21
-37.937500
  0
LINE
  8
0
 10
38.534363
 20
-41.187500
 11
38.534363
 21
-37.437500
  0
LINE
  8
0
 10
32.734360
 20
-41.187500
 11
32.734360
 21
-37.437500
  0
LINE
  8
0
 10
32.134361
 20
-41.187500
 11
32.134361
 21
-37.937500
  0
LINE
  8
0
 10
40.634361
 20
-44.187489
 11
41.384361
 21
-43.754478
  0
LINE
  8
0
 10
30.634361
 20
-44.187496
 11
29.884361
 21
-43.754486
  0
LINE
  8
0
 10
40.634377
 20
-41.187485
 11
41.384377
 21
-41.620499
  0
LINE
  8
0
 10
30.634348
 20
-41.187485
 11
29.884350
 21
-41.620495
  0
LINE
  8
0
 10
40.634369
 20
-44.187489
 11
41.384373
 21
-44.620502
  0
LINE
  8
0
 10
30.634354
 20
-44.187485
 11
29.884354
 21
-44.620499
  0
LINE
  8
0
 10
30.634361
 20
-47.187496
 11
29.884361
 21
-46.754486
  0
LINE
  8
0
 10
40.634357
 20
-47.187492
 11
41.384357
 21
-46.754478
  0
LINE
  8
0
 10
41.384361
 20
-43.754486
 11
41.384361
 21
-41.620510
  0
LINE
  8
0
 10
29.884361
 20
-43.754486
 11
29.884361
 21
-41.620510
  0
LINE
  8
0
 10
32.747612
 20
-46.754486
 11
32.747612
 21
-44.620514
  0
LINE
  8
0
 10
32.747532
 20
-43.754486
 11
32.747532
 21
-41.620510
  0
LINE
  8
0
 10
38.521019
 20
-41.620514
 11
38.521019
 21
-43.754490
  0
LINE
  8
0
 10
38.521103
 20
-44.620514
 11
38.521103
 21
-46.754486
  0
LINE
  8
0
 10
31.534357
 20
-53.937500
 11
31.303419
 21
-53.537502
  0
LINE
  8
0
 10
31.534363
 20
-58.937496
 11
31.303425
 21
-59.337494
  0
LINE
  8
0
 10
38.134361
 20
-36.837494
 11
38.534359
 21
-36.606552
  0
LINE
  8
0
 10
37.077736
 20
-36.606560
 11
37.077736
 21
-34.168434
  0
LINE
  8
0
 10
33.462677
 20
-33.937500
 11
35.134365
 21
-33.937500
  0
LINE
  8
0
 10
33.134361
 20
-36.837494
 11
32.734367
 21
-36.606560
  0
LINE
  8
0
 10
32.734360
 20
-36.606567
 11
32.734360
 21
-34.168442
  0
LINE
  8
0
 10
38.534363
 20
-36.606567
 11
38.534363
 21
-34.168442
  0
LINE
  8
0
 10
34.190922
 20
-34.168434
 11
34.190922
 21
-36.606567
  0
LINE
  8
0
 10
38.434361
 20
-37.437500
 11
38.434361
 21
-36.837502
  0
LINE
  8
0
 10
32.834362
 20
-36.837502
 11
38.434364
 21
-36.837502
  0
LINE
  8
0
 10
32.834358
 20
-37.437500
 11
32.834358
 21
-36.837502
  0
LINE
  8
0
 10
35.634361
 20
-77.796883
 11
35.634361
 21
-31.552849
  0
LINE
  8
0
 10
26.634361
 20
-57.887501
 11
26.634361
 21
-54.987495
  0
LINE
  8
0
 10
26.734360
 20
-57.687500
 11
28.534359
 21
-57.687500
  0
LINE
  8
0
 10
26.734360
 20
-55.187500
 11
28.534359
 21
-55.187500
  0
LINE
  8
0
 10
28.634361
 20
-58.609188
 11
28.634361
 21
-54.265812
  0
LINE
  8
0
 10
31.303425
 20
-59.337502
 11
28.865299
 21
-59.337502
  0
LINE
  8
0
 10
31.303425
 20
-53.537498
 11
28.865299
 21
-53.537498
  0
LINE
  8
0
 10
31.303421
 20
-54.994125
 11
28.865295
 21
-54.994125
  0
LINE
  8
0
 10
28.865295
 20
-57.880936
 11
31.303425
 21
-57.880936
  0
LINE
  8
0
 10
31.534363
 20
-59.237499
 11
31.534363
 21
-53.637501
  0
LINE
  8
0
 10
32.134361
 20
-59.237499
 11
31.534363
 21
-59.237499
  0
LINE
  8
0
 10
32.134361
 20
-53.637501
 11
31.534363
 21
-53.637501
  0
LINE
  8
0
 10
35.134361
 20
-33.937500
 11
35.134361
 21
-34.937500
  0
LINE
  8
0
 10
35.134365
 20
-34.937500
 11
36.134365
 21
-34.937500
  0
LINE
  8
0
 10
36.134361
 20
-34.937500
 11
36.134361
 21
-33.937500
  0
LINE
  8
0
 10
36.134365
 20
-33.937500
 11
37.806053
 21
-33.937500
  0
LINE
  8
0
 10
23.634361
 20
-57.512398
 11
23.634361
 21
-55.362602
  0
LINE
  8
0
 10
23.807922
 20
-57.710640
 11
25.134357
 21
-57.887497
  0
LINE
  8
0
 10
23.807920
 20
-55.164352
 11
25.134354
 21
-54.987492
  0
LINE
  8
0
 10
25.134354
 20
-57.687492
 11
26.634356
 21
-57.887497
  0
LINE
  8
0
 10
25.134361
 20
-55.187489
 11
26.634361
 21
-54.987488
  0
LINE
  8
0
 10
25.134361
 20
-57.887501
 11
25.134361
 21
-54.987499
  0
LINE
  8
0
 10
28.134361
 20
-66.437500
 11
28.134361
 21
-64.437500
  0
LINE
  8
0
 10
43.134361
 20
-66.437500
 11
43.134361
 21
-64.437500
  0
LINE
  8
0
 10
28.134361
 20
-64.437500
 11
43.134361
 21
-64.437500
  0
LINE
  8
0
 10
32.134361
 20
-51.476730
 11
32.734360
 21
-50.437500
  0
LINE
  8
0
 10
39.134365
 20
-51.476734
 11
38.534363
 21
-50.437504
  0
LINE
  8
0
 10
20.634382
 20
-73.937500
 11
50.634365
 21
-73.937500
  0
LINE
  8
0
 10
50.634361
 20
-73.937492
 11
50.917206
 21
-73.654648
  0
LINE
  8
0
 10
50.917206
 20
-73.654663
 11
49.879341
 21
-72.616791
  0
LINE
  8
0
 10
25.634361
 20
-66.437500
 11
45.634361
 21
-66.437500
  0
LINE
  8
0
 10
50.634365
 20
-71.437500
 11
50.634365
 21
-68.437500
  0
LINE
  8
0
 10
49.879341
 20
-72.192520
 11
50.634369
 21
-71.437492
  0
LINE
  8
0
 10
20.351513
 20
-73.654655
 11
21.389381
 21
-72.616783
  0
LINE
  8
0
 10
21.389381
 20
-72.192520
 11
20.634354
 21
-71.437492
  0
LINE
  8
0
 10
20.634356
 20
-73.937500
 11
20.351511
 21
-73.654655
  0
LINE
  8
0
 10
20.634369
 20
-71.437500
 11
20.634369
 21
-68.437500
  0
LINE
  8
0
 10
50.634357
 20
-71.437515
 11
20.634367
 21
-71.437515
  0
LINE
  8
0
 10
20.351501
 20
-73.654663
 11
50.917206
 21
-73.654663
  0
LINE
  8
0
 10
49.234360
 20
-72.404671
 11
21.924362
 21
-72.404671
  0
LINE
  8
0
 10
20.634365
 20
-68.437500
 11
50.634365
 21
-68.437500
  0
LINE
  8
0
 10
45.634361
 20
-68.437500
 11
45.634361
 21
-66.437500
  0
LINE
  8
0
 10
25.634361
 20
-68.437500
 11
25.634361
 21
-66.437500
  0
ARC
  8
0
 10
31.315989
 20
-41.604385
 40
2.583114
 50
236.342728
 51
303.657257
  0
ARC
  8
0
 10
39.952736
 20
-41.604385
 40
2.583113
 50
236.342758
 51
303.657318
  0
ARC
  8
0
 10
35.634365
 20
-34.348518
 40
9.838984
 50
252.938431
 51
287.061554
  0
ARC
  8
0
 10
39.952736
 20
-43.770615
 40
2.583115
 50
56.342693
 51
123.657234
  0
ARC
  8
0
 10
35.634361
 20
-51.026485
 40
9.838985
 50
72.938416
 51
107.061516
  0
ARC
  8
0
 10
31.315989
 20
-43.770615
 40
2.583114
 50
56.342728
 51
123.657234
  0
ARC
  8
0
 10
39.952736
 20
-46.770615
 40
2.583115
 50
56.342693
 51
123.657234
  0
ARC
  8
0
 10
35.634361
 20
-54.026485
 40
9.838985
 50
72.938416
 51
107.061516
  0
ARC
  8
0
 10
31.315989
 20
-46.770615
 40
2.583114
 50
56.342728
 51
123.657272
  0
ARC
  8
0
 10
31.315989
 20
-44.604385
 40
2.583114
 50
236.342728
 51
303.657257
  0
ARC
  8
0
 10
35.634365
 20
-37.348518
 40
9.838984
 50
252.938431
 51
287.061554
  0
ARC
  8
0
 10
39.952736
 20
-44.604385
 40
2.583113
 50
236.342758
 51
303.657227
  0
ARC
  8
0
 10
30.270451
 20
-58.609188
 40
1.263913
 50
324.813690
 51
35.186165
  0
ARC
  8
0
 10
30.270451
 20
-54.265812
 40
1.263913
 50
324.813690
 51
35.186111
  0
ARC
  8
0
 10
26.908295
 20
-56.437500
 40
4.626066
 50
341.819641
 51
18.180344
  0
ARC
  8
0
 10
37.806053
 20
-35.573593
 40
1.263913
 50
234.813690
 51
305.186157
  0
ARC
  8
0
 10
35.634365
 20
-32.211441
 40
4.626065
 50
251.819595
 51
288.180328
  0
ARC
  8
0
 10
33.462677
 20
-35.201416
 40
1.263911
 50
54.813835
 51
125.186203
  0
ARC
  8
0
 10
33.462677
 20
-35.573593
 40
1.263913
 50
234.813690
 51
305.186157
  0
ARC
  8
0
 10
37.806053
 20
-35.201416
 40
1.263911
 50
54.813835
 51
125.186203
  0
ARC
  8
0
 10
35.634365
 20
-38.563568
 40
4.626067
 50
71.819656
 51
83.795174
  0
ARC
  8
0
 10
26.734360
 20
-57.787498
 40
0.099998
 50
90.000000
 51
180.000000
  0
ARC
  8
0
 10
26.734360
 20
-55.087498
 40
0.099998
 50
180.000000
 51
270.000000
  0
ARC
  8
0
 10
28.534359
 20
-55.087498
 40
0.099998
 50
270.000000
 51
0.000000
  0
ARC
  8
0
 10
28.534359
 20
-57.787498
 40
0.100000
 50
0.000000
 51
90.000000
  0
ARC
  8
0
 10
29.898273
 20
-54.265812
 40
1.263911
 50
144.813644
 51
215.186157
  0
ARC
  8
0
 10
29.898273
 20
-58.609188
 40
1.263913
 50
144.813690
 51
215.186157
  0
ARC
  8
0
 10
33.260426
 20
-56.437500
 40
4.626065
 50
161.819595
 51
198.180313
  0
ARC
  8
0
 10
35.634365
 20
-38.563568
 40
4.626069
 50
96.204826
 51
108.180344
  0
ARC
  8
0
 10
23.834358
 20
-57.512398
 40
0.199999
 50
180.000000
 51
262.405579
  0
ARC
  8
0
 10
23.834358
 20
-55.362602
 40
0.200000
 50
97.594429
 51
180.000000
  0
ARC
  8
0
 10
50.091469
 20
-72.404663
 40
0.299997
 50
135.000519
 51
224.999481
  0
ARC
  8
0
 10
21.177254
 20
-72.404663
 40
0.299997
 50
315.000519
 51
44.999226
  0
POINT
  8
0
 10
35.634361
 20
-138.062500
  0
POINT
  8
0
 10
35.634361
 20
-138.062500
  0
POINT
  8
0
 10
50.917206
 20
-138.062500
  0
LINE
  8
0
 10
19.498945
 20
-138.062500
 11
51.798946
 21
-138.062500
  0
LINE
  8
0
 10
35.634361
 20
-145.183716
 11
35.634361
 21
-131.092804
  0
LINE
  8
0
 10
38.521114
 20
-143.062500
 11
39.387142
 21
-141.562500
  0
LINE
  8
0
 10
31.881584
 20
-134.562500
 11
32.747608
 21
-133.062500
  0
LINE
  8
0
 10
32.747597
 20
-143.062500
 11
31.881573
 21
-141.562500
  0
LINE
  8
0
 10
39.387131
 20
-134.562500
 11
38.521103
 21
-133.062500
  0
LINE
  8
0
 10
32.747604
 20
-143.062500
 11
38.521111
 21
-143.062500
  0
LINE
  8
0
 10
32.747612
 20
-133.062500
 11
38.521111
 21
-133.062500
  0
LINE
  8
0
 10
24.134361
 20
-134.562500
 11
47.134365
 21
-134.562500
  0
LINE
  8
0
 10
24.134361
 20
-141.562500
 11
47.134365
 21
-141.562500
  0
LINE
  8
0
 10
23.134361
 20
-137.062500
 11
48.134365
 21
-137.062500
  0
LINE
  8
0
 10
23.134361
 20
-139.062500
 11
48.134365
 21
-139.062500
  0
LINE
  8
0
 10
22.634361
 20
-136.062500
 11
48.634365
 21
-136.062500
  0
LINE
  8
0
 10
22.634361
 20
-140.062500
 11
48.634365
 21
-140.062500
  0
LINE
  8
0
 10
22.634359
 20
-140.345337
 11
48.634365
 21
-140.345337
  0
LINE
  8
0
 10
22.634359
 20
-135.779663
 11
48.634365
 21
-135.779663
  0
ARC
  8
0
 10
35.634361
 20
-138.062500
 40
4.999997
 50
44.427044
 51
135.572983
  0
ARC
  8
0
 10
35.634361
 20
-138.062500
 40
4.999999
 50
224.427017
 51
315.572998
  0
CIRCLE
  8
0
 10
35.634361
 20
-138.062500
 40
1.000000
  0
ARC
  8
0
 10
48.634365
 20
-138.062500
 40
2.000000
 50
270.000000
 51
89.999893
  0
ARC
  8
0
 10
22.634361
 20
-138.062500
 40
2.000000
 50
90.000000
 51
269.999939
  0
ARC
  8
0
 10
23.134361
 20
-138.062500
 40
1.000000
 50
180.000000
 51
269.999878
  0
ARC
  8
0
 10
23.134361
 20
-138.062500
 40
1.000000
 50
90.000000
 51
180.000000
  0
ARC
  8
0
 10
48.134361
 20
-138.062500
 40
1.000000
 50
270.000000
 51
90.000000
  0
ARC
  8
0
 10
48.634365
 20
-138.062500
 40
2.282837
 50
270.000000
 51
89.999901
  0
ARC
  8
0
 10
22.634359
 20
-138.062500
 40
2.282837
 50
89.999954
 51
269.999939
  0
ARC
  8
0
 10
47.134361
 20
-138.062500
 40
3.500000
 50
270.000000
 51
332.206451
  0
ARC
  8
0
 10
47.134361
 20
-138.062500
 40
3.500004
 50
27.793779
 51
89.999939
  0
ARC
  8
0
 10
24.134361
 20
-138.062500
 40
3.500000
 50
90.000000
 51
152.206223
  0
ARC
  8
0
 10
24.134361
 20
-138.062500
 40
3.500004
 50
207.793777
 51
269.999939
  0
POINT
  8
0
 10
106.053108
 20
-44.187500
  0
POINT
  8
0
 10
111.803108
 20
-44.187500
  0
LINE
  8
0
 10
109.553108
 20
-64.437500
 11
109.553108
 21
-47.187500
  0
LINE
  8
0
 10
102.553108
 20
-64.437500
 11
102.553108
 21
-47.187500
  0
LINE
  8
0
 10
102.553108
 20
-50.437500
 11
109.553108
 21
-50.437500
  0
LINE
  8
0
 10
103.053108
 20
-37.437500
 11
109.053108
 21
-37.437500
  0
LINE
  8
0
 10
103.053108
 20
-37.437504
 11
102.553108
 21
-37.937504
  0
LINE
  8
0
 10
109.053108
 20
-37.437504
 11
109.553108
 21
-37.937500
  0
LINE
  8
0
 10
109.553108
 20
-37.937500
 11
102.553108
 21
-37.937500
  0
LINE
  8
0
 10
108.953110
 20
-50.437500
 11
108.953110
 21
-47.187500
  0
LINE
  8
0
 10
103.153107
 20
-50.437500
 11
103.153107
 21
-47.187500
  0
LINE
  8
0
 10
102.553108
 20
-52.937500
 11
109.553108
 21
-52.937500
  0
LINE
  8
0
 10
90.658188
 20
-56.437500
 11
104.719772
 21
-56.437500
  0
LINE
  8
0
 10
101.053108
 20
-47.187500
 11
111.053108
 21
-47.187500
  0
LINE
  8
0
 10
101.053116
 20
-44.187500
 11
111.053108
 21
-44.187500
  0
LINE
  8
0
 10
101.053108
 20
-41.187500
 11
111.053116
 21
-41.187500
  0
LINE
  8
0
 10
111.803108
 20
-46.754486
 11
111.803108
 21
-44.620514
  0
LINE
  8
0
 10
100.303108
 20
-46.754486
 11
100.303108
 21
-44.620514
  0
LINE
  8
0
 10
109.553108
 20
-41.187500
 11
109.553108
 21
-37.937500
  0
LINE
  8
0
 10
108.953110
 20
-41.187500
 11
108.953110
 21
-37.437500
  0
LINE
  8
0
 10
103.153107
 20
-41.187500
 11
103.153107
 21
-37.437500
  0
LINE
  8
0
 10
102.553108
 20
-41.187500
 11
102.553108
 21
-37.937500
  0
LINE
  8
0
 10
111.053108
 20
-44.187489
 11
111.803108
 21
-43.754478
  0
LINE
  8
0
 10
101.053108
 20
-44.187496
 11
100.303108
 21
-43.754486
  0
LINE
  8
0
 10
111.053123
 20
-41.187485
 11
111.803123
 21
-41.620499
  0
LINE
  8
0
 10
101.053093
 20
-41.187485
 11
100.303093
 21
-41.620495
  0
LINE
  8
0
 10
111.053116
 20
-44.187489
 11
111.803116
 21
-44.620502
  0
LINE
  8
0
 10
101.053101
 20
-44.187485
 11
100.303101
 21
-44.620499
  0
LINE
  8
0
 10
101.053108
 20
-47.187496
 11
100.303108
 21
-46.754486
  0
LINE
  8
0
 10
111.053108
 20
-47.187492
 11
111.803108
 21
-46.754478
  0
LINE
  8
0
 10
111.803108
 20
-43.754486
 11
111.803108
 21
-41.620510
  0
LINE
  8
0
 10
100.303108
 20
-43.754486
 11
100.303108
 21
-41.620510
  0
LINE
  8
0
 10
103.166359
 20
-46.754486
 11
103.166359
 21
-44.620514
  0
LINE
  8
0
 10
103.166275
 20
-43.754486
 11
103.166275
 21
-41.620510
  0
LINE
  8
0
 10
108.939766
 20
-41.620514
 11
108.939766
 21
-43.754490
  0
LINE
  8
0
 10
108.939850
 20
-44.620514
 11
108.939850
 21
-46.754486
  0
LINE
  8
0
 10
101.953102
 20
-53.937500
 11
101.722168
 21
-53.537502
  0
LINE
  8
0
 10
101.953110
 20
-58.937496
 11
101.722168
 21
-59.337494
  0
LINE
  8
0
 10
108.553108
 20
-36.837494
 11
108.953102
 21
-36.606552
  0
LINE
  8
0
 10
107.496483
 20
-36.606560
 11
107.496483
 21
-34.168434
  0
LINE
  8
0
 10
103.881424
 20
-33.937500
 11
105.553108
 21
-33.937500
  0
LINE
  8
0
 10
103.553108
 20
-36.837494
 11
103.153114
 21
-36.606560
  0
LINE
  8
0
 10
103.153107
 20
-36.606567
 11
103.153107
 21
-34.168442
  0
LINE
  8
0
 10
108.953110
 20
-36.606567
 11
108.953110
 21
-34.168442
  0
LINE
  8
0
 10
104.609665
 20
-34.168434
 11
104.609665
 21
-36.606567
  0
LINE
  8
0
 10
108.853104
 20
-37.437500
 11
108.853104
 21
-36.837502
  0
LINE
  8
0
 10
103.253105
 20
-36.837502
 11
108.853111
 21
-36.837502
  0
LINE
  8
0
 10
103.253105
 20
-37.437500
 11
103.253105
 21
-36.837502
  0
LINE
  8
0
 10
106.053108
 20
-77.796883
 11
106.053108
 21
-31.552849
  0
LINE
  8
0
 10
97.053108
 20
-57.887501
 11
97.053108
 21
-54.987495
  0
LINE
  8
0
 10
97.153107
 20
-57.687500
 11
98.953110
 21
-57.687500
  0
LINE
  8
0
 10
97.153107
 20
-55.187500
 11
98.953110
 21
-55.187500
  0
LINE
  8
0
 10
99.053108
 20
-58.609188
 11
99.053108
 21
-54.265812
  0
LINE
  8
0
 10
101.722176
 20
-59.337502
 11
99.284050
 21
-59.337502
  0
LINE
  8
0
 10
101.722176
 20
-53.537498
 11
99.284050
 21
-53.537498
  0
LINE
  8
0
 10
101.722168
 20
-54.994125
 11
99.284042
 21
-54.994125
  0
LINE
  8
0
 10
99.284042
 20
-57.880936
 11
101.722176
 21
-57.880936
  0
LINE
  8
0
 10
101.953110
 20
-59.237499
 11
101.953110
 21
-53.637501
  0
LINE
  8
0
 10
102.553108
 20
-59.237499
 11
101.953110
 21
-59.237499
  0
LINE
  8
0
 10
102.553108
 20
-53.637501
 11
101.953110
 21
-53.637501
  0
LINE
  8
0
 10
105.553108
 20
-33.937500
 11
105.553108
 21
-34.937500
  0
LINE
  8
0
 10
105.553108
 20
-34.937500
 11
106.553108
 21
-34.937500
  0
LINE
  8
0
 10
106.553108
 20
-34.937500
 11
106.553108
 21
-33.937500
  0
LINE
  8
0
 10
106.553108
 20
-33.937500
 11
108.224800
 21
-33.937500
  0
LINE
  8
0
 10
94.053108
 20
-57.512398
 11
94.053108
 21
-55.362602
  0
LINE
  8
0
 10
94.226669
 20
-57.710640
 11
95.553101
 21
-57.887497
  0
LINE
  8
0
 10
94.226669
 20
-55.164352
 11
95.553101
 21
-54.987492
  0
LINE
  8
0
 10
95.553101
 20
-57.687492
 11
97.053101
 21
-57.887497
  0
LINE
  8
0
 10
95.553108
 20
-55.187489
 11
97.053108
 21
-54.987488
  0
LINE
  8
0
 10
95.553108
 20
-57.887501
 11
95.553108
 21
-54.987499
  0
LINE
  8
0
 10
98.553108
 20
-66.437500
 11
98.553108
 21
-64.437500
  0
LINE
  8
0
 10
113.553108
 20
-66.437500
 11
113.553108
 21
-64.437500
  0
LINE
  8
0
 10
98.553108
 20
-64.437500
 11
113.553108
 21
-64.437500
  0
LINE
  8
0
 10
102.553108
 20
-51.476730
 11
103.153107
 21
-50.437500
  0
LINE
  8
0
 10
109.553108
 20
-51.476734
 11
108.953110
 21
-50.437504
  0
LINE
  8
0
 10
91.053131
 20
-73.937500
 11
121.053108
 21
-73.937500
  0
LINE
  8
0
 10
121.053108
 20
-73.937492
 11
121.335953
 21
-73.654648
  0
LINE
  8
0
 10
121.335953
 20
-73.654663
 11
120.298088
 21
-72.616791
  0
LINE
  8
0
 10
96.053108
 20
-66.437500
 11
116.053108
 21
-66.437500
  0
LINE
  8
0
 10
121.053116
 20
-71.437500
 11
121.053116
 21
-68.437500
  0
LINE
  8
0
 10
120.298088
 20
-72.192520
 11
121.053116
 21
-71.437492
  0
LINE
  8
0
 10
90.770256
 20
-73.654655
 11
91.808128
 21
-72.616783
  0
LINE
  8
0
 10
91.808128
 20
-72.192520
 11
91.053101
 21
-71.437492
  0
LINE
  8
0
 10
91.053101
 20
-73.937500
 11
90.770256
 21
-73.654655
  0
LINE
  8
0
 10
91.053116
 20
-71.437500
 11
91.053116
 21
-68.437500
  0
LINE
  8
0
 10
121.053101
 20
-71.437515
 11
91.053116
 21
-71.437515
  0
LINE
  8
0
 10
90.770248
 20
-73.654663
 11
121.335953
 21
-73.654663
  0
LINE
  8
0
 10
119.653107
 20
-72.404671
 11
92.343109
 21
-72.404671
  0
LINE
  8
0
 10
91.053116
 20
-68.437500
 11
121.053116
 21
-68.437500
  0
LINE
  8
0
 10
116.053108
 20
-68.437500
 11
116.053108
 21
-66.437500
  0
LINE
  8
0
 10
96.053108
 20
-68.437500
 11
96.053108
 21
-66.437500
  0
ARC
  8
0
 10
101.734734
 20
-41.604385
 40
2.583111
 50
236.342834
 51
303.657318
  0
ARC
  8
0
 10
110.371483
 20
-41.604385
 40
2.583115
 50
236.342697
 51
303.657318
  0
ARC
  8
0
 10
106.053108
 20
-34.348518
 40
9.838983
 50
252.938477
 51
287.061554
  0
ARC
  8
0
 10
110.371483
 20
-43.770615
 40
2.583115
 50
56.342693
 51
123.657166
  0
ARC
  8
0
 10
106.053108
 20
-51.026485
 40
9.838987
 50
72.938393
 51
107.061516
  0
ARC
  8
0
 10
101.734734
 20
-43.770615
 40
2.583115
 50
56.342693
 51
123.657166
  0
ARC
  8
0
 10
110.371483
 20
-46.770615
 40
2.583115
 50
56.342693
 51
123.657166
  0
ARC
  8
0
 10
106.053108
 20
-54.026485
 40
9.838987
 50
72.938393
 51
107.061516
  0
ARC
  8
0
 10
101.734734
 20
-46.770615
 40
2.583115
 50
56.342693
 51
123.657166
  0
ARC
  8
0
 10
101.734734
 20
-44.604385
 40
2.583111
 50
236.342834
 51
303.657318
  0
ARC
  8
0
 10
106.053108
 20
-37.348518
 40
9.838983
 50
252.938477
 51
287.061554
  0
ARC
  8
0
 10
110.371483
 20
-44.604385
 40
2.583115
 50
236.342697
 51
303.657318
  0
ARC
  8
0
 10
100.689201
 20
-58.609188
 40
1.263913
 50
324.813690
 51
35.186165
  0
ARC
  8
0
 10
100.689201
 20
-54.265812
 40
1.263913
 50
324.813690
 51
35.186165
  0
ARC
  8
0
 10
97.327042
 20
-56.437500
 40
4.626064
 50
341.819641
 51
18.180359
  0
ARC
  8
0
 10
108.224800
 20
-35.573593
 40
1.263911
 50
234.813843
 51
305.186157
  0
ARC
  8
0
 10
106.053108
 20
-32.211441
 40
4.626064
 50
251.819641
 51
288.180359
  0
ARC
  8
0
 10
103.881424
 20
-35.201416
 40
1.263911
 50
54.813835
 51
125.186066
  0
ARC
  8
0
 10
103.881424
 20
-35.573593
 40
1.263911
 50
234.813843
 51
305.186157
  0
ARC
  8
0
 10
108.224800
 20
-35.201416
 40
1.263911
 50
54.813835
 51
125.186066
  0
ARC
  8
0
 10
106.053108
 20
-38.563568
 40
4.626070
 50
71.819565
 51
83.795174
  0
ARC
  8
0
 10
97.153107
 20
-57.787498
 40
0.099998
 50
90.000000
 51
180.000000
  0
ARC
  8
0
 10
97.153107
 20
-55.087498
 40
0.099998
 50
180.000000
 51
270.000000
  0
ARC
  8
0
 10
98.953110
 20
-55.087498
 40
0.099998
 50
270.000000
 51
0.000000
  0
ARC
  8
0
 10
98.953110
 20
-57.787498
 40
0.099998
 50
0.000000
 51
90.000000
  0
ARC
  8
0
 10
100.317024
 20
-54.265812
 40
1.263913
 50
144.813690
 51
215.185959
  0
ARC
  8
0
 10
100.317024
 20
-58.609188
 40
1.263913
 50
144.813690
 51
215.185959
  0
ARC
  8
0
 10
103.679176
 20
-56.437500
 40
4.626065
 50
161.819595
 51
198.180283
  0
ARC
  8
0
 10
106.053108
 20
-38.563568
 40
4.626069
 50
96.204826
 51
108.180252
  0
ARC
  8
0
 10
94.253105
 20
-57.512398
 40
0.199997
 50
180.000000
 51
262.404480
  0
ARC
  8
0
 10
94.253105
 20
-55.362602
 40
0.200001
 50
97.595512
 51
180.000000
  0
ARC
  8
0
 10
120.510216
 20
-72.404663
 40
0.299994
 50
135.000000
 51
225.000000
  0
ARC
  8
0
 10
91.596001
 20
-72.404663
 40
0.299999
 50
315.001038
 51
44.998970
  0
POINT
  8
0
 10
106.053108
 20
-138.062500
  0
POINT
  8
0
 10
121.334152
 20
-138.062500
  0
LINE
  8
0
 10
108.939865
 20
-143.062500
 11
109.805893
 21
-141.562500
  0
LINE
  8
0
 10
102.300331
 20
-134.562500
 11
103.166351
 21
-133.062500
  0
LINE
  8
0
 10
103.166344
 20
-143.062500
 11
102.300323
 21
-141.562500
  0
LINE
  8
0
 10
109.805878
 20
-134.562500
 11
108.939850
 21
-133.062500
  0
LINE
  8
0
 10
103.166351
 20
-143.062500
 11
108.939857
 21
-143.062500
  0
LINE
  8
0
 10
103.166359
 20
-133.062500
 11
108.939857
 21
-133.062500
  0
LINE
  8
0
 10
89.343109
 20
-138.062500
 11
122.643112
 21
-138.062500
  0
LINE
  8
0
 10
106.053108
 20
-143.930084
 11
106.053108
 21
-132.437363
  0
LINE
  8
0
 10
94.553108
 20
-134.562500
 11
117.553108
 21
-134.562500
  0
LINE
  8
0
 10
94.553108
 20
-141.562500
 11
117.553108
 21
-141.562500
  0
LINE
  8
0
 10
93.953110
 20
-136.662506
 11
118.153107
 21
-136.662506
  0
LINE
  8
0
 10
93.953110
 20
-139.462494
 11
118.153107
 21
-139.462494
  0
LINE
  8
0
 10
93.553108
 20
-135.462494
 11
118.498947
 21
-135.462494
  0
LINE
  8
0
 10
93.553108
 20
-140.572495
 11
118.553108
 21
-140.572495
  0
LINE
  8
0
 10
93.553108
 20
-140.855331
 11
118.553108
 21
-140.855331
  0
LINE
  8
0
 10
93.553108
 20
-135.179657
 11
118.570854
 21
-135.179657
  0
LINE
  8
0
 10
92.553108
 20
-138.062500
 11
92.553108
 21
-138.062500
  0
LINE
  8
0
 10
90.770271
 20
-137.962494
 11
90.770271
 21
-138.072495
  0
LINE
  8
0
 10
91.053108
 20
-137.962494
 11
91.053108
 21
-138.072495
  0
LINE
  8
0
 10
121.335945
 20
-137.962494
 11
121.335945
 21
-138.072495
  0
LINE
  8
0
 10
121.053108
 20
-137.962494
 11
121.053108
 21
-138.072495
  0
ARC
  8
0
 10
106.053108
 20
-138.062500
 40
4.999997
 50
44.427044
 51
135.573013
  0
ARC
  8
0
 10
106.053108
 20
-138.062500
 40
5.000002
 50
224.426987
 51
315.573029
  0
CIRCLE
  8
0
 10
106.053108
 20
-138.062500
 40
1.000000
  0
ARC
  8
0
 10
117.553108
 20
-138.062500
 40
3.500000
 50
270.000000
 51
321.288666
  0
ARC
  8
0
 10
117.553108
 20
-138.062500
 40
3.500005
 50
44.076374
 51
90.000000
  0
ARC
  8
0
 10
94.553108
 20
-138.062500
 40
3.500000
 50
90.000000
 51
135.923630
  0
ARC
  8
0
 10
94.553108
 20
-138.062500
 40
3.499998
 50
218.711334
 51
270.000000
  0
ARC
  8
0
 10
93.953110
 20
-138.062500
 40
1.400009
 50
90.000000
 51
270.000000
  0
ARC
  8
0
 10
93.553108
 20
-137.962494
 40
2.500000
 50
90.000000
 51
180.000000
  0
ARC
  8
0
 10
93.553108
 20
-138.072495
 40
2.500000
 50
180.000000
 51
270.000000
  0
ARC
  8
0
 10
93.553108
 20
-138.072495
 40
2.782837
 50
180.000000
 51
270.000000
  0
ARC
  8
0
 10
93.553108
 20
-137.962494
 40
2.782837
 50
90.000000
 51
180.000000
  0
ARC
  8
0
 10
118.553108
 20
-138.072495
 40
2.500000
 50
270.000000
 51
0.000000
  0
ARC
  8
0
 10
118.553108
 20
-137.962494
 40
2.500000
 50
0.000000
 51
90.000175
  0
ARC
  8
0
 10
118.553108
 20
-137.962494
 40
2.782837
 50
0.000000
 51
90.000160
  0
ARC
  8
0
 10
118.553108
 20
-138.072495
 40
2.782837
 50
270.000000
 51
0.000000
  0
ARC
  8
0
 10
118.153107
 20
-138.062500
 40
1.399994
 50
270.000000
 51
90.000000
  0
POINT
  8
0
 10
176.471863
 20
-44.187500
  0
POINT
  8
0
 10
182.221863
 20
-44.187500
  0
LINE
  8
0
 10
179.971863
 20
-64.437500
 11
179.971863
 21
-47.187500
  0
LINE
  8
0
 10
172.971863
 20
-64.437500
 11
172.971863
 21
-47.187500
  0
LINE
  8
0
 10
172.971863
 20
-50.437500
 11
179.971863
 21
-50.437500
  0
LINE
  8
0
 10
173.471863
 20
-37.437500
 11
179.471863
 21
-37.437500
  0
LINE
  8
0
 10
173.471863
 20
-37.437504
 11
172.971863
 21
-37.937504
  0
LINE
  8
0
 10
179.471863
 20
-37.437504
 11
179.971863
 21
-37.937500
  0
LINE
  8
0
 10
179.971863
 20
-37.937500
 11
172.971863
 21
-37.937500
  0
LINE
  8
0
 10
179.371857
 20
-50.437500
 11
179.371857
 21
-47.187500
  0
LINE
  8
0
 10
173.571869
 20
-50.437500
 11
173.571869
 21
-47.187500
  0
LINE
  8
0
 10
172.971863
 20
-52.937500
 11
179.971863
 21
-52.937500
  0
LINE
  8
0
 10
161.956650
 20
-56.437500
 11
175.138535
 21
-56.437500
  0
LINE
  8
0
 10
171.471863
 20
-47.187500
 11
181.471863
 21
-47.187500
  0
LINE
  8
0
 10
171.471863
 20
-44.187500
 11
181.471863
 21
-44.187500
  0
LINE
  8
0
 10
171.471863
 20
-41.187500
 11
181.471863
 21
-41.187500
  0
LINE
  8
0
 10
182.221863
 20
-46.754486
 11
182.221863
 21
-44.620514
  0
LINE
  8
0
 10
170.721863
 20
-46.754486
 11
170.721863
 21
-44.620514
  0
LINE
  8
0
 10
179.971863
 20
-41.187500
 11
179.971863
 21
-37.937500
  0
LINE
  8
0
 10
179.371857
 20
-41.187500
 11
179.371857
 21
-37.437500
  0
LINE
  8
0
 10
173.571869
 20
-41.187500
 11
173.571869
 21
-37.437500
  0
LINE
  8
0
 10
172.971863
 20
-41.187500
 11
172.971863
 21
-37.937500
  0
LINE
  8
0
 10
181.471863
 20
-44.187489
 11
182.221863
 21
-43.754478
  0
LINE
  8
0
 10
171.471863
 20
-44.187496
 11
170.721863
 21
-43.754486
  0
LINE
  8
0
 10
181.471878
 20
-41.187485
 11
182.221878
 21
-41.620499
  0
LINE
  8
0
 10
171.471848
 20
-41.187481
 11
170.721848
 21
-41.620495
  0
LINE
  8
0
 10
181.471878
 20
-44.187489
 11
182.221878
 21
-44.620502
  0
LINE
  8
0
 10
171.471863
 20
-44.187485
 11
170.721863
 21
-44.620499
  0
LINE
  8
0
 10
171.471863
 20
-47.187496
 11
170.721863
 21
-46.754486
  0
LINE
  8
0
 10
181.471863
 20
-47.187492
 11
182.221863
 21
-46.754478
  0
LINE
  8
0
 10
182.221863
 20
-43.754486
 11
182.221863
 21
-41.620510
  0
LINE
  8
0
 10
170.721863
 20
-43.754486
 11
170.721863
 21
-41.620510
  0
LINE
  8
0
 10
173.585114
 20
-46.754486
 11
173.585114
 21
-44.620514
  0
LINE
  8
0
 10
173.585037
 20
-43.754486
 11
173.585037
 21
-41.620510
  0
LINE
  8
0
 10
179.358521
 20
-41.620514
 11
179.358521
 21
-43.754490
  0
LINE
  8
0
 10
179.358597
 20
-44.620514
 11
179.358597
 21
-46.754486
  0
LINE
  8
0
 10
172.371857
 20
-53.937500
 11
172.140915
 21
-53.537502
  0
LINE
  8
0
 10
172.371857
 20
-58.937496
 11
172.140930
 21
-59.337494
  0
LINE
  8
0
 10
178.971863
 20
-36.837494
 11
179.371857
 21
-36.606552
  0
LINE
  8
0
 10
177.915237
 20
-36.606560
 11
177.915237
 21
-34.168434
  0
LINE
  8
0
 10
174.300171
 20
-33.937500
 11
175.971863
 21
-33.937500
  0
LINE
  8
0
 10
173.971863
 20
-36.837494
 11
173.571869
 21
-36.606560
  0
LINE
  8
0
 10
173.571869
 20
-36.606567
 11
173.571869
 21
-34.168442
  0
LINE
  8
0
 10
179.371857
 20
-36.606567
 11
179.371857
 21
-34.168442
  0
LINE
  8
0
 10
175.028427
 20
-34.168434
 11
175.028427
 21
-36.606567
  0
LINE
  8
0
 10
179.271866
 20
-37.437500
 11
179.271866
 21
-36.837502
  0
LINE
  8
0
 10
173.671860
 20
-36.837502
 11
179.271866
 21
-36.837502
  0
LINE
  8
0
 10
173.671860
 20
-37.437500
 11
173.671860
 21
-36.837502
  0
LINE
  8
0
 10
176.471863
 20
-77.796883
 11
176.471863
 21
-31.552849
  0
LINE
  8
0
 10
167.471863
 20
-57.887501
 11
167.471863
 21
-54.987495
  0
LINE
  8
0
 10
167.571869
 20
-57.687500
 11
169.371857
 21
-57.687500
  0
LINE
  8
0
 10
167.571869
 20
-55.187500
 11
169.371857
 21
-55.187500
  0
LINE
  8
0
 10
169.471863
 20
-58.609188
 11
169.471863
 21
-54.265812
  0
LINE
  8
0
 10
172.140930
 20
-59.337502
 11
169.702805
 21
-59.337502
  0
LINE
  8
0
 10
172.140930
 20
-53.537498
 11
169.702805
 21
-53.537498
  0
LINE
  8
0
 10
172.140930
 20
-54.994125
 11
169.702805
 21
-54.994125
  0
LINE
  8
0
 10
169.702805
 20
-57.880936
 11
172.140930
 21
-57.880936
  0
LINE
  8
0
 10
172.371857
 20
-59.237499
 11
172.371857
 21
-53.637501
  0
LINE
  8
0
 10
172.971863
 20
-59.237499
 11
172.371872
 21
-59.237499
  0
LINE
  8
0
 10
172.971863
 20
-53.637501
 11
172.371872
 21
-53.637501
  0
LINE
  8
0
 10
175.971863
 20
-33.937500
 11
175.971863
 21
-34.937500
  0
LINE
  8
0
 10
175.971863
 20
-34.937500
 11
176.971863
 21
-34.937500
  0
LINE
  8
0
 10
176.971863
 20
-34.937500
 11
176.971863
 21
-33.937500
  0
LINE
  8
0
 10
176.971863
 20
-33.937500
 11
178.643555
 21
-33.937500
  0
LINE
  8
0
 10
164.471863
 20
-57.512398
 11
164.471863
 21
-55.362602
  0
LINE
  8
0
 10
164.645416
 20
-57.710644
 11
165.971863
 21
-57.887501
  0
LINE
  8
0
 10
164.645416
 20
-55.164352
 11
165.971863
 21
-54.987492
  0
LINE
  8
0
 10
165.971863
 20
-57.687496
 11
167.471863
 21
-57.887497
  0
LINE
  8
0
 10
165.971863
 20
-55.187489
 11
167.471863
 21
-54.987488
  0
LINE
  8
0
 10
165.971863
 20
-57.887501
 11
165.971863
 21
-54.987499
  0
LINE
  8
0
 10
168.971863
 20
-66.437500
 11
168.971863
 21
-64.437500
  0
LINE
  8
0
 10
183.971863
 20
-66.437500
 11
183.971863
 21
-64.437500
  0
LINE
  8
0
 10
168.971863
 20
-64.437500
 11
183.971863
 21
-64.437500
  0
LINE
  8
0
 10
172.971863
 20
-51.476730
 11
173.571869
 21
-50.437500
  0
LINE
  8
0
 10
179.971863
 20
-51.476734
 11
179.371872
 21
-50.437504
  0
LINE
  8
0
 10
161.471878
 20
-73.937500
 11
191.471863
 21
-73.937500
  0
LINE
  8
0
 10
191.471863
 20
-73.937492
 11
191.754700
 21
-73.654648
  0
LINE
  8
0
 10
191.754715
 20
-73.654663
 11
190.716843
 21
-72.616791
  0
LINE
  8
0
 10
166.471863
 20
-66.437500
 11
186.471863
 21
-66.437500
  0
LINE
  8
0
 10
191.471863
 20
-71.437500
 11
191.471863
 21
-68.437500
  0
LINE
  8
0
 10
190.716843
 20
-72.192520
 11
191.471863
 21
-71.437492
  0
LINE
  8
0
 10
161.189011
 20
-73.654655
 11
162.226883
 21
-72.616783
  0
LINE
  8
0
 10
162.226883
 20
-72.192520
 11
161.471863
 21
-71.437492
  0
LINE
  8
0
 10
161.471863
 20
-73.937500
 11
161.189011
 21
-73.654655
  0
LINE
  8
0
 10
161.471863
 20
-71.437500
 11
161.471863
 21
-68.437500
  0
LINE
  8
0
 10
191.471863
 20
-71.437515
 11
161.471863
 21
-71.437515
  0
LINE
  8
0
 10
161.188995
 20
-73.654663
 11
191.754715
 21
-73.654663
  0
LINE
  8
0
 10
190.071869
 20
-72.404671
 11
162.761871
 21
-72.404671
  0
LINE
  8
0
 10
161.471863
 20
-68.437500
 11
191.471863
 21
-68.437500
  0
LINE
  8
0
 10
186.471863
 20
-68.437500
 11
186.471863
 21
-66.437500
  0
LINE
  8
0
 10
166.471863
 20
-68.437500
 11
166.471863
 21
-66.437500
  0
ARC
  8
0
 10
172.153488
 20
-41.604385
 40
2.583115
 50
236.342697
 51
303.657318
  0
ARC
  8
0
 10
180.790237
 20
-41.604385
 40
2.583115
 50
236.342697
 51
303.657318
  0
ARC
  8
0
 10
176.471863
 20
-34.348518
 40
9.838984
 50
252.938431
 51
287.061554
  0
ARC
  8
0
 10
180.790237
 20
-43.770615
 40
2.583115
 50
56.342693
 51
123.657310
  0
ARC
  8
0
 10
176.471863
 20
-51.026485
 40
9.838984
 50
72.938438
 51
107.061470
  0
ARC
  8
0
 10
172.153488
 20
-43.770615
 40
2.583115
 50
56.342693
 51
123.657310
  0
ARC
  8
0
 10
180.790237
 20
-46.770615
 40
2.583115
 50
56.342693
 51
123.657310
  0
ARC
  8
0
 10
176.471863
 20
-54.026485
 40
9.838984
 50
72.938438
 51
107.061470
  0
ARC
  8
0
 10
172.153488
 20
-46.770615
 40
2.583115
 50
56.342693
 51
123.657310
  0
ARC
  8
0
 10
172.153488
 20
-44.604385
 40
2.583115
 50
236.342697
 51
303.657318
  0
ARC
  8
0
 10
176.471863
 20
-37.348518
 40
9.838984
 50
252.938431
 51
287.061554
  0
ARC
  8
0
 10
180.790237
 20
-44.604385
 40
2.583115
 50
236.342697
 51
303.657318
  0
ARC
  8
0
 10
171.107956
 20
-58.609188
 40
1.263913
 50
324.813690
 51
35.186165
  0
ARC
  8
0
 10
171.107956
 20
-54.265812
 40
1.263913
 50
324.813690
 51
35.186165
  0
ARC
  8
0
 10
167.745804
 20
-56.437500
 40
4.626064
 50
341.819641
 51
18.180359
  0
ARC
  8
0
 10
178.643555
 20
-35.573593
 40
1.263915
 50
234.813553
 51
305.185883
  0
ARC
  8
0
 10
176.471863
 20
-32.211441
 40
4.626064
 50
251.819641
 51
288.180359
  0
ARC
  8
0
 10
174.300171
 20
-35.201416
 40
1.263915
 50
54.813553
 51
125.185783
  0
ARC
  8
0
 10
174.300171
 20
-35.573593
 40
1.263906
 50
234.814117
 51
305.186432
  0
ARC
  8
0
 10
178.643555
 20
-35.201416
 40
1.263915
 50
54.813553
 51
125.186348
  0
ARC
  8
0
 10
176.471863
 20
-38.563568
 40
4.626067
 50
71.819656
 51
83.795174
  0
ARC
  8
0
 10
167.571869
 20
-57.787498
 40
0.099998
 50
90.000000
 51
180.000000
  0
ARC
  8
0
 10
167.571869
 20
-55.087498
 40
0.100006
 50
180.000000
 51
270.000000
  0
ARC
  8
0
 10
169.371857
 20
-55.087498
 40
0.099998
 50
270.000000
 51
0.000000
  0
ARC
  8
0
 10
169.371857
 20
-57.787498
 40
0.100006
 50
0.000000
 51
90.000000
  0
ARC
  8
0
 10
170.735779
 20
-54.265812
 40
1.263913
 50
144.813690
 51
215.186157
  0
ARC
  8
0
 10
170.735779
 20
-58.609188
 40
1.263913
 50
144.813690
 51
215.186157
  0
ARC
  8
0
 10
174.097931
 20
-56.437500
 40
4.626065
 50
161.819595
 51
198.180313
  0
ARC
  8
0
 10
176.471863
 20
-38.563568
 40
4.626069
 50
96.204826
 51
108.180344
  0
ARC
  8
0
 10
164.671860
 20
-57.512398
 40
0.199997
 50
180.000000
 51
262.406647
  0
ARC
  8
0
 10
164.671860
 20
-55.362602
 40
0.200000
 50
97.593346
 51
180.000000
  0
ARC
  8
0
 10
190.928970
 20
-72.404663
 40
0.299994
 50
135.000000
 51
225.000000
  0
ARC
  8
0
 10
162.014755
 20
-72.404663
 40
0.299994
 50
315.000000
 51
45.000000
  0
POINT
  8
0
 10
176.471863
 20
-138.062500
  0
POINT
  8
0
 10
176.471863
 20
-138.062500
  0
POINT
  8
0
 10
191.754715
 20
-138.062500
  0
LINE
  8
0
 10
179.358612
 20
-143.062500
 11
180.224640
 21
-141.562500
  0
LINE
  8
0
 10
172.719086
 20
-134.562500
 11
173.585098
 21
-133.062500
  0
LINE
  8
0
 10
173.585098
 20
-143.062500
 11
172.719086
 21
-141.562500
  0
LINE
  8
0
 10
180.224625
 20
-134.562500
 11
179.358612
 21
-133.062500
  0
LINE
  8
0
 10
173.585114
 20
-143.062500
 11
179.358612
 21
-143.062500
  0
LINE
  8
0
 10
173.585114
 20
-133.062500
 11
179.358612
 21
-133.062500
  0
LINE
  8
0
 10
159.761871
 20
-138.062500
 11
193.061859
 21
-138.062500
  0
LINE
  8
0
 10
164.971863
 20
-134.562500
 11
187.971863
 21
-134.562500
  0
LINE
  8
0
 10
164.971863
 20
-141.562500
 11
187.971863
 21
-141.562500
  0
LINE
  8
0
 10
164.871857
 20
-136.162506
 11
188.071869
 21
-136.162506
  0
LINE
  8
0
 10
164.871857
 20
-139.962494
 11
188.071869
 21
-139.962494
  0
LINE
  8
0
 10
164.471863
 20
-135.062500
 11
188.471863
 21
-135.062500
  0
LINE
  8
0
 10
164.471863
 20
-140.972504
 11
188.471863
 21
-140.972504
  0
LINE
  8
0
 10
164.471863
 20
-141.255341
 11
188.471863
 21
-141.255341
  0
LINE
  8
0
 10
164.471863
 20
-134.779663
 11
188.471863
 21
-134.779663
  0
LINE
  8
0
 10
162.971863
 20
-138.062500
 11
162.971863
 21
-138.062500
  0
LINE
  8
0
 10
161.471863
 20
-137.962494
 11
161.471863
 21
-138.072495
  0
LINE
  8
0
 10
166.471863
 20
-138.062500
 11
166.471863
 21
-138.062500
  0
LINE
  8
0
 10
186.471863
 20
-138.062500
 11
186.471863
 21
-138.062500
  0
LINE
  8
0
 10
162.971863
 20
-138.062500
 11
162.971863
 21
-138.062500
  0
LINE
  8
0
 10
189.971863
 20
-138.062500
 11
189.971863
 21
-138.062500
  0
LINE
  8
0
 10
176.471863
 20
-131.428284
 11
176.471863
 21
-145.170166
  0
ARC
  8
0
 10
176.471863
 20
-138.062500
 40
4.999997
 50
44.427044
 51
135.572952
  0
ARC
  8
0
 10
176.471863
 20
-138.062500
 40
4.999997
 50
224.427048
 51
315.572968
  0
CIRCLE
  8
0
 10
176.471863
 20
-138.062500
 40
1.000000
  0
ARC
  8
0
 10
187.971863
 20
-138.062500
 40
3.500000
 50
270.000000
 51
309.332489
  0
ARC
  8
0
 10
187.971863
 20
-138.062500
 40
3.500000
 50
60.509796
 51
90.000000
  0
ARC
  8
0
 10
164.971863
 20
-138.062500
 40
3.500000
 50
90.000000
 51
119.490761
  0
ARC
  8
0
 10
164.971863
 20
-138.062500
 40
3.499998
 50
230.667160
 51
270.000000
  0
ARC
  8
0
 10
164.471863
 20
-138.062500
 40
3.000000
 50
90.000000
 51
180.000000
  0
ARC
  8
0
 10
188.471863
 20
-138.062500
 40
3.000000
 50
0.000000
 51
90.000000
  0
ARC
  8
0
 10
188.471863
 20
-137.972504
 40
3.000000
 50
270.000000
 51
358.280945
  0
ARC
  8
0
 10
164.471863
 20
-137.972504
 40
2.999992
 50
181.719070
 51
270.000000
  0
ARC
  8
0
 10
164.471863
 20
-137.972488
 40
3.282835
 50
181.571182
 51
270.000000
  0
ARC
  8
0
 10
188.471863
 20
-137.972488
 40
3.282852
 50
270.000000
 51
358.428833
  0
ARC
  8
0
 10
188.471863
 20
-138.062500
 40
3.282852
 50
0.000000
 51
90.000000
  0
ARC
  8
0
 10
164.471863
 20
-138.062500
 40
3.282837
 50
90.000000
 51
180.000000
  0
ARC
  8
0
 10
164.871857
 20
-138.062500
 40
1.900009
 50
90.000000
 51
270.000000
  0
ARC
  8
0
 10
188.071869
 20
-138.062500
 40
1.899994
 50
270.000000
 51
90.000000
  0
POINT
  8
0
 10
246.890594
 20
-44.187500
  0
POINT
  8
0
 10
252.640594
 20
-44.187500
  0
LINE
  8
0
 10
250.390594
 20
-64.437500
 11
250.390594
 21
-47.187500
  0
LINE
  8
0
 10
243.390594
 20
-64.437500
 11
243.390594
 21
-47.187500
  0
LINE
  8
0
 10
243.390594
 20
-50.437500
 11
250.390594
 21
-50.437500
  0
LINE
  8
0
 10
243.890594
 20
-37.437500
 11
249.890594
 21
-37.437500
  0
LINE
  8
0
 10
243.890594
 20
-37.437504
 11
243.390594
 21
-37.937504
  0
LINE
  8
0
 10
249.890594
 20
-37.437504
 11
250.390594
 21
-37.937500
  0
LINE
  8
0
 10
250.390594
 20
-37.937500
 11
243.390594
 21
-37.937500
  0
LINE
  8
0
 10
249.790588
 20
-50.437500
 11
249.790588
 21
-47.187500
  0
LINE
  8
0
 10
243.990601
 20
-50.437500
 11
243.990601
 21
-47.187500
  0
LINE
  8
0
 10
243.390594
 20
-52.937500
 11
250.390594
 21
-52.937500
  0
LINE
  8
0
 10
232.375381
 20
-56.437500
 11
245.557266
 21
-56.437500
  0
LINE
  8
0
 10
241.890594
 20
-47.187500
 11
251.890594
 21
-47.187500
  0
LINE
  8
0
 10
241.890594
 20
-44.187500
 11
251.890594
 21
-44.187500
  0
LINE
  8
0
 10
241.890594
 20
-41.187500
 11
251.890594
 21
-41.187500
  0
LINE
  8
0
 10
252.640594
 20
-46.754486
 11
252.640594
 21
-44.620514
  0
LINE
  8
0
 10
241.140594
 20
-46.754486
 11
241.140594
 21
-44.620514
  0
LINE
  8
0
 10
250.390594
 20
-41.187500
 11
250.390594
 21
-37.937500
  0
LINE
  8
0
 10
249.790588
 20
-41.187500
 11
249.790588
 21
-37.437500
  0
LINE
  8
0
 10
243.990601
 20
-41.187500
 11
243.990601
 21
-37.437500
  0
LINE
  8
0
 10
243.390594
 20
-41.187500
 11
243.390594
 21
-37.937500
  0
LINE
  8
0
 10
251.890594
 20
-44.187489
 11
252.640594
 21
-43.754478
  0
LINE
  8
0
 10
241.890594
 20
-44.187496
 11
241.140594
 21
-43.754486
  0
LINE
  8
0
 10
251.890610
 20
-41.187489
 11
252.640610
 21
-41.620499
  0
LINE
  8
0
 10
241.890579
 20
-41.187481
 11
241.140579
 21
-41.620491
  0
LINE
  8
0
 10
251.890610
 20
-44.187489
 11
252.640610
 21
-44.620502
  0
LINE
  8
0
 10
241.890594
 20
-44.187485
 11
241.140594
 21
-44.620495
  0
LINE
  8
0
 10
241.890594
 20
-47.187496
 11
241.140594
 21
-46.754486
  0
LINE
  8
0
 10
251.890594
 20
-47.187492
 11
252.640594
 21
-46.754478
  0
LINE
  8
0
 10
252.640594
 20
-43.754486
 11
252.640594
 21
-41.620510
  0
LINE
  8
0
 10
241.140594
 20
-43.754486
 11
241.140594
 21
-41.620510
  0
LINE
  8
0
 10
244.003845
 20
-46.754486
 11
244.003845
 21
-44.620514
  0
LINE
  8
0
 10
244.003769
 20
-43.754486
 11
244.003769
 21
-41.620510
  0
LINE
  8
0
 10
249.777252
 20
-41.620514
 11
249.777252
 21
-43.754490
  0
LINE
  8
0
 10
249.777328
 20
-44.620514
 11
249.777328
 21
-46.754486
  0
LINE
  8
0
 10
242.790588
 20
-53.937500
 11
242.559647
 21
-53.537502
  0
LINE
  8
0
 10
242.790588
 20
-58.937496
 11
242.559662
 21
-59.337494
  0
LINE
  8
0
 10
249.390594
 20
-36.837494
 11
249.790588
 21
-36.606552
  0
LINE
  8
0
 10
248.333969
 20
-36.606560
 11
248.333969
 21
-34.168434
  0
LINE
  8
0
 10
244.718903
 20
-33.937500
 11
246.390594
 21
-33.937500
  0
LINE
  8
0
 10
244.390594
 20
-36.837494
 11
243.990601
 21
-36.606560
  0
LINE
  8
0
 10
243.990601
 20
-36.606567
 11
243.990601
 21
-34.168442
  0
LINE
  8
0
 10
249.790588
 20
-36.606567
 11
249.790588
 21
-34.168442
  0
LINE
  8
0
 10
245.447159
 20
-34.168434
 11
245.447159
 21
-36.606567
  0
LINE
  8
0
 10
249.690598
 20
-37.437500
 11
249.690598
 21
-36.837502
  0
LINE
  8
0
 10
244.090591
 20
-36.837502
 11
249.690598
 21
-36.837502
  0
LINE
  8
0
 10
244.090591
 20
-37.437500
 11
244.090591
 21
-36.837502
  0
LINE
  8
0
 10
246.890594
 20
-77.796883
 11
246.890594
 21
-31.552849
  0
LINE
  8
0
 10
237.890594
 20
-57.887501
 11
237.890594
 21
-54.987495
  0
LINE
  8
0
 10
237.990601
 20
-57.687500
 11
239.790588
 21
-57.687500
  0
LINE
  8
0
 10
237.990601
 20
-55.187500
 11
239.790588
 21
-55.187500
  0
LINE
  8
0
 10
239.890594
 20
-58.609188
 11
239.890594
 21
-54.265812
  0
LINE
  8
0
 10
242.559662
 20
-59.337502
 11
240.121536
 21
-59.337502
  0
LINE
  8
0
 10
242.559662
 20
-53.537498
 11
240.121536
 21
-53.537498
  0
LINE
  8
0
 10
242.559662
 20
-54.994125
 11
240.121536
 21
-54.994125
  0
LINE
  8
0
 10
240.121536
 20
-57.880936
 11
242.559662
 21
-57.880936
  0
LINE
  8
0
 10
242.790588
 20
-59.237499
 11
242.790588
 21
-53.637501
  0
LINE
  8
0
 10
243.390594
 20
-59.237499
 11
242.790604
 21
-59.237499
  0
LINE
  8
0
 10
243.390594
 20
-53.637501
 11
242.790604
 21
-53.637501
  0
LINE
  8
0
 10
246.390594
 20
-33.937500
 11
246.390594
 21
-34.937500
  0
LINE
  8
0
 10
246.390594
 20
-34.937500
 11
247.390594
 21
-34.937500
  0
LINE
  8
0
 10
247.390594
 20
-34.937500
 11
247.390594
 21
-33.937500
  0
LINE
  8
0
 10
247.390594
 20
-33.937500
 11
249.062286
 21
-33.937500
  0
LINE
  8
0
 10
234.890594
 20
-57.512398
 11
234.890594
 21
-55.362602
  0
LINE
  8
0
 10
235.064148
 20
-57.710644
 11
236.390594
 21
-57.887505
  0
LINE
  8
0
 10
235.064148
 20
-55.164352
 11
236.390594
 21
-54.987492
  0
LINE
  8
0
 10
236.390594
 20
-57.687496
 11
237.890594
 21
-57.887497
  0
LINE
  8
0
 10
236.390594
 20
-55.187492
 11
237.890594
 21
-54.987488
  0
LINE
  8
0
 10
236.390594
 20
-57.887501
 11
236.390594
 21
-54.987499
  0
LINE
  8
0
 10
239.390594
 20
-66.437500
 11
239.390594
 21
-64.437500
  0
LINE
  8
0
 10
254.390594
 20
-66.437500
 11
254.390594
 21
-64.437500
  0
LINE
  8
0
 10
239.390594
 20
-64.437500
 11
254.390594
 21
-64.437500
  0
LINE
  8
0
 10
243.390594
 20
-51.476730
 11
243.990601
 21
-50.437500
  0
LINE
  8
0
 10
250.390594
 20
-51.476734
 11
249.790604
 21
-50.437504
  0
LINE
  8
0
 10
231.890610
 20
-73.937500
 11
261.890594
 21
-73.937500
  0
LINE
  8
0
 10
261.890594
 20
-73.937492
 11
262.173431
 21
-73.654648
  0
LINE
  8
0
 10
262.173431
 20
-73.654663
 11
261.135559
 21
-72.616791
  0
LINE
  8
0
 10
236.890594
 20
-66.437500
 11
256.890594
 21
-66.437500
  0
LINE
  8
0
 10
261.890594
 20
-71.437500
 11
261.890594
 21
-68.437500
  0
LINE
  8
0
 10
261.135559
 20
-72.192520
 11
261.890594
 21
-71.437492
  0
LINE
  8
0
 10
231.607742
 20
-73.654655
 11
232.645615
 21
-72.616783
  0
LINE
  8
0
 10
232.645615
 20
-72.192520
 11
231.890594
 21
-71.437492
  0
LINE
  8
0
 10
231.890594
 20
-73.937500
 11
231.607742
 21
-73.654655
  0
LINE
  8
0
 10
231.890594
 20
-71.437500
 11
231.890594
 21
-68.437500
  0
LINE
  8
0
 10
261.890594
 20
-71.437515
 11
231.890594
 21
-71.437515
  0
LINE
  8
0
 10
231.607727
 20
-73.654663
 11
262.173431
 21
-73.654663
  0
LINE
  8
0
 10
260.490601
 20
-72.404671
 11
233.180603
 21
-72.404671
  0
LINE
  8
0
 10
231.890594
 20
-68.437500
 11
261.890594
 21
-68.437500
  0
LINE
  8
0
 10
256.890594
 20
-68.437500
 11
256.890594
 21
-66.437500
  0
LINE
  8
0
 10
236.890594
 20
-68.437500
 11
236.890594
 21
-66.437500
  0
ARC
  8
0
 10
242.572220
 20
-41.604385
 40
2.583115
 50
236.342697
 51
303.657318
  0
ARC
  8
0
 10
251.208969
 20
-41.604385
 40
2.583115
 50
236.342697
 51
303.657318
  0
ARC
  8
0
 10
246.890594
 20
-34.348518
 40
9.838984
 50
252.938431
 51
287.061554
  0
ARC
  8
0
 10
251.208969
 20
-43.770615
 40
2.583115
 50
56.342693
 51
123.657310
  0
ARC
  8
0
 10
246.890594
 20
-51.026485
 40
9.838984
 50
72.938438
 51
107.061470
  0
ARC
  8
0
 10
242.572220
 20
-43.770615
 40
2.583115
 50
56.342693
 51
123.657310
  0
ARC
  8
0
 10
251.208969
 20
-46.770615
 40
2.583115
 50
56.342693
 51
123.657310
  0
ARC
  8
0
 10
246.890594
 20
-54.026485
 40
9.838984
 50
72.938438
 51
107.061470
  0
ARC
  8
0
 10
242.572220
 20
-46.770615
 40
2.583115
 50
56.342693
 51
123.657310
  0
ARC
  8
0
 10
242.572220
 20
-44.604385
 40
2.583115
 50
236.342697
 51
303.657318
  0
ARC
  8
0
 10
246.890594
 20
-37.348518
 40
9.838984
 50
252.938431
 51
287.061554
  0
ARC
  8
0
 10
251.208969
 20
-44.604385
 40
2.583115
 50
236.342697
 51
303.657318
  0
ARC
  8
0
 10
241.526688
 20
-58.609188
 40
1.263913
 50
324.813690
 51
35.186165
  0
ARC
  8
0
 10
241.526688
 20
-54.265812
 40
1.263913
 50
324.813690
 51
35.186165
  0
ARC
  8
0
 10
238.164536
 20
-56.437500
 40
4.626064
 50
341.819641
 51
18.180359
  0
ARC
  8
0
 10
249.062286
 20
-35.573593
 40
1.263915
 50
234.813553
 51
305.185883
  0
ARC
  8
0
 10
246.890594
 20
-32.211441
 40
4.626064
 50
251.819641
 51
288.180359
  0
ARC
  8
0
 10
244.718903
 20
-35.201416
 40
1.263915
 50
54.813553
 51
125.185783
  0
ARC
  8
0
 10
244.718903
 20
-35.573593
 40
1.263906
 50
234.814117
 51
305.186432
  0
ARC
  8
0
 10
249.062286
 20
-35.201416
 40
1.263915
 50
54.813553
 51
125.186348
  0
ARC
  8
0
 10
246.890594
 20
-38.563568
 40
4.626067
 50
71.819656
 51
83.795174
  0
ARC
  8
0
 10
237.990601
 20
-57.787498
 40
0.099998
 50
90.000000
 51
180.000000
  0
ARC
  8
0
 10
237.990601
 20
-55.087498
 40
0.100006
 50
180.000000
 51
270.000000
  0
ARC
  8
0
 10
239.790588
 20
-55.087498
 40
0.099998
 50
270.000000
 51
0.000000
  0
ARC
  8
0
 10
239.790588
 20
-57.787498
 40
0.100006
 50
0.000000
 51
90.000000
  0
ARC
  8
0
 10
241.154510
 20
-54.265812
 40
1.263913
 50
144.813690
 51
215.186157
  0
ARC
  8
0
 10
241.154510
 20
-58.609188
 40
1.263913
 50
144.813690
 51
215.186157
  0
ARC
  8
0
 10
244.516663
 20
-56.437500
 40
4.626065
 50
161.819595
 51
198.180313
  0
ARC
  8
0
 10
246.890594
 20
-38.563568
 40
4.626069
 50
96.204826
 51
108.180344
  0
ARC
  8
0
 10
235.090591
 20
-57.512398
 40
0.199997
 50
180.000000
 51
262.406647
  0
ARC
  8
0
 10
235.090591
 20
-55.362602
 40
0.200000
 50
97.593346
 51
180.000000
  0
ARC
  8
0
 10
261.347717
 20
-72.404663
 40
0.300015
 50
135.004120
 51
224.995880
  0
ARC
  8
0
 10
232.433487
 20
-72.404663
 40
0.299994
 50
315.000000
 51
45.000000
  0
POINT
  8
0
 10
246.890594
 20
-138.062500
  0
POINT
  8
0
 10
262.173431
 20
-138.062500
  0
LINE
  8
0
 10
246.890594
 20
-145.183716
 11
246.890594
 21
-131.092804
  0
LINE
  8
0
 10
249.777344
 20
-143.062500
 11
250.191406
 21
-142.345337
  0
LINE
  8
0
 10
243.589798
 20
-133.779663
 11
244.003845
 21
-133.062500
  0
LINE
  8
0
 10
244.003830
 20
-143.062500
 11
243.589783
 21
-142.345337
  0
LINE
  8
0
 10
250.191391
 20
-133.779663
 11
249.777344
 21
-133.062500
  0
LINE
  8
0
 10
244.003845
 20
-143.062500
 11
249.777344
 21
-143.062500
  0
LINE
  8
0
 10
244.003845
 20
-133.062500
 11
249.777344
 21
-133.062500
  0
LINE
  8
0
 10
231.000595
 20
-138.062500
 11
263.013916
 21
-138.062500
  0
LINE
  8
0
 10
233.390594
 20
-138.062500
 11
233.390594
 21
-138.062500
  0
LINE
  8
0
 10
231.890594
 20
-137.962494
 11
231.890594
 21
-138.072495
  0
LINE
  8
0
 10
231.890594
 20
-137.972504
 11
231.890594
 21
-138.062500
  0
LINE
  8
0
 10
236.890594
 20
-138.062500
 11
236.890594
 21
-138.062500
  0
LINE
  8
0
 10
256.890594
 20
-138.062500
 11
256.890594
 21
-138.062500
  0
LINE
  8
0
 10
261.890594
 20
-137.972504
 11
261.890594
 21
-138.062500
  0
LINE
  8
0
 10
262.173431
 20
-137.972488
 11
262.173431
 21
-138.062500
  0
LINE
  8
0
 10
233.390594
 20
-138.062500
 11
233.390594
 21
-138.062500
  0
LINE
  8
0
 10
260.390594
 20
-138.062500
 11
260.390594
 21
-138.062500
  0
LINE
  8
0
 10
231.890594
 20
-138.062500
 11
231.890594
 21
-138.062500
  0
LINE
  8
0
 10
261.890594
 20
-138.062500
 11
261.890594
 21
-138.062500
  0
LINE
  8
0
 10
231.607758
 20
-138.062500
 11
231.607758
 21
-138.062500
  0
LINE
  8
0
 10
262.173431
 20
-138.062500
 11
262.173431
 21
-138.062500
  0
LINE
  8
0
 10
235.890594
 20
-142.062500
 11
257.890594
 21
-142.062500
  0
LINE
  8
0
 10
235.890594
 20
-134.062500
 11
257.890594
 21
-134.062500
  0
LINE
  8
0
 10
235.890594
 20
-133.779663
 11
257.890594
 21
-133.779663
  0
LINE
  8
0
 10
235.890594
 20
-142.345337
 11
257.890594
 21
-142.345337
  0
LINE
  8
0
 10
236.290588
 20
-140.962494
 11
257.490601
 21
-140.962494
  0
LINE
  8
0
 10
236.290588
 20
-135.162506
 11
257.490601
 21
-135.162506
  0
LINE
  8
0
 10
260.390594
 20
-138.062500
 11
260.390594
 21
-138.062500
  0
LINE
  8
0
 10
233.390594
 20
-138.062500
 11
233.390594
 21
-138.062500
  0
ARC
  8
0
 10
246.890594
 20
-138.062500
 40
4.999997
 50
58.933388
 51
121.066612
  0
ARC
  8
0
 10
246.890594
 20
-138.062500
 40
4.999997
 50
238.933395
 51
301.066620
  0
CIRCLE
  8
0
 10
246.890594
 20
-138.062500
 40
1.000000
  0
ARC
  8
0
 10
236.290588
 20
-138.062500
 40
2.899994
 50
89.999695
 51
270.000000
  0
ARC
  8
0
 10
257.490601
 20
-138.062500
 40
2.899994
 50
270.000000
 51
90.000000
  0
ARC
  8
0
 10
257.890594
 20
-138.062500
 40
4.000000
 50
270.000000
 51
90.000000
  0
ARC
  8
0
 10
235.890594
 20
-138.062500
 40
4.000000
 50
90.000000
 51
270.000000
  0
ARC
  8
0
 10
235.890594
 20
-138.062500
 40
4.282837
 50
90.000000
 51
270.000000
  0
ARC
  8
0
 10
257.890594
 20
-138.062500
 40
4.282837
 50
270.000000
 51
90.000000
  0
ENDSEC
  0
EOF
