  0
SECTION
  2
HEADER
  0
ENDSEC
  0
SECTION
  2
TABLES
  0
TABLE
  2
LTYPE
 70
     4
  0
LTYPE
  2
CONTINUOUS
 70
    64
  3
Solid line
 72
    65
 73
     0
 40
0.000000
  0
LTYPE
  2
DASHED
 70
    64
  3
__ __ __ __ __ __ __ __ __ __ __ __ __ __ __
 72
    65
 73
     2
 40
3.500000
 49
2.000000
 49
-1.500000
  0
LTYPE
  2
CENTER
 70
    64
  3
____ _ ____ _ ____ _ ____ _ ____ _ ____ _ ____
 72
    65
 73
     4
 40
17.500000
 49
13.000000
 49
-1.500000
 49
1.500000
 49
-1.500000
  0
LTYPE
  2
PHANTOM
 70
    64
  3
_____ _ _ _____ _ _ _____ _ _ _____ _ _ ____  
 72
    65
 73
     6
 40
15.500000
 49
8.000000
 49
-1.500000
 49
1.500000
 49
-1.500000
 49
1.500000
 49
-1.500000
  0
LTYPE
  2
DASHED1
 70
    64
  3
__ __ __ __ __ __ __ __ __ __ __ __ __ __ __
 72
    65
 73
     2
 40
1.500000
 49
1.000000
 49
-0.500000
  0
LTYPE
  2
DASHED2
 70
    64
  3
__ __ __ __ __ __ __ __ __ __ __ __ __ __ __
 72
    65
 73
     2
 40
3.500000
 49
2.500000
 49
-1.000000
  0
LTYPE
  2
DASHED3
 70
    64
  3
__ __ __ __ __ __ __ __ __ __ __ __ __ __ __
 72
    65
 73
     2
 40
6.000000
 49
4.000000
 49
-2.000000
  0
LTYPE
  2
DASHED4
 70
    64
  3
__ __ __ __ __ __ __ __ __ __ __ __ __ __ __
 72
    65
 73
     2
 40
12.000000
 49
10.000000
 49
-2.000000
  0
LTYPE
  2
DASHED5
 70
    64
  3
__ __ __ __ __ __ __ __ __ __ __ __ __ __ __
 72
    65
 73
     2
 40
17.000000
 49
15.000000
 49
-2.000000
  0
LTYPE
  2
DASHED6
 70
    64
  3
__ __ __ __ __ __ __ __ __ __ __ __ __ __ __
 72
    65
 73
     2
 40
29.000000
 49
27.000000
 49
-2.000000
  0
LTYPE
  2
PHANTOM1
 70
    64
  3
_____ _ _ _____ _ _ _____ _ _ _____ _ _ ____  
 72
    65
 73
     6
 40
31.000000
 49
25.000000
 49
-1.500000
 49
1.000000
 49
-1.000000
 49
1.000000
 49
-1.500000
  0
LTYPE
  2
PHANTOM2
 70
    64
  3
_____ _ _ _____ _ _ _____ _ _ _____ _ _ ____  
 72
    65
 73
     6
 40
36.000000
 49
27.000000
 49
-1.500000
 49
2.500000
 49
-1.000000
 49
2.500000
 49
-1.500000
  0
LTYPE
  2
PHANTOM3
 70
    64
  3
_____ _ _ _____ _ _ _____ _ _ _____ _ _ ____  
 72
    65
 73
     6
 40
78.000000
 49
64.000000
 49
-2.000000
 49
4.000000
 49
-2.000000
 49
4.000000
 49
-2.000000
  0
LTYPE
  2
CENTER1
 70
    64
  3
____ _ ____ _ ____ _ ____ _ ____ _ ____ _ ____
 72
    65
 73
     4
 40
19.000000
 49
14.000000
 49
-1.000000
 49
3.000000
 49
-1.000000
  0
LTYPE
  2
CENTER2
 70
    64
  3
____ _ ____ _ ____ _ ____ _ ____ _ ____ _ ____
 72
    65
 73
     4
 40
28.500000
 49
25.000000
 49
-1.000000
 49
1.500000
 49
-1.000000
  0
LTYPE
  2
CENTER3
 70
    64
  3
____ _ ____ _ ____ _ ____ _ ____ _ ____ _ ____
 72
    65
 73
     4
 40
31.500000
 49
27.000000
 49
-1.000000
 49
2.500000
 49
-1.000000
  0
LTYPE
  2
CENTER4
 70
    64
  3
____ _ ____ _ ____ _ ____ _ ____ _ ____ _ ____
 72
    65
 73
     4
 40
50.000000
 49
45.000000
 49
-1.000000
 49
3.000000
 49
-1.000000
  0
LTYPE
  2
CENTER5
 70
    64
  3
____ _ ____ _ ____ _ ____ _ ____ _ ____ _ ____
 72
    65
 73
     4
 40
100.000000
 49
92.000000
 49
-2.000000
 49
4.000000
 49
-2.000000
  0
LTYPE
  2
SBK1
 70
    64
  3
______ _ _ _ ______ _ _ _ ______ _ _ _ _____  
 72
    65
 73
     8
 40
60.500000
 49
45.000000
 49
-2.000000
 49
2.500000
 49
-2.000000
 49
2.500000
 49
-2.000000
 49
2.500000
 49
-2.000000
  0
LTYPE
  2
SBK2
 70
    64
  3
______ _ _ _ ______ _ _ _ ______ _ _ _ _____  
 72
    65
 73
     8
 40
84.000000
 49
64.000000
 49
-2.000000
 49
4.000000
 49
-2.000000
 49
4.000000
 49
-2.000000
 49
4.000000
 49
-2.000000
  0
LTYPE
  2
STCH
 70
    64
  3
__ __ __ __ __ __ __ __ __ __ __ __ __ __ __
 72
    65
 73
     2
 40
3.000000
 49
1.000000
 49
-2.000000
  0
LTYPE
  2
MTCH
 70
    64
  3
_____ _ _ _____ _ _ _____ _ _ _____ _ _ ____  
 72
    65
 73
     6
 40
80.000000
 49
66.000000
 49
-2.000000
 49
4.000000
 49
-2.000000
 49
4.000000
 49
-2.000000
  0
ENDTAB
  0
TABLE
  2
LAYER
 70
     1
  0
LAYER
  2
0
 70
     0
 62
     7
  6
CONTINUOUS
  0
ENDTAB
  0
TABLE
  2
STYLE
 70
     1
  0
STYLE
  2
STANDARD
 70
     0
 40
0.000000
 41
1.000000
 50
0.000000
 71
     0
 42
0.200000
  3
txt
  4
BIGFONT
  0
ENDTAB
  0
TABLE
  2
VIEW
 70
     0
  0
ENDTAB
  0
ENDSEC
  0
SECTION
  2
BLOCKS
  0
ENDSEC
  0
SECTION
  2
ENTITIES
  0
LINE
  8
0
 10
-181.250000
 20
195.500000
 11
-181.250000
 21
180.500000
  0
LINE
  8
0
 10
182.099976
 20
195.500000
 11
182.099976
 21
180.500000
  0
LINE
  8
0
 10
182.099976
 20
180.500000
 11
282.099976
 21
180.500000
  0
LINE
  8
0
 10
141.262482
 20
-175.000000
 11
282.099976
 21
-175.000000
  0
LINE
  8
0
 10
-297.000000
 20
210.000000
 11
297.000000
 21
210.000000
  0
LINE
  8
0
 10
-297.000000
 20
-210.000000
 11
297.000000
 21
-210.000000
  0
LINE
  8
0
 10
297.000000
 20
210.000000
 11
297.000000
 21
-210.000000
  0
LINE
  8
0
 10
-297.000000
 20
210.000000
 11
-297.000000
 21
-210.000000
  0
LINE
  8
0
 10
-281.250000
 20
195.500000
 11
282.099976
 21
195.500000
  0
LINE
  8
0
 10
-281.250000
 20
195.500000
 11
-281.250000
 21
-195.000000
  0
LINE
  8
0
 10
282.099976
 20
195.500000
 11
282.099976
 21
-195.000000
  0
LINE
  8
0
 10
-281.250000
 20
-195.000000
 11
282.099976
 21
-195.000000
  0
LINE
  8
0
 10
-181.250000
 20
180.500000
 11
-281.250000
 21
180.500000
  0
LINE
  8
0
 10
169.429993
 20
-175.000000
 11
169.429993
 21
-195.000000
  0
LINE
  8
0
 10
-281.250000
 20
-185.000000
 11
141.262482
 21
-185.000000
  0
LINE
  8
0
 10
-281.250000
 20
-25.000000
 11
282.099976
 21
-25.000000
  0
LINE
  8
0
 10
-281.250000
 20
95.000000
 11
282.099976
 21
95.000000
  0
LINE
  8
0
 10
-168.580002
 20
195.500000
 11
-168.580002
 21
-25.000000
  0
LINE
  8
0
 10
-55.910004
 20
195.500000
 11
-55.910004
 21
-25.000000
  0
LINE
  8
0
 10
56.759995
 20
195.500000
 11
56.759995
 21
-25.000000
  0
LINE
  8
0
 10
169.429993
 20
195.500000
 11
169.429993
 21
-25.000000
  0
LINE
  8
0
 10
-140.412506
 20
-25.000000
 11
-140.412506
 21
-195.000000
  0
LINE
  8
0
 10
0.424988
 20
-25.000000
 11
0.424988
 21
-195.000000
  0
LINE
  8
0
 10
141.262482
 20
-25.000000
 11
141.262482
 21
-195.000000
  0
LINE
  8
0
 10
-281.250000
 20
-15.000000
 11
282.099976
 21
-15.000000
  0
LINE
  8
0
 10
-281.250000
 20
105.000000
 11
282.099976
 21
105.000000
  0
LINE
  8
0
 10
141.262482
 20
-165.000000
 11
282.099976
 21
-165.000000
  0
TEXT
  8
0
 10
-260.828308
 20
183.779999
 40
5.800000
  1
VACUUM PAD
 50
0.000000
 41
1.052632
 51
0.000000
  7
STANDARD
  0
TEXT
  8
0
 10
188.021667
 20
183.779999
 40
5.800000
  1
DATE: JUN ,1992
 50
0.000000
 41
1.052632
 51
0.000000
  7
STANDARD
  0
TEXT
  8
0
 10
178.000870
 20
-190.300003
 40
7.000000
  1
ＫＯＧＡＮＥＩ，ＣＯＲＰ．
 50
0.000000
 41
0.902367
 51
15.000000
  7
STANDARD
  0
TEXT
  8
0
 10
-261.521881
 20
95.599998
 40
6.000000
  1
MODEL:KPHF-2
 50
0.000000
 41
1.052632
 51
0.000000
  7
STANDARD
  0
TEXT
  8
0
 10
-154.851883
 20
95.599998
 40
6.000000
  1
MODEL:KPHF-3.5
 50
0.000000
 41
1.052632
 51
0.000000
  7
STANDARD
  0
TEXT
  8
0
 10
-42.181889
 20
95.599998
 40
6.000000
  1
MODEL:KPHF-2X4
 50
0.000000
 41
1.052632
 51
0.000000
  7
STANDARD
  0
TEXT
  8
0
 10
67.488106
 20
95.599998
 40
6.000000
  1
MODEL:KPHF3.5X7
 50
0.000000
 41
1.052632
 51
0.000000
  7
STANDARD
  0
TEXT
  8
0
 10
189.158112
 20
95.599998
 40
6.000000
  1
MODEL:KPHF-6
 50
0.000000
 41
1.052632
 51
0.000000
  7
STANDARD
  0
TEXT
  8
0
 10
-261.521881
 20
-24.400000
 40
6.000000
  1
MODEL:KPHF-8
 50
0.000000
 41
1.052632
 51
0.000000
  7
STANDARD
  0
TEXT
  8
0
 10
-151.851883
 20
-24.400000
 40
6.000000
  1
MODEL:KPHF-10
 50
0.000000
 41
1.052632
 51
0.000000
  7
STANDARD
  0
TEXT
  8
0
 10
-39.181892
 20
-24.400000
 40
6.000000
  1
MODEL:KPHF-15
 50
0.000000
 41
1.052632
 51
0.000000
  7
STANDARD
  0
TEXT
  8
0
 10
73.488106
 20
-24.400000
 40
6.000000
  1
MODEL:KPHF-20
 50
0.000000
 41
1.052632
 51
0.000000
  7
STANDARD
  0
TEXT
  8
0
 10
186.158112
 20
-24.400000
 40
6.000000
  1
MODEL:KPHF-25
 50
0.000000
 41
1.052632
 51
0.000000
  7
STANDARD
  0
TEXT
  8
0
 10
-250.438126
 20
-194.399994
 40
6.000000
  1
MODEL:KPHF-30
 50
0.000000
 41
1.052632
 51
0.000000
  7
STANDARD
  0
TEXT
  8
0
 10
-109.600639
 20
-194.399994
 40
6.000000
  1
MODEL:KPHF-35
 50
0.000000
 41
1.052632
 51
0.000000
  7
STANDARD
  0
TEXT
  8
0
 10
31.236856
 20
-194.399994
 40
6.000000
  1
MODEL:KPHF-40
 50
0.000000
 41
1.052632
 51
0.000000
  7
STANDARD
  0
TEXT
  8
0
 10
172.074356
 20
-174.399994
 40
6.000000
  1
MODEL:KPHF-50
 50
0.000000
 41
1.052632
 51
0.000000
  7
STANDARD
  0
POINT
  8
0
 10
-230.000000
 20
140.000000
  0
POINT
  8
0
 10
-227.500000
 20
140.000000
  0
LINE
  8
0
 10
-232.500000
 20
140.000000
 11
-227.500000
 21
140.000000
  0
LINE
  8
0
 10
-227.500000
 20
140.000000
 11
-227.500000
 21
127.599045
  0
LINE
  8
0
 10
-232.500000
 20
140.000000
 11
-232.500000
 21
127.599045
  0
LINE
  8
0
 10
-231.750000
 20
121.300003
 11
-228.250000
 21
121.300003
  0
LINE
  8
0
 10
-231.750000
 20
123.300003
 11
-228.250000
 21
123.300003
  0
LINE
  8
0
 10
-231.750000
 20
124.800003
 11
-228.250000
 21
124.800003
  0
LINE
  8
0
 10
-228.250000
 20
124.800003
 11
-228.250000
 21
123.300003
  0
LINE
  8
0
 10
-231.750000
 20
124.800003
 11
-231.750000
 21
123.300003
  0
LINE
  8
0
 10
-228.250000
 20
124.800011
 11
-227.500000
 21
127.599045
  0
LINE
  8
0
 10
-231.750000
 20
124.799995
 11
-232.500000
 21
127.599037
  0
LINE
  8
0
 10
-230.000000
 20
141.196762
 11
-230.000000
 21
119.370804
  0
LINE
  8
0
 10
-242.130783
 20
129.800003
 11
-231.231750
 21
129.800003
  0
LINE
  8
0
 10
-241.000000
 20
130.900009
 11
-241.000000
 21
128.699997
  0
LINE
  8
0
 10
-240.500000
 20
131.300003
 11
-240.500000
 21
128.300003
  0
LINE
  8
0
 10
-239.000000
 20
131.300003
 11
-239.000000
 21
128.300003
  0
LINE
  8
0
 10
-237.500000
 20
131.300003
 11
-237.500000
 21
128.300003
  0
LINE
  8
0
 10
-236.000000
 20
131.300003
 11
-236.000000
 21
128.300003
  0
LINE
  8
0
 10
-236.000000
 20
131.300003
 11
-232.500000
 21
131.300003
  0
LINE
  8
0
 10
-236.000000
 20
128.300003
 11
-232.500000
 21
128.300003
  0
LINE
  8
0
 10
-239.000000
 20
131.300003
 11
-240.500015
 21
130.754044
  0
LINE
  8
0
 10
-237.500015
 20
131.299988
 11
-239.000015
 21
130.754044
  0
LINE
  8
0
 10
-235.999985
 20
131.299988
 11
-237.499985
 21
130.754028
  0
LINE
  8
0
 10
-239.000031
 20
128.300018
 11
-240.500015
 21
128.845978
  0
LINE
  8
0
 10
-237.500000
 20
128.299988
 11
-239.000015
 21
128.845947
  0
LINE
  8
0
 10
-236.000015
 20
128.300003
 11
-237.500000
 21
128.845947
  0
LINE
  8
0
 10
-228.250000
 20
123.300003
 11
-228.250000
 21
121.300003
  0
LINE
  8
0
 10
-231.750000
 20
123.300003
 11
-231.750000
 21
121.300003
  0
LINE
  8
0
 10
-231.250000
 20
120.000000
 11
-228.750000
 21
120.000000
  0
LINE
  8
0
 10
-230.750000
 20
120.800003
 11
-229.250000
 21
120.800003
  0
LINE
  8
0
 10
-231.750031
 20
121.300018
 11
-230.750031
 21
120.800018
  0
LINE
  8
0
 10
-229.249969
 20
120.799980
 11
-228.249985
 21
121.299973
  0
LINE
  8
0
 10
-230.750000
 20
120.800018
 11
-231.250000
 21
120.000015
  0
LINE
  8
0
 10
-229.250015
 20
120.800003
 11
-228.750000
 21
119.999992
  0
LINE
  8
0
 10
-240.500000
 20
131.300003
 11
-240.600006
 21
131.300003
  0
LINE
  8
0
 10
-240.500000
 20
128.300003
 11
-240.600006
 21
128.300003
  0
ARC
  8
0
 10
-240.600006
 20
130.900009
 40
0.399994
 50
90.000000
 51
180.000000
  0
ARC
  8
0
 10
-240.600006
 20
128.699997
 40
0.399994
 50
180.000000
 51
270.000000
  0
POLYLINE
  8
0
 66
     1
  0
VERTEX
  8
0
 10
-232.500000
 20
129.091858
  0
VERTEX
  8
0
 10
-231.968384
 20
128.120956
  0
VERTEX
  8
0
 10
-231.250000
 20
127.599045
  0
VERTEX
  8
0
 10
-230.531616
 20
128.120956
  0
VERTEX
  8
0
 10
-230.000000
 20
129.091858
  0
SEQEND
  0
POLYLINE
  8
0
 66
     1
  0
VERTEX
  8
0
 10
-230.000000
 20
129.091858
  0
VERTEX
  8
0
 10
-229.468384
 20
128.120956
  0
VERTEX
  8
0
 10
-228.750000
 20
127.599045
  0
VERTEX
  8
0
 10
-228.031616
 20
128.120956
  0
VERTEX
  8
0
 10
-227.500000
 20
129.091858
  0
SEQEND
  0
POINT
  8
0
 10
-230.000000
 20
160.000000
  0
POINT
  8
0
 10
-227.500000
 20
160.000000
  0
LINE
  8
0
 10
-230.000000
 20
163.776413
 11
-230.000000
 21
155.864899
  0
LINE
  8
0
 10
-241.000000
 20
161.100006
 11
-241.000000
 21
158.900009
  0
LINE
  8
0
 10
-240.500000
 20
161.500000
 11
-240.500000
 21
158.500000
  0
LINE
  8
0
 10
-239.000000
 20
161.500000
 11
-239.000000
 21
158.500000
  0
LINE
  8
0
 10
-237.500000
 20
161.500000
 11
-237.500000
 21
158.500000
  0
LINE
  8
0
 10
-236.000000
 20
161.500000
 11
-236.000000
 21
158.500000
  0
LINE
  8
0
 10
-236.000000
 20
161.500000
 11
-232.500000
 21
161.500000
  0
LINE
  8
0
 10
-236.000000
 20
158.500000
 11
-232.500000
 21
158.500000
  0
LINE
  8
0
 10
-239.000000
 20
161.500015
 11
-240.500000
 21
160.954056
  0
LINE
  8
0
 10
-237.500000
 20
161.499954
 11
-239.000000
 21
160.954010
  0
LINE
  8
0
 10
-235.999985
 20
161.500000
 11
-237.499985
 21
160.954041
  0
LINE
  8
0
 10
-239.000015
 20
158.500000
 11
-240.500000
 21
159.045959
  0
LINE
  8
0
 10
-237.500000
 20
158.499985
 11
-239.000031
 21
159.045944
  0
LINE
  8
0
 10
-235.999985
 20
158.500015
 11
-237.499985
 21
159.045959
  0
LINE
  8
0
 10
-232.500000
 20
161.443375
 11
-232.500000
 21
158.556625
  0
LINE
  8
0
 10
-227.500000
 20
161.443375
 11
-227.500000
 21
158.556625
  0
LINE
  8
0
 10
-241.994843
 20
160.000000
 11
-225.682007
 21
160.000000
  0
LINE
  8
0
 10
-232.499985
 20
161.443390
 11
-229.999985
 21
162.886765
  0
LINE
  8
0
 10
-230.000000
 20
157.113281
 11
-227.500015
 21
158.556656
  0
LINE
  8
0
 10
-230.000015
 20
162.886765
 11
-227.500015
 21
161.443390
  0
LINE
  8
0
 10
-232.500015
 20
158.556625
 11
-230.000015
 21
157.113251
  0
ARC
  8
0
 10
-240.600006
 20
161.100006
 40
0.399994
 50
90.000000
 51
180.000000
  0
ARC
  8
0
 10
-240.600006
 20
158.900009
 40
0.399994
 50
180.000000
 51
270.000000
  0
CIRCLE
  8
0
 10
-230.000000
 20
160.000000
 40
2.500000
  0
CIRCLE
  8
0
 10
-230.000000
 20
160.000000
 40
1.500000
  0
CIRCLE
  8
0
 10
-230.000000
 20
160.000000
 40
1.250000
  0
POINT
  8
0
 10
-110.000000
 20
140.000000
  0
POINT
  8
0
 10
-107.500000
 20
140.000000
  0
LINE
  8
0
 10
-112.500000
 20
140.000000
 11
-107.500000
 21
140.000000
  0
LINE
  8
0
 10
-107.500000
 20
140.000000
 11
-107.500000
 21
127.599045
  0
LINE
  8
0
 10
-112.500000
 20
140.000000
 11
-112.500000
 21
127.599045
  0
LINE
  8
0
 10
-111.750000
 20
121.300003
 11
-108.250000
 21
121.300003
  0
LINE
  8
0
 10
-111.750000
 20
123.300003
 11
-108.250000
 21
123.300003
  0
LINE
  8
0
 10
-111.750000
 20
124.800003
 11
-108.250000
 21
124.800003
  0
LINE
  8
0
 10
-108.250000
 20
124.800003
 11
-108.250000
 21
123.300003
  0
LINE
  8
0
 10
-111.750000
 20
124.800003
 11
-111.750000
 21
123.300003
  0
LINE
  8
0
 10
-108.249992
 20
124.800011
 11
-107.499992
 21
127.599045
  0
LINE
  8
0
 10
-111.749992
 20
124.800003
 11
-112.499992
 21
127.599045
  0
LINE
  8
0
 10
-110.000000
 20
141.196762
 11
-110.000000
 21
119.511093
  0
LINE
  8
0
 10
-122.130783
 20
129.800003
 11
-111.231750
 21
129.800003
  0
LINE
  8
0
 10
-121.000000
 20
130.900009
 11
-121.000000
 21
128.699997
  0
LINE
  8
0
 10
-120.500000
 20
131.300003
 11
-120.500000
 21
128.300003
  0
LINE
  8
0
 10
-119.000000
 20
131.300003
 11
-119.000000
 21
128.300003
  0
LINE
  8
0
 10
-117.500000
 20
131.300003
 11
-117.500000
 21
128.300003
  0
LINE
  8
0
 10
-116.000000
 20
131.300003
 11
-116.000000
 21
128.300003
  0
LINE
  8
0
 10
-116.000000
 20
131.300003
 11
-112.500000
 21
131.300003
  0
LINE
  8
0
 10
-116.000000
 20
128.300003
 11
-112.500000
 21
128.300003
  0
LINE
  8
0
 10
-119.000000
 20
131.300003
 11
-120.500000
 21
130.754044
  0
LINE
  8
0
 10
-117.499992
 20
131.300003
 11
-118.999992
 21
130.754059
  0
LINE
  8
0
 10
-116.000000
 20
131.299973
 11
-117.500000
 21
130.754028
  0
LINE
  8
0
 10
-119.000000
 20
128.300003
 11
-120.500000
 21
128.845963
  0
LINE
  8
0
 10
-117.500008
 20
128.300003
 11
-119.000008
 21
128.845963
  0
LINE
  8
0
 10
-115.999985
 20
128.300003
 11
-117.499985
 21
128.845963
  0
LINE
  8
0
 10
-108.250000
 20
123.300003
 11
-108.250000
 21
121.300003
  0
LINE
  8
0
 10
-111.750000
 20
123.300003
 11
-111.750000
 21
121.300003
  0
LINE
  8
0
 10
-111.750000
 20
119.800003
 11
-108.250000
 21
119.800003
  0
LINE
  8
0
 10
-111.000000
 20
121.000000
 11
-109.000000
 21
121.000000
  0
LINE
  8
0
 10
-111.000000
 20
120.500000
 11
-109.000000
 21
120.500000
  0
LINE
  8
0
 10
-109.000000
 20
121.000000
 11
-109.000000
 21
120.500000
  0
LINE
  8
0
 10
-111.000000
 20
121.000000
 11
-111.000000
 21
120.500000
  0
LINE
  8
0
 10
-111.750008
 20
121.300003
 11
-111.000000
 21
121.000000
  0
LINE
  8
0
 10
-110.999962
 20
120.499954
 11
-111.749962
 21
119.799957
  0
LINE
  8
0
 10
-108.249985
 20
121.300011
 11
-108.999985
 21
121.000008
  0
LINE
  8
0
 10
-109.000000
 20
120.499992
 11
-108.250000
 21
119.799995
  0
LINE
  8
0
 10
-120.500000
 20
131.300003
 11
-120.599998
 21
131.300003
  0
LINE
  8
0
 10
-120.500000
 20
128.300003
 11
-120.599998
 21
128.300003
  0
ARC
  8
0
 10
-120.599998
 20
130.900009
 40
0.399994
 50
90.000000
 51
180.000000
  0
ARC
  8
0
 10
-120.599998
 20
128.699997
 40
0.400002
 50
180.000000
 51
270.000000
  0
POLYLINE
  8
0
 66
     1
  0
VERTEX
  8
0
 10
-112.500000
 20
129.091858
  0
VERTEX
  8
0
 10
-111.968391
 20
128.120956
  0
VERTEX
  8
0
 10
-111.250000
 20
127.599045
  0
VERTEX
  8
0
 10
-110.531609
 20
128.120956
  0
VERTEX
  8
0
 10
-110.000000
 20
129.091858
  0
SEQEND
  0
POLYLINE
  8
0
 66
     1
  0
VERTEX
  8
0
 10
-110.000000
 20
129.091858
  0
VERTEX
  8
0
 10
-109.468391
 20
128.120956
  0
VERTEX
  8
0
 10
-108.750000
 20
127.599045
  0
VERTEX
  8
0
 10
-108.031609
 20
128.120956
  0
VERTEX
  8
0
 10
-107.500000
 20
129.091858
  0
SEQEND
  0
POINT
  8
0
 10
-110.000000
 20
170.000000
  0
POINT
  8
0
 10
-107.500000
 20
170.000000
  0
LINE
  8
0
 10
-110.000000
 20
173.776413
 11
-110.000000
 21
165.864899
  0
LINE
  8
0
 10
-121.000000
 20
171.100006
 11
-121.000000
 21
168.900009
  0
LINE
  8
0
 10
-120.500000
 20
171.500000
 11
-120.500000
 21
168.500000
  0
LINE
  8
0
 10
-119.000000
 20
171.500000
 11
-119.000000
 21
168.500000
  0
LINE
  8
0
 10
-117.500000
 20
171.500000
 11
-117.500000
 21
168.500000
  0
LINE
  8
0
 10
-116.000000
 20
171.500000
 11
-116.000000
 21
168.500000
  0
LINE
  8
0
 10
-116.000000
 20
171.500000
 11
-112.500000
 21
171.500000
  0
LINE
  8
0
 10
-116.000000
 20
168.500000
 11
-112.500000
 21
168.500000
  0
LINE
  8
0
 10
-118.999985
 20
171.500015
 11
-120.499992
 21
170.954056
  0
LINE
  8
0
 10
-117.499985
 20
171.499969
 11
-118.999985
 21
170.954010
  0
LINE
  8
0
 10
-115.999985
 20
171.500000
 11
-117.499985
 21
170.954041
  0
LINE
  8
0
 10
-118.999985
 20
168.500000
 11
-120.499985
 21
169.045944
  0
LINE
  8
0
 10
-117.500023
 20
168.499985
 11
-119.000023
 21
169.045944
  0
LINE
  8
0
 10
-115.999992
 20
168.500015
 11
-117.499992
 21
169.045959
  0
LINE
  8
0
 10
-112.500000
 20
171.443375
 11
-112.500000
 21
168.556625
  0
LINE
  8
0
 10
-107.500000
 20
171.443375
 11
-107.500000
 21
168.556625
  0
LINE
  8
0
 10
-121.994835
 20
170.000000
 11
-105.682007
 21
170.000000
  0
LINE
  8
0
 10
-112.500008
 20
171.443390
 11
-110.000008
 21
172.886765
  0
LINE
  8
0
 10
-110.000008
 20
167.113281
 11
-107.500008
 21
168.556656
  0
LINE
  8
0
 10
-110.000008
 20
172.886780
 11
-107.499992
 21
171.443390
  0
LINE
  8
0
 10
-112.500008
 20
168.556641
 11
-110.000008
 21
167.113266
  0
LINE
  8
0
 10
-120.500000
 20
171.500000
 11
-120.599998
 21
171.500000
  0
LINE
  8
0
 10
-120.500000
 20
168.500000
 11
-120.599998
 21
168.500000
  0
ARC
  8
0
 10
-120.599998
 20
171.100006
 40
0.399994
 50
90.000000
 51
180.000000
  0
ARC
  8
0
 10
-120.599998
 20
168.900009
 40
0.400002
 50
180.000000
 51
270.000000
  0
CIRCLE
  8
0
 10
-110.000000
 20
170.000000
 40
2.500000
  0
CIRCLE
  8
0
 10
-110.000000
 20
170.000000
 40
1.500000
  0
CIRCLE
  8
0
 10
-110.000000
 20
170.000000
 40
1.250000
  0
POINT
  8
0
 10
5.000000
 20
140.000000
  0
POINT
  8
0
 10
7.500000
 20
140.000000
  0
LINE
  8
0
 10
2.500000
 20
140.000000
 11
7.500000
 21
140.000000
  0
LINE
  8
0
 10
7.500000
 20
140.000000
 11
7.500000
 21
127.599045
  0
LINE
  8
0
 10
2.500000
 20
140.000000
 11
2.500000
 21
127.599045
  0
LINE
  8
0
 10
2.250000
 20
121.300003
 11
7.750000
 21
121.300003
  0
LINE
  8
0
 10
3.250000
 20
123.300003
 11
6.750000
 21
123.300003
  0
LINE
  8
0
 10
3.250000
 20
124.800003
 11
6.750000
 21
124.800003
  0
LINE
  8
0
 10
6.750000
 20
124.800003
 11
6.750000
 21
123.300003
  0
LINE
  8
0
 10
3.250000
 20
124.800003
 11
3.250000
 21
123.300003
  0
LINE
  8
0
 10
6.750004
 20
124.800026
 11
7.500005
 21
127.599068
  0
LINE
  8
0
 10
3.249996
 20
124.800026
 11
2.499995
 21
127.599068
  0
LINE
  8
0
 10
5.000000
 20
141.196762
 11
5.000000
 21
118.403244
  0
LINE
  8
0
 10
-7.130779
 20
129.800003
 11
3.768247
 21
129.800003
  0
LINE
  8
0
 10
-6.000000
 20
130.900009
 11
-6.000000
 21
128.699997
  0
LINE
  8
0
 10
-5.500000
 20
131.300003
 11
-5.500000
 21
128.300003
  0
LINE
  8
0
 10
-4.000000
 20
131.300003
 11
-4.000000
 21
128.300003
  0
LINE
  8
0
 10
-2.500000
 20
131.300003
 11
-2.500000
 21
128.300003
  0
LINE
  8
0
 10
-1.000000
 20
131.300003
 11
-1.000000
 21
128.300003
  0
LINE
  8
0
 10
-1.000000
 20
131.300003
 11
2.500000
 21
131.300003
  0
LINE
  8
0
 10
-1.000000
 20
128.300003
 11
2.500000
 21
128.300003
  0
LINE
  8
0
 10
-4.000002
 20
131.299988
 11
-5.500003
 21
130.754028
  0
LINE
  8
0
 10
-2.499995
 20
131.299988
 11
-3.999996
 21
130.754028
  0
LINE
  8
0
 10
-1.000000
 20
131.300018
 11
-2.500001
 21
130.754059
  0
LINE
  8
0
 10
-4.000003
 20
128.300003
 11
-5.500004
 21
128.845963
  0
LINE
  8
0
 10
-2.499999
 20
128.299988
 11
-4.000000
 21
128.845947
  0
LINE
  8
0
 10
-0.999999
 20
128.300003
 11
-2.500000
 21
128.845963
  0
LINE
  8
0
 10
6.750000
 20
123.025009
 11
6.750000
 21
121.300003
  0
LINE
  8
0
 10
3.250000
 20
123.025009
 11
3.250000
 21
121.300003
  0
LINE
  8
0
 10
2.700000
 20
119.300003
 11
7.300000
 21
119.300003
  0
LINE
  8
0
 10
2.250004
 20
121.299988
 11
2.700005
 21
119.299980
  0
LINE
  8
0
 10
7.299995
 20
119.299980
 11
7.749996
 21
121.299988
  0
LINE
  8
0
 10
3.249984
 20
123.025024
 11
3.524984
 21
123.300018
  0
LINE
  8
0
 10
6.750016
 20
123.025024
 11
6.475017
 21
123.300018
  0
LINE
  8
0
 10
3.250000
 20
123.025009
 11
6.750000
 21
123.025009
  0
LINE
  8
0
 10
-5.500000
 20
131.300003
 11
-5.600000
 21
131.300003
  0
LINE
  8
0
 10
-5.500000
 20
128.300003
 11
-5.600000
 21
128.300003
  0
ARC
  8
0
 10
-5.600000
 20
130.900009
 40
0.399994
 50
90.000000
 51
180.000000
  0
ARC
  8
0
 10
-5.600000
 20
128.699997
 40
0.400000
 50
180.000000
 51
270.000000
  0
POLYLINE
  8
0
 66
     1
  0
VERTEX
  8
0
 10
2.500000
 20
129.091858
  0
VERTEX
  8
0
 10
3.031612
 20
128.120956
  0
VERTEX
  8
0
 10
3.750000
 20
127.599045
  0
VERTEX
  8
0
 10
4.468388
 20
128.120956
  0
VERTEX
  8
0
 10
5.000000
 20
129.091858
  0
SEQEND
  0
POLYLINE
  8
0
 66
     1
  0
VERTEX
  8
0
 10
5.000000
 20
129.091858
  0
VERTEX
  8
0
 10
5.531612
 20
128.120956
  0
VERTEX
  8
0
 10
6.250000
 20
127.599045
  0
VERTEX
  8
0
 10
6.968388
 20
128.120956
  0
VERTEX
  8
0
 10
7.500000
 20
129.091858
  0
SEQEND
  0
POINT
  8
0
 10
5.000000
 20
170.000000
  0
POINT
  8
0
 10
7.500000
 20
170.000000
  0
LINE
  8
0
 10
5.000000
 20
173.776413
 11
5.000000
 21
165.864899
  0
LINE
  8
0
 10
-6.000000
 20
171.100006
 11
-6.000000
 21
168.900009
  0
LINE
  8
0
 10
-5.500000
 20
171.500000
 11
-5.500000
 21
168.500000
  0
LINE
  8
0
 10
-4.000000
 20
171.500000
 11
-4.000000
 21
168.500000
  0
LINE
  8
0
 10
-2.500000
 20
171.500000
 11
-2.500000
 21
168.500000
  0
LINE
  8
0
 10
-1.000000
 20
171.500000
 11
-1.000000
 21
168.500000
  0
LINE
  8
0
 10
-1.000000
 20
171.500000
 11
2.598057
 21
171.500000
  0
LINE
  8
0
 10
-1.000000
 20
168.500000
 11
2.598134
 21
168.500000
  0
LINE
  8
0
 10
-3.999999
 20
171.500000
 11
-5.499996
 21
170.954041
  0
LINE
  8
0
 10
-2.499998
 20
171.500000
 11
-3.999995
 21
170.954041
  0
LINE
  8
0
 10
-0.999991
 20
171.499969
 11
-2.499992
 21
170.954025
  0
LINE
  8
0
 10
-3.999995
 20
168.500015
 11
-5.499996
 21
169.045959
  0
LINE
  8
0
 10
-2.500014
 20
168.499969
 11
-4.000015
 21
169.045929
  0
LINE
  8
0
 10
-1.000008
 20
168.500000
 11
-2.500009
 21
169.045959
  0
LINE
  8
0
 10
2.500000
 20
171.443375
 11
2.500000
 21
168.556625
  0
LINE
  8
0
 10
7.500000
 20
171.443375
 11
7.500000
 21
168.556625
  0
LINE
  8
0
 10
-6.994838
 20
170.000000
 11
9.317989
 21
170.000000
  0
LINE
  8
0
 10
2.499996
 20
171.443390
 11
4.999994
 21
172.886765
  0
LINE
  8
0
 10
5.000000
 20
167.113281
 11
7.499998
 21
168.556656
  0
LINE
  8
0
 10
5.000006
 20
172.886765
 11
7.500004
 21
171.443390
  0
LINE
  8
0
 10
2.500002
 20
168.556656
 11
5.000000
 21
167.113281
  0
LINE
  8
0
 10
-5.500000
 20
171.500000
 11
-5.600000
 21
171.500000
  0
LINE
  8
0
 10
-5.500000
 20
168.500000
 11
-5.600000
 21
168.500000
  0
ARC
  8
0
 10
-5.600000
 20
171.100006
 40
0.399994
 50
90.000000
 51
180.000000
  0
ARC
  8
0
 10
-5.600000
 20
168.900009
 40
0.400000
 50
180.000000
 51
270.000000
  0
CIRCLE
  8
0
 10
5.000000
 20
170.000000
 40
2.500000
  0
CIRCLE
  8
0
 10
5.000000
 20
170.000000
 40
1.500000
  0
CIRCLE
  8
0
 10
5.000000
 20
170.000000
 40
1.250000
  0
ARC
  8
0
 10
6.000000
 20
170.000000
 40
1.749997
 50
328.997437
 51
31.002569
  0
POINT
  8
0
 10
110.000000
 20
140.000000
  0
POINT
  8
0
 10
112.500000
 20
140.000000
  0
LINE
  8
0
 10
107.500000
 20
140.000000
 11
112.500000
 21
140.000000
  0
LINE
  8
0
 10
112.500000
 20
140.000000
 11
112.500000
 21
127.599045
  0
LINE
  8
0
 10
107.500000
 20
140.000000
 11
107.500000
 21
127.599045
  0
LINE
  8
0
 10
108.250000
 20
123.300003
 11
111.750000
 21
123.300003
  0
LINE
  8
0
 10
108.250000
 20
124.800003
 11
111.750000
 21
124.800003
  0
LINE
  8
0
 10
111.750000
 20
124.800003
 11
111.750000
 21
123.300003
  0
LINE
  8
0
 10
108.250000
 20
124.800003
 11
108.250000
 21
123.300003
  0
LINE
  8
0
 10
111.750008
 20
124.800011
 11
112.500008
 21
127.599052
  0
LINE
  8
0
 10
108.249992
 20
124.800011
 11
107.499992
 21
127.599045
  0
LINE
  8
0
 10
110.000000
 20
141.196762
 11
110.000000
 21
117.976990
  0
LINE
  8
0
 10
97.869217
 20
129.800003
 11
108.768250
 21
129.800003
  0
LINE
  8
0
 10
99.000000
 20
130.900009
 11
99.000000
 21
128.699997
  0
LINE
  8
0
 10
99.500000
 20
131.300003
 11
99.500000
 21
128.300003
  0
LINE
  8
0
 10
101.000000
 20
131.300003
 11
101.000000
 21
128.300003
  0
LINE
  8
0
 10
102.500000
 20
131.300003
 11
102.500000
 21
128.300003
  0
LINE
  8
0
 10
104.000000
 20
131.300003
 11
104.000000
 21
128.300003
  0
LINE
  8
0
 10
104.000000
 20
131.300003
 11
107.500000
 21
131.300003
  0
LINE
  8
0
 10
104.000000
 20
128.300003
 11
107.500000
 21
128.300003
  0
LINE
  8
0
 10
100.999992
 20
131.299988
 11
99.499992
 21
130.754044
  0
LINE
  8
0
 10
102.500008
 20
131.299988
 11
101.000000
 21
130.754028
  0
LINE
  8
0
 10
104.000008
 20
131.300003
 11
102.500000
 21
130.754059
  0
LINE
  8
0
 10
101.000000
 20
128.300003
 11
99.500000
 21
128.845963
  0
LINE
  8
0
 10
102.500000
 20
128.299988
 11
101.000000
 21
128.845932
  0
LINE
  8
0
 10
103.999992
 20
128.299988
 11
102.499992
 21
128.845947
  0
LINE
  8
0
 10
111.750000
 20
123.000000
 11
111.750000
 21
121.300003
  0
LINE
  8
0
 10
108.250000
 20
123.000000
 11
108.250000
 21
121.300003
  0
LINE
  8
0
 10
106.300003
 20
121.300003
 11
113.699997
 21
121.300003
  0
LINE
  8
0
 10
106.199997
 20
118.800003
 11
113.800003
 21
118.800003
  0
LINE
  8
0
 10
108.549995
 20
123.300011
 11
108.250000
 21
123.000015
  0
LINE
  8
0
 10
111.750008
 20
122.999992
 11
111.450005
 21
123.299988
  0
LINE
  8
0
 10
106.000008
 20
121.000015
 11
106.300003
 21
121.300003
  0
LINE
  8
0
 10
113.999985
 20
121.000015
 11
113.699989
 21
121.300018
  0
LINE
  8
0
 10
105.999992
 20
121.000000
 11
106.199989
 21
118.799995
  0
LINE
  8
0
 10
113.800003
 20
118.800011
 11
114.000000
 21
121.000015
  0
LINE
  8
0
 10
108.250000
 20
123.000000
 11
111.750000
 21
123.000000
  0
LINE
  8
0
 10
106.000000
 20
121.000000
 11
114.000000
 21
121.000000
  0
LINE
  8
0
 10
99.500000
 20
131.300003
 11
99.400002
 21
131.300003
  0
LINE
  8
0
 10
99.500000
 20
128.300003
 11
99.400002
 21
128.300003
  0
ARC
  8
0
 10
99.400002
 20
130.900009
 40
0.399994
 50
90.000000
 51
180.000000
  0
ARC
  8
0
 10
99.400002
 20
128.699997
 40
0.400002
 50
180.000000
 51
270.000000
  0
POLYLINE
  8
0
 66
     1
  0
VERTEX
  8
0
 10
107.500000
 20
129.091858
  0
VERTEX
  8
0
 10
108.031609
 20
128.120956
  0
VERTEX
  8
0
 10
108.750000
 20
127.599045
  0
VERTEX
  8
0
 10
109.468391
 20
128.120956
  0
VERTEX
  8
0
 10
110.000000
 20
129.091858
  0
SEQEND
  0
POLYLINE
  8
0
 66
     1
  0
VERTEX
  8
0
 10
110.000000
 20
129.091858
  0
VERTEX
  8
0
 10
110.531609
 20
128.120956
  0
VERTEX
  8
0
 10
111.250000
 20
127.599045
  0
VERTEX
  8
0
 10
111.968391
 20
128.120956
  0
VERTEX
  8
0
 10
112.500000
 20
129.091858
  0
SEQEND
  0
POINT
  8
0
 10
110.000000
 20
170.000000
  0
POINT
  8
0
 10
112.500000
 20
170.000000
  0
LINE
  8
0
 10
110.000000
 20
173.776413
 11
110.000000
 21
165.864899
  0
LINE
  8
0
 10
99.000000
 20
171.100006
 11
99.000000
 21
168.900009
  0
LINE
  8
0
 10
99.500000
 20
171.500000
 11
99.500000
 21
168.500000
  0
LINE
  8
0
 10
101.000000
 20
171.500000
 11
101.000000
 21
168.500000
  0
LINE
  8
0
 10
102.500000
 20
171.500000
 11
102.500000
 21
168.500000
  0
LINE
  8
0
 10
104.000000
 20
171.500000
 11
104.000000
 21
168.500000
  0
LINE
  8
0
 10
104.000000
 20
171.500000
 11
107.500000
 21
171.500000
  0
LINE
  8
0
 10
104.000000
 20
168.500000
 11
107.500000
 21
168.500000
  0
LINE
  8
0
 10
101.000015
 20
171.500015
 11
99.500015
 21
170.954056
  0
LINE
  8
0
 10
102.500015
 20
171.499985
 11
101.000015
 21
170.954041
  0
LINE
  8
0
 10
104.000008
 20
171.500000
 11
102.500008
 21
170.954041
  0
LINE
  8
0
 10
101.000000
 20
168.500015
 11
99.500000
 21
169.045975
  0
LINE
  8
0
 10
102.500000
 20
168.499969
 11
100.999992
 21
169.045929
  0
LINE
  8
0
 10
104.000000
 20
168.499985
 11
102.500000
 21
169.045944
  0
LINE
  8
0
 10
107.500000
 20
171.443375
 11
107.500000
 21
168.556625
  0
LINE
  8
0
 10
112.500000
 20
171.443375
 11
112.500000
 21
168.556625
  0
LINE
  8
0
 10
98.005165
 20
170.000000
 11
114.317993
 21
170.000000
  0
LINE
  8
0
 10
107.500000
 20
171.443375
 11
110.000015
 21
172.886749
  0
LINE
  8
0
 10
109.999992
 20
167.113266
 11
112.499992
 21
168.556641
  0
LINE
  8
0
 10
110.000008
 20
172.886749
 11
112.500008
 21
171.443375
  0
LINE
  8
0
 10
107.500000
 20
168.556641
 11
110.000000
 21
167.113266
  0
LINE
  8
0
 10
108.250000
 20
172.250000
 11
108.897118
 21
172.250000
  0
LINE
  8
0
 10
108.250000
 20
167.750000
 11
108.897110
 21
167.750000
  0
LINE
  8
0
 10
111.102890
 20
167.750000
 11
111.750000
 21
167.750000
  0
LINE
  8
0
 10
111.102882
 20
172.250000
 11
111.750000
 21
172.250000
  0
LINE
  8
0
 10
99.500000
 20
171.500000
 11
99.400002
 21
171.500000
  0
LINE
  8
0
 10
99.500000
 20
168.500000
 11
99.400002
 21
168.500000
  0
ARC
  8
0
 10
99.400002
 20
171.100006
 40
0.399994
 50
90.000000
 51
180.000000
  0
ARC
  8
0
 10
99.400002
 20
168.900009
 40
0.400002
 50
180.000000
 51
270.000000
  0
CIRCLE
  8
0
 10
110.000000
 20
170.000000
 40
2.500000
  0
CIRCLE
  8
0
 10
110.000000
 20
170.000000
 40
1.500000
  0
CIRCLE
  8
0
 10
110.000000
 20
170.000000
 40
1.250000
  0
ARC
  8
0
 10
111.750000
 20
170.000000
 40
2.250000
 50
270.000000
 51
90.000000
  0
ARC
  8
0
 10
108.250000
 20
170.000000
 40
2.250000
 50
90.000000
 51
138.189636
  0
ARC
  8
0
 10
108.250000
 20
170.000000
 40
2.249998
 50
221.810364
 51
270.000000
  0
POINT
  8
0
 10
225.000000
 20
140.000000
  0
POINT
  8
0
 10
228.749985
 20
140.000000
  0
LINE
  8
0
 10
205.899704
 20
127.000000
 11
220.732544
 21
127.000000
  0
LINE
  8
0
 10
220.000000
 20
124.500000
 11
220.000000
 21
131.000000
  0
LINE
  8
0
 10
215.000000
 20
124.500000
 11
215.000000
 21
129.500000
  0
LINE
  8
0
 10
207.000000
 20
124.984406
 11
207.000000
 21
129.015594
  0
LINE
  8
0
 10
209.000000
 20
124.500000
 11
209.000000
 21
129.500000
  0
LINE
  8
0
 10
211.000000
 20
124.500000
 11
211.000000
 21
129.500000
  0
LINE
  8
0
 10
213.000000
 20
124.500000
 11
213.000000
 21
129.500000
  0
LINE
  8
0
 10
211.000000
 20
129.500000
 11
209.000015
 21
128.772064
  0
LINE
  8
0
 10
213.000015
 20
129.500000
 11
211.000015
 21
128.772064
  0
LINE
  8
0
 10
211.000015
 20
124.500031
 11
209.000015
 21
125.227974
  0
LINE
  8
0
 10
213.000015
 20
124.499985
 11
211.000015
 21
125.227921
  0
LINE
  8
0
 10
215.000015
 20
124.500015
 11
213.000015
 21
125.227959
  0
LINE
  8
0
 10
215.000015
 20
129.500000
 11
213.000015
 21
128.772064
  0
LINE
  8
0
 10
215.000000
 20
124.500000
 11
220.000000
 21
124.500000
  0
LINE
  8
0
 10
215.000000
 20
129.500000
 11
220.000000
 21
129.500000
  0
LINE
  8
0
 10
209.000000
 20
129.500031
 11
207.379059
 21
129.415085
  0
LINE
  8
0
 10
209.000015
 20
124.500008
 11
207.379059
 21
124.584961
  0
LINE
  8
0
 10
221.250000
 20
140.000000
 11
228.750000
 21
140.000000
  0
LINE
  8
0
 10
225.000000
 20
111.399277
 11
225.000000
 21
141.677490
  0
LINE
  8
0
 10
229.250000
 20
131.500000
 11
229.250000
 21
139.500000
  0
LINE
  8
0
 10
220.750000
 20
131.500000
 11
220.750000
 21
139.500000
  0
LINE
  8
0
 10
220.500000
 20
131.500000
 11
229.500000
 21
131.500000
  0
LINE
  8
0
 10
230.000000
 20
125.196152
 11
230.000000
 21
131.000000
  0
LINE
  8
0
 10
222.000000
 20
118.000000
 11
228.000000
 21
118.000000
  0
LINE
  8
0
 10
223.000000
 20
120.000000
 11
227.000000
 21
120.000000
  0
LINE
  8
0
 10
227.000000
 20
118.000000
 11
227.000000
 21
120.000000
  0
LINE
  8
0
 10
223.000000
 20
118.000000
 11
223.000000
 21
120.000000
  0
LINE
  8
0
 10
227.000000
 20
120.000008
 11
230.000000
 21
125.196159
  0
LINE
  8
0
 10
223.000015
 20
120.000000
 11
220.000015
 21
125.196152
  0
LINE
  8
0
 10
220.000000
 20
125.196152
 11
230.000000
 21
125.196152
  0
LINE
  8
0
 10
225.000000
 20
125.196152
 11
225.000000
 21
131.500000
  0
LINE
  8
0
 10
221.250000
 20
140.000000
 11
220.750015
 21
139.500015
  0
LINE
  8
0
 10
228.749985
 20
139.999985
 11
229.249985
 21
139.499985
  0
LINE
  8
0
 10
220.750000
 20
139.500000
 11
229.250000
 21
139.500000
  0
LINE
  8
0
 10
220.000000
 20
131.000000
 11
230.000000
 21
131.000000
  0
LINE
  8
0
 10
220.000000
 20
131.000015
 11
220.500000
 21
131.500015
  0
LINE
  8
0
 10
229.499985
 20
131.499985
 11
229.999985
 21
130.999985
  0
LINE
  8
0
 10
227.000000
 20
114.000000
 11
227.000000
 21
113.206917
  0
LINE
  8
0
 10
223.000000
 20
114.000000
 11
223.000000
 21
113.206917
  0
LINE
  8
0
 10
228.000000
 20
118.000000
 11
228.000000
 21
115.000000
  0
LINE
  8
0
 10
222.000000
 20
118.000000
 11
222.000000
 21
115.000000
  0
LINE
  8
0
 10
222.000000
 20
115.000000
 11
228.000000
 21
115.000000
  0
LINE
  8
0
 10
222.000000
 20
112.000000
 11
228.000000
 21
112.000000
  0
LINE
  8
0
 10
223.000000
 20
114.000000
 11
222.000000
 21
115.000000
  0
LINE
  8
0
 10
227.000015
 20
114.000000
 11
228.000015
 21
115.000000
  0
LINE
  8
0
 10
222.000000
 20
112.000000
 11
221.800003
 21
112.200005
  0
LINE
  8
0
 10
228.000031
 20
112.000008
 11
228.200027
 21
112.200005
  0
LINE
  8
0
 10
221.799988
 20
112.200020
 11
222.999969
 21
113.206924
  0
LINE
  8
0
 10
228.199982
 20
112.200020
 11
226.999985
 21
113.206940
  0
LINE
  8
0
 10
223.000000
 20
114.000000
 11
227.000000
 21
114.000000
  0
LINE
  8
0
 10
227.000000
 20
113.206917
 11
223.000000
 21
113.206917
  0
LINE
  8
0
 10
221.800003
 20
112.199997
 11
228.199997
 21
112.199997
  0
ARC
  8
0
 10
207.399994
 20
129.015594
 40
0.399993
 50
93.000153
 51
180.000000
  0
ARC
  8
0
 10
207.399994
 20
124.984406
 40
0.399994
 50
180.000000
 51
266.999908
  0
POLYLINE
  8
0
 66
     1
  0
VERTEX
  8
0
 10
220.000000
 20
126.538498
  0
VERTEX
  8
0
 10
220.728470
 20
125.882835
  0
VERTEX
  8
0
 10
221.582779
 20
125.390343
  0
VERTEX
  8
0
 10
222.500000
 20
125.196152
  0
VERTEX
  8
0
 10
223.417221
 20
125.390343
  0
VERTEX
  8
0
 10
224.271530
 20
125.882835
  0
VERTEX
  8
0
 10
225.000000
 20
126.538498
  0
SEQEND
  0
POLYLINE
  8
0
 66
     1
  0
VERTEX
  8
0
 10
225.000000
 20
126.538498
  0
VERTEX
  8
0
 10
225.728470
 20
125.882835
  0
VERTEX
  8
0
 10
226.582779
 20
125.390343
  0
VERTEX
  8
0
 10
227.500000
 20
125.196152
  0
VERTEX
  8
0
 10
228.417221
 20
125.390343
  0
VERTEX
  8
0
 10
229.271530
 20
125.882835
  0
VERTEX
  8
0
 10
230.000000
 20
126.538498
  0
SEQEND
  0
POLYLINE
  8
0
 66
     1
  0
VERTEX
  8
0
 10
220.000000
 20
129.657654
  0
VERTEX
  8
0
 10
220.728470
 20
130.313324
  0
VERTEX
  8
0
 10
221.582779
 20
130.805801
  0
VERTEX
  8
0
 10
222.500000
 20
131.000000
  0
VERTEX
  8
0
 10
223.417221
 20
130.805801
  0
VERTEX
  8
0
 10
224.271530
 20
130.313324
  0
VERTEX
  8
0
 10
225.000000
 20
129.657654
  0
SEQEND
  0
POLYLINE
  8
0
 66
     1
  0
VERTEX
  8
0
 10
225.000000
 20
129.657654
  0
VERTEX
  8
0
 10
225.728470
 20
130.313324
  0
VERTEX
  8
0
 10
226.582779
 20
130.805801
  0
VERTEX
  8
0
 10
227.500000
 20
131.000000
  0
VERTEX
  8
0
 10
228.417221
 20
130.805801
  0
VERTEX
  8
0
 10
229.271530
 20
130.313324
  0
VERTEX
  8
0
 10
230.000000
 20
129.657654
  0
SEQEND
  0
POINT
  8
0
 10
225.000000
 20
160.000000
  0
POINT
  8
0
 10
230.000000
 20
160.000000
  0
LINE
  8
0
 10
205.919861
 20
160.000000
 11
232.250000
 21
160.000000
  0
LINE
  8
0
 10
230.000000
 20
157.113251
 11
230.000000
 21
162.886749
  0
LINE
  8
0
 10
220.000000
 20
157.113251
 11
220.000000
 21
162.886749
  0
LINE
  8
0
 10
220.000000
 20
162.886749
 11
225.000000
 21
165.773499
  0
LINE
  8
0
 10
230.000015
 20
162.886765
 11
225.000015
 21
165.773514
  0
LINE
  8
0
 10
225.000015
 20
154.226501
 11
220.000015
 21
157.113251
  0
LINE
  8
0
 10
225.000000
 20
154.226501
 11
230.000000
 21
157.113251
  0
LINE
  8
0
 10
225.000000
 20
153.444992
 11
225.000000
 21
166.935638
  0
LINE
  8
0
 10
215.000000
 20
157.500000
 11
215.000000
 21
162.500000
  0
LINE
  8
0
 10
207.000000
 20
157.984406
 11
207.000000
 21
162.015610
  0
LINE
  8
0
 10
209.000000
 20
157.500000
 11
209.000000
 21
162.500000
  0
LINE
  8
0
 10
211.000000
 20
157.500000
 11
211.000000
 21
162.500000
  0
LINE
  8
0
 10
213.000000
 20
157.500000
 11
213.000000
 21
162.500000
  0
LINE
  8
0
 10
210.999985
 20
162.500000
 11
208.999985
 21
161.772064
  0
LINE
  8
0
 10
213.000000
 20
162.500000
 11
211.000000
 21
161.772064
  0
LINE
  8
0
 10
211.000000
 20
157.500000
 11
209.000000
 21
158.227951
  0
LINE
  8
0
 10
213.000015
 20
157.500015
 11
211.000015
 21
158.227966
  0
LINE
  8
0
 10
215.000015
 20
157.500031
 11
213.000015
 21
158.227966
  0
LINE
  8
0
 10
215.000046
 20
162.500000
 11
213.000046
 21
161.772049
  0
LINE
  8
0
 10
215.000000
 20
157.500000
 11
220.000000
 21
157.500000
  0
LINE
  8
0
 10
215.000000
 20
162.500000
 11
220.000000
 21
162.500000
  0
LINE
  8
0
 10
208.999985
 20
162.500000
 11
207.379059
 21
162.415054
  0
LINE
  8
0
 10
208.999985
 20
157.499969
 11
207.379059
 21
157.584915
  0
CIRCLE
  8
0
 10
225.000000
 20
160.000000
 40
2.000000
  0
CIRCLE
  8
0
 10
225.000000
 20
160.000000
 40
4.250000
  0
CIRCLE
  8
0
 10
225.000000
 20
160.000000
 40
5.000000
  0
CIRCLE
  8
0
 10
225.000000
 20
160.000000
 40
1.650000
  0
ARC
  8
0
 10
207.399994
 20
157.984406
 40
0.399994
 50
180.000000
 51
266.999847
  0
ARC
  8
0
 10
207.399994
 20
162.015610
 40
0.399993
 50
93.000153
 51
180.000000
  0
POINT
  8
0
 10
-230.000000
 20
35.000000
  0
POINT
  8
0
 10
-226.249985
 20
35.000000
  0
LINE
  8
0
 10
-249.100296
 20
22.000000
 11
-234.267456
 21
22.000000
  0
LINE
  8
0
 10
-235.000000
 20
19.500000
 11
-235.000000
 21
26.000000
  0
LINE
  8
0
 10
-240.000000
 20
19.500000
 11
-240.000000
 21
24.500000
  0
LINE
  8
0
 10
-248.000000
 20
19.984402
 11
-248.000000
 21
24.015602
  0
LINE
  8
0
 10
-246.000000
 20
19.500000
 11
-246.000000
 21
24.500000
  0
LINE
  8
0
 10
-244.000000
 20
19.500000
 11
-244.000000
 21
24.500000
  0
LINE
  8
0
 10
-242.000000
 20
19.500000
 11
-242.000000
 21
24.500000
  0
LINE
  8
0
 10
-243.999985
 20
24.499996
 11
-245.999985
 21
23.772057
  0
LINE
  8
0
 10
-242.000000
 20
24.499996
 11
-244.000000
 21
23.772057
  0
LINE
  8
0
 10
-244.000000
 20
19.500000
 11
-246.000000
 21
20.227940
  0
LINE
  8
0
 10
-242.000015
 20
19.500000
 11
-244.000000
 21
20.227936
  0
LINE
  8
0
 10
-240.000000
 20
19.500000
 11
-242.000000
 21
20.227940
  0
LINE
  8
0
 10
-240.000000
 20
24.500000
 11
-242.000000
 21
23.772058
  0
LINE
  8
0
 10
-240.000000
 20
19.500000
 11
-235.000000
 21
19.500000
  0
LINE
  8
0
 10
-240.000000
 20
24.500000
 11
-235.000000
 21
24.500000
  0
LINE
  8
0
 10
-245.999985
 20
24.500008
 11
-247.620941
 21
24.415058
  0
LINE
  8
0
 10
-246.000000
 20
19.499996
 11
-247.620941
 21
19.584948
  0
LINE
  8
0
 10
-233.750000
 20
35.000000
 11
-226.250000
 21
35.000000
  0
LINE
  8
0
 10
-230.000000
 20
6.547197
 11
-230.000000
 21
36.677483
  0
LINE
  8
0
 10
-225.750000
 20
26.500000
 11
-225.750000
 21
34.500000
  0
LINE
  8
0
 10
-234.250000
 20
26.500000
 11
-234.250000
 21
34.500000
  0
LINE
  8
0
 10
-234.500000
 20
26.500000
 11
-225.500000
 21
26.500000
  0
LINE
  8
0
 10
-225.000000
 20
20.196152
 11
-225.000000
 21
26.000000
  0
LINE
  8
0
 10
-232.459991
 20
13.000000
 11
-227.539993
 21
13.000000
  0
LINE
  8
0
 10
-232.000000
 20
15.000000
 11
-228.000000
 21
15.000000
  0
LINE
  8
0
 10
-228.000000
 20
13.000000
 11
-228.000000
 21
15.000000
  0
LINE
  8
0
 10
-232.000000
 20
13.000000
 11
-232.000000
 21
15.000000
  0
LINE
  8
0
 10
-228.000000
 20
15.000000
 11
-225.000000
 21
20.196152
  0
LINE
  8
0
 10
-232.000000
 20
14.999998
 11
-235.000000
 21
20.196152
  0
LINE
  8
0
 10
-235.000000
 20
20.196152
 11
-225.000000
 21
20.196152
  0
LINE
  8
0
 10
-230.000000
 20
20.196152
 11
-230.000000
 21
26.500000
  0
LINE
  8
0
 10
-233.750000
 20
35.000000
 11
-234.250000
 21
34.500000
  0
LINE
  8
0
 10
-226.250000
 20
35.000008
 11
-225.750000
 21
34.500004
  0
LINE
  8
0
 10
-234.250000
 20
34.500000
 11
-225.750000
 21
34.500000
  0
LINE
  8
0
 10
-235.000000
 20
26.000000
 11
-225.000000
 21
26.000000
  0
LINE
  8
0
 10
-235.000000
 20
25.999985
 11
-234.500000
 21
26.499979
  0
LINE
  8
0
 10
-225.500015
 20
26.500000
 11
-225.000015
 21
26.000000
  0
LINE
  8
0
 10
-227.000000
 20
12.459999
 11
-227.000000
 21
10.000000
  0
LINE
  8
0
 10
-233.000000
 20
12.459999
 11
-233.000000
 21
10.000000
  0
LINE
  8
0
 10
-233.000000
 20
10.000000
 11
-227.000000
 21
10.000000
  0
LINE
  8
0
 10
-234.000000
 20
7.500000
 11
-226.000000
 21
7.500000
  0
LINE
  8
0
 10
-233.999985
 20
7.500025
 11
-234.169983
 21
7.750036
  0
LINE
  8
0
 10
-225.829987
 20
7.749979
 11
-225.999985
 21
7.499981
  0
LINE
  8
0
 10
-234.170029
 20
7.750011
 11
-232.460022
 21
9.460022
  0
LINE
  8
0
 10
-225.829987
 20
7.749981
 11
-227.539993
 21
9.459982
  0
LINE
  8
0
 10
-232.459991
 20
9.459995
 11
-233.000000
 21
10.000004
  0
LINE
  8
0
 10
-227.540009
 20
9.460020
 11
-227.000015
 21
10.000019
  0
LINE
  8
0
 10
-232.460007
 20
9.459999
 11
-227.539993
 21
9.459999
  0
LINE
  8
0
 10
-232.459991
 20
13.000004
 11
-232.999985
 21
12.460005
  0
LINE
  8
0
 10
-227.000015
 20
12.459990
 11
-227.540009
 21
12.999989
  0
LINE
  8
0
 10
-234.169998
 20
7.750000
 11
-225.830002
 21
7.750000
  0
ARC
  8
0
 10
-247.600006
 20
24.015602
 40
0.400000
 50
93.000092
 51
180.000000
  0
ARC
  8
0
 10
-247.600006
 20
19.984406
 40
0.399994
 50
180.000000
 51
266.999908
  0
POLYLINE
  8
0
 66
     1
  0
VERTEX
  8
0
 10
-235.000000
 20
21.538494
  0
VERTEX
  8
0
 10
-234.271530
 20
20.882830
  0
VERTEX
  8
0
 10
-233.417221
 20
20.390343
  0
VERTEX
  8
0
 10
-232.500000
 20
20.196152
  0
VERTEX
  8
0
 10
-231.582779
 20
20.390343
  0
VERTEX
  8
0
 10
-230.728470
 20
20.882830
  0
VERTEX
  8
0
 10
-230.000000
 20
21.538494
  0
SEQEND
  0
POLYLINE
  8
0
 66
     1
  0
VERTEX
  8
0
 10
-230.000000
 20
21.538494
  0
VERTEX
  8
0
 10
-229.271530
 20
20.882830
  0
VERTEX
  8
0
 10
-228.417221
 20
20.390343
  0
VERTEX
  8
0
 10
-227.500000
 20
20.196152
  0
VERTEX
  8
0
 10
-226.582779
 20
20.390343
  0
VERTEX
  8
0
 10
-225.728470
 20
20.882830
  0
VERTEX
  8
0
 10
-225.000000
 20
21.538494
  0
SEQEND
  0
POLYLINE
  8
0
 66
     1
  0
VERTEX
  8
0
 10
-235.000000
 20
24.657661
  0
VERTEX
  8
0
 10
-234.271530
 20
25.313324
  0
VERTEX
  8
0
 10
-233.417221
 20
25.805811
  0
VERTEX
  8
0
 10
-232.500000
 20
26.000000
  0
VERTEX
  8
0
 10
-231.582779
 20
25.805811
  0
VERTEX
  8
0
 10
-230.728470
 20
25.313324
  0
VERTEX
  8
0
 10
-230.000000
 20
24.657661
  0
SEQEND
  0
POLYLINE
  8
0
 66
     1
  0
VERTEX
  8
0
 10
-230.000000
 20
24.657661
  0
VERTEX
  8
0
 10
-229.271530
 20
25.313324
  0
VERTEX
  8
0
 10
-228.417221
 20
25.805811
  0
VERTEX
  8
0
 10
-227.500000
 20
26.000000
  0
VERTEX
  8
0
 10
-226.582779
 20
25.805811
  0
VERTEX
  8
0
 10
-225.728470
 20
25.313324
  0
VERTEX
  8
0
 10
-225.000000
 20
24.657661
  0
SEQEND
  0
POINT
  8
0
 10
-230.000000
 20
70.000000
  0
POINT
  8
0
 10
-225.000000
 20
70.000000
  0
LINE
  8
0
 10
-249.080139
 20
70.000000
 11
-222.750000
 21
70.000000
  0
LINE
  8
0
 10
-225.000000
 20
67.113251
 11
-225.000000
 21
72.886749
  0
LINE
  8
0
 10
-235.000000
 20
67.113251
 11
-235.000000
 21
72.886749
  0
LINE
  8
0
 10
-235.000000
 20
72.886765
 11
-230.000015
 21
75.773514
  0
LINE
  8
0
 10
-224.999985
 20
72.886749
 11
-230.000000
 21
75.773506
  0
LINE
  8
0
 10
-230.000000
 20
64.226509
 11
-235.000000
 21
67.113266
  0
LINE
  8
0
 10
-230.000015
 20
64.226532
 11
-225.000015
 21
67.113281
  0
LINE
  8
0
 10
-230.000000
 20
63.444984
 11
-230.000000
 21
76.935638
  0
LINE
  8
0
 10
-240.000000
 20
67.500000
 11
-240.000000
 21
72.500000
  0
LINE
  8
0
 10
-248.000000
 20
67.984406
 11
-248.000000
 21
72.015602
  0
LINE
  8
0
 10
-246.000000
 20
67.500000
 11
-246.000000
 21
72.500000
  0
LINE
  8
0
 10
-244.000000
 20
67.500000
 11
-244.000000
 21
72.500000
  0
LINE
  8
0
 10
-242.000000
 20
67.500000
 11
-242.000000
 21
72.500000
  0
LINE
  8
0
 10
-244.000000
 20
72.500008
 11
-246.000000
 21
71.772064
  0
LINE
  8
0
 10
-242.000000
 20
72.500000
 11
-244.000000
 21
71.772064
  0
LINE
  8
0
 10
-244.000015
 20
67.500008
 11
-246.000015
 21
68.227951
  0
LINE
  8
0
 10
-242.000000
 20
67.500008
 11
-244.000000
 21
68.227943
  0
LINE
  8
0
 10
-240.000000
 20
67.500000
 11
-242.000000
 21
68.227943
  0
LINE
  8
0
 10
-239.999985
 20
72.499969
 11
-241.999985
 21
71.772026
  0
LINE
  8
0
 10
-240.000000
 20
67.500000
 11
-235.000000
 21
67.500000
  0
LINE
  8
0
 10
-240.000000
 20
72.500000
 11
-235.000000
 21
72.500000
  0
LINE
  8
0
 10
-246.000000
 20
72.500015
 11
-247.620926
 21
72.415062
  0
LINE
  8
0
 10
-246.000015
 20
67.500000
 11
-247.620941
 21
67.584946
  0
CIRCLE
  8
0
 10
-230.000000
 20
70.000000
 40
2.000000
  0
CIRCLE
  8
0
 10
-230.000000
 20
70.000000
 40
4.250000
  0
CIRCLE
  8
0
 10
-230.000000
 20
70.000000
 40
5.000000
  0
CIRCLE
  8
0
 10
-230.000000
 20
70.000000
 40
1.650000
  0
ARC
  8
0
 10
-247.600006
 20
67.984406
 40
0.399994
 50
180.000000
 51
266.999908
  0
ARC
  8
0
 10
-247.600006
 20
72.015602
 40
0.400000
 50
93.000092
 51
180.000000
  0
POINT
  8
0
 10
-110.000000
 20
35.000000
  0
POINT
  8
0
 10
-106.250000
 20
35.000000
  0
LINE
  8
0
 10
-105.000000
 20
24.000000
 11
-105.000000
 21
15.000000
  0
LINE
  8
0
 10
-115.000000
 20
24.000000
 11
-115.000000
 21
15.000000
  0
LINE
  8
0
 10
-114.250000
 20
12.500000
 11
-105.750000
 21
12.500000
  0
LINE
  8
0
 10
-113.750000
 20
35.000000
 11
-106.250000
 21
35.000000
  0
LINE
  8
0
 10
-114.500000
 20
14.500000
 11
-105.500000
 21
14.500000
  0
LINE
  8
0
 10
-105.750000
 20
34.500000
 11
-105.750000
 21
24.500000
  0
LINE
  8
0
 10
-114.250000
 20
34.500000
 11
-114.250000
 21
24.500000
  0
LINE
  8
0
 10
-114.500000
 20
24.500000
 11
-105.500000
 21
24.500000
  0
LINE
  8
0
 10
-114.250000
 20
34.500000
 11
-105.750000
 21
34.500000
  0
LINE
  8
0
 10
-114.249992
 20
34.500004
 11
-113.749992
 21
35.000004
  0
LINE
  8
0
 10
-106.250008
 20
35.000008
 11
-105.750008
 21
34.500004
  0
LINE
  8
0
 10
-105.750000
 20
14.500000
 11
-105.750000
 21
12.500000
  0
LINE
  8
0
 10
-114.250000
 20
14.500000
 11
-114.250000
 21
12.500000
  0
LINE
  8
0
 10
-115.000000
 20
15.000000
 11
-105.000000
 21
15.000000
  0
LINE
  8
0
 10
-115.000000
 20
24.000000
 11
-105.000000
 21
24.000000
  0
LINE
  8
0
 10
-114.999977
 20
23.999975
 11
-114.499977
 21
24.499977
  0
LINE
  8
0
 10
-105.500000
 20
24.500004
 11
-105.000000
 21
24.000004
  0
LINE
  8
0
 10
-105.500000
 20
14.500002
 11
-105.000000
 21
14.999998
  0
LINE
  8
0
 10
-115.000000
 20
15.000004
 11
-114.500000
 21
14.500002
  0
LINE
  8
0
 10
-129.100296
 20
20.000000
 11
-114.267456
 21
20.000000
  0
LINE
  8
0
 10
-110.000000
 20
16.342342
 11
-110.000000
 21
22.657661
  0
LINE
  8
0
 10
-110.000000
 20
36.166664
 11
-110.000000
 21
3.168144
  0
LINE
  8
0
 10
-120.000000
 20
17.500000
 11
-120.000000
 21
22.500000
  0
LINE
  8
0
 10
-128.000000
 20
17.984402
 11
-128.000000
 21
22.015602
  0
LINE
  8
0
 10
-126.000000
 20
17.500000
 11
-126.000000
 21
22.500000
  0
LINE
  8
0
 10
-124.000000
 20
17.500000
 11
-124.000000
 21
22.500000
  0
LINE
  8
0
 10
-122.000000
 20
17.500000
 11
-122.000000
 21
22.500000
  0
LINE
  8
0
 10
-123.999992
 20
22.499985
 11
-125.999992
 21
21.772043
  0
LINE
  8
0
 10
-121.999992
 20
22.499989
 11
-123.999992
 21
21.772047
  0
LINE
  8
0
 10
-124.000008
 20
17.500000
 11
-126.000008
 21
18.227942
  0
LINE
  8
0
 10
-122.000000
 20
17.499996
 11
-124.000000
 21
18.227936
  0
LINE
  8
0
 10
-120.000000
 20
17.500000
 11
-122.000000
 21
18.227942
  0
LINE
  8
0
 10
-120.000000
 20
22.499989
 11
-121.999992
 21
21.772049
  0
LINE
  8
0
 10
-120.000000
 20
17.500000
 11
-115.000000
 21
17.500000
  0
LINE
  8
0
 10
-120.000000
 20
22.500000
 11
-115.000000
 21
22.500000
  0
LINE
  8
0
 10
-125.999992
 20
22.500019
 11
-127.620934
 21
22.415070
  0
LINE
  8
0
 10
-126.000000
 20
17.500004
 11
-127.620934
 21
17.584953
  0
LINE
  8
0
 10
-105.000000
 20
12.000000
 11
-105.000000
 21
8.900002
  0
LINE
  8
0
 10
-115.000000
 20
12.000000
 11
-115.000000
 21
8.900002
  0
LINE
  8
0
 10
-106.000000
 20
7.200001
 11
-106.000000
 21
6.573235
  0
LINE
  8
0
 10
-114.000000
 20
7.200001
 11
-114.000000
 21
6.573235
  0
LINE
  8
0
 10
-114.500000
 20
12.500000
 11
-105.500000
 21
12.500000
  0
LINE
  8
0
 10
-115.000000
 20
4.500000
 11
-105.000000
 21
4.500000
  0
LINE
  8
0
 10
-115.000000
 20
8.900002
 11
-105.000000
 21
8.900002
  0
LINE
  8
0
 10
-114.000000
 20
7.200001
 11
-106.000000
 21
7.200001
  0
LINE
  8
0
 10
-115.000000
 20
4.500002
 11
-115.210007
 21
4.710007
  0
LINE
  8
0
 10
-105.000000
 20
4.500004
 11
-104.790001
 21
4.710005
  0
LINE
  8
0
 10
-104.789993
 20
4.710007
 11
-106.000000
 21
6.573244
  0
LINE
  8
0
 10
-115.209999
 20
4.710007
 11
-114.000000
 21
6.573242
  0
LINE
  8
0
 10
-115.000000
 20
8.900003
 11
-114.000008
 21
7.200005
  0
LINE
  8
0
 10
-104.999985
 20
8.899994
 11
-105.999985
 21
7.199993
  0
LINE
  8
0
 10
-106.000000
 20
6.573235
 11
-114.000000
 21
6.573235
  0
LINE
  8
0
 10
-114.999969
 20
11.999983
 11
-114.499977
 21
12.499981
  0
LINE
  8
0
 10
-105.000000
 20
12.000013
 11
-105.500000
 21
12.500013
  0
LINE
  8
0
 10
-115.000000
 20
12.000000
 11
-105.000000
 21
12.000000
  0
LINE
  8
0
 10
-115.209999
 20
4.709999
 11
-104.790001
 21
4.709999
  0
ARC
  8
0
 10
-127.599998
 20
17.984402
 40
0.400002
 50
180.000000
 51
266.999908
  0
ARC
  8
0
 10
-127.599998
 20
22.015602
 40
0.400000
 50
93.000092
 51
180.000000
  0
POLYLINE
  8
0
 66
     1
  0
VERTEX
  8
0
 10
-115.000000
 20
16.342342
  0
VERTEX
  8
0
 10
-114.271523
 20
15.686679
  0
VERTEX
  8
0
 10
-113.417221
 20
15.194190
  0
VERTEX
  8
0
 10
-112.500000
 20
15.000000
  0
VERTEX
  8
0
 10
-111.582779
 20
15.194190
  0
VERTEX
  8
0
 10
-110.728477
 20
15.686679
  0
VERTEX
  8
0
 10
-110.000000
 20
16.342342
  0
SEQEND
  0
POLYLINE
  8
0
 66
     1
  0
VERTEX
  8
0
 10
-110.000000
 20
16.342342
  0
VERTEX
  8
0
 10
-109.271523
 20
15.686679
  0
VERTEX
  8
0
 10
-108.417221
 20
15.194190
  0
VERTEX
  8
0
 10
-107.500000
 20
15.000000
  0
VERTEX
  8
0
 10
-106.582779
 20
15.194190
  0
VERTEX
  8
0
 10
-105.728477
 20
15.686679
  0
VERTEX
  8
0
 10
-105.000000
 20
16.342342
  0
SEQEND
  0
POLYLINE
  8
0
 66
     1
  0
VERTEX
  8
0
 10
-115.000000
 20
22.657661
  0
VERTEX
  8
0
 10
-114.271523
 20
23.313324
  0
VERTEX
  8
0
 10
-113.417221
 20
23.805811
  0
VERTEX
  8
0
 10
-112.500000
 20
24.000000
  0
VERTEX
  8
0
 10
-111.582779
 20
23.805811
  0
VERTEX
  8
0
 10
-110.728477
 20
23.313324
  0
VERTEX
  8
0
 10
-110.000000
 20
22.657661
  0
SEQEND
  0
POLYLINE
  8
0
 66
     1
  0
VERTEX
  8
0
 10
-110.000000
 20
22.657661
  0
VERTEX
  8
0
 10
-109.271523
 20
23.313324
  0
VERTEX
  8
0
 10
-108.417221
 20
23.805811
  0
VERTEX
  8
0
 10
-107.500000
 20
24.000000
  0
VERTEX
  8
0
 10
-106.582779
 20
23.805811
  0
VERTEX
  8
0
 10
-105.728477
 20
23.313324
  0
VERTEX
  8
0
 10
-105.000000
 20
22.657661
  0
SEQEND
  0
POINT
  8
0
 10
-110.000000
 20
70.000000
  0
POINT
  8
0
 10
-105.000000
 20
70.000000
  0
LINE
  8
0
 10
-110.000000
 20
77.268982
 11
-110.000000
 21
62.268974
  0
LINE
  8
0
 10
-129.036865
 20
70.000000
 11
-104.165192
 21
70.000000
  0
LINE
  8
0
 10
-120.000000
 20
67.500000
 11
-120.000000
 21
72.500000
  0
LINE
  8
0
 10
-128.000000
 20
67.984406
 11
-128.000000
 21
72.015602
  0
LINE
  8
0
 10
-126.000000
 20
67.500000
 11
-126.000000
 21
72.500000
  0
LINE
  8
0
 10
-124.000000
 20
67.500000
 11
-124.000000
 21
72.500000
  0
LINE
  8
0
 10
-122.000000
 20
67.500000
 11
-122.000000
 21
72.500000
  0
LINE
  8
0
 10
-123.999992
 20
72.499985
 11
-125.999992
 21
71.772049
  0
LINE
  8
0
 10
-122.000000
 20
72.499985
 11
-124.000000
 21
71.772041
  0
LINE
  8
0
 10
-124.000000
 20
67.500008
 11
-125.999985
 21
68.227943
  0
LINE
  8
0
 10
-121.999985
 20
67.500000
 11
-123.999985
 21
68.227943
  0
LINE
  8
0
 10
-119.999992
 20
67.500000
 11
-121.999992
 21
68.227943
  0
LINE
  8
0
 10
-119.999977
 20
72.499992
 11
-121.999985
 21
71.772049
  0
LINE
  8
0
 10
-120.000000
 20
67.500000
 11
-115.000000
 21
67.500000
  0
LINE
  8
0
 10
-120.000000
 20
72.500000
 11
-115.000000
 21
72.500000
  0
LINE
  8
0
 10
-126.000000
 20
72.500023
 11
-127.620934
 21
72.415070
  0
LINE
  8
0
 10
-126.000000
 20
67.499992
 11
-127.620934
 21
67.584946
  0
LINE
  8
0
 10
-105.000000
 20
67.113251
 11
-105.000000
 21
72.886749
  0
LINE
  8
0
 10
-115.000000
 20
67.113251
 11
-115.000000
 21
72.886749
  0
LINE
  8
0
 10
-115.000000
 20
72.886757
 11
-110.000000
 21
75.773506
  0
LINE
  8
0
 10
-105.000000
 20
72.886757
 11
-109.999992
 21
75.773506
  0
LINE
  8
0
 10
-110.000000
 20
64.226501
 11
-115.000000
 21
67.113251
  0
LINE
  8
0
 10
-110.000008
 20
64.226509
 11
-105.000008
 21
67.113258
  0
CIRCLE
  8
0
 10
-110.000000
 20
70.000000
 40
4.250000
  0
ARC
  8
0
 10
-127.599998
 20
72.015602
 40
0.400000
 50
93.000092
 51
180.000000
  0
ARC
  8
0
 10
-127.599998
 20
67.984406
 40
0.400002
 50
180.000000
 51
266.999908
  0
CIRCLE
  8
0
 10
-110.000000
 20
70.000000
 40
1.650000
  0
CIRCLE
  8
0
 10
-110.000000
 20
70.000000
 40
2.000000
  0
ARC
  8
0
 10
-110.000000
 20
70.000000
 40
5.210001
 50
343.677032
 51
16.322977
  0
ARC
  8
0
 10
-110.000000
 20
70.000000
 40
5.210000
 50
43.677105
 51
76.322823
  0
ARC
  8
0
 10
-110.000000
 20
70.000000
 40
5.210003
 50
283.676910
 51
316.323090
  0
ARC
  8
0
 10
-110.000000
 20
70.000000
 40
5.210001
 50
223.676865
 51
256.323090
  0
ARC
  8
0
 10
-110.000000
 20
70.000000
 40
5.210003
 50
103.677261
 51
136.322784
  0
POINT
  8
0
 10
5.000000
 20
35.000000
  0
POINT
  8
0
 10
8.749991
 20
35.000000
  0
LINE
  8
0
 10
10.000000
 20
24.000000
 11
10.000000
 21
15.000000
  0
LINE
  8
0
 10
0.000000
 20
24.000000
 11
0.000000
 21
15.000000
  0
LINE
  8
0
 10
0.500000
 20
12.500000
 11
9.500001
 21
12.500000
  0
LINE
  8
0
 10
1.250000
 20
35.000000
 11
8.750000
 21
35.000000
  0
LINE
  8
0
 10
0.500000
 20
14.500000
 11
9.500000
 21
14.500000
  0
LINE
  8
0
 10
9.250000
 20
34.500000
 11
9.250000
 21
24.500000
  0
LINE
  8
0
 10
0.750000
 20
34.500000
 11
0.750000
 21
24.500000
  0
LINE
  8
0
 10
0.500000
 20
24.500000
 11
9.500000
 21
24.500000
  0
LINE
  8
0
 10
0.750000
 20
34.500000
 11
9.250000
 21
34.500000
  0
LINE
  8
0
 10
0.750006
 20
34.499996
 11
1.250007
 21
34.999996
  0
LINE
  8
0
 10
8.749995
 20
34.999996
 11
9.249993
 21
34.500000
  0
LINE
  8
0
 10
9.250000
 20
14.500000
 11
9.250000
 21
12.500000
  0
LINE
  8
0
 10
0.750000
 20
14.500000
 11
0.750000
 21
12.500000
  0
LINE
  8
0
 10
0.000000
 20
15.000000
 11
10.000000
 21
15.000000
  0
LINE
  8
0
 10
0.000000
 20
24.000000
 11
10.000000
 21
24.000000
  0
LINE
  8
0
 10
0.000005
 20
23.999992
 11
0.500005
 21
24.499992
  0
LINE
  8
0
 10
9.500000
 20
24.500000
 11
9.999998
 21
24.000004
  0
LINE
  8
0
 10
9.500002
 20
14.500002
 11
10.000000
 21
15.000000
  0
LINE
  8
0
 10
0.000000
 20
15.000000
 11
0.499998
 21
14.500002
  0
LINE
  8
0
 10
-14.100296
 20
20.000000
 11
0.732546
 21
20.000000
  0
LINE
  8
0
 10
5.000000
 20
16.342342
 11
5.000000
 21
22.657661
  0
LINE
  8
0
 10
5.000000
 20
36.166664
 11
5.000000
 21
2.675026
  0
LINE
  8
0
 10
-5.000000
 20
17.500000
 11
-5.000000
 21
22.500000
  0
LINE
  8
0
 10
-13.000000
 20
17.984402
 11
-13.000000
 21
22.015602
  0
LINE
  8
0
 10
-11.000000
 20
17.500000
 11
-11.000000
 21
22.500000
  0
LINE
  8
0
 10
-9.000000
 20
17.500000
 11
-9.000000
 21
22.500000
  0
LINE
  8
0
 10
-7.000000
 20
17.500000
 11
-7.000000
 21
22.500000
  0
LINE
  8
0
 10
-8.999998
 20
22.500000
 11
-11.000000
 21
21.772058
  0
LINE
  8
0
 10
-7.000000
 20
22.499998
 11
-8.999998
 21
21.772058
  0
LINE
  8
0
 10
-9.000001
 20
17.500006
 11
-10.999999
 21
18.227945
  0
LINE
  8
0
 10
-7.000000
 20
17.500004
 11
-9.000001
 21
18.227945
  0
LINE
  8
0
 10
-4.999999
 20
17.500000
 11
-7.000001
 21
18.227942
  0
LINE
  8
0
 10
-5.000001
 20
22.499996
 11
-7.000000
 21
21.772057
  0
LINE
  8
0
 10
-5.000000
 20
17.500000
 11
0.000000
 21
17.500000
  0
LINE
  8
0
 10
-5.000000
 20
22.500000
 11
0.000000
 21
22.500000
  0
LINE
  8
0
 10
-11.000002
 20
22.500008
 11
-12.620935
 21
22.415058
  0
LINE
  8
0
 10
-11.000000
 20
17.500000
 11
-12.620932
 21
17.584949
  0
LINE
  8
0
 10
-0.500000
 20
11.500000
 11
-0.500000
 21
8.500000
  0
LINE
  8
0
 10
10.500000
 20
11.500000
 11
10.500000
 21
8.500000
  0
LINE
  8
0
 10
10.000000
 20
7.599998
 11
10.000000
 21
7.121891
  0
LINE
  8
0
 10
0.000000
 20
7.599998
 11
0.000000
 21
7.121891
  0
LINE
  8
0
 10
-0.500000
 20
8.500000
 11
10.500000
 21
8.500000
  0
LINE
  8
0
 10
-2.500000
 20
4.500000
 11
12.500000
 21
4.500000
  0
LINE
  8
0
 10
0.000000
 20
7.599998
 11
10.000000
 21
7.599998
  0
LINE
  8
0
 10
-0.500000
 20
8.500004
 11
0.000001
 21
7.600004
  0
LINE
  8
0
 10
9.999999
 20
7.600004
 11
10.500000
 21
8.500004
  0
LINE
  8
0
 10
0.500001
 20
12.499996
 11
-0.499998
 21
11.499998
  0
LINE
  8
0
 10
10.500001
 20
11.500000
 11
9.500002
 21
12.500000
  0
LINE
  8
0
 10
-2.500001
 20
4.500002
 11
-2.785002
 21
4.785002
  0
LINE
  8
0
 10
12.499999
 20
4.499996
 11
12.785000
 21
4.784996
  0
LINE
  8
0
 10
-2.784999
 20
4.784994
 11
0.000002
 21
7.121887
  0
LINE
  8
0
 10
12.785002
 20
4.784994
 11
10.000000
 21
7.121889
  0
LINE
  8
0
 10
0.000000
 20
7.121891
 11
10.000000
 21
7.121891
  0
LINE
  8
0
 10
-2.785000
 20
4.785000
 11
12.785000
 21
4.785000
  0
LINE
  8
0
 10
-0.500000
 20
11.500000
 11
10.500000
 21
11.500000
  0
ARC
  8
0
 10
-12.600000
 20
17.984402
 40
0.400000
 50
180.000000
 51
266.999908
  0
ARC
  8
0
 10
-12.600000
 20
22.015602
 40
0.400000
 50
93.000092
 51
180.000000
  0
POLYLINE
  8
0
 66
     1
  0
VERTEX
  8
0
 10
0.000000
 20
16.342342
  0
VERTEX
  8
0
 10
0.728477
 20
15.686679
  0
VERTEX
  8
0
 10
1.582782
 20
15.194190
  0
VERTEX
  8
0
 10
2.500000
 20
15.000000
  0
VERTEX
  8
0
 10
3.417218
 20
15.194190
  0
VERTEX
  8
0
 10
4.271523
 20
15.686679
  0
VERTEX
  8
0
 10
5.000000
 20
16.342342
  0
SEQEND
  0
POLYLINE
  8
0
 66
     1
  0
VERTEX
  8
0
 10
5.000000
 20
16.342342
  0
VERTEX
  8
0
 10
5.728477
 20
15.686679
  0
VERTEX
  8
0
 10
6.582781
 20
15.194190
  0
VERTEX
  8
0
 10
7.500000
 20
15.000000
  0
VERTEX
  8
0
 10
8.417218
 20
15.194190
  0
VERTEX
  8
0
 10
9.271523
 20
15.686679
  0
VERTEX
  8
0
 10
10.000000
 20
16.342342
  0
SEQEND
  0
POLYLINE
  8
0
 66
     1
  0
VERTEX
  8
0
 10
0.000000
 20
22.657661
  0
VERTEX
  8
0
 10
0.728477
 20
23.313324
  0
VERTEX
  8
0
 10
1.582782
 20
23.805811
  0
VERTEX
  8
0
 10
2.500000
 20
24.000000
  0
VERTEX
  8
0
 10
3.417218
 20
23.805811
  0
VERTEX
  8
0
 10
4.271523
 20
23.313324
  0
VERTEX
  8
0
 10
5.000000
 20
22.657661
  0
SEQEND
  0
POLYLINE
  8
0
 66
     1
  0
VERTEX
  8
0
 10
5.000000
 20
22.657661
  0
VERTEX
  8
0
 10
5.728477
 20
23.313324
  0
VERTEX
  8
0
 10
6.582782
 20
23.805811
  0
VERTEX
  8
0
 10
7.500000
 20
24.000000
  0
VERTEX
  8
0
 10
8.417218
 20
23.805811
  0
VERTEX
  8
0
 10
9.271523
 20
23.313324
  0
VERTEX
  8
0
 10
10.000000
 20
22.657661
  0
SEQEND
  0
POINT
  8
0
 10
5.000000
 20
70.000000
  0
POINT
  8
0
 10
10.000000
 20
70.000000
  0
LINE
  8
0
 10
5.000000
 20
78.465752
 11
5.000000
 21
61.292084
  0
LINE
  8
0
 10
-14.036873
 20
70.000000
 11
13.580720
 21
70.000000
  0
LINE
  8
0
 10
-5.000000
 20
67.500000
 11
-5.000000
 21
72.500000
  0
LINE
  8
0
 10
-13.000000
 20
67.984406
 11
-13.000000
 21
72.015602
  0
LINE
  8
0
 10
-11.000000
 20
67.500000
 11
-11.000000
 21
72.500000
  0
LINE
  8
0
 10
-9.000000
 20
67.500000
 11
-9.000000
 21
72.500000
  0
LINE
  8
0
 10
-7.000000
 20
67.500000
 11
-7.000000
 21
72.500000
  0
LINE
  8
0
 10
-8.999995
 20
72.499992
 11
-10.999995
 21
71.772057
  0
LINE
  8
0
 10
-6.999995
 20
72.500000
 11
-8.999995
 21
71.772057
  0
LINE
  8
0
 10
-8.999998
 20
67.500008
 11
-11.000000
 21
68.227943
  0
LINE
  8
0
 10
-6.999999
 20
67.500008
 11
-8.999997
 21
68.227951
  0
LINE
  8
0
 10
-4.999998
 20
67.500000
 11
-7.000000
 21
68.227943
  0
LINE
  8
0
 10
-4.999995
 20
72.500000
 11
-6.999995
 21
71.772064
  0
LINE
  8
0
 10
-5.000000
 20
67.500000
 11
0.000000
 21
67.500000
  0
LINE
  8
0
 10
-5.000000
 20
72.500000
 11
0.000000
 21
72.500000
  0
LINE
  8
0
 10
-11.000002
 20
72.500008
 11
-12.620934
 21
72.415062
  0
LINE
  8
0
 10
-11.000000
 20
67.499992
 11
-12.620932
 21
67.584946
  0
LINE
  8
0
 10
10.000000
 20
67.113251
 11
10.000000
 21
72.886749
  0
LINE
  8
0
 10
0.000000
 20
67.113251
 11
0.000000
 21
72.886749
  0
LINE
  8
0
 10
0.000002
 20
72.886757
 11
4.999999
 21
75.773506
  0
LINE
  8
0
 10
10.000002
 20
72.886749
 11
5.000000
 21
75.773506
  0
LINE
  8
0
 10
5.000007
 20
64.226509
 11
0.000004
 21
67.113258
  0
LINE
  8
0
 10
4.999997
 20
64.226509
 11
9.999994
 21
67.113258
  0
CIRCLE
  8
0
 10
5.000000
 20
70.000000
 40
4.250000
  0
CIRCLE
  8
0
 10
5.000000
 20
70.000000
 40
5.000000
  0
ARC
  8
0
 10
-12.600000
 20
72.015602
 40
0.400000
 50
93.000092
 51
180.000000
  0
ARC
  8
0
 10
-12.600000
 20
67.984406
 40
0.400000
 50
180.000000
 51
266.999908
  0
CIRCLE
  8
0
 10
5.000000
 20
70.000000
 40
1.650000
  0
CIRCLE
  8
0
 10
5.000000
 20
70.000000
 40
2.000000
  0
ARC
  8
0
 10
5.000000
 20
70.000000
 40
7.785000
 50
198.731293
 51
161.268707
  0
ARC
  8
0
 10
5.000000
 20
70.000000
 40
5.500001
 50
335.380005
 51
24.620001
  0
ARC
  8
0
 10
5.000000
 20
70.000000
 40
5.499997
 50
275.379944
 51
324.620056
  0
ARC
  8
0
 10
5.000000
 20
70.000000
 40
5.499999
 50
215.379883
 51
264.620056
  0
ARC
  8
0
 10
5.000000
 20
70.000000
 40
5.500000
 50
35.380066
 51
84.619911
  0
ARC
  8
0
 10
5.000000
 20
70.000000
 40
5.499999
 50
95.380135
 51
144.619934
  0
POINT
  8
0
 10
110.000000
 20
35.000000
  0
POINT
  8
0
 10
113.750008
 20
35.000000
  0
LINE
  8
0
 10
115.000000
 20
24.000000
 11
115.000000
 21
15.000000
  0
LINE
  8
0
 10
105.000000
 20
24.000000
 11
105.000000
 21
15.000000
  0
LINE
  8
0
 10
106.250000
 20
35.000000
 11
113.750000
 21
35.000000
  0
LINE
  8
0
 10
105.500000
 20
14.500000
 11
114.500000
 21
14.500000
  0
LINE
  8
0
 10
114.250000
 20
34.500000
 11
114.250000
 21
24.500000
  0
LINE
  8
0
 10
105.750000
 20
34.500000
 11
105.750000
 21
24.500000
  0
LINE
  8
0
 10
105.500000
 20
24.500000
 11
114.500000
 21
24.500000
  0
LINE
  8
0
 10
105.750000
 20
34.500000
 11
114.250000
 21
34.500000
  0
LINE
  8
0
 10
105.750000
 20
34.500004
 11
106.249992
 21
34.999996
  0
LINE
  8
0
 10
113.750000
 20
34.999996
 11
114.250000
 21
34.500000
  0
LINE
  8
0
 10
114.250000
 20
14.500000
 11
114.250000
 21
12.500000
  0
LINE
  8
0
 10
105.750000
 20
14.500000
 11
105.750000
 21
12.500000
  0
LINE
  8
0
 10
105.000000
 20
15.000000
 11
115.000000
 21
15.000000
  0
LINE
  8
0
 10
105.000000
 20
24.000000
 11
115.000000
 21
24.000000
  0
LINE
  8
0
 10
105.000000
 20
24.000008
 11
105.500000
 21
24.500008
  0
LINE
  8
0
 10
114.500000
 20
24.499998
 11
115.000000
 21
24.000000
  0
LINE
  8
0
 10
114.500000
 20
14.500002
 11
115.000000
 21
15.000004
  0
LINE
  8
0
 10
105.000000
 20
14.999998
 11
105.500000
 21
14.500000
  0
LINE
  8
0
 10
90.899704
 20
20.000000
 11
105.732544
 21
20.000000
  0
LINE
  8
0
 10
110.000000
 20
16.342342
 11
110.000000
 21
22.657661
  0
LINE
  8
0
 10
110.000000
 20
36.166664
 11
110.000000
 21
1.110619
  0
LINE
  8
0
 10
100.000000
 20
17.500000
 11
100.000000
 21
22.500000
  0
LINE
  8
0
 10
92.000000
 20
17.984402
 11
92.000000
 21
22.015602
  0
LINE
  8
0
 10
94.000000
 20
17.500000
 11
94.000000
 21
22.500000
  0
LINE
  8
0
 10
96.000000
 20
17.500000
 11
96.000000
 21
22.500000
  0
LINE
  8
0
 10
98.000000
 20
17.500000
 11
98.000000
 21
22.500000
  0
LINE
  8
0
 10
96.000000
 20
22.500000
 11
94.000000
 21
21.772058
  0
LINE
  8
0
 10
98.000000
 20
22.500000
 11
96.000000
 21
21.772058
  0
LINE
  8
0
 10
95.999985
 20
17.500008
 11
93.999985
 21
18.227947
  0
LINE
  8
0
 10
98.000000
 20
17.500010
 11
96.000000
 21
18.227949
  0
LINE
  8
0
 10
100.000008
 20
17.500006
 11
98.000008
 21
18.227947
  0
LINE
  8
0
 10
100.000000
 20
22.500000
 11
98.000000
 21
21.772060
  0
LINE
  8
0
 10
100.000000
 20
17.500000
 11
105.000000
 21
17.500000
  0
LINE
  8
0
 10
100.000000
 20
22.500000
 11
105.000000
 21
22.500000
  0
LINE
  8
0
 10
93.999992
 20
22.500004
 11
92.379059
 21
22.415056
  0
LINE
  8
0
 10
94.000008
 20
17.499996
 11
92.379074
 21
17.584946
  0
LINE
  8
0
 10
103.000000
 20
10.500000
 11
103.000000
 21
6.500000
  0
LINE
  8
0
 10
117.000000
 20
10.500000
 11
117.000000
 21
6.500000
  0
LINE
  8
0
 10
104.750000
 20
12.500000
 11
115.250000
 21
12.500000
  0
LINE
  8
0
 10
103.000000
 20
10.500000
 11
117.000000
 21
10.500000
  0
LINE
  8
0
 10
100.250000
 20
2.500000
 11
119.750000
 21
2.500000
  0
LINE
  8
0
 10
103.212692
 20
5.100000
 11
116.787308
 21
5.100000
  0
LINE
  8
0
 10
104.750000
 20
12.500000
 11
115.250000
 21
12.500000
  0
LINE
  8
0
 10
103.000000
 20
10.500000
 11
117.000000
 21
10.500000
  0
LINE
  8
0
 10
104.750008
 20
12.500000
 11
103.000000
 21
10.499998
  0
LINE
  8
0
 10
117.000000
 20
10.500000
 11
115.250000
 21
12.500000
  0
LINE
  8
0
 10
103.000000
 20
6.500000
 11
117.000000
 21
6.500000
  0
LINE
  8
0
 10
100.250000
 20
2.500000
 11
100.000000
 21
2.933014
  0
LINE
  8
0
 10
119.750008
 20
2.500000
 11
120.000008
 21
2.933014
  0
LINE
  8
0
 10
116.787315
 20
5.100012
 11
120.000008
 21
2.933025
  0
LINE
  8
0
 10
100.000000
 20
2.933010
 11
103.212692
 21
5.099998
  0
LINE
  8
0
 10
103.000015
 20
6.500002
 11
103.212708
 21
5.100000
  0
LINE
  8
0
 10
116.999985
 20
6.500002
 11
116.787292
 21
5.100002
  0
LINE
  8
0
 10
120.000000
 20
2.933014
 11
100.000000
 21
2.933014
  0
ARC
  8
0
 10
92.400002
 20
17.984402
 40
0.400002
 50
180.000000
 51
266.999908
  0
ARC
  8
0
 10
92.400002
 20
22.015602
 40
0.400000
 50
93.000092
 51
180.000000
  0
POLYLINE
  8
0
 66
     1
  0
VERTEX
  8
0
 10
105.000000
 20
16.342342
  0
VERTEX
  8
0
 10
105.728477
 20
15.686679
  0
VERTEX
  8
0
 10
106.582779
 20
15.194190
  0
VERTEX
  8
0
 10
107.500000
 20
15.000000
  0
VERTEX
  8
0
 10
108.417221
 20
15.194190
  0
VERTEX
  8
0
 10
109.271523
 20
15.686679
  0
VERTEX
  8
0
 10
110.000000
 20
16.342342
  0
SEQEND
  0
POLYLINE
  8
0
 66
     1
  0
VERTEX
  8
0
 10
110.000000
 20
16.342342
  0
VERTEX
  8
0
 10
110.728477
 20
15.686679
  0
VERTEX
  8
0
 10
111.582779
 20
15.194190
  0
VERTEX
  8
0
 10
112.500000
 20
15.000000
  0
VERTEX
  8
0
 10
113.417221
 20
15.194190
  0
VERTEX
  8
0
 10
114.271523
 20
15.686679
  0
VERTEX
  8
0
 10
115.000000
 20
16.342342
  0
SEQEND
  0
POLYLINE
  8
0
 66
     1
  0
VERTEX
  8
0
 10
105.000000
 20
22.657661
  0
VERTEX
  8
0
 10
105.728477
 20
23.313324
  0
VERTEX
  8
0
 10
106.582779
 20
23.805811
  0
VERTEX
  8
0
 10
107.500000
 20
24.000000
  0
VERTEX
  8
0
 10
108.417221
 20
23.805811
  0
VERTEX
  8
0
 10
109.271523
 20
23.313324
  0
VERTEX
  8
0
 10
110.000000
 20
22.657661
  0
SEQEND
  0
POLYLINE
  8
0
 66
     1
  0
VERTEX
  8
0
 10
110.000000
 20
22.657661
  0
VERTEX
  8
0
 10
110.728477
 20
23.313324
  0
VERTEX
  8
0
 10
111.582779
 20
23.805811
  0
VERTEX
  8
0
 10
112.500000
 20
24.000000
  0
VERTEX
  8
0
 10
113.417221
 20
23.805811
  0
VERTEX
  8
0
 10
114.271523
 20
23.313324
  0
VERTEX
  8
0
 10
115.000000
 20
22.657661
  0
SEQEND
  0
POINT
  8
0
 10
110.000000
 20
70.000000
  0
POINT
  8
0
 10
115.000000
 20
70.000000
  0
LINE
  8
0
 10
110.000000
 20
81.376648
 11
110.000000
 21
59.095428
  0
LINE
  8
0
 10
90.963127
 20
70.000000
 11
121.082596
 21
70.000000
  0
LINE
  8
0
 10
100.000000
 20
67.500000
 11
100.000000
 21
72.500000
  0
LINE
  8
0
 10
92.000000
 20
67.984406
 11
92.000000
 21
72.015602
  0
LINE
  8
0
 10
94.000000
 20
67.500000
 11
94.000000
 21
72.500000
  0
LINE
  8
0
 10
96.000000
 20
67.500000
 11
96.000000
 21
72.500000
  0
LINE
  8
0
 10
98.000000
 20
67.500000
 11
98.000000
 21
72.500000
  0
LINE
  8
0
 10
96.000015
 20
72.500008
 11
94.000015
 21
71.772064
  0
LINE
  8
0
 10
98.000015
 20
72.500000
 11
96.000015
 21
71.772057
  0
LINE
  8
0
 10
96.000000
 20
67.500008
 11
94.000008
 21
68.227943
  0
LINE
  8
0
 10
98.000008
 20
67.500008
 11
96.000008
 21
68.227951
  0
LINE
  8
0
 10
100.000008
 20
67.500000
 11
98.000008
 21
68.227943
  0
LINE
  8
0
 10
100.000008
 20
72.499992
 11
98.000008
 21
71.772057
  0
LINE
  8
0
 10
100.000000
 20
67.500000
 11
105.000000
 21
67.500000
  0
LINE
  8
0
 10
100.000000
 20
72.500000
 11
105.000000
 21
72.500000
  0
LINE
  8
0
 10
93.999992
 20
72.500023
 11
92.379059
 21
72.415077
  0
LINE
  8
0
 10
94.000000
 20
67.499977
 11
92.379066
 21
67.584930
  0
LINE
  8
0
 10
115.000000
 20
67.113251
 11
115.000000
 21
72.886749
  0
LINE
  8
0
 10
105.000000
 20
67.113251
 11
105.000000
 21
72.886749
  0
LINE
  8
0
 10
105.000000
 20
72.886757
 11
109.999992
 21
75.773506
  0
LINE
  8
0
 10
115.000008
 20
72.886765
 11
110.000008
 21
75.773514
  0
LINE
  8
0
 10
110.000008
 20
64.226501
 11
105.000000
 21
67.113251
  0
LINE
  8
0
 10
110.000000
 20
64.226501
 11
115.000008
 21
67.113258
  0
CIRCLE
  8
0
 10
110.000000
 20
70.000000
 40
4.250000
  0
CIRCLE
  8
0
 10
110.000000
 20
70.000000
 40
5.000000
  0
ARC
  8
0
 10
92.400002
 20
72.015602
 40
0.400000
 50
93.000092
 51
180.000000
  0
ARC
  8
0
 10
92.400002
 20
67.984406
 40
0.400002
 50
180.000000
 51
266.999908
  0
CIRCLE
  8
0
 10
110.000000
 20
70.000000
 40
1.650000
  0
CIRCLE
  8
0
 10
110.000000
 20
70.000000
 40
2.000000
  0
ARC
  8
0
 10
110.000000
 20
70.000000
 40
9.999999
 50
194.477509
 51
165.522491
  0
ARC
  8
0
 10
110.000000
 20
70.000000
 40
6.999997
 50
200.924835
 51
159.075165
  0
ARC
  8
0
 10
110.000000
 20
70.000000
 40
5.250001
 50
342.247162
 51
17.752825
  0
ARC
  8
0
 10
110.000000
 20
70.000000
 40
5.250003
 50
282.247070
 51
317.752991
  0
ARC
  8
0
 10
110.000000
 20
70.000000
 40
5.250001
 50
222.247025
 51
257.752930
  0
ARC
  8
0
 10
110.000000
 20
70.000000
 40
5.249997
 50
102.247505
 51
137.752518
  0
ARC
  8
0
 10
110.000000
 20
70.000000
 40
5.250000
 50
42.247372
 51
77.752678
  0
POINT
  8
0
 10
225.000000
 20
35.000000
  0
POINT
  8
0
 10
229.999954
 20
35.000000
  0
LINE
  8
0
 10
218.000000
 20
20.000000
 11
218.000000
 21
8.000000
  0
LINE
  8
0
 10
232.000000
 20
20.000000
 11
232.000000
 21
8.000000
  0
LINE
  8
0
 10
220.000000
 20
35.000000
 11
229.999924
 21
35.000000
  0
LINE
  8
0
 10
230.500000
 20
34.500000
 11
230.500000
 21
21.000002
  0
LINE
  8
0
 10
219.500000
 20
34.500000
 11
219.500000
 21
21.000000
  0
LINE
  8
0
 10
219.000000
 20
7.000000
 11
231.000000
 21
7.000000
  0
LINE
  8
0
 10
219.000000
 20
21.000000
 11
231.000000
 21
21.000000
  0
LINE
  8
0
 10
219.000000
 20
7.000000
 11
219.000000
 21
4.500000
  0
LINE
  8
0
 10
231.000000
 20
7.000000
 11
231.000000
 21
4.500000
  0
LINE
  8
0
 10
219.500000
 20
34.500000
 11
230.500000
 21
34.500000
  0
LINE
  8
0
 10
219.000000
 20
4.500000
 11
231.000000
 21
4.500000
  0
LINE
  8
0
 10
219.500000
 20
34.499996
 11
220.000000
 21
34.999996
  0
LINE
  8
0
 10
229.999954
 20
34.999962
 11
230.499954
 21
34.499962
  0
LINE
  8
0
 10
218.999985
 20
4.499989
 11
219.499985
 21
3.999989
  0
LINE
  8
0
 10
230.499985
 20
3.999992
 11
230.999985
 21
4.499992
  0
LINE
  8
0
 10
218.000000
 20
20.000000
 11
232.000000
 21
20.000000
  0
LINE
  8
0
 10
218.000000
 20
8.000000
 11
232.000000
 21
8.000000
  0
LINE
  8
0
 10
219.000000
 20
6.999996
 11
218.000000
 21
7.999998
  0
LINE
  8
0
 10
231.000000
 20
7.000000
 11
231.999985
 21
7.999990
  0
LINE
  8
0
 10
231.000000
 20
21.000000
 11
231.999985
 21
20.000011
  0
LINE
  8
0
 10
218.000000
 20
20.000000
 11
218.999985
 21
20.999989
  0
LINE
  8
0
 10
225.000000
 20
36.530479
 11
225.000000
 21
-12.045780
  0
LINE
  8
0
 10
225.000000
 20
19.000000
 11
225.000000
 21
9.000000
  0
LINE
  8
0
 10
203.899704
 20
15.000000
 11
218.732544
 21
15.000000
  0
LINE
  8
0
 10
213.000000
 20
12.500000
 11
213.000000
 21
17.500000
  0
LINE
  8
0
 10
205.000000
 20
12.984402
 11
205.000000
 21
17.015602
  0
LINE
  8
0
 10
207.000000
 20
12.500000
 11
207.000000
 21
17.500000
  0
LINE
  8
0
 10
209.000000
 20
12.500000
 11
209.000000
 21
17.500000
  0
LINE
  8
0
 10
211.000000
 20
12.500000
 11
211.000000
 21
17.500000
  0
LINE
  8
0
 10
209.000000
 20
17.500002
 11
207.000000
 21
16.772062
  0
LINE
  8
0
 10
211.000015
 20
17.500006
 11
209.000000
 21
16.772066
  0
LINE
  8
0
 10
209.000000
 20
12.500002
 11
207.000000
 21
13.227942
  0
LINE
  8
0
 10
211.000015
 20
12.500011
 11
209.000015
 21
13.227953
  0
LINE
  8
0
 10
212.999985
 20
12.500013
 11
210.999985
 21
13.227955
  0
LINE
  8
0
 10
213.000000
 20
17.500010
 11
211.000000
 21
16.772070
  0
LINE
  8
0
 10
213.000000
 20
12.500000
 11
218.000000
 21
12.500000
  0
LINE
  8
0
 10
213.000000
 20
17.500000
 11
218.000000
 21
17.500000
  0
LINE
  8
0
 10
207.000015
 20
17.500004
 11
205.379089
 21
17.415056
  0
LINE
  8
0
 10
207.000015
 20
12.500000
 11
205.379059
 21
12.584951
  0
LINE
  8
0
 10
232.500000
 20
2.500000
 11
232.500000
 21
-2.500000
  0
LINE
  8
0
 10
217.500000
 20
2.500000
 11
217.500000
 21
-2.500000
  0
LINE
  8
0
 10
217.500000
 20
-2.500000
 11
232.500000
 21
-2.500000
  0
LINE
  8
0
 10
219.250000
 20
4.000000
 11
230.750000
 21
4.000000
  0
LINE
  8
0
 10
217.500000
 20
2.500000
 11
232.500000
 21
2.500000
  0
LINE
  8
0
 10
212.750000
 20
-10.000000
 11
237.250000
 21
-10.000000
  0
LINE
  8
0
 10
218.560593
 20
-5.000000
 11
231.439407
 21
-5.000000
  0
LINE
  8
0
 10
219.250000
 20
4.000000
 11
217.500000
 21
2.500000
  0
LINE
  8
0
 10
230.749985
 20
3.999983
 11
232.499985
 21
2.499985
  0
LINE
  8
0
 10
237.250031
 20
-10.000000
 11
237.500031
 21
-9.566990
  0
LINE
  8
0
 10
212.500000
 20
-9.566990
 11
212.750000
 21
-10.000004
  0
LINE
  8
0
 10
231.439392
 20
-5.000000
 11
237.500000
 21
-9.566994
  0
LINE
  8
0
 10
212.451340
 20
-9.603661
 11
218.560608
 21
-5.000000
  0
LINE
  8
0
 10
217.500015
 20
-2.500000
 11
218.560608
 21
-4.999996
  0
LINE
  8
0
 10
232.500015
 20
-2.500023
 11
231.439423
 21
-5.000023
  0
LINE
  8
0
 10
212.500000
 20
-9.566986
 11
237.500000
 21
-9.566986
  0
ARC
  8
0
 10
205.399994
 20
17.015602
 40
0.400000
 50
93.000092
 51
180.000000
  0
ARC
  8
0
 10
205.399994
 20
12.984402
 40
0.399994
 50
180.000000
 51
266.999908
  0
POLYLINE
  8
0
 66
     1
  0
VERTEX
  8
0
 10
218.000000
 20
9.000000
  0
VERTEX
  8
0
 10
218.819290
 20
8.589785
  0
VERTEX
  8
0
 10
219.686340
 20
8.274253
  0
VERTEX
  8
0
 10
220.585205
 20
8.071595
  0
VERTEX
  8
0
 10
221.500000
 20
8.000000
  0
VERTEX
  8
0
 10
222.414795
 20
8.071595
  0
VERTEX
  8
0
 10
223.313660
 20
8.274253
  0
VERTEX
  8
0
 10
224.180710
 20
8.589785
  0
VERTEX
  8
0
 10
225.000000
 20
9.000000
  0
SEQEND
  0
POLYLINE
  8
0
 66
     1
  0
VERTEX
  8
0
 10
225.000000
 20
9.000000
  0
VERTEX
  8
0
 10
225.819290
 20
8.589785
  0
VERTEX
  8
0
 10
226.686340
 20
8.274253
  0
VERTEX
  8
0
 10
227.585205
 20
8.071595
  0
VERTEX
  8
0
 10
228.500000
 20
8.000000
  0
VERTEX
  8
0
 10
229.414795
 20
8.071595
  0
VERTEX
  8
0
 10
230.313660
 20
8.274253
  0
VERTEX
  8
0
 10
231.180710
 20
8.589785
  0
VERTEX
  8
0
 10
232.000000
 20
9.000000
  0
SEQEND
  0
POLYLINE
  8
0
 66
     1
  0
VERTEX
  8
0
 10
218.000000
 20
19.000000
  0
VERTEX
  8
0
 10
218.819290
 20
19.410215
  0
VERTEX
  8
0
 10
219.686340
 20
19.725746
  0
VERTEX
  8
0
 10
220.585205
 20
19.928406
  0
VERTEX
  8
0
 10
221.500000
 20
20.000000
  0
VERTEX
  8
0
 10
222.414795
 20
19.928406
  0
VERTEX
  8
0
 10
223.313660
 20
19.725746
  0
VERTEX
  8
0
 10
224.180710
 20
19.410215
  0
VERTEX
  8
0
 10
225.000000
 20
19.000000
  0
SEQEND
  0
POLYLINE
  8
0
 66
     1
  0
VERTEX
  8
0
 10
232.000000
 20
19.000000
  0
VERTEX
  8
0
 10
231.180710
 20
19.410215
  0
VERTEX
  8
0
 10
230.313660
 20
19.725746
  0
VERTEX
  8
0
 10
229.414795
 20
19.928406
  0
VERTEX
  8
0
 10
228.500000
 20
20.000000
  0
VERTEX
  8
0
 10
227.585205
 20
19.928406
  0
VERTEX
  8
0
 10
226.686340
 20
19.725746
  0
VERTEX
  8
0
 10
225.819290
 20
19.410215
  0
VERTEX
  8
0
 10
225.000000
 20
19.000000
  0
SEQEND
  0
POINT
  8
0
 10
225.000000
 20
70.000000
  0
POINT
  8
0
 10
225.000000
 20
70.000000
  0
POINT
  8
0
 10
232.000000
 20
70.000000
  0
LINE
  8
0
 10
225.000000
 20
84.421738
 11
225.000000
 21
55.755066
  0
LINE
  8
0
 10
213.000000
 20
67.500000
 11
213.000000
 21
72.500000
  0
LINE
  8
0
 10
205.000000
 20
67.984406
 11
205.000000
 21
72.015602
  0
LINE
  8
0
 10
207.000000
 20
67.500000
 11
207.000000
 21
72.500000
  0
LINE
  8
0
 10
209.000000
 20
67.500000
 11
209.000000
 21
72.500000
  0
LINE
  8
0
 10
211.000000
 20
67.500000
 11
211.000000
 21
72.500000
  0
LINE
  8
0
 10
209.000000
 20
72.499992
 11
207.000000
 21
71.772049
  0
LINE
  8
0
 10
211.000000
 20
72.500008
 11
209.000000
 21
71.772064
  0
LINE
  8
0
 10
209.000015
 20
67.500061
 11
207.000015
 21
68.227997
  0
LINE
  8
0
 10
211.000000
 20
67.500000
 11
209.000000
 21
68.227943
  0
LINE
  8
0
 10
213.000000
 20
67.500053
 11
211.000000
 21
68.227997
  0
LINE
  8
0
 10
212.999985
 20
72.500000
 11
210.999985
 21
71.772057
  0
LINE
  8
0
 10
213.000000
 20
67.500000
 11
218.000000
 21
67.500000
  0
LINE
  8
0
 10
213.000000
 20
72.500000
 11
218.000000
 21
72.500000
  0
LINE
  8
0
 10
207.000031
 20
72.500031
 11
205.379074
 21
72.415085
  0
LINE
  8
0
 10
207.000000
 20
67.499992
 11
205.379059
 21
67.584938
  0
LINE
  8
0
 10
203.513519
 20
70.000000
 11
239.275177
 21
70.000000
  0
LINE
  8
0
 10
218.000000
 20
74.041458
 11
218.000000
 21
65.958549
  0
LINE
  8
0
 10
232.000000
 20
74.041458
 11
232.000000
 21
65.958557
  0
LINE
  8
0
 10
231.999985
 20
74.041458
 11
225.000000
 21
78.082909
  0
LINE
  8
0
 10
217.999985
 20
74.041458
 11
225.000000
 21
78.082916
  0
LINE
  8
0
 10
225.000000
 20
61.917091
 11
232.000000
 21
65.958549
  0
LINE
  8
0
 10
225.000000
 20
61.917126
 11
218.000015
 21
65.958580
  0
ARC
  8
0
 10
205.399994
 20
72.015602
 40
0.400000
 50
93.000092
 51
180.000000
  0
ARC
  8
0
 10
205.399994
 20
67.984406
 40
0.399994
 50
180.000000
 51
266.999908
  0
ARC
  8
0
 10
225.000000
 20
70.000000
 40
7.500000
 50
338.960541
 51
21.039461
  0
ARC
  8
0
 10
225.000000
 20
70.000000
 40
12.500000
 50
191.082901
 51
168.917099
  0
ARC
  8
0
 10
225.000000
 20
70.000000
 40
7.500000
 50
278.960510
 51
321.039459
  0
ARC
  8
0
 10
225.000000
 20
70.000000
 40
7.500004
 50
218.960526
 51
261.039368
  0
ARC
  8
0
 10
225.000000
 20
70.000000
 40
7.500000
 50
158.960541
 51
160.528793
  0
ARC
  8
0
 10
225.000000
 20
70.000000
 40
7.500000
 50
98.960503
 51
141.039520
  0
ARC
  8
0
 10
225.000000
 20
70.000000
 40
7.500007
 50
199.471207
 51
201.039459
  0
ARC
  8
0
 10
225.000000
 20
70.000000
 40
7.500000
 50
38.960484
 51
81.039497
  0
CIRCLE
  8
0
 10
225.000000
 20
70.000000
 40
2.500000
  0
CIRCLE
  8
0
 10
225.000000
 20
70.000000
 40
2.000000
  0
CIRCLE
  8
0
 10
225.000000
 20
70.000000
 40
5.500000
  0
POINT
  8
0
 10
-210.000000
 20
-115.000000
  0
POINT
  8
0
 10
-204.999985
 20
-115.000000
  0
LINE
  8
0
 10
-217.000000
 20
-130.000000
 11
-217.000000
 21
-142.000000
  0
LINE
  8
0
 10
-203.000000
 20
-130.000000
 11
-203.000000
 21
-142.000000
  0
LINE
  8
0
 10
-214.999969
 20
-115.000000
 11
-204.999954
 21
-115.000000
  0
LINE
  8
0
 10
-204.500000
 20
-115.500000
 11
-204.500000
 21
-129.000000
  0
LINE
  8
0
 10
-215.500000
 20
-115.500000
 11
-215.500000
 21
-129.000000
  0
LINE
  8
0
 10
-216.000000
 20
-143.000000
 11
-204.000000
 21
-143.000000
  0
LINE
  8
0
 10
-216.000000
 20
-129.000000
 11
-204.000000
 21
-129.000000
  0
LINE
  8
0
 10
-216.000000
 20
-143.000000
 11
-216.000000
 21
-145.500000
  0
LINE
  8
0
 10
-204.000000
 20
-143.000000
 11
-204.000000
 21
-145.500000
  0
LINE
  8
0
 10
-215.500000
 20
-115.500000
 11
-204.500000
 21
-115.500000
  0
LINE
  8
0
 10
-216.000000
 20
-145.500000
 11
-204.000000
 21
-145.500000
  0
LINE
  8
0
 10
-215.499969
 20
-115.500000
 11
-214.999969
 21
-115.000000
  0
LINE
  8
0
 10
-204.999985
 20
-114.999969
 11
-204.499985
 21
-115.499969
  0
LINE
  8
0
 10
-215.999985
 20
-145.499985
 11
-215.499985
 21
-145.999985
  0
LINE
  8
0
 10
-204.500000
 20
-146.000000
 11
-204.000000
 21
-145.500000
  0
LINE
  8
0
 10
-217.000000
 20
-130.000000
 11
-203.000000
 21
-130.000000
  0
LINE
  8
0
 10
-217.000000
 20
-142.000000
 11
-203.000000
 21
-142.000000
  0
LINE
  8
0
 10
-215.999969
 20
-142.999985
 11
-216.999985
 21
-141.999985
  0
LINE
  8
0
 10
-203.999985
 20
-143.000000
 11
-203.000000
 21
-142.000000
  0
LINE
  8
0
 10
-203.999985
 20
-128.999985
 11
-202.999985
 21
-129.999985
  0
LINE
  8
0
 10
-216.999985
 20
-129.999985
 11
-216.000000
 21
-129.000000
  0
LINE
  8
0
 10
-210.000000
 20
-113.469521
 11
-210.000000
 21
-159.694199
  0
LINE
  8
0
 10
-210.000000
 20
-131.000000
 11
-210.000000
 21
-141.000000
  0
LINE
  8
0
 10
-231.100296
 20
-135.000000
 11
-216.267456
 21
-135.000000
  0
LINE
  8
0
 10
-222.000000
 20
-137.500000
 11
-222.000000
 21
-132.500000
  0
LINE
  8
0
 10
-230.000000
 20
-137.015594
 11
-230.000000
 21
-132.984406
  0
LINE
  8
0
 10
-228.000000
 20
-137.500000
 11
-228.000000
 21
-132.500000
  0
LINE
  8
0
 10
-226.000000
 20
-137.500000
 11
-226.000000
 21
-132.500000
  0
LINE
  8
0
 10
-224.000000
 20
-137.500000
 11
-224.000000
 21
-132.500000
  0
LINE
  8
0
 10
-226.000000
 20
-132.500000
 11
-227.999985
 21
-133.227936
  0
LINE
  8
0
 10
-224.000000
 20
-132.500000
 11
-226.000000
 21
-133.227936
  0
LINE
  8
0
 10
-226.000000
 20
-137.500031
 11
-228.000000
 21
-136.772095
  0
LINE
  8
0
 10
-224.000000
 20
-137.500000
 11
-226.000000
 21
-136.772064
  0
LINE
  8
0
 10
-222.000031
 20
-137.500031
 11
-224.000031
 21
-136.772095
  0
LINE
  8
0
 10
-222.000015
 20
-132.500000
 11
-224.000015
 21
-133.227936
  0
LINE
  8
0
 10
-222.000000
 20
-137.500000
 11
-217.000000
 21
-137.500000
  0
LINE
  8
0
 10
-222.000000
 20
-132.500000
 11
-217.000000
 21
-132.500000
  0
LINE
  8
0
 10
-228.000000
 20
-132.500015
 11
-229.620926
 21
-132.584961
  0
LINE
  8
0
 10
-227.999985
 20
-137.500000
 11
-229.620941
 21
-137.415039
  0
LINE
  8
0
 10
-202.500000
 20
-148.000000
 11
-202.500000
 21
-152.000000
  0
LINE
  8
0
 10
-217.500000
 20
-148.000000
 11
-217.500000
 21
-152.000000
  0
LINE
  8
0
 10
-216.036774
 20
-153.000000
 11
-203.963226
 21
-153.000000
  0
LINE
  8
0
 10
-216.036774
 20
-153.000000
 11
-203.963226
 21
-153.000000
  0
LINE
  8
0
 10
-224.750000
 20
-158.000000
 11
-195.250000
 21
-158.000000
  0
LINE
  8
0
 10
-215.500000
 20
-146.000000
 11
-204.500000
 21
-146.000000
  0
LINE
  8
0
 10
-217.500000
 20
-148.000000
 11
-202.500000
 21
-148.000000
  0
LINE
  8
0
 10
-215.250031
 20
-146.000000
 11
-217.500031
 21
-148.000000
  0
LINE
  8
0
 10
-204.750031
 20
-146.000031
 11
-202.500031
 21
-148.000031
  0
LINE
  8
0
 10
-225.000015
 20
-157.566986
 11
-224.750015
 21
-158.000000
  0
LINE
  8
0
 10
-195.250015
 20
-158.000000
 11
-195.000015
 21
-157.566986
  0
LINE
  8
0
 10
-225.000000
 20
-157.567001
 11
-216.036774
 21
-153.000000
  0
LINE
  8
0
 10
-203.963226
 20
-153.000000
 11
-195.000000
 21
-157.566986
  0
LINE
  8
0
 10
-217.500000
 20
-152.000000
 11
-202.500000
 21
-152.000000
  0
LINE
  8
0
 10
-217.500000
 20
-152.000000
 11
-216.036789
 21
-153.000000
  0
LINE
  8
0
 10
-202.500000
 20
-152.000015
 11
-203.963211
 21
-153.000015
  0
LINE
  8
0
 10
-225.000000
 20
-157.566986
 11
-195.000000
 21
-157.566986
  0
ARC
  8
0
 10
-229.600006
 20
-132.984406
 40
0.400008
 50
93.000038
 51
180.000000
  0
ARC
  8
0
 10
-229.600006
 20
-137.015594
 40
0.399994
 50
180.000000
 51
266.999847
  0
POLYLINE
  8
0
 66
     1
  0
VERTEX
  8
0
 10
-217.000000
 20
-141.000000
  0
VERTEX
  8
0
 10
-216.180710
 20
-141.410217
  0
VERTEX
  8
0
 10
-215.313660
 20
-141.725754
  0
VERTEX
  8
0
 10
-214.414795
 20
-141.928406
  0
VERTEX
  8
0
 10
-213.500000
 20
-142.000000
  0
VERTEX
  8
0
 10
-212.585205
 20
-141.928406
  0
VERTEX
  8
0
 10
-211.686340
 20
-141.725754
  0
VERTEX
  8
0
 10
-210.819290
 20
-141.410217
  0
VERTEX
  8
0
 10
-210.000000
 20
-141.000000
  0
SEQEND
  0
POLYLINE
  8
0
 66
     1
  0
VERTEX
  8
0
 10
-210.000000
 20
-141.000000
  0
VERTEX
  8
0
 10
-209.180710
 20
-141.410217
  0
VERTEX
  8
0
 10
-208.313660
 20
-141.725754
  0
VERTEX
  8
0
 10
-207.414795
 20
-141.928406
  0
VERTEX
  8
0
 10
-206.500000
 20
-142.000000
  0
VERTEX
  8
0
 10
-205.585205
 20
-141.928406
  0
VERTEX
  8
0
 10
-204.686340
 20
-141.725754
  0
VERTEX
  8
0
 10
-203.819290
 20
-141.410217
  0
VERTEX
  8
0
 10
-203.000000
 20
-141.000000
  0
SEQEND
  0
POLYLINE
  8
0
 66
     1
  0
VERTEX
  8
0
 10
-217.000000
 20
-131.000000
  0
VERTEX
  8
0
 10
-216.180710
 20
-130.589783
  0
VERTEX
  8
0
 10
-215.313660
 20
-130.274246
  0
VERTEX
  8
0
 10
-214.414795
 20
-130.071594
  0
VERTEX
  8
0
 10
-213.500000
 20
-130.000000
  0
VERTEX
  8
0
 10
-212.585205
 20
-130.071594
  0
VERTEX
  8
0
 10
-211.686340
 20
-130.274246
  0
VERTEX
  8
0
 10
-210.819290
 20
-130.589783
  0
VERTEX
  8
0
 10
-210.000000
 20
-131.000000
  0
SEQEND
  0
POLYLINE
  8
0
 66
     1
  0
VERTEX
  8
0
 10
-203.000000
 20
-131.000000
  0
VERTEX
  8
0
 10
-203.819290
 20
-130.589783
  0
VERTEX
  8
0
 10
-204.686340
 20
-130.274246
  0
VERTEX
  8
0
 10
-205.585205
 20
-130.071594
  0
VERTEX
  8
0
 10
-206.500000
 20
-130.000000
  0
VERTEX
  8
0
 10
-207.414795
 20
-130.071594
  0
VERTEX
  8
0
 10
-208.313660
 20
-130.274246
  0
VERTEX
  8
0
 10
-209.180710
 20
-130.589783
  0
VERTEX
  8
0
 10
-210.000000
 20
-131.000000
  0
SEQEND
  0
POINT
  8
0
 10
-210.000000
 20
-65.000000
  0
POINT
  8
0
 10
-203.000000
 20
-65.000000
  0
LINE
  8
0
 10
-210.000000
 20
-48.172562
 11
-210.000000
 21
-81.878555
  0
LINE
  8
0
 10
-222.000000
 20
-67.500000
 11
-222.000000
 21
-62.500000
  0
LINE
  8
0
 10
-230.000000
 20
-67.015594
 11
-230.000000
 21
-62.984398
  0
LINE
  8
0
 10
-228.000000
 20
-67.500000
 11
-228.000000
 21
-62.500000
  0
LINE
  8
0
 10
-226.000000
 20
-67.500000
 11
-226.000000
 21
-62.500000
  0
LINE
  8
0
 10
-224.000000
 20
-67.500000
 11
-224.000000
 21
-62.500000
  0
LINE
  8
0
 10
-225.999969
 20
-62.499996
 11
-227.999969
 21
-63.227936
  0
LINE
  8
0
 10
-224.000000
 20
-62.499992
 11
-226.000000
 21
-63.227932
  0
LINE
  8
0
 10
-226.000000
 20
-67.500008
 11
-228.000000
 21
-66.772064
  0
LINE
  8
0
 10
-224.000000
 20
-67.500000
 11
-226.000000
 21
-66.772064
  0
LINE
  8
0
 10
-222.000000
 20
-67.499992
 11
-224.000000
 21
-66.772057
  0
LINE
  8
0
 10
-222.000000
 20
-62.499996
 11
-224.000000
 21
-63.227936
  0
LINE
  8
0
 10
-222.000000
 20
-67.500000
 11
-217.000000
 21
-67.500000
  0
LINE
  8
0
 10
-222.000000
 20
-62.500000
 11
-217.000000
 21
-62.500000
  0
LINE
  8
0
 10
-228.000000
 20
-62.499989
 11
-229.620941
 21
-62.584938
  0
LINE
  8
0
 10
-228.000000
 20
-67.499992
 11
-229.620941
 21
-67.415047
  0
LINE
  8
0
 10
-231.486481
 20
-65.000000
 11
-193.527527
 21
-65.000000
  0
LINE
  8
0
 10
-217.000000
 20
-60.958542
 11
-217.000000
 21
-69.041451
  0
LINE
  8
0
 10
-203.000000
 20
-60.958542
 11
-203.000000
 21
-69.041443
  0
LINE
  8
0
 10
-203.000015
 20
-60.958557
 11
-210.000015
 21
-56.917107
  0
LINE
  8
0
 10
-217.000015
 20
-60.958542
 11
-210.000015
 21
-56.917091
  0
LINE
  8
0
 10
-210.000015
 20
-73.082893
 11
-203.000000
 21
-69.041435
  0
LINE
  8
0
 10
-210.000000
 20
-73.082886
 11
-217.000000
 21
-69.041435
  0
ARC
  8
0
 10
-229.600006
 20
-62.984398
 40
0.400000
 50
93.000092
 51
180.000000
  0
ARC
  8
0
 10
-229.600006
 20
-67.015594
 40
0.399994
 50
180.000000
 51
266.999908
  0
ARC
  8
0
 10
-210.000000
 20
-65.000000
 40
14.999999
 50
188.413635
 51
171.586334
  0
ARC
  8
0
 10
-210.000000
 20
-65.000000
 40
7.500002
 50
38.960506
 51
81.039497
  0
ARC
  8
0
 10
-210.000000
 20
-65.000000
 40
7.500000
 50
338.960541
 51
21.039461
  0
ARC
  8
0
 10
-210.000000
 20
-65.000000
 40
7.500000
 50
278.960510
 51
321.039459
  0
ARC
  8
0
 10
-210.000000
 20
-65.000000
 40
7.500004
 50
218.960526
 51
261.039368
  0
ARC
  8
0
 10
-210.000000
 20
-65.000000
 40
7.500007
 50
199.471207
 51
201.039459
  0
ARC
  8
0
 10
-210.000000
 20
-65.000000
 40
7.499998
 50
158.960571
 51
160.528824
  0
ARC
  8
0
 10
-210.000000
 20
-65.000000
 40
7.500000
 50
98.960503
 51
141.039490
  0
CIRCLE
  8
0
 10
-210.000000
 20
-65.000000
 40
5.500000
  0
CIRCLE
  8
0
 10
-210.000000
 20
-65.000000
 40
2.500000
  0
CIRCLE
  8
0
 10
-210.000000
 20
-65.000000
 40
2.000000
  0
POINT
  8
0
 10
-70.000000
 20
-115.000000
  0
POINT
  8
0
 10
-64.499977
 20
-115.000000
  0
LINE
  8
0
 10
-77.000000
 20
-130.000000
 11
-77.000000
 21
-142.000000
  0
LINE
  8
0
 10
-63.000000
 20
-130.000000
 11
-63.000000
 21
-142.000000
  0
LINE
  8
0
 10
-75.500000
 20
-115.000000
 11
-64.500000
 21
-115.000000
  0
LINE
  8
0
 10
-64.000000
 20
-115.500000
 11
-64.000000
 21
-129.000000
  0
LINE
  8
0
 10
-76.000000
 20
-115.500000
 11
-76.000000
 21
-129.000000
  0
LINE
  8
0
 10
-76.000000
 20
-143.000000
 11
-64.000000
 21
-143.000000
  0
LINE
  8
0
 10
-76.000000
 20
-129.000000
 11
-64.000000
 21
-129.000000
  0
LINE
  8
0
 10
-76.000000
 20
-143.000000
 11
-76.000000
 21
-145.500000
  0
LINE
  8
0
 10
-64.000000
 20
-143.000000
 11
-64.000000
 21
-145.500000
  0
LINE
  8
0
 10
-76.000000
 20
-115.500000
 11
-64.000000
 21
-115.500000
  0
LINE
  8
0
 10
-76.000000
 20
-145.500000
 11
-64.000000
 21
-145.500000
  0
LINE
  8
0
 10
-76.000008
 20
-115.500008
 11
-75.500008
 21
-115.000008
  0
LINE
  8
0
 10
-64.499985
 20
-114.999977
 11
-63.999985
 21
-115.499969
  0
LINE
  8
0
 10
-75.999985
 20
-145.499985
 11
-75.499985
 21
-145.999985
  0
LINE
  8
0
 10
-64.500000
 20
-146.000000
 11
-64.000000
 21
-145.500000
  0
LINE
  8
0
 10
-77.000000
 20
-130.000000
 11
-63.000000
 21
-130.000000
  0
LINE
  8
0
 10
-77.000000
 20
-142.000000
 11
-63.000000
 21
-142.000000
  0
LINE
  8
0
 10
-75.999992
 20
-143.000000
 11
-77.000000
 21
-141.999985
  0
LINE
  8
0
 10
-64.000008
 20
-143.000000
 11
-63.000015
 21
-142.000000
  0
LINE
  8
0
 10
-64.000000
 20
-129.000000
 11
-63.000000
 21
-130.000000
  0
LINE
  8
0
 10
-76.999992
 20
-130.000000
 11
-76.000008
 21
-129.000000
  0
LINE
  8
0
 10
-70.000000
 20
-113.469521
 11
-70.000000
 21
-161.272858
  0
LINE
  8
0
 10
-70.000000
 20
-131.000000
 11
-70.000000
 21
-141.000000
  0
LINE
  8
0
 10
-91.100296
 20
-135.000000
 11
-76.267456
 21
-135.000000
  0
LINE
  8
0
 10
-82.000000
 20
-137.500000
 11
-82.000000
 21
-132.500000
  0
LINE
  8
0
 10
-90.000000
 20
-137.015594
 11
-90.000000
 21
-132.984406
  0
LINE
  8
0
 10
-88.000000
 20
-137.500000
 11
-88.000000
 21
-132.500000
  0
LINE
  8
0
 10
-86.000000
 20
-137.500000
 11
-86.000000
 21
-132.500000
  0
LINE
  8
0
 10
-84.000000
 20
-137.500000
 11
-84.000000
 21
-132.500000
  0
LINE
  8
0
 10
-86.000008
 20
-132.500000
 11
-88.000000
 21
-133.227936
  0
LINE
  8
0
 10
-84.000000
 20
-132.500000
 11
-86.000000
 21
-133.227936
  0
LINE
  8
0
 10
-86.000008
 20
-137.500031
 11
-88.000015
 21
-136.772095
  0
LINE
  8
0
 10
-84.000008
 20
-137.500000
 11
-86.000000
 21
-136.772064
  0
LINE
  8
0
 10
-82.000000
 20
-137.500000
 11
-84.000000
 21
-136.772064
  0
LINE
  8
0
 10
-82.000008
 20
-132.500000
 11
-84.000008
 21
-133.227936
  0
LINE
  8
0
 10
-82.000000
 20
-137.500000
 11
-77.000000
 21
-137.500000
  0
LINE
  8
0
 10
-82.000000
 20
-132.500000
 11
-77.000000
 21
-132.500000
  0
LINE
  8
0
 10
-88.000000
 20
-132.500015
 11
-89.620926
 21
-132.584961
  0
LINE
  8
0
 10
-88.000000
 20
-137.499985
 11
-89.620934
 21
-137.415039
  0
LINE
  8
0
 10
-77.500000
 20
-148.000000
 11
-77.500000
 21
-153.000000
  0
LINE
  8
0
 10
-62.500000
 20
-148.000000
 11
-62.500000
 21
-153.000000
  0
LINE
  8
0
 10
-77.242378
 20
-155.000000
 11
-62.757622
 21
-155.000000
  0
LINE
  8
0
 10
-87.250000
 20
-160.000000
 11
-52.750000
 21
-160.000000
  0
LINE
  8
0
 10
-75.250000
 20
-146.000000
 11
-64.750000
 21
-146.000000
  0
LINE
  8
0
 10
-77.500000
 20
-148.000000
 11
-62.500000
 21
-148.000000
  0
LINE
  8
0
 10
-75.250000
 20
-146.000015
 11
-77.500000
 21
-148.000000
  0
LINE
  8
0
 10
-64.749992
 20
-146.000000
 11
-62.499996
 21
-148.000000
  0
LINE
  8
0
 10
-87.500015
 20
-159.566986
 11
-87.250015
 21
-160.000000
  0
LINE
  8
0
 10
-52.750000
 20
-160.000000
 11
-52.500000
 21
-159.566986
  0
LINE
  8
0
 10
-87.499992
 20
-159.566986
 11
-77.242371
 21
-155.000000
  0
LINE
  8
0
 10
-62.757629
 20
-155.000015
 11
-52.500008
 21
-159.567001
  0
LINE
  8
0
 10
-77.500000
 20
-153.000000
 11
-62.500000
 21
-153.000000
  0
LINE
  8
0
 10
-77.242378
 20
-154.999985
 11
-77.500000
 21
-152.999985
  0
LINE
  8
0
 10
-62.500000
 20
-152.999985
 11
-62.757622
 21
-154.999985
  0
LINE
  8
0
 10
-87.500000
 20
-159.566986
 11
-52.500000
 21
-159.566986
  0
ARC
  8
0
 10
-89.599998
 20
-132.984406
 40
0.400008
 50
93.000038
 51
180.000000
  0
ARC
  8
0
 10
-89.599998
 20
-137.015594
 40
0.400002
 50
180.000000
 51
266.999847
  0
POLYLINE
  8
0
 66
     1
  0
VERTEX
  8
0
 10
-77.000000
 20
-141.000000
  0
VERTEX
  8
0
 10
-76.180710
 20
-141.410217
  0
VERTEX
  8
0
 10
-75.313667
 20
-141.725754
  0
VERTEX
  8
0
 10
-74.414787
 20
-141.928406
  0
VERTEX
  8
0
 10
-73.500000
 20
-142.000000
  0
VERTEX
  8
0
 10
-72.585213
 20
-141.928406
  0
VERTEX
  8
0
 10
-71.686333
 20
-141.725754
  0
VERTEX
  8
0
 10
-70.819290
 20
-141.410217
  0
VERTEX
  8
0
 10
-70.000000
 20
-141.000000
  0
SEQEND
  0
POLYLINE
  8
0
 66
     1
  0
VERTEX
  8
0
 10
-70.000000
 20
-141.000000
  0
VERTEX
  8
0
 10
-69.180710
 20
-141.410217
  0
VERTEX
  8
0
 10
-68.313667
 20
-141.725754
  0
VERTEX
  8
0
 10
-67.414787
 20
-141.928406
  0
VERTEX
  8
0
 10
-66.500000
 20
-142.000000
  0
VERTEX
  8
0
 10
-65.585213
 20
-141.928406
  0
VERTEX
  8
0
 10
-64.686333
 20
-141.725754
  0
VERTEX
  8
0
 10
-63.819294
 20
-141.410217
  0
VERTEX
  8
0
 10
-63.000000
 20
-141.000000
  0
SEQEND
  0
POLYLINE
  8
0
 66
     1
  0
VERTEX
  8
0
 10
-77.000000
 20
-131.000000
  0
VERTEX
  8
0
 10
-76.180710
 20
-130.589783
  0
VERTEX
  8
0
 10
-75.313667
 20
-130.274246
  0
VERTEX
  8
0
 10
-74.414787
 20
-130.071594
  0
VERTEX
  8
0
 10
-73.500000
 20
-130.000000
  0
VERTEX
  8
0
 10
-72.585213
 20
-130.071594
  0
VERTEX
  8
0
 10
-71.686333
 20
-130.274246
  0
VERTEX
  8
0
 10
-70.819290
 20
-130.589783
  0
VERTEX
  8
0
 10
-70.000000
 20
-131.000000
  0
SEQEND
  0
POLYLINE
  8
0
 66
     1
  0
VERTEX
  8
0
 10
-63.000000
 20
-131.000000
  0
VERTEX
  8
0
 10
-63.819294
 20
-130.589783
  0
VERTEX
  8
0
 10
-64.686333
 20
-130.274246
  0
VERTEX
  8
0
 10
-65.585213
 20
-130.071594
  0
VERTEX
  8
0
 10
-66.500000
 20
-130.000000
  0
VERTEX
  8
0
 10
-67.414787
 20
-130.071594
  0
VERTEX
  8
0
 10
-68.313667
 20
-130.274246
  0
VERTEX
  8
0
 10
-69.180710
 20
-130.589783
  0
VERTEX
  8
0
 10
-70.000000
 20
-131.000000
  0
SEQEND
  0
POINT
  8
0
 10
-70.000000
 20
-65.000000
  0
POINT
  8
0
 10
-63.000000
 20
-65.000000
  0
LINE
  8
0
 10
-70.000000
 20
-45.529991
 11
-70.000000
 21
-84.192749
  0
LINE
  8
0
 10
-82.000000
 20
-67.500000
 11
-82.000000
 21
-62.500000
  0
LINE
  8
0
 10
-90.000000
 20
-67.015594
 11
-90.000000
 21
-62.984398
  0
LINE
  8
0
 10
-88.000000
 20
-67.500000
 11
-88.000000
 21
-62.500000
  0
LINE
  8
0
 10
-86.000000
 20
-67.500000
 11
-86.000000
 21
-62.500000
  0
LINE
  8
0
 10
-84.000000
 20
-67.500000
 11
-84.000000
 21
-62.500000
  0
LINE
  8
0
 10
-86.000000
 20
-62.500004
 11
-88.000000
 21
-63.227943
  0
LINE
  8
0
 10
-84.000000
 20
-62.500000
 11
-85.999992
 21
-63.227936
  0
LINE
  8
0
 10
-86.000000
 20
-67.500015
 11
-88.000000
 21
-66.772072
  0
LINE
  8
0
 10
-84.000008
 20
-67.500000
 11
-86.000008
 21
-66.772057
  0
LINE
  8
0
 10
-82.000000
 20
-67.499992
 11
-84.000000
 21
-66.772057
  0
LINE
  8
0
 10
-82.000000
 20
-62.500004
 11
-84.000000
 21
-63.227943
  0
LINE
  8
0
 10
-82.000000
 20
-67.500000
 11
-77.000000
 21
-67.500000
  0
LINE
  8
0
 10
-82.000000
 20
-62.500000
 11
-77.000000
 21
-62.500000
  0
LINE
  8
0
 10
-88.000000
 20
-62.500000
 11
-89.620934
 21
-62.584949
  0
LINE
  8
0
 10
-88.000000
 20
-67.500000
 11
-89.620934
 21
-67.415047
  0
LINE
  8
0
 10
-91.486481
 20
-65.000000
 11
-50.715866
 21
-65.000000
  0
LINE
  8
0
 10
-77.000000
 20
-60.958542
 11
-77.000000
 21
-69.041451
  0
LINE
  8
0
 10
-63.000000
 20
-60.958542
 11
-63.000000
 21
-69.041443
  0
LINE
  8
0
 10
-62.999996
 20
-60.958542
 11
-69.999992
 21
-56.917088
  0
LINE
  8
0
 10
-77.000000
 20
-60.958534
 11
-70.000000
 21
-56.917084
  0
LINE
  8
0
 10
-69.999992
 20
-73.082901
 11
-62.999996
 21
-69.041451
  0
LINE
  8
0
 10
-70.000008
 20
-73.082901
 11
-77.000008
 21
-69.041451
  0
ARC
  8
0
 10
-89.599998
 20
-62.984398
 40
0.400000
 50
93.000092
 51
180.000000
  0
ARC
  8
0
 10
-89.599998
 20
-67.015594
 40
0.400002
 50
180.000000
 51
266.999908
  0
CIRCLE
  8
0
 10
-70.000000
 20
-65.000000
 40
3.500000
  0
CIRCLE
  8
0
 10
-70.000000
 20
-65.000000
 40
4.000000
  0
ARC
  8
0
 10
-70.000000
 20
-65.000000
 40
17.500004
 50
186.547897
 51
173.452118
  0
ARC
  8
0
 10
-70.000000
 20
-65.000000
 40
7.500002
 50
38.960506
 51
81.039436
  0
ARC
  8
0
 10
-70.000000
 20
-65.000000
 40
7.500000
 50
338.960541
 51
21.039488
  0
ARC
  8
0
 10
-70.000000
 20
-65.000000
 40
7.500000
 50
278.960510
 51
321.039520
  0
ARC
  8
0
 10
-70.000000
 20
-65.000000
 40
7.500000
 50
218.960480
 51
261.039490
  0
ARC
  8
0
 10
-70.000000
 20
-65.000000
 40
7.500000
 50
199.471222
 51
201.039459
  0
ARC
  8
0
 10
-70.000000
 20
-65.000000
 40
7.500000
 50
158.960541
 51
160.528809
  0
ARC
  8
0
 10
-70.000000
 20
-65.000000
 40
7.500002
 50
98.960564
 51
141.039429
  0
CIRCLE
  8
0
 10
-70.000000
 20
-65.000000
 40
6.000000
  0
POINT
  8
0
 10
70.000000
 20
-115.000000
  0
POINT
  8
0
 10
75.500000
 20
-115.000000
  0
LINE
  8
0
 10
63.000000
 20
-130.000000
 11
63.000000
 21
-142.000000
  0
LINE
  8
0
 10
77.000000
 20
-130.000000
 11
77.000000
 21
-142.000000
  0
LINE
  8
0
 10
64.500000
 20
-115.000000
 11
75.500000
 21
-115.000000
  0
LINE
  8
0
 10
76.000000
 20
-115.500000
 11
76.000000
 21
-129.000000
  0
LINE
  8
0
 10
64.000000
 20
-115.500000
 11
64.000000
 21
-129.000000
  0
LINE
  8
0
 10
64.000000
 20
-143.000000
 11
76.000000
 21
-143.000000
  0
LINE
  8
0
 10
64.000000
 20
-129.000000
 11
76.000000
 21
-129.000000
  0
LINE
  8
0
 10
64.000000
 20
-143.000000
 11
64.000000
 21
-145.500000
  0
LINE
  8
0
 10
76.000000
 20
-143.000000
 11
76.000000
 21
-145.500000
  0
LINE
  8
0
 10
64.000000
 20
-115.500000
 11
76.000000
 21
-115.500000
  0
LINE
  8
0
 10
64.000000
 20
-145.500000
 11
76.000000
 21
-145.500000
  0
LINE
  8
0
 10
63.999981
 20
-115.499992
 11
64.499985
 21
-114.999992
  0
LINE
  8
0
 10
75.499992
 20
-114.999992
 11
76.000000
 21
-115.499992
  0
LINE
  8
0
 10
63.999996
 20
-145.500000
 11
64.500000
 21
-146.000000
  0
LINE
  8
0
 10
75.500000
 20
-146.000000
 11
76.000000
 21
-145.500000
  0
LINE
  8
0
 10
63.000000
 20
-130.000000
 11
77.000000
 21
-130.000000
  0
LINE
  8
0
 10
63.000000
 20
-142.000000
 11
77.000000
 21
-142.000000
  0
LINE
  8
0
 10
64.000008
 20
-143.000000
 11
63.000004
 21
-142.000000
  0
LINE
  8
0
 10
75.999985
 20
-142.999985
 11
76.999985
 21
-141.999969
  0
LINE
  8
0
 10
76.000000
 20
-129.000000
 11
76.999992
 21
-129.999985
  0
LINE
  8
0
 10
63.000000
 20
-130.000000
 11
64.000000
 21
-129.000000
  0
LINE
  8
0
 10
70.000000
 20
-113.469521
 11
70.000000
 21
-163.003937
  0
LINE
  8
0
 10
70.000000
 20
-131.000000
 11
70.000000
 21
-141.000000
  0
LINE
  8
0
 10
48.899704
 20
-135.000000
 11
63.732544
 21
-135.000000
  0
LINE
  8
0
 10
58.000000
 20
-137.500000
 11
58.000000
 21
-132.500000
  0
LINE
  8
0
 10
50.000000
 20
-137.015594
 11
50.000000
 21
-132.984406
  0
LINE
  8
0
 10
52.000000
 20
-137.500000
 11
52.000000
 21
-132.500000
  0
LINE
  8
0
 10
54.000000
 20
-137.500000
 11
54.000000
 21
-132.500000
  0
LINE
  8
0
 10
56.000000
 20
-137.500000
 11
56.000000
 21
-132.500000
  0
LINE
  8
0
 10
54.000000
 20
-132.500000
 11
52.000000
 21
-133.227936
  0
LINE
  8
0
 10
56.000000
 20
-132.500000
 11
54.000004
 21
-133.227951
  0
LINE
  8
0
 10
53.999992
 20
-137.500015
 11
51.999992
 21
-136.772064
  0
LINE
  8
0
 10
56.000000
 20
-137.500015
 11
54.000000
 21
-136.772064
  0
LINE
  8
0
 10
57.999992
 20
-137.500015
 11
55.999992
 21
-136.772079
  0
LINE
  8
0
 10
58.000000
 20
-132.500000
 11
56.000000
 21
-133.227936
  0
LINE
  8
0
 10
58.000000
 20
-137.500000
 11
63.000000
 21
-137.500000
  0
LINE
  8
0
 10
58.000000
 20
-132.500000
 11
63.000000
 21
-132.500000
  0
LINE
  8
0
 10
52.000004
 20
-132.500015
 11
50.379070
 21
-132.584976
  0
LINE
  8
0
 10
52.000004
 20
-137.499985
 11
50.379070
 21
-137.415039
  0
LINE
  8
0
 10
62.000000
 20
-148.000000
 11
62.000000
 21
-154.224243
  0
LINE
  8
0
 10
78.000000
 20
-148.000000
 11
78.000000
 21
-154.224243
  0
LINE
  8
0
 10
50.250000
 20
-160.000000
 11
89.750000
 21
-160.000000
  0
LINE
  8
0
 10
63.750000
 20
-146.000000
 11
76.250000
 21
-146.000000
  0
LINE
  8
0
 10
62.000000
 20
-148.000000
 11
78.000000
 21
-148.000000
  0
LINE
  8
0
 10
63.750000
 20
-146.000000
 11
62.000000
 21
-148.000000
  0
LINE
  8
0
 10
76.250000
 20
-146.000000
 11
78.000000
 21
-147.999985
  0
LINE
  8
0
 10
50.000000
 20
-159.566986
 11
50.250000
 21
-160.000000
  0
LINE
  8
0
 10
89.750008
 20
-160.000000
 11
90.000008
 21
-159.566986
  0
LINE
  8
0
 10
50.047741
 20
-159.545746
 11
61.999996
 21
-154.224258
  0
LINE
  8
0
 10
77.999992
 20
-154.224243
 11
90.000008
 21
-159.567001
  0
LINE
  8
0
 10
62.000000
 20
-154.224243
 11
78.000000
 21
-154.224243
  0
LINE
  8
0
 10
50.000000
 20
-159.566986
 11
90.000000
 21
-159.566986
  0
ARC
  8
0
 10
50.400002
 20
-132.984406
 40
0.400008
 50
93.000038
 51
180.000000
  0
ARC
  8
0
 10
50.400002
 20
-137.015594
 40
0.400002
 50
180.000000
 51
266.999847
  0
POLYLINE
  8
0
 66
     1
  0
VERTEX
  8
0
 10
63.000000
 20
-141.000000
  0
VERTEX
  8
0
 10
63.819294
 20
-141.410217
  0
VERTEX
  8
0
 10
64.686333
 20
-141.725754
  0
VERTEX
  8
0
 10
65.585213
 20
-141.928406
  0
VERTEX
  8
0
 10
66.500000
 20
-142.000000
  0
VERTEX
  8
0
 10
67.414787
 20
-141.928406
  0
VERTEX
  8
0
 10
68.313667
 20
-141.725754
  0
VERTEX
  8
0
 10
69.180710
 20
-141.410217
  0
VERTEX
  8
0
 10
70.000000
 20
-141.000000
  0
SEQEND
  0
POLYLINE
  8
0
 66
     1
  0
VERTEX
  8
0
 10
70.000000
 20
-141.000000
  0
VERTEX
  8
0
 10
70.819290
 20
-141.410217
  0
VERTEX
  8
0
 10
71.686333
 20
-141.725754
  0
VERTEX
  8
0
 10
72.585213
 20
-141.928406
  0
VERTEX
  8
0
 10
73.500000
 20
-142.000000
  0
VERTEX
  8
0
 10
74.414787
 20
-141.928406
  0
VERTEX
  8
0
 10
75.313667
 20
-141.725754
  0
VERTEX
  8
0
 10
76.180710
 20
-141.410217
  0
VERTEX
  8
0
 10
77.000000
 20
-141.000000
  0
SEQEND
  0
POLYLINE
  8
0
 66
     1
  0
VERTEX
  8
0
 10
63.000000
 20
-131.000000
  0
VERTEX
  8
0
 10
63.819294
 20
-130.589783
  0
VERTEX
  8
0
 10
64.686333
 20
-130.274246
  0
VERTEX
  8
0
 10
65.585213
 20
-130.071594
  0
VERTEX
  8
0
 10
66.500000
 20
-130.000000
  0
VERTEX
  8
0
 10
67.414787
 20
-130.071594
  0
VERTEX
  8
0
 10
68.313667
 20
-130.274246
  0
VERTEX
  8
0
 10
69.180710
 20
-130.589783
  0
VERTEX
  8
0
 10
70.000000
 20
-131.000000
  0
SEQEND
  0
POLYLINE
  8
0
 66
     1
  0
VERTEX
  8
0
 10
77.000000
 20
-131.000000
  0
VERTEX
  8
0
 10
76.180710
 20
-130.589783
  0
VERTEX
  8
0
 10
75.313667
 20
-130.274246
  0
VERTEX
  8
0
 10
74.414787
 20
-130.071594
  0
VERTEX
  8
0
 10
73.500000
 20
-130.000000
  0
VERTEX
  8
0
 10
72.585213
 20
-130.071594
  0
VERTEX
  8
0
 10
71.686333
 20
-130.274246
  0
VERTEX
  8
0
 10
70.819290
 20
-130.589783
  0
VERTEX
  8
0
 10
70.000000
 20
-131.000000
  0
SEQEND
  0
POINT
  8
0
 10
70.000000
 20
-65.000000
  0
POINT
  8
0
 10
77.000000
 20
-65.000000
  0
LINE
  8
0
 10
70.000000
 20
-43.130280
 11
70.000000
 21
-86.479340
  0
LINE
  8
0
 10
58.000000
 20
-67.500000
 11
58.000000
 21
-62.500000
  0
LINE
  8
0
 10
50.000000
 20
-67.015594
 11
50.000000
 21
-62.984398
  0
LINE
  8
0
 10
52.000000
 20
-67.500000
 11
52.000000
 21
-62.500000
  0
LINE
  8
0
 10
54.000000
 20
-67.500000
 11
54.000000
 21
-62.500000
  0
LINE
  8
0
 10
56.000000
 20
-67.500000
 11
56.000000
 21
-62.500000
  0
LINE
  8
0
 10
54.000000
 20
-62.499992
 11
52.000000
 21
-63.227932
  0
LINE
  8
0
 10
56.000000
 20
-62.499989
 11
54.000004
 21
-63.227928
  0
LINE
  8
0
 10
54.000000
 20
-67.500000
 11
52.000000
 21
-66.772057
  0
LINE
  8
0
 10
55.999996
 20
-67.499992
 11
54.000004
 21
-66.772049
  0
LINE
  8
0
 10
58.000000
 20
-67.499992
 11
56.000004
 21
-66.772057
  0
LINE
  8
0
 10
58.000000
 20
-62.499992
 11
56.000000
 21
-63.227932
  0
LINE
  8
0
 10
58.000000
 20
-67.500000
 11
63.000000
 21
-67.500000
  0
LINE
  8
0
 10
58.000000
 20
-62.500000
 11
63.000000
 21
-62.500000
  0
LINE
  8
0
 10
52.000000
 20
-62.500004
 11
50.379066
 21
-62.584953
  0
LINE
  8
0
 10
52.000000
 20
-67.499992
 11
50.379066
 21
-67.415047
  0
LINE
  8
0
 10
48.513519
 20
-65.000000
 11
91.432648
 21
-65.000000
  0
LINE
  8
0
 10
63.000000
 20
-60.958542
 11
63.000000
 21
-69.041451
  0
LINE
  8
0
 10
77.000000
 20
-60.958542
 11
77.000000
 21
-69.041443
  0
LINE
  8
0
 10
76.999992
 20
-60.958538
 11
70.000000
 21
-56.917088
  0
LINE
  8
0
 10
63.000000
 20
-60.958542
 11
70.000000
 21
-56.917091
  0
LINE
  8
0
 10
70.000008
 20
-73.082909
 11
77.000008
 21
-69.041458
  0
LINE
  8
0
 10
69.999992
 20
-73.082893
 11
62.999996
 21
-69.041443
  0
ARC
  8
0
 10
50.400002
 20
-62.984398
 40
0.400000
 50
93.000092
 51
180.000000
  0
ARC
  8
0
 10
50.400002
 20
-67.015594
 40
0.400002
 50
180.000000
 51
266.999908
  0
CIRCLE
  8
0
 10
70.000000
 20
-65.000000
 40
3.500000
  0
CIRCLE
  8
0
 10
70.000000
 20
-65.000000
 40
4.000000
  0
ARC
  8
0
 10
70.000000
 20
-65.000000
 40
8.000001
 50
331.044952
 51
28.955015
  0
ARC
  8
0
 10
70.000000
 20
-65.000000
 40
20.000002
 50
186.645950
 51
173.354050
  0
ARC
  8
0
 10
70.000000
 20
-65.000000
 40
8.000000
 50
91.045021
 51
148.955017
  0
ARC
  8
0
 10
70.000000
 20
-65.000000
 40
8.000003
 50
31.044998
 51
88.954979
  0
ARC
  8
0
 10
70.000000
 20
-65.000000
 40
8.000003
 50
271.044952
 51
328.955017
  0
ARC
  8
0
 10
70.000000
 20
-65.000000
 40
8.000001
 50
211.044907
 51
268.955048
  0
ARC
  8
0
 10
70.000000
 20
-65.000000
 40
8.000000
 50
198.209961
 51
208.954987
  0
ARC
  8
0
 10
70.000000
 20
-65.000000
 40
7.999998
 50
151.045013
 51
161.790070
  0
CIRCLE
  8
0
 10
70.000000
 20
-65.000000
 40
6.000000
  0
POINT
  8
0
 10
215.000000
 20
-115.000000
  0
POINT
  8
0
 10
220.499985
 20
-115.000000
  0
LINE
  8
0
 10
208.000000
 20
-130.000000
 11
208.000000
 21
-142.000000
  0
LINE
  8
0
 10
222.000000
 20
-130.000000
 11
222.000000
 21
-142.000000
  0
LINE
  8
0
 10
209.500000
 20
-115.000000
 11
220.500000
 21
-115.000000
  0
LINE
  8
0
 10
221.000000
 20
-115.500000
 11
221.000000
 21
-129.000000
  0
LINE
  8
0
 10
209.000000
 20
-115.500000
 11
209.000000
 21
-129.000000
  0
LINE
  8
0
 10
209.000000
 20
-143.000000
 11
221.000000
 21
-143.000000
  0
LINE
  8
0
 10
209.000000
 20
-129.000000
 11
221.000000
 21
-129.000000
  0
LINE
  8
0
 10
209.000000
 20
-143.000000
 11
209.000000
 21
-146.500000
  0
LINE
  8
0
 10
221.000000
 20
-143.000000
 11
221.000000
 21
-146.500000
  0
LINE
  8
0
 10
209.000000
 20
-115.500000
 11
221.000000
 21
-115.500000
  0
LINE
  8
0
 10
209.000000
 20
-146.500000
 11
221.000000
 21
-146.500000
  0
LINE
  8
0
 10
209.000000
 20
-115.499992
 11
209.500000
 21
-115.000000
  0
LINE
  8
0
 10
220.499985
 20
-115.000008
 11
220.999985
 21
-115.500008
  0
LINE
  8
0
 10
209.000000
 20
-146.500000
 11
209.500000
 21
-147.000000
  0
LINE
  8
0
 10
220.499985
 20
-146.999985
 11
220.999985
 21
-146.499985
  0
LINE
  8
0
 10
208.000000
 20
-130.000000
 11
222.000000
 21
-130.000000
  0
LINE
  8
0
 10
208.000000
 20
-142.000000
 11
222.000000
 21
-142.000000
  0
LINE
  8
0
 10
209.000000
 20
-143.000000
 11
208.000015
 21
-142.000000
  0
LINE
  8
0
 10
221.000000
 20
-143.000000
 11
222.000000
 21
-142.000000
  0
LINE
  8
0
 10
221.000000
 20
-129.000000
 11
221.999985
 21
-129.999985
  0
LINE
  8
0
 10
207.999985
 20
-129.999985
 11
208.999985
 21
-128.999985
  0
LINE
  8
0
 10
215.000000
 20
-114.469521
 11
215.000000
 21
-164.403717
  0
LINE
  8
0
 10
215.000000
 20
-131.000000
 11
215.000000
 21
-141.000000
  0
LINE
  8
0
 10
193.899704
 20
-135.000000
 11
208.732544
 21
-135.000000
  0
LINE
  8
0
 10
203.000000
 20
-137.500000
 11
203.000000
 21
-132.500000
  0
LINE
  8
0
 10
195.000000
 20
-137.015594
 11
195.000000
 21
-132.984406
  0
LINE
  8
0
 10
197.000000
 20
-137.500000
 11
197.000000
 21
-132.500000
  0
LINE
  8
0
 10
199.000000
 20
-137.500000
 11
199.000000
 21
-132.500000
  0
LINE
  8
0
 10
201.000000
 20
-137.500000
 11
201.000000
 21
-132.500000
  0
LINE
  8
0
 10
199.000000
 20
-132.500000
 11
197.000000
 21
-133.227951
  0
LINE
  8
0
 10
200.999985
 20
-132.499985
 11
198.999985
 21
-133.227921
  0
LINE
  8
0
 10
199.000000
 20
-137.500000
 11
197.000000
 21
-136.772064
  0
LINE
  8
0
 10
201.000000
 20
-137.500000
 11
199.000000
 21
-136.772064
  0
LINE
  8
0
 10
202.999985
 20
-137.500000
 11
200.999985
 21
-136.772064
  0
LINE
  8
0
 10
203.000000
 20
-132.499985
 11
201.000000
 21
-133.227936
  0
LINE
  8
0
 10
203.000000
 20
-137.500000
 11
208.000000
 21
-137.500000
  0
LINE
  8
0
 10
203.000000
 20
-132.500000
 11
208.000000
 21
-132.500000
  0
LINE
  8
0
 10
197.000000
 20
-132.500000
 11
195.379074
 21
-132.584946
  0
LINE
  8
0
 10
197.000015
 20
-137.500000
 11
195.379059
 21
-137.415039
  0
LINE
  8
0
 10
203.000000
 20
-149.000000
 11
203.000000
 21
-155.000000
  0
LINE
  8
0
 10
227.000000
 20
-149.000000
 11
227.000000
 21
-155.000000
  0
LINE
  8
0
 10
203.000000
 20
-155.000000
 11
227.000000
 21
-155.000000
  0
LINE
  8
0
 10
203.000000
 20
-155.000000
 11
227.000000
 21
-155.000000
  0
LINE
  8
0
 10
190.000000
 20
-162.000000
 11
240.000000
 21
-162.000000
  0
LINE
  8
0
 10
206.500000
 20
-147.000000
 11
223.500000
 21
-147.000000
  0
LINE
  8
0
 10
203.000000
 20
-149.000000
 11
227.000000
 21
-149.000000
  0
LINE
  8
0
 10
203.000015
 20
-149.000000
 11
206.500015
 21
-147.000000
  0
LINE
  8
0
 10
223.500015
 20
-147.000015
 11
227.000015
 21
-149.000015
  0
LINE
  8
0
 10
189.749985
 20
-161.567001
 11
189.999985
 21
-162.000015
  0
LINE
  8
0
 10
240.000015
 20
-162.000000
 11
240.250015
 21
-161.566986
  0
LINE
  8
0
 10
202.999985
 20
-155.000000
 11
189.750000
 21
-161.566986
  0
LINE
  8
0
 10
226.999969
 20
-155.000000
 11
240.250000
 21
-161.566986
  0
LINE
  8
0
 10
189.750000
 20
-161.566986
 11
240.250000
 21
-161.566986
  0
ARC
  8
0
 10
195.399994
 20
-132.984406
 40
0.400008
 50
93.000038
 51
180.000000
  0
ARC
  8
0
 10
195.399994
 20
-137.015594
 40
0.399994
 50
180.000000
 51
266.999847
  0
POLYLINE
  8
0
 66
     1
  0
VERTEX
  8
0
 10
208.000000
 20
-141.000000
  0
VERTEX
  8
0
 10
208.819290
 20
-141.410217
  0
VERTEX
  8
0
 10
209.686340
 20
-141.725754
  0
VERTEX
  8
0
 10
210.585205
 20
-141.928406
  0
VERTEX
  8
0
 10
211.500000
 20
-142.000000
  0
VERTEX
  8
0
 10
212.414795
 20
-141.928406
  0
VERTEX
  8
0
 10
213.313660
 20
-141.725754
  0
VERTEX
  8
0
 10
214.180710
 20
-141.410217
  0
VERTEX
  8
0
 10
215.000000
 20
-141.000000
  0
SEQEND
  0
POLYLINE
  8
0
 66
     1
  0
VERTEX
  8
0
 10
215.000000
 20
-141.000000
  0
VERTEX
  8
0
 10
215.819290
 20
-141.410217
  0
VERTEX
  8
0
 10
216.686340
 20
-141.725754
  0
VERTEX
  8
0
 10
217.585205
 20
-141.928406
  0
VERTEX
  8
0
 10
218.500000
 20
-142.000000
  0
VERTEX
  8
0
 10
219.414795
 20
-141.928406
  0
VERTEX
  8
0
 10
220.313660
 20
-141.725754
  0
VERTEX
  8
0
 10
221.180710
 20
-141.410217
  0
VERTEX
  8
0
 10
222.000000
 20
-141.000000
  0
SEQEND
  0
POLYLINE
  8
0
 66
     1
  0
VERTEX
  8
0
 10
208.000000
 20
-131.000000
  0
VERTEX
  8
0
 10
208.819290
 20
-130.589783
  0
VERTEX
  8
0
 10
209.686340
 20
-130.274246
  0
VERTEX
  8
0
 10
210.585205
 20
-130.071594
  0
VERTEX
  8
0
 10
211.500000
 20
-130.000000
  0
VERTEX
  8
0
 10
212.414795
 20
-130.071594
  0
VERTEX
  8
0
 10
213.313660
 20
-130.274246
  0
VERTEX
  8
0
 10
214.180710
 20
-130.589783
  0
VERTEX
  8
0
 10
215.000000
 20
-131.000000
  0
SEQEND
  0
POLYLINE
  8
0
 66
     1
  0
VERTEX
  8
0
 10
222.000000
 20
-131.000000
  0
VERTEX
  8
0
 10
221.180710
 20
-130.589783
  0
VERTEX
  8
0
 10
220.313660
 20
-130.274246
  0
VERTEX
  8
0
 10
219.414795
 20
-130.071594
  0
VERTEX
  8
0
 10
218.500000
 20
-130.000000
  0
VERTEX
  8
0
 10
217.585205
 20
-130.071594
  0
VERTEX
  8
0
 10
216.686340
 20
-130.274246
  0
VERTEX
  8
0
 10
215.819290
 20
-130.589783
  0
VERTEX
  8
0
 10
215.000000
 20
-131.000000
  0
SEQEND
  0
POINT
  8
0
 10
215.000000
 20
-65.000000
  0
POINT
  8
0
 10
222.000000
 20
-65.000000
  0
LINE
  8
0
 10
215.000000
 20
-36.791542
 11
215.000000
 21
-92.213364
  0
LINE
  8
0
 10
203.000000
 20
-67.500000
 11
203.000000
 21
-62.500000
  0
LINE
  8
0
 10
195.000000
 20
-67.015594
 11
195.000000
 21
-62.984398
  0
LINE
  8
0
 10
197.000000
 20
-67.500000
 11
197.000000
 21
-62.500000
  0
LINE
  8
0
 10
199.000000
 20
-67.500000
 11
199.000000
 21
-62.500000
  0
LINE
  8
0
 10
201.000000
 20
-67.500000
 11
201.000000
 21
-62.500000
  0
LINE
  8
0
 10
199.000015
 20
-62.500004
 11
197.000015
 21
-63.227943
  0
LINE
  8
0
 10
200.999985
 20
-62.499992
 11
199.000000
 21
-63.227928
  0
LINE
  8
0
 10
199.000015
 20
-67.500000
 11
197.000000
 21
-66.772057
  0
LINE
  8
0
 10
201.000000
 20
-67.499992
 11
199.000000
 21
-66.772049
  0
LINE
  8
0
 10
203.000000
 20
-67.499992
 11
201.000000
 21
-66.772057
  0
LINE
  8
0
 10
203.000015
 20
-62.499989
 11
201.000015
 21
-63.227932
  0
LINE
  8
0
 10
203.000000
 20
-67.500000
 11
208.000000
 21
-67.500000
  0
LINE
  8
0
 10
203.000000
 20
-62.500000
 11
208.000000
 21
-62.500000
  0
LINE
  8
0
 10
196.999985
 20
-62.499992
 11
195.379044
 21
-62.584942
  0
LINE
  8
0
 10
197.000000
 20
-67.500000
 11
195.379059
 21
-67.415054
  0
LINE
  8
0
 10
187.469772
 20
-65.000000
 11
242.621674
 21
-65.000000
  0
LINE
  8
0
 10
208.000000
 20
-60.958542
 11
208.000000
 21
-69.041451
  0
LINE
  8
0
 10
222.000000
 20
-60.958542
 11
222.000000
 21
-69.041443
  0
LINE
  8
0
 10
222.000015
 20
-60.958546
 11
215.000015
 21
-56.917095
  0
LINE
  8
0
 10
208.000000
 20
-60.958565
 11
215.000015
 21
-56.917107
  0
LINE
  8
0
 10
215.000000
 20
-73.082916
 11
222.000015
 21
-69.041458
  0
LINE
  8
0
 10
215.000015
 20
-73.082886
 11
208.000015
 21
-69.041435
  0
ARC
  8
0
 10
195.399994
 20
-62.984398
 40
0.400000
 50
93.000092
 51
180.000000
  0
ARC
  8
0
 10
195.399994
 20
-67.015594
 40
0.399994
 50
180.000000
 51
266.999908
  0
CIRCLE
  8
0
 10
215.000000
 20
-65.000000
 40
3.500000
  0
CIRCLE
  8
0
 10
215.000000
 20
-65.000000
 40
4.000000
  0
ARC
  8
0
 10
215.000000
 20
-65.000000
 40
8.500000
 50
197.104630
 51
162.895386
  0
CIRCLE
  8
0
 10
215.000000
 20
-65.000000
 40
25.000000
  0
ARC
  8
0
 10
215.000000
 20
-65.000000
 40
11.999998
 50
192.024658
 51
167.975311
  0
CIRCLE
  8
0
 10
215.000000
 20
-65.000000
 40
6.000000
  0
ENDSEC
  0
EOF
