  0
SECTION
  2
HEADER
  0
ENDSEC
  0
SECTION
  2
TABLES
  0
TABLE
  2
LTYPE
 70
     4
  0
LTYPE
  2
CONTINUOUS
 70
    64
  3
Solid line
 72
    65
 73
     0
 40
0.000000
  0
LTYPE
  2
DASHED
 70
    64
  3
__ __ __ __ __ __ __ __ __ __ __ __ __ __ __
 72
    65
 73
     2
 40
3.500000
 49
2.000000
 49
-1.500000
  0
LTYPE
  2
CENTER
 70
    64
  3
____ _ ____ _ ____ _ ____ _ ____ _ ____ _ ____
 72
    65
 73
     4
 40
17.500000
 49
13.000000
 49
-1.500000
 49
1.500000
 49
-1.500000
  0
LTYPE
  2
PHANTOM
 70
    64
  3
_____ _ _ _____ _ _ _____ _ _ _____ _ _ ____  
 72
    65
 73
     6
 40
15.500000
 49
8.000000
 49
-1.500000
 49
1.500000
 49
-1.500000
 49
1.500000
 49
-1.500000
  0
LTYPE
  2
DASHED1
 70
    64
  3
__ __ __ __ __ __ __ __ __ __ __ __ __ __ __
 72
    65
 73
     2
 40
1.500000
 49
1.000000
 49
-0.500000
  0
LTYPE
  2
DASHED2
 70
    64
  3
__ __ __ __ __ __ __ __ __ __ __ __ __ __ __
 72
    65
 73
     2
 40
3.500000
 49
2.500000
 49
-1.000000
  0
LTYPE
  2
DASHED3
 70
    64
  3
__ __ __ __ __ __ __ __ __ __ __ __ __ __ __
 72
    65
 73
     2
 40
6.000000
 49
4.000000
 49
-2.000000
  0
LTYPE
  2
DASHED4
 70
    64
  3
__ __ __ __ __ __ __ __ __ __ __ __ __ __ __
 72
    65
 73
     2
 40
12.000000
 49
10.000000
 49
-2.000000
  0
LTYPE
  2
DASHED5
 70
    64
  3
__ __ __ __ __ __ __ __ __ __ __ __ __ __ __
 72
    65
 73
     2
 40
17.000000
 49
15.000000
 49
-2.000000
  0
LTYPE
  2
DASHED6
 70
    64
  3
__ __ __ __ __ __ __ __ __ __ __ __ __ __ __
 72
    65
 73
     2
 40
29.000000
 49
27.000000
 49
-2.000000
  0
LTYPE
  2
PHANTOM1
 70
    64
  3
_____ _ _ _____ _ _ _____ _ _ _____ _ _ ____  
 72
    65
 73
     6
 40
31.000000
 49
25.000000
 49
-1.500000
 49
1.000000
 49
-1.000000
 49
1.000000
 49
-1.500000
  0
LTYPE
  2
PHANTOM2
 70
    64
  3
_____ _ _ _____ _ _ _____ _ _ _____ _ _ ____  
 72
    65
 73
     6
 40
36.000000
 49
27.000000
 49
-1.500000
 49
2.500000
 49
-1.000000
 49
2.500000
 49
-1.500000
  0
LTYPE
  2
PHANTOM3
 70
    64
  3
_____ _ _ _____ _ _ _____ _ _ _____ _ _ ____  
 72
    65
 73
     6
 40
78.000000
 49
64.000000
 49
-2.000000
 49
4.000000
 49
-2.000000
 49
4.000000
 49
-2.000000
  0
LTYPE
  2
CENTER1
 70
    64
  3
____ _ ____ _ ____ _ ____ _ ____ _ ____ _ ____
 72
    65
 73
     4
 40
19.000000
 49
14.000000
 49
-1.000000
 49
3.000000
 49
-1.000000
  0
LTYPE
  2
CENTER2
 70
    64
  3
____ _ ____ _ ____ _ ____ _ ____ _ ____ _ ____
 72
    65
 73
     4
 40
28.500000
 49
25.000000
 49
-1.000000
 49
1.500000
 49
-1.000000
  0
LTYPE
  2
CENTER3
 70
    64
  3
____ _ ____ _ ____ _ ____ _ ____ _ ____ _ ____
 72
    65
 73
     4
 40
31.500000
 49
27.000000
 49
-1.000000
 49
2.500000
 49
-1.000000
  0
LTYPE
  2
CENTER4
 70
    64
  3
____ _ ____ _ ____ _ ____ _ ____ _ ____ _ ____
 72
    65
 73
     4
 40
50.000000
 49
45.000000
 49
-1.000000
 49
3.000000
 49
-1.000000
  0
LTYPE
  2
CENTER5
 70
    64
  3
____ _ ____ _ ____ _ ____ _ ____ _ ____ _ ____
 72
    65
 73
     4
 40
100.000000
 49
92.000000
 49
-2.000000
 49
4.000000
 49
-2.000000
  0
LTYPE
  2
SBK1
 70
    64
  3
______ _ _ _ ______ _ _ _ ______ _ _ _ _____  
 72
    65
 73
     8
 40
60.500000
 49
45.000000
 49
-2.000000
 49
2.500000
 49
-2.000000
 49
2.500000
 49
-2.000000
 49
2.500000
 49
-2.000000
  0
LTYPE
  2
SBK2
 70
    64
  3
______ _ _ _ ______ _ _ _ ______ _ _ _ _____  
 72
    65
 73
     8
 40
84.000000
 49
64.000000
 49
-2.000000
 49
4.000000
 49
-2.000000
 49
4.000000
 49
-2.000000
 49
4.000000
 49
-2.000000
  0
LTYPE
  2
STCH
 70
    64
  3
__ __ __ __ __ __ __ __ __ __ __ __ __ __ __
 72
    65
 73
     2
 40
3.000000
 49
1.000000
 49
-2.000000
  0
LTYPE
  2
MTCH
 70
    64
  3
_____ _ _ _____ _ _ _____ _ _ _____ _ _ ____  
 72
    65
 73
     6
 40
80.000000
 49
66.000000
 49
-2.000000
 49
4.000000
 49
-2.000000
 49
4.000000
 49
-2.000000
  0
ENDTAB
  0
TABLE
  2
LAYER
 70
     1
  0
LAYER
  2
0
 70
     0
 62
     7
  6
CONTINUOUS
  0
ENDTAB
  0
TABLE
  2
STYLE
 70
     1
  0
STYLE
  2
STANDARD
 70
     0
 40
0.000000
 41
1.000000
 50
0.000000
 71
     0
 42
0.200000
  3
txt
  4
BIGFONT
  0
ENDTAB
  0
TABLE
  2
VIEW
 70
     0
  0
ENDTAB
  0
ENDSEC
  0
SECTION
  2
BLOCKS
  0
ENDSEC
  0
SECTION
  2
ENTITIES
  0
LINE
  8
0
 10
118.527802
 20
118.298965
 11
194.800003
 21
118.298965
  0
LINE
  8
0
 10
118.527802
 20
132.600006
 11
118.527802
 21
118.298965
  0
LINE
  8
0
 10
-117.977806
 20
118.298965
 11
-117.977806
 21
132.600006
  0
LINE
  8
0
 10
-194.250000
 20
118.298965
 11
-117.977806
 21
118.298965
  0
LINE
  8
0
 10
-194.250000
 20
132.600006
 11
194.800003
 21
132.600006
  0
LINE
  8
0
 10
194.800003
 20
132.600006
 11
194.800003
 21
-133.500000
  0
LINE
  8
0
 10
-194.250000
 20
132.600006
 11
-194.250000
 21
-133.500000
  0
LINE
  8
0
 10
-194.250000
 20
-133.500000
 11
194.800003
 21
-133.500000
  0
LINE
  8
0
 10
118.527802
 20
-119.198959
 11
194.800003
 21
-119.198959
  0
LINE
  8
0
 10
210.000000
 20
148.500000
 11
210.000000
 21
-148.500000
  0
LINE
  8
0
 10
-210.000000
 20
148.500000
 11
-210.000000
 21
-148.500000
  0
LINE
  8
0
 10
-210.000000
 20
148.500000
 11
210.000000
 21
148.500000
  0
LINE
  8
0
 10
-210.000000
 20
-148.500000
 11
210.000000
 21
-148.500000
  0
LINE
  8
0
 10
118.527802
 20
-119.198959
 11
118.527802
 21
-133.500000
  0
LINE
  8
0
 10
-194.250000
 20
-43.500000
 11
194.800003
 21
-43.500000
  0
LINE
  8
0
 10
-194.250000
 20
41.500000
 11
194.800003
 21
41.500000
  0
LINE
  8
0
 10
-194.250000
 20
51.500000
 11
194.800003
 21
51.500000
  0
LINE
  8
0
 10
-194.250000
 20
-33.500000
 11
194.800003
 21
-33.500000
  0
LINE
  8
0
 10
-194.250000
 20
-123.500000
 11
118.527802
 21
-123.500000
  0
LINE
  8
0
 10
-24.250000
 20
-43.500000
 11
-24.250000
 21
-133.500000
  0
LINE
  8
0
 10
-4.250000
 20
41.500000
 11
-4.250000
 21
-43.500000
  0
LINE
  8
0
 10
-94.250000
 20
132.600006
 11
-94.250000
 21
41.500000
  0
LINE
  8
0
 10
25.750000
 20
132.600006
 11
25.750000
 21
41.500000
  0
LINE
  8
0
 10
-4.250000
 20
41.500000
 11
-4.250000
 21
-43.500000
  0
TEXT
  8
0
 10
122.724205
 20
122.631119
 40
4.242641
  1
DATE : JUN ,1992
 50
0.000000
 41
1.052631
 51
0.000000
  7
STANDARD
  0
TEXT
  8
0
 10
-181.578186
 20
121.949493
 40
5.000000
  1
VACUUM PAD
 50
0.000000
 41
1.052632
 51
0.000000
  7
STANDARD
  0
TEXT
  8
0
 10
123.699844
 20
-129.849472
 40
5.000000
  1
KOGANEI CORP.
 50
0.000000
 41
1.052632
 51
15.000000
  7
STANDARD
  0
TEXT
  8
0
 10
-127.571251
 20
-41.099998
 40
4.000000
  1
MODEL : KP-100
 50
0.000000
 41
1.052632
 51
0.000000
  7
STANDARD
  0
TEXT
  8
0
 10
-60.571251
 20
43.900002
 40
4.000000
  1
MODEL : KP-80
 50
0.000000
 41
1.052632
 51
0.000000
  7
STANDARD
  0
TEXT
  8
0
 10
84.428749
 20
43.900002
 40
4.000000
  1
MODEL : KP-95
 50
0.000000
 41
1.052632
 51
0.000000
  7
STANDARD
  0
TEXT
  8
0
 10
-170.571259
 20
43.900002
 40
4.000000
  1
MODEL : KP-60
 50
0.000000
 41
1.052632
 51
0.000000
  7
STANDARD
  0
TEXT
  8
0
 10
67.428749
 20
-41.099998
 40
4.000000
  1
MODEL : KP-120
 50
0.000000
 41
1.052632
 51
0.000000
  7
STANDARD
  0
TEXT
  8
0
 10
-137.571259
 20
-131.100006
 40
4.000000
  1
MODEL : KP-150
 50
0.000000
 41
1.052632
 51
0.000000
  7
STANDARD
  0
TEXT
  8
0
 10
37.428749
 20
-131.100006
 40
4.000000
  1
MODEL : KP-200
 50
0.000000
 41
1.052632
 51
0.000000
  7
STANDARD
  0
POINT
  8
0
 10
-144.250000
 20
92.600006
  0
POINT
  8
0
 10
-114.000000
 20
92.600006
  0
LINE
  8
0
 10
-144.250000
 20
97.600006
 11
-144.250000
 21
72.600006
  0
LINE
  8
0
 10
-114.000000
 20
92.600006
 11
-114.000000
 21
91.100006
  0
LINE
  8
0
 10
-114.250000
 20
90.850006
 11
-114.000000
 21
91.100006
  0
LINE
  8
0
 10
-114.250000
 20
77.600006
 11
-113.684311
 21
78.165695
  0
LINE
  8
0
  6
DASHED
 10
-122.910255
 20
82.600006
 11
-114.250000
 21
77.600006
  0
LINE
  8
0
 10
-116.977203
 20
81.458588
 11
-113.684311
 21
78.165688
  0
LINE
  8
0
 10
-114.250000
 20
90.850006
 11
-114.250000
 21
85.600006
  0
LINE
  8
0
 10
-116.977203
 20
82.872795
 11
-114.250000
 21
85.600006
  0
LINE
  8
0
  6
DASHED
 10
-144.250000
 20
85.600006
 11
-117.250000
 21
85.600006
  0
LINE
  8
0
  6
DASHED
 10
-141.250000
 20
80.600006
 11
-125.250000
 21
80.600006
  0
LINE
  8
0
  6
DASHED
 10
-131.250000
 20
85.600006
 11
-131.250000
 21
82.600006
  0
LINE
  8
0
  6
DASHED
 10
-117.250000
 20
88.600006
 11
-117.250000
 21
85.600006
  0
LINE
  8
0
  6
DASHED
 10
-120.099998
 20
92.600006
 11
-120.099998
 21
88.600006
  0
LINE
  8
0
  6
DASHED
 10
-125.250000
 20
82.600006
 11
-125.250000
 21
80.600006
  0
LINE
  8
0
  6
DASHED
 10
-141.250000
 20
82.600006
 11
-141.250000
 21
80.600006
  0
LINE
  8
0
 10
-114.250000
 20
77.600006
 11
-174.250000
 21
77.600006
  0
LINE
  8
0
 10
-114.000000
 20
92.600006
 11
-174.500000
 21
92.600006
  0
LINE
  8
0
 10
-174.500000
 20
92.600006
 11
-174.500000
 21
91.100006
  0
LINE
  8
0
 10
-174.250000
 20
90.850006
 11
-174.500000
 21
91.100006
  0
LINE
  8
0
 10
-174.250000
 20
77.600006
 11
-174.815689
 21
78.165695
  0
LINE
  8
0
  6
DASHED
 10
-165.589752
 20
82.600006
 11
-174.250000
 21
77.600006
  0
LINE
  8
0
 10
-171.522797
 20
81.458580
 11
-174.815689
 21
78.165688
  0
LINE
  8
0
 10
-174.250000
 20
90.850006
 11
-174.250000
 21
85.600006
  0
LINE
  8
0
 10
-171.522797
 20
82.872803
 11
-174.250000
 21
85.600006
  0
LINE
  8
0
  6
DASHED
 10
-117.250000
 20
88.600006
 11
-171.250000
 21
88.600006
  0
LINE
  8
0
  6
DASHED
 10
-144.250000
 20
85.600006
 11
-171.250000
 21
85.600006
  0
LINE
  8
0
  6
DASHED
 10
-147.250000
 20
80.600006
 11
-163.250000
 21
80.600006
  0
LINE
  8
0
  6
DASHED
 10
-122.910255
 20
82.600006
 11
-165.589752
 21
82.600006
  0
LINE
  8
0
  6
DASHED
 10
-157.250000
 20
85.600006
 11
-157.250000
 21
82.600006
  0
LINE
  8
0
  6
DASHED
 10
-171.250000
 20
88.600006
 11
-171.250000
 21
85.600006
  0
LINE
  8
0
  6
DASHED
 10
-168.399994
 20
92.600006
 11
-168.399994
 21
88.600006
  0
LINE
  8
0
  6
DASHED
 10
-163.250000
 20
82.600006
 11
-163.250000
 21
80.600006
  0
LINE
  8
0
  6
DASHED
 10
-147.250000
 20
82.600006
 11
-147.250000
 21
80.600006
  0
LINE
  8
0
 10
-114.000000
 20
91.100006
 11
-174.500000
 21
91.100006
  0
LINE
  8
0
 10
-170.010010
 20
82.165695
 11
-118.629997
 21
82.165695
  0
LINE
  8
0
 10
-114.250000
 20
85.600006
 11
-174.250000
 21
85.600006
  0
LINE
  8
0
 10
-174.815689
 20
78.165695
 11
-113.684311
 21
78.165695
  0
ARC
  8
0
 10
-116.270096
 20
82.165695
 40
0.999996
 50
135.000305
 51
225.000000
  0
ARC
  8
0
 10
-172.229904
 20
82.165695
 40
1.000001
 50
315.000000
 51
44.999691
  0
POINT
  8
0
 10
-34.250000
 20
92.600006
  0
POINT
  8
0
 10
-4.000000
 20
92.600006
  0
LINE
  8
0
 10
-34.250000
 20
97.600006
 11
-34.250000
 21
69.600006
  0
LINE
  8
0
 10
-4.000000
 20
92.600006
 11
-4.000000
 21
91.100006
  0
LINE
  8
0
 10
-4.249996
 20
90.850006
 11
-3.999996
 21
91.100006
  0
LINE
  8
0
 10
-2.544304
 20
81.384361
 11
6.324413
 21
75.174416
  0
LINE
  8
0
 10
-4.250000
 20
90.850006
 11
-4.250000
 21
84.660965
  0
LINE
  8
0
  6
DASHED
 10
-9.950884
 20
82.600006
 11
5.750000
 21
74.600006
  0
LINE
  8
0
 10
5.750008
 20
74.600006
 11
6.324421
 21
75.174416
  0
LINE
  8
0
  6
DASHED
 10
-34.250000
 20
82.600006
 11
-9.950884
 21
82.600006
  0
LINE
  8
0
  6
DASHED
 10
-31.250000
 20
79.600006
 11
-14.250000
 21
79.600006
  0
LINE
  8
0
  6
DASHED
 10
-10.100000
 20
92.600006
 11
-10.100000
 21
89.493652
  0
LINE
  8
0
  6
DASHED
 10
-21.250000
 20
85.600006
 11
-21.250000
 21
82.600006
  0
LINE
  8
0
  6
DASHED
 10
-7.250000
 20
88.600006
 11
-7.250000
 21
85.600006
  0
LINE
  8
0
  6
DASHED
 10
-31.250000
 20
82.600006
 11
-31.250000
 21
79.600006
  0
LINE
  8
0
  6
DASHED
 10
-14.250000
 20
82.600006
 11
-14.250000
 21
79.600006
  0
LINE
  8
0
 10
5.750000
 20
74.600006
 11
-74.250000
 21
74.600006
  0
LINE
  8
0
 10
-4.000000
 20
92.600006
 11
-64.500000
 21
92.600006
  0
LINE
  8
0
 10
-64.500000
 20
92.600006
 11
-64.500000
 21
91.100006
  0
LINE
  8
0
 10
-64.250000
 20
90.850006
 11
-64.500000
 21
91.100006
  0
LINE
  8
0
 10
-65.955704
 20
81.384361
 11
-74.824417
 21
75.174423
  0
LINE
  8
0
 10
-64.250000
 20
90.850006
 11
-64.250000
 21
84.660965
  0
LINE
  8
0
  6
DASHED
 10
-58.549118
 20
82.600006
 11
-74.250000
 21
74.600006
  0
LINE
  8
0
 10
-74.249985
 20
74.600021
 11
-74.824402
 21
75.174431
  0
LINE
  8
0
  6
DASHED
 10
-34.250000
 20
82.600006
 11
-58.549118
 21
82.600006
  0
LINE
  8
0
  6
DASHED
 10
-7.250000
 20
88.600006
 11
-61.250000
 21
88.600006
  0
LINE
  8
0
  6
DASHED
 10
-7.250000
 20
85.600006
 11
-61.250000
 21
85.600006
  0
LINE
  8
0
  6
DASHED
 10
-37.250000
 20
79.600006
 11
-54.250000
 21
79.600006
  0
LINE
  8
0
  6
DASHED
 10
-58.400002
 20
92.600006
 11
-58.400002
 21
89.493652
  0
LINE
  8
0
  6
DASHED
 10
-47.250000
 20
85.600006
 11
-47.250000
 21
82.600006
  0
LINE
  8
0
  6
DASHED
 10
-61.250000
 20
88.600006
 11
-61.250000
 21
85.600006
  0
LINE
  8
0
  6
DASHED
 10
-37.250000
 20
82.600006
 11
-37.250000
 21
79.600006
  0
LINE
  8
0
  6
DASHED
 10
-54.250000
 20
82.600006
 11
-54.250000
 21
79.600006
  0
LINE
  8
0
 10
-64.500000
 20
91.100006
 11
-4.000000
 21
91.100006
  0
LINE
  8
0
 10
-5.736664
 20
82.578705
 11
-62.576668
 21
82.578705
  0
LINE
  8
0
 10
-74.824417
 20
75.174416
 11
6.324413
 21
75.174416
  0
ARC
  8
0
 10
-0.250000
 20
84.660965
 40
4.000000
 50
179.999893
 51
234.999939
  0
ARC
  8
0
 10
-68.250000
 20
84.660965
 40
3.999995
 50
305.000000
 51
0.000000
  0
POINT
  8
0
 10
110.750000
 20
92.600006
  0
POINT
  8
0
 10
141.000000
 20
92.600006
  0
LINE
  8
0
 10
110.750000
 20
97.600006
 11
110.750000
 21
66.600006
  0
LINE
  8
0
 10
141.000000
 20
92.600006
 11
141.000000
 21
91.100006
  0
LINE
  8
0
 10
140.750000
 20
90.850006
 11
141.000000
 21
91.100006
  0
LINE
  8
0
 10
158.250000
 20
71.600006
 11
158.972900
 21
72.322906
  0
LINE
  8
0
  6
DASHED
 10
134.660431
 20
82.600006
 11
158.250000
 21
71.600006
  0
LINE
  8
0
 10
142.571442
 20
82.974136
 11
158.972900
 21
72.322906
  0
LINE
  8
0
 10
140.750000
 20
90.850006
 11
140.750000
 21
86.328827
  0
LINE
  8
0
  6
DASHED
 10
113.750000
 20
79.100006
 11
130.750000
 21
79.100006
  0
LINE
  8
0
  6
DASHED
 10
137.750000
 20
88.600006
 11
137.750000
 21
85.600006
  0
LINE
  8
0
  6
DASHED
 10
123.750000
 20
85.600006
 11
123.750000
 21
82.600006
  0
LINE
  8
0
  6
DASHED
 10
113.750000
 20
82.600006
 11
113.750000
 21
79.100006
  0
LINE
  8
0
  6
DASHED
 10
130.750000
 20
82.600006
 11
130.750000
 21
79.100006
  0
LINE
  8
0
  6
DASHED
 10
134.899994
 20
92.600006
 11
134.899994
 21
88.600006
  0
LINE
  8
0
 10
158.250000
 20
71.600006
 11
63.250000
 21
71.600006
  0
LINE
  8
0
 10
141.000000
 20
92.600006
 11
80.500000
 21
92.600006
  0
LINE
  8
0
 10
80.500000
 20
92.600006
 11
80.500000
 21
91.100006
  0
LINE
  8
0
 10
80.750000
 20
90.850006
 11
80.500000
 21
91.100006
  0
LINE
  8
0
 10
63.249996
 20
71.600006
 11
62.527092
 21
72.322906
  0
LINE
  8
0
  6
DASHED
 10
86.839569
 20
82.600006
 11
63.249992
 21
71.600006
  0
LINE
  8
0
 10
78.928551
 20
82.974144
 11
62.527088
 21
72.322906
  0
LINE
  8
0
 10
80.750000
 20
90.850006
 11
80.750000
 21
86.328827
  0
LINE
  8
0
  6
DASHED
 10
134.660431
 20
82.600006
 11
86.839577
 21
82.600006
  0
LINE
  8
0
  6
DASHED
 10
137.750000
 20
88.600006
 11
83.750000
 21
88.600006
  0
LINE
  8
0
  6
DASHED
 10
137.750000
 20
85.600006
 11
83.750000
 21
85.600006
  0
LINE
  8
0
  6
DASHED
 10
107.750000
 20
79.100006
 11
90.750000
 21
79.100006
  0
LINE
  8
0
  6
DASHED
 10
83.750000
 20
88.600006
 11
83.750000
 21
85.600006
  0
LINE
  8
0
  6
DASHED
 10
97.750000
 20
85.600006
 11
97.750000
 21
82.600006
  0
LINE
  8
0
  6
DASHED
 10
107.750000
 20
82.600006
 11
107.750000
 21
79.100006
  0
LINE
  8
0
  6
DASHED
 10
90.750000
 20
82.600006
 11
90.750000
 21
79.100006
  0
LINE
  8
0
  6
DASHED
 10
86.599998
 20
92.600006
 11
86.599998
 21
88.600006
  0
LINE
  8
0
 10
81.566666
 20
84.156998
 11
139.966675
 21
84.156998
  0
LINE
  8
0
 10
80.500000
 20
91.100006
 11
141.000000
 21
91.100006
  0
LINE
  8
0
 10
158.972900
 20
72.322906
 11
62.527096
 21
72.322906
  0
ARC
  8
0
 10
144.750000
 20
86.328827
 40
4.000000
 50
180.000000
 51
236.999985
  0
ARC
  8
0
 10
76.750000
 20
86.328827
 40
4.000008
 50
302.999969
 51
0.000000
  0
POINT
  8
0
 10
-99.250000
 20
11.500000
  0
POINT
  8
0
 10
-69.000000
 20
11.500000
  0
LINE
  8
0
 10
-99.250000
 20
16.500000
 11
-99.250000
 21
-15.500000
  0
LINE
  8
0
 10
-69.000000
 20
11.500000
 11
-69.000000
 21
10.000000
  0
LINE
  8
0
 10
-69.250000
 20
9.749998
 11
-69.000000
 21
9.999998
  0
LINE
  8
0
 10
-49.249992
 20
-10.500002
 11
-48.527088
 21
-9.777100
  0
LINE
  8
0
  6
DASHED
 10
-74.984085
 20
1.500001
 11
-49.249996
 21
-10.500000
  0
LINE
  8
0
 10
-67.428551
 20
2.497656
 11
-48.527096
 21
-9.777092
  0
LINE
  8
0
  6
DASHED
 10
-95.250000
 20
-2.500000
 11
-78.250000
 21
-2.500000
  0
LINE
  8
0
  6
DASHED
 10
-95.250000
 20
1.500000
 11
-95.250000
 21
-2.500000
  0
LINE
  8
0
  6
DASHED
 10
-86.250000
 20
4.500000
 11
-86.250000
 21
1.500000
  0
LINE
  8
0
  6
DASHED
 10
-78.250000
 20
1.500000
 11
-78.250000
 21
-2.500000
  0
LINE
  8
0
  6
DASHED
 10
-72.250000
 20
7.500000
 11
-72.250000
 21
4.500000
  0
LINE
  8
0
  6
DASHED
 10
-75.099998
 20
11.500000
 11
-75.099998
 21
7.500000
  0
LINE
  8
0
 10
-49.250000
 20
-10.500000
 11
-149.250000
 21
-10.500000
  0
LINE
  8
0
 10
-69.000000
 20
11.500000
 11
-129.500000
 21
11.500000
  0
LINE
  8
0
 10
-129.500000
 20
11.500000
 11
-129.500000
 21
10.000000
  0
LINE
  8
0
 10
-129.250000
 20
9.749995
 11
-129.500000
 21
9.999998
  0
LINE
  8
0
 10
-149.250015
 20
-10.500000
 11
-149.972916
 21
-9.777098
  0
LINE
  8
0
  6
DASHED
 10
-123.515915
 20
1.500000
 11
-149.250000
 21
-10.500000
  0
LINE
  8
0
 10
-131.071457
 20
2.497659
 11
-149.972900
 21
-9.777092
  0
LINE
  8
0
  6
DASHED
 10
-74.984085
 20
1.500000
 11
-123.515915
 21
1.500000
  0
LINE
  8
0
  6
DASHED
 10
-103.250000
 20
-2.500000
 11
-120.250000
 21
-2.500000
  0
LINE
  8
0
  6
DASHED
 10
-72.250000
 20
7.500000
 11
-126.250000
 21
7.500000
  0
LINE
  8
0
  6
DASHED
 10
-72.250000
 20
4.500000
 11
-126.250000
 21
4.500000
  0
LINE
  8
0
  6
DASHED
 10
-103.250000
 20
1.500000
 11
-103.250000
 21
-2.500000
  0
LINE
  8
0
  6
DASHED
 10
-112.250000
 20
4.500000
 11
-112.250000
 21
1.500000
  0
LINE
  8
0
  6
DASHED
 10
-120.250000
 20
1.500000
 11
-120.250000
 21
-2.500000
  0
LINE
  8
0
  6
DASHED
 10
-126.250000
 20
7.500000
 11
-126.250000
 21
4.500000
  0
LINE
  8
0
  6
DASHED
 10
-123.400002
 20
11.500000
 11
-123.400002
 21
7.500000
  0
LINE
  8
0
 10
-129.250000
 20
9.750000
 11
-129.250000
 21
5.852337
  0
LINE
  8
0
 10
-69.250000
 20
9.750000
 11
-69.250000
 21
5.852337
  0
LINE
  8
0
 10
-69.000000
 20
10.000000
 11
-129.500000
 21
10.000000
  0
LINE
  8
0
 10
-128.212341
 20
3.500000
 11
-70.285599
 21
3.500000
  0
LINE
  8
0
 10
-48.527092
 20
-9.777094
 11
-149.972900
 21
-9.777094
  0
ARC
  8
0
 10
-65.250000
 20
5.852337
 40
4.000000
 50
179.999985
 51
236.999985
  0
ARC
  8
0
 10
-133.250000
 20
5.852337
 40
4.000002
 50
303.000031
 51
0.000000
  0
POINT
  8
0
 10
95.750000
 20
11.500000
  0
POINT
  8
0
 10
120.750000
 20
11.500000
  0
LINE
  8
0
 10
95.750000
 20
16.500000
 11
95.750000
 21
-17.500000
  0
LINE
  8
0
 10
120.750000
 20
11.500000
 11
120.750000
 21
10.500000
  0
LINE
  8
0
 10
155.750015
 20
-12.500008
 11
156.818634
 21
-11.431381
  0
LINE
  8
0
  6
DASHED
 10
140.161530
 20
-3.499996
 11
155.750000
 21
-12.500000
  0
LINE
  8
0
 10
147.287354
 20
-3.984729
 11
156.818634
 21
-11.431376
  0
LINE
  8
0
 10
145.750000
 20
6.500000
 11
145.750000
 21
-0.832687
  0
LINE
  8
0
  6
DASHED
 10
103.750000
 20
-7.500000
 11
137.250000
 21
-7.500000
  0
LINE
  8
0
  6
DASHED
 10
104.449997
 20
10.700001
 11
104.449997
 21
8.299999
  0
LINE
  8
0
  6
DASHED
 10
103.750000
 20
8.299999
 11
103.750000
 21
-0.500000
  0
LINE
  8
0
  6
DASHED
 10
103.250000
 20
-3.500000
 11
103.250000
 21
-7.000000
  0
LINE
  8
0
  6
DASHED
 10
137.750000
 20
-3.500000
 11
137.750000
 21
-7.000000
  0
LINE
  8
0
  6
DASHED
 10
110.750000
 20
-0.500000
 11
110.750000
 21
-3.500000
  0
LINE
  8
0
  6
DASHED
 10
104.449997
 20
10.700000
 11
104.911880
 21
11.499998
  0
LINE
  8
0
  6
DASHED
 10
103.000000
 20
8.299999
 11
103.000000
 21
-0.500000
  0
LINE
  8
0
  6
DASHED
 10
103.250000
 20
-6.999996
 11
103.750000
 21
-7.499996
  0
LINE
  8
0
  6
DASHED
 10
137.250000
 20
-7.499998
 11
137.750000
 21
-6.999996
  0
LINE
  8
0
 10
141.750000
 20
10.500000
 11
49.750000
 21
10.500000
  0
LINE
  8
0
 10
155.750000
 20
-12.500000
 11
35.750000
 21
-12.500000
  0
LINE
  8
0
 10
120.750000
 20
11.500000
 11
70.750000
 21
11.500000
  0
LINE
  8
0
 10
70.750000
 20
11.500000
 11
70.750000
 21
10.500000
  0
LINE
  8
0
 10
35.749989
 20
-12.500008
 11
34.681362
 21
-11.431381
  0
LINE
  8
0
  6
DASHED
 10
51.338463
 20
-3.500001
 11
35.750000
 21
-12.500002
  0
LINE
  8
0
 10
44.212635
 20
-3.984728
 11
34.681362
 21
-11.431374
  0
LINE
  8
0
 10
45.750000
 20
6.500000
 11
45.750000
 21
-0.832687
  0
LINE
  8
0
  6
DASHED
 10
140.161530
 20
-3.500000
 11
51.338463
 21
-3.500000
  0
LINE
  8
0
  6
DASHED
 10
87.750000
 20
-7.500000
 11
54.250000
 21
-7.500000
  0
LINE
  8
0
  6
DASHED
 10
110.750000
 20
-0.500000
 11
80.750000
 21
-0.500000
  0
LINE
  8
0
  6
DASHED
 10
87.050003
 20
10.700001
 11
87.050003
 21
8.299999
  0
LINE
  8
0
  6
DASHED
 10
87.750000
 20
8.299999
 11
87.750000
 21
-0.500000
  0
LINE
  8
0
  6
DASHED
 10
88.250000
 20
-3.500000
 11
88.250000
 21
-7.000000
  0
LINE
  8
0
  6
DASHED
 10
53.750000
 20
-3.500000
 11
53.750000
 21
-7.000000
  0
LINE
  8
0
  6
DASHED
 10
80.750000
 20
-0.500000
 11
80.750000
 21
-3.500000
  0
LINE
  8
0
  6
DASHED
 10
104.449997
 20
8.299999
 11
87.050003
 21
8.299999
  0
LINE
  8
0
  6
DASHED
 10
104.449997
 20
10.700001
 11
87.050003
 21
10.700001
  0
LINE
  8
0
  6
DASHED
 10
87.050003
 20
10.700001
 11
86.588120
 21
11.500000
  0
LINE
  8
0
  6
DASHED
 10
88.500000
 20
8.299999
 11
88.500000
 21
-0.500000
  0
LINE
  8
0
  6
DASHED
 10
88.250000
 20
-7.000000
 11
87.750000
 21
-7.500000
  0
LINE
  8
0
  6
DASHED
 10
54.250000
 20
-7.500000
 11
53.750000
 21
-7.000000
  0
LINE
  8
0
 10
46.918228
 20
-2.783617
 11
144.589783
 21
-2.783617
  0
LINE
  8
0
 10
156.818634
 20
-11.431376
 11
34.681374
 21
-11.431376
  0
ARC
  8
0
 10
149.750000
 20
-0.832687
 40
4.000000
 50
179.999985
 51
231.999985
  0
ARC
  8
0
 10
41.750000
 20
-0.832687
 40
4.000000
 50
308.000000
 51
0.000014
  0
ARC
  8
0
 10
49.750000
 20
6.500000
 40
4.000000
 50
90.000000
 51
179.999969
  0
ARC
  8
0
 10
141.750000
 20
6.500000
 40
4.000000
 50
0.000000
 51
90.000000
  0
POINT
  8
0
 10
-109.250000
 20
-73.500000
  0
POINT
  8
0
 10
-84.250000
 20
-73.500000
  0
LINE
  8
0
 10
-109.250000
 20
-68.500000
 11
-109.250000
 21
-105.500000
  0
LINE
  8
0
 10
-84.250000
 20
-73.500000
 11
-84.250000
 21
-74.500000
  0
LINE
  8
0
 10
-59.250000
 20
-78.500000
 11
-59.250000
 21
-82.538681
  0
LINE
  8
0
  6
DASHED
 10
-101.250000
 20
-92.500000
 11
-66.750000
 21
-92.500000
  0
LINE
  8
0
  6
DASHED
 10
-100.550003
 20
-74.300003
 11
-100.550003
 21
-76.699997
  0
LINE
  8
0
  6
DASHED
 10
-101.250000
 20
-76.699997
 11
-101.250000
 21
-85.500000
  0
LINE
  8
0
  6
DASHED
 10
-101.750000
 20
-88.500000
 11
-101.750000
 21
-92.000000
  0
LINE
  8
0
  6
DASHED
 10
-66.250000
 20
-88.500000
 11
-66.250000
 21
-92.000000
  0
LINE
  8
0
  6
DASHED
 10
-94.250000
 20
-85.500000
 11
-94.250000
 21
-88.500000
  0
LINE
  8
0
  6
DASHED
 10
-100.550003
 20
-74.300003
 11
-100.088120
 21
-73.500000
  0
LINE
  8
0
  6
DASHED
 10
-102.000000
 20
-76.699997
 11
-102.000000
 21
-85.500000
  0
LINE
  8
0
  6
DASHED
 10
-101.750000
 20
-92.000000
 11
-101.250000
 21
-92.500000
  0
LINE
  8
0
  6
DASHED
 10
-66.750000
 20
-92.500000
 11
-66.250000
 21
-92.000000
  0
LINE
  8
0
 10
-63.250000
 20
-74.500000
 11
-155.250000
 21
-74.500000
  0
LINE
  8
0
 10
-34.250000
 20
-100.500000
 11
-184.250000
 21
-100.500000
  0
LINE
  8
0
 10
-84.250000
 20
-73.500000
 11
-134.250000
 21
-73.500000
  0
LINE
  8
0
 10
-134.250000
 20
-73.500000
 11
-134.250000
 21
-74.500000
  0
LINE
  8
0
 10
-159.250000
 20
-78.500000
 11
-159.250000
 21
-82.538681
  0
LINE
  8
0
  6
DASHED
 10
-63.951042
 20
-88.500000
 11
-154.548981
 21
-88.500000
  0
LINE
  8
0
  6
DASHED
 10
-117.250000
 20
-92.500000
 11
-151.750000
 21
-92.500000
  0
LINE
  8
0
  6
DASHED
 10
-94.250000
 20
-85.500000
 11
-124.250000
 21
-85.500000
  0
LINE
  8
0
  6
DASHED
 10
-117.949997
 20
-74.300003
 11
-117.949997
 21
-76.699997
  0
LINE
  8
0
  6
DASHED
 10
-117.250000
 20
-76.699997
 11
-117.250000
 21
-85.500000
  0
LINE
  8
0
  6
DASHED
 10
-116.750000
 20
-88.500000
 11
-116.750000
 21
-92.000000
  0
LINE
  8
0
  6
DASHED
 10
-152.250000
 20
-88.500000
 11
-152.250000
 21
-92.000000
  0
LINE
  8
0
  6
DASHED
 10
-124.250000
 20
-85.500000
 11
-124.250000
 21
-88.500000
  0
LINE
  8
0
  6
DASHED
 10
-100.550003
 20
-76.699997
 11
-117.949997
 21
-76.699997
  0
LINE
  8
0
  6
DASHED
 10
-100.550003
 20
-74.300003
 11
-117.949997
 21
-74.300003
  0
LINE
  8
0
  6
DASHED
 10
-117.949997
 20
-74.299995
 11
-118.411880
 21
-73.500000
  0
LINE
  8
0
  6
DASHED
 10
-116.500000
 20
-76.699997
 11
-116.500000
 21
-85.500000
  0
LINE
  8
0
  6
DASHED
 10
-116.750000
 20
-92.000000
 11
-117.250000
 21
-92.500000
  0
LINE
  8
0
  6
DASHED
 10
-151.750000
 20
-92.500000
 11
-152.250000
 21
-92.000000
  0
LINE
  8
0
 10
-34.249992
 20
-100.500000
 11
-32.771164
 21
-99.021164
  0
LINE
  8
0
  6
DASHED
 10
-63.951042
 20
-88.500000
 11
-34.250000
 21
-100.500000
  0
LINE
  8
0
 10
-57.127884
 20
-86.070473
 11
-32.771164
 21
-99.021164
  0
LINE
  8
0
  6
DASHED
 10
-154.548981
 20
-88.500000
 11
-184.250000
 21
-100.500000
  0
LINE
  8
0
 10
-184.250000
 20
-100.499985
 11
-185.728821
 21
-99.021156
  0
LINE
  8
0
 10
-161.372101
 20
-86.070465
 11
-185.728821
 21
-99.021164
  0
LINE
  8
0
 10
-185.728836
 20
-99.021164
 11
-32.771164
 21
-99.021164
  0
LINE
  8
0
 10
-158.127502
 20
-84.942123
 11
-60.909161
 21
-84.942123
  0
ARC
  8
0
 10
-155.250000
 20
-78.500000
 40
4.000000
 50
90.000000
 51
180.000000
  0
ARC
  8
0
 10
-63.250000
 20
-78.500000
 40
4.000000
 50
0.000000
 51
90.000000
  0
ARC
  8
0
 10
-55.250000
 20
-82.538681
 40
4.000000
 50
180.000000
 51
241.999985
  0
ARC
  8
0
 10
-163.250000
 20
-82.538681
 40
3.999993
 50
298.000000
 51
0.000000
  0
POINT
  8
0
 10
85.750000
 20
-73.500000
  0
POINT
  8
0
 10
110.750000
 20
-73.500000
  0
LINE
  8
0
 10
85.750000
 20
-68.500000
 11
85.750000
 21
-110.500000
  0
LINE
  8
0
 10
110.750000
 20
-73.500000
 11
110.750000
 21
-74.500000
  0
LINE
  8
0
  6
DASHED
 10
93.750000
 20
-94.500000
 11
146.250000
 21
-94.500000
  0
LINE
  8
0
  6
DASHED
 10
94.449997
 20
-74.300003
 11
94.449997
 21
-76.699997
  0
LINE
  8
0
  6
DASHED
 10
93.750000
 20
-76.699997
 11
93.750000
 21
-85.500000
  0
LINE
  8
0
  6
DASHED
 10
93.250000
 20
-89.500000
 11
93.250000
 21
-94.000000
  0
LINE
  8
0
  6
DASHED
 10
146.750000
 20
-89.500000
 11
146.750000
 21
-94.000000
  0
LINE
  8
0
  6
DASHED
 10
100.750000
 20
-85.500000
 11
100.750000
 21
-89.500000
  0
LINE
  8
0
  6
DASHED
 10
94.449997
 20
-74.299995
 11
94.911880
 21
-73.500000
  0
LINE
  8
0
  6
DASHED
 10
93.000000
 20
-76.699997
 11
93.000000
 21
-85.500000
  0
LINE
  8
0
  6
DASHED
 10
93.249992
 20
-94.000008
 11
93.749992
 21
-94.500008
  0
LINE
  8
0
  6
DASHED
 10
146.250000
 20
-94.500000
 11
146.750000
 21
-94.000000
  0
LINE
  8
0
 10
154.750000
 20
-74.500000
 11
16.750000
 21
-74.500000
  0
LINE
  8
0
 10
110.750000
 20
-73.500000
 11
60.750000
 21
-73.500000
  0
LINE
  8
0
 10
60.750000
 20
-73.500000
 11
60.750000
 21
-74.500000
  0
LINE
  8
0
  6
DASHED
 10
151.437897
 20
-89.500000
 11
20.062111
 21
-89.500000
  0
LINE
  8
0
  6
DASHED
 10
77.750000
 20
-94.500000
 11
25.250000
 21
-94.500000
  0
LINE
  8
0
  6
DASHED
 10
100.750000
 20
-85.500000
 11
70.750000
 21
-85.500000
  0
LINE
  8
0
  6
DASHED
 10
77.050003
 20
-74.300003
 11
77.050003
 21
-76.699997
  0
LINE
  8
0
  6
DASHED
 10
77.750000
 20
-76.699997
 11
77.750000
 21
-85.500000
  0
LINE
  8
0
  6
DASHED
 10
78.250000
 20
-89.500000
 11
78.250000
 21
-94.000000
  0
LINE
  8
0
  6
DASHED
 10
24.750000
 20
-89.500000
 11
24.750000
 21
-94.000000
  0
LINE
  8
0
  6
DASHED
 10
70.750000
 20
-85.500000
 11
70.750000
 21
-89.500000
  0
LINE
  8
0
  6
DASHED
 10
94.449997
 20
-76.699997
 11
77.050003
 21
-76.699997
  0
LINE
  8
0
  6
DASHED
 10
94.449997
 20
-74.300003
 11
77.050003
 21
-74.300003
  0
LINE
  8
0
  6
DASHED
 10
77.050003
 20
-74.299995
 11
76.588120
 21
-73.500000
  0
LINE
  8
0
  6
DASHED
 10
78.500000
 20
-76.699997
 11
78.500000
 21
-85.500000
  0
LINE
  8
0
  6
DASHED
 10
78.250008
 20
-94.000000
 11
77.750008
 21
-94.500000
  0
LINE
  8
0
  6
DASHED
 10
25.250008
 20
-94.500000
 11
24.750008
 21
-94.000000
  0
LINE
  8
0
 10
12.750000
 20
-78.500000
 11
12.750000
 21
-84.138046
  0
LINE
  8
0
 10
158.750000
 20
-78.500000
 11
158.750000
 21
-84.138039
  0
LINE
  8
0
 10
185.750000
 20
-105.500000
 11
-14.250000
 21
-105.500000
  0
LINE
  8
0
 10
-16.446167
 20
-103.303848
 11
-14.250008
 21
-105.500000
  0
LINE
  8
0
  6
DASHED
 10
-14.250008
 20
-105.499992
 11
20.062103
 21
-89.500000
  0
LINE
  8
0
 10
-16.446167
 20
-103.303848
 11
10.749992
 21
-87.602142
  0
LINE
  8
0
  6
DASHED
 10
185.750000
 20
-105.500000
 11
151.437897
 21
-89.500000
  0
LINE
  8
0
 10
187.946167
 20
-103.303856
 11
160.750000
 21
-87.602142
  0
LINE
  8
0
 10
187.946167
 20
-103.303856
 11
185.750031
 21
-105.500015
  0
LINE
  8
0
 10
156.426514
 20
-86.447441
 11
14.886520
 21
-86.447441
  0
LINE
  8
0
 10
187.946167
 20
-103.303848
 11
-16.446152
 21
-103.303848
  0
ARC
  8
0
 10
16.750000
 20
-78.500000
 40
4.000000
 50
90.000000
 51
180.000000
  0
ARC
  8
0
 10
154.750000
 20
-78.500000
 40
4.000000
 50
0.000000
 51
90.000000
  0
ARC
  8
0
 10
8.750000
 20
-84.138046
 40
3.999995
 50
300.000031
 51
0.000000
  0
ARC
  8
0
 10
162.750000
 20
-84.138039
 40
4.000000
 50
180.000000
 51
240.000015
  0
ENDSEC
  0
EOF
