  0
SECTION
  2
HEADER
  9
$ACADVER
  1
AC1015
  9
$ACADMAINTVER
 70
    20
  9
$DWGCODEPAGE
  3
ANSI_932
  9
$INSBASE
 10
0.0
 20
0.0
 30
0.0
  9
$EXTMIN
 10
-214.6204704973609
 20
187.9286760249742
 30
0.0
  9
$EXTMAX
 10
339.3795295026391
 20
570.9286760249742
 30
0.0
  9
$LIMMIN
 10
-210.0
 20
-148.5
  9
$LIMMAX
 10
210.0
 20
148.5
  9
$ORTHOMODE
 70
     0
  9
$REGENMODE
 70
     1
  9
$FILLMODE
 70
     1
  9
$QTEXTMODE
 70
     0
  9
$MIRRTEXT
 70
     1
  9
$LTSCALE
 40
1.0
  9
$ATTMODE
 70
     1
  9
$TEXTSIZE
 40
3.200000047683714
  9
$TRACEWID
 40
0.05
  9
$TEXTSTYLE
  7
MX_NOTE_STANDARD
  9
$CLAYER
  8
0
  9
$CELTYPE
  6
CONTINUOUS
  9
$CECOLOR
 62
   256
  9
$CELTSCALE
 40
1.0
  9
$DISPSILH
 70
     0
  9
$DIMSCALE
 40
1.0
  9
$DIMASZ
 40
2.5
  9
$DIMEXO
 40
1.5
  9
$DIMDLI
 40
3.75
  9
$DIMRND
 40
0.0
  9
$DIMDLE
 40
0.0
  9
$DIMEXE
 40
1.5
  9
$DIMTP
 40
0.0
  9
$DIMTM
 40
0.0
  9
$DIMTXT
 40
3.200000047683714
  9
$DIMCEN
 40
2.5
  9
$DIMTSZ
 40
0.0
  9
$DIMTOL
 70
     0
  9
$DIMLIM
 70
     0
  9
$DIMTIH
 70
     0
  9
$DIMTOH
 70
     0
  9
$DIMSE1
 70
     0
  9
$DIMSE2
 70
     0
  9
$DIMTAD
 70
     1
  9
$DIMZIN
 70
     8
  9
$DIMBLK
  1

  9
$DIMASO
 70
     1
  9
$DIMSHO
 70
     1
  9
$DIMPOST
  1

  9
$DIMAPOST
  1

  9
$DIMALT
 70
     0
  9
$DIMALTD
 70
     4
  9
$DIMALTF
 40
0.03937007874016
  9
$DIMLFAC
 40
1.0
  9
$DIMTOFL
 70
     1
  9
$DIMTVP
 40
0.0
  9
$DIMTIX
 70
     0
  9
$DIMSOXD
 70
     0
  9
$DIMSAH
 70
     1
  9
$DIMBLK1
  1
OPEN30
  9
$DIMBLK2
  1
OPEN30
  9
$DIMSTYLE
  2
MXDIMSTYLE
  9
$DIMCLRD
 70
     0
  9
$DIMCLRE
 70
     0
  9
$DIMCLRT
 70
     0
  9
$DIMTFAC
 40
1.0
  9
$DIMGAP
 40
1.0
  9
$DIMJUST
 70
     0
  9
$DIMSD1
 70
     0
  9
$DIMSD2
 70
     0
  9
$DIMTOLJ
 70
     0
  9
$DIMTZIN
 70
     0
  9
$DIMALTZ
 70
     0
  9
$DIMALTTZ
 70
     0
  9
$DIMUPT
 70
     1
  9
$DIMDEC
 70
     2
  9
$DIMTDEC
 70
     2
  9
$DIMALTU
 70
     2
  9
$DIMALTTD
 70
     4
  9
$DIMTXSTY
  7
MX_NOTE_STANDARD
  9
$DIMAUNIT
 70
     0
  9
$DIMADEC
 70
     0
  9
$DIMALTRND
 40
0.0
  9
$DIMAZIN
 70
     0
  9
$DIMDSEP
 70
    46
  9
$DIMATFIT
 70
     3
  9
$DIMFRAC
 70
     0
  9
$DIMLDRBLK
  1
OPEN30
  9
$DIMLUNIT
 70
     2
  9
$DIMLWD
 70
    -2
  9
$DIMLWE
 70
    -2
  9
$DIMTMOVE
 70
     0
  9
$LUNITS
 70
     2
  9
$LUPREC
 70
     4
  9
$SKETCHINC
 40
0.1
  9
$FILLETRAD
 40
0.0
  9
$AUNITS
 70
     0
  9
$AUPREC
 70
     0
  9
$MENU
  1
acad
  9
$ELEVATION
 40
0.0
  9
$PELEVATION
 40
0.0
  9
$THICKNESS
 40
0.0
  9
$LIMCHECK
 70
     0
  9
$CHAMFERA
 40
0.0
  9
$CHAMFERB
 40
0.0
  9
$CHAMFERC
 40
0.0
  9
$CHAMFERD
 40
0.0
  9
$SKPOLY
 70
     0
  9
$TDCREATE
 40
2454057.468761574
  9
$TDUCREATE
 40
2454057.093761574
  9
$TDUPDATE
 40
2454075.429313634
  9
$TDUUPDATE
 40
2454075.054313634
  9
$TDINDWG
 40
0.0040000579
  9
$TDUSRTIMER
 40
0.0039998727
  9
$USRTIMER
 70
     1
  9
$ANGBASE
 50
0.0
  9
$ANGDIR
 70
     0
  9
$PDMODE
 70
     0
  9
$PDSIZE
 40
0.0
  9
$PLINEWID
 40
0.0
  9
$SPLFRAME
 70
     0
  9
$SPLINETYPE
 70
     6
  9
$SPLINESEGS
 70
     8
  9
$HANDSEED
  5
71C
  9
$SURFTAB1
 70
     6
  9
$SURFTAB2
 70
     6
  9
$SURFTYPE
 70
     6
  9
$SURFU
 70
     6
  9
$SURFV
 70
     6
  9
$UCSBASE
  2

  9
$UCSNAME
  2

  9
$UCSORG
 10
0.0
 20
0.0
 30
0.0
  9
$UCSXDIR
 10
1.0
 20
0.0
 30
0.0
  9
$UCSYDIR
 10
0.0
 20
1.0
 30
0.0
  9
$UCSORTHOREF
  2

  9
$UCSORTHOVIEW
 70
     0
  9
$UCSORGTOP
 10
0.0
 20
0.0
 30
0.0
  9
$UCSORGBOTTOM
 10
0.0
 20
0.0
 30
0.0
  9
$UCSORGLEFT
 10
0.0
 20
0.0
 30
0.0
  9
$UCSORGRIGHT
 10
0.0
 20
0.0
 30
0.0
  9
$UCSORGFRONT
 10
0.0
 20
0.0
 30
0.0
  9
$UCSORGBACK
 10
0.0
 20
0.0
 30
0.0
  9
$PUCSBASE
  2

  9
$PUCSNAME
  2

  9
$PUCSORG
 10
0.0
 20
0.0
 30
0.0
  9
$PUCSXDIR
 10
1.0
 20
0.0
 30
0.0
  9
$PUCSYDIR
 10
0.0
 20
1.0
 30
0.0
  9
$PUCSORTHOREF
  2

  9
$PUCSORTHOVIEW
 70
     0
  9
$PUCSORGTOP
 10
0.0
 20
0.0
 30
0.0
  9
$PUCSORGBOTTOM
 10
0.0
 20
0.0
 30
0.0
  9
$PUCSORGLEFT
 10
0.0
 20
0.0
 30
0.0
  9
$PUCSORGRIGHT
 10
0.0
 20
0.0
 30
0.0
  9
$PUCSORGFRONT
 10
0.0
 20
0.0
 30
0.0
  9
$PUCSORGBACK
 10
0.0
 20
0.0
 30
0.0
  9
$USERI1
 70
     0
  9
$USERI2
 70
     0
  9
$USERI3
 70
     0
  9
$USERI4
 70
     0
  9
$USERI5
 70
     0
  9
$USERR1
 40
0.0
  9
$USERR2
 40
0.0
  9
$USERR3
 40
0.0
  9
$USERR4
 40
0.0
  9
$USERR5
 40
0.0
  9
$WORLDVIEW
 70
     1
  9
$SHADEDGE
 70
     3
  9
$SHADEDIF
 70
    70
  9
$TILEMODE
 70
     1
  9
$MAXACTVP
 70
    16
  9
$PINSBASE
 10
0.0
 20
0.0
 30
0.0
  9
$PLIMCHECK
 70
     0
  9
$PEXTMIN
 10
1.130750010332723
 20
0.7880833242821881
 30
0.0
  9
$PEXTMAX
 10
10.17675009299451
 20
7.092749918539691
 30
0.0
  9
$PLIMMIN
 10
-0.1912502979669045
 20
-0.1912499975970411
  9
$PLIMMAX
 10
11.50208240418922
 20
8.075416444793459
  9
$UNITMODE
 70
     0
  9
$VISRETAIN
 70
     0
  9
$PLINEGEN
 70
     1
  9
$PSLTSCALE
 70
     1
  9
$TREEDEPTH
 70
  3020
  9
$CMLSTYLE
  2
STANDARD
  9
$CMLJUST
 70
     0
  9
$CMLSCALE
 40
1.0
  9
$PROXYGRAPHICS
 70
     1
  9
$MEASUREMENT
 70
     0
  9
$CELWEIGHT
370
    -1
  9
$ENDCAPS
280
     0
  9
$JOINSTYLE
280
     0
  9
$LWDISPLAY
290
     0
  9
$INSUNITS
 70
     0
  9
$HYPERLINKBASE
  1

  9
$STYLESHEET
  1

  9
$XEDIT
290
     1
  9
$CEPSNTYPE
380
     0
  9
$PSTYLEMODE
290
     1
  9
$FINGERPRINTGUID
  2
{B94D2074-7BA5-4FFD-A1D6-C3FC20DB6947}
  9
$VERSIONGUID
  2
{E3F7FA87-6B5B-4E2E-ACC2-7A990F24C567}
  9
$EXTNAMES
290
     1
  9
$PSVPSCALE
 40
0.0
  9
$OLESTARTUP
290
     0
  0
ENDSEC
  0
SECTION
  2
CLASSES
  0
CLASS
  1
IMAGE
  2
AcDbRasterImage
  3
ISM
 90
    32895
280
     0
281
     1
  0
CLASS
  1
DICTIONARYVAR
  2
AcDbDictionaryVar
  3
ObjectDBX Classes
 90
        0
280
     0
281
     0
  0
CLASS
  1
RASTERVARIABLES
  2
AcDbRasterVariables
  3
ISM
 90
    32768
280
     0
281
     0
  0
CLASS
  1
IMAGEDEF
  2
AcDbRasterImageDef
  3
ISM
 90
    32768
280
     0
281
     0
  0
CLASS
  1
IMAGEDEF_REACTOR
  2
AcDbRasterImageDefReactor
  3
ISM
 90
    32769
280
     0
281
     0
  0
CLASS
  1
IDBUFFER
  2
AcDbIdBuffer
  3
ObjectDBX Classes
 90
    32768
280
     0
281
     0
  0
CLASS
  1
SPATIAL_FILTER
  2
AcDbSpatialFilter
  3
ObjectDBX Classes
 90
    32768
280
     0
281
     0
  0
CLASS
  1
SORTENTSTABLE
  2
AcDbSortentsTable
  3
ObjectDBX Classes
 90
    32768
280
     0
281
     0
  0
CLASS
  1
LAYER_INDEX
  2
AcDbLayerIndex
  3
ObjectDBX Classes
 90
    32768
280
     0
281
     0
  0
CLASS
  1
SPATIAL_INDEX
  2
AcDbSpatialIndex
  3
ObjectDBX Classes
 90
    32768
280
     0
281
     0
  0
CLASS
  1
OBJECT_PTR
  2
CAseDLPNTableRecord
  3
"ASE-LPNTableRecord"
 90
    32769
280
     0
281
     0
  0
CLASS
  1
LAYOUT
  2
AcDbLayout
  3
ObjectDBX Classes
 90
        0
280
     0
281
     0
  0
CLASS
  1
PLOTSETTINGS
  2
AcDbPlotSettings
  3
ObjectDBX Classes
 90
    32768
280
     0
281
     0
  0
CLASS
  1
ACDBDICTIONARYWDFLT
  2
AcDbDictionaryWithDefault
  3
ObjectDBX Classes
 90
        0
280
     0
281
     0
  0
CLASS
  1
ACDBPLACEHOLDER
  2
AcDbPlaceHolder
  3
ObjectDBX Classes
 90
        0
280
     0
281
     0
  0
CLASS
  1
TABLESTYLE
  2
AcDbTableStyle
  3
ObjectDBX Classes
 90
     2047
280
     0
281
     0
  0
ENDSEC
  0
SECTION
  2
TABLES
  0
TABLE
  2
VPORT
  5
7
330
0
100
AcDbSymbolTable
 70
     2
  0
VPORT
  5
713
330
7
100
AcDbSymbolTableRecord
100
AcDbViewportTableRecord
  2
*Active
 70
     0
 10
0.0
 20
0.0
 11
1.0
 21
1.0
 12
152.7747653140137
 22
409.1017292180407
 13
0.0
 23
0.0
 14
1.0
 24
1.0
 15
0.0
 25
0.0
 16
0.0
 26
0.0
 36
1.0
 17
0.0
 27
0.0
 37
0.0
 40
285.3469249464008
 41
1.880952380952381
 42
50.0
 43
0.0
 44
0.0
 50
0.0
 51
0.0
 71
     0
 72
   100
 73
     1
 74
     1
 75
     0
 76
     0
 77
     0
 78
     0
281
     0
 65
     1
110
0.0
120
0.0
130
0.0
111
1.0
121
0.0
131
0.0
112
0.0
122
1.0
132
0.0
 79
     0
146
0.0
  0
ENDTAB
  0
TABLE
  2
LTYPE
  5
4
330
0
100
AcDbSymbolTable
 70
     4
  0
LTYPE
  5
11
330
4
100
AcDbSymbolTableRecord
100
AcDbLinetypeTableRecord
  2
BYBLOCK
 70
     0
  3

 72
    65
 73
     0
 40
0.0
  0
LTYPE
  5
12
330
4
100
AcDbSymbolTableRecord
100
AcDbLinetypeTableRecord
  2
BYLAYER
 70
     0
  3

 72
    65
 73
     0
 40
0.0
  0
LTYPE
  5
13
330
4
100
AcDbSymbolTableRecord
100
AcDbLinetypeTableRecord
  2
CONTINUOUS
 70
     0
  3
Solid line
 72
    65
 73
     0
 40
0.0
  0
LTYPE
  5
78
330
4
100
AcDbSymbolTableRecord
100
AcDbLinetypeTableRecord
  2
CENTER
 70
     0
  3
Center ____ _ ____ _ ____ _ ____ _ ____ _ ____
 72
    65
 73
     4
 40
50.8
 49
31.75
 74
     0
 49
-6.349999999999998
 74
     0
 49
6.349999999999998
 74
     0
 49
-6.349999999999998
 74
     0
  0
LTYPE
  5
129
330
4
100
AcDbSymbolTableRecord
100
AcDbLinetypeTableRecord
  2
SBK2
 70
     0
  3
______ _ _ _ ______ _ _ _ ______ _ _ _ _____  
 72
    65
 73
     8
 40
84.0
 49
64.0
 74
     0
 49
-2.0
 74
     0
 49
4.0
 74
     0
 49
-2.0
 74
     0
 49
4.0
 74
     0
 49
-2.0
 74
     0
 49
4.0
 74
     0
 49
-2.0
 74
     0
  0
ENDTAB
  0
TABLE
  2
LAYER
  5
2
102
{ACAD_XDICTIONARY
360
12B
102
}
330
0
100
AcDbSymbolTable
 70
     2
  0
LAYER
  5
14
330
2
100
AcDbSymbolTableRecord
100
AcDbLayerTableRecord
  2
0
 70
     0
 62
     7
  6
CONTINUOUS
370
    -3
390
11D
  0
LAYER
  5
1D
330
2
100
AcDbSymbolTableRecord
100
AcDbLayerTableRecord
  2
DEFPOINTS
 70
     0
 62
     7
  6
CONTINUOUS
290
     0
370
    -3
390
11D
  0
ENDTAB
  0
TABLE
  2
STYLE
  5
3
330
0
100
AcDbSymbolTable
 70
     2
  0
STYLE
  5
17
330
3
100
AcDbSymbolTableRecord
100
AcDbTextStyleTableRecord
  2
MX_NOTE_STANDARD
 70
     0
 40
0.0
 41
1.0
 50
0.0
 71
     0
 42
3.200000047683714
  3
txt.shx
  4
extfont.shx
  0
STYLE
  5
11B
330
3
100
AcDbSymbolTableRecord
100
AcDbTextStyleTableRecord
  2
Standard
 70
     0
 40
0.0
 41
1.0
 50
0.0
 71
     0
 42
0.2
  3

  4

  0
ENDTAB
  0
TABLE
  2
VIEW
  5
5
330
0
100
AcDbSymbolTable
 70
     0
  0
ENDTAB
  0
TABLE
  2
UCS
  5
6
330
0
100
AcDbSymbolTable
 70
     0
  0
ENDTAB
  0
TABLE
  2
APPID
  5
8
330
0
100
AcDbSymbolTable
 70
     3
  0
APPID
  5
16
330
8
100
AcDbSymbolTableRecord
100
AcDbRegAppTableRecord
  2
ACAD
 70
     0
  0
APPID
  5
12A
330
8
100
AcDbSymbolTableRecord
100
AcDbRegAppTableRecord
  2
ACAD_PSEXT
 70
     0
  0
APPID
  5
70C
330
8
100
AcDbSymbolTableRecord
100
AcDbRegAppTableRecord
  2
ACAD_EXEMPT_FROM_CAD_STANDARDS
 70
     0
  0
ENDTAB
  0
TABLE
  2
DIMSTYLE
  5
9
330
0
100
AcDbSymbolTable
 70
     2
100
AcDbDimStyleTable
 71
     1
340
18
  0
DIMSTYLE
105
18
330
9
100
AcDbSymbolTableRecord
100
AcDbDimStyleTableRecord
  2
MXDIMSTYLE
 70
     0
 41
2.5
 42
1.5
 43
3.75
 44
1.5
 73
     0
 74
     0
 77
     1
 78
     8
140
3.200000047683714
141
2.5
143
0.03937007874016
147
1.0
171
     4
172
     1
173
     1
271
     2
272
     2
274
     4
283
     0
288
     1
340
17
341
21
343
21
344
21
  0
ENDTAB
  0
TABLE
  2
BLOCK_RECORD
  5
1
330
0
100
AcDbSymbolTable
 70
     5
  0
BLOCK_RECORD
  5
A
330
1
100
AcDbSymbolTableRecord
100
AcDbBlockTableRecord
  2
*MODEL_SPACE
340
124
  0
BLOCK_RECORD
  5
6E0
330
1
100
AcDbSymbolTableRecord
100
AcDbBlockTableRecord
  2
*Paper_Space
340
6E1
  0
BLOCK_RECORD
  5
1E
330
1
100
AcDbSymbolTableRecord
100
AcDbBlockTableRecord
  2
DTY-EPP-BR2-1
340
0
  0
BLOCK_RECORD
  5
1F
330
1
100
AcDbSymbolTableRecord
100
AcDbBlockTableRecord
  2
DTY-EPP-BR2-2
340
0
  0
BLOCK_RECORD
  5
20
330
1
100
AcDbSymbolTableRecord
100
AcDbBlockTableRecord
  2
DTY-EPP-BR2-3
340
0
  0
BLOCK_RECORD
  5
21
330
1
100
AcDbSymbolTableRecord
100
AcDbBlockTableRecord
  2
_OPEN30
340
0
  0
ENDTAB
  0
ENDSEC
  0
SECTION
  2
BLOCKS
  0
BLOCK
  5
D
330
A
100
AcDbEntity
  8
0
100
AcDbBlockBegin
  2
*MODEL_SPACE
 70
     0
 10
0.0
 20
0.0
 30
0.0
  3
*MODEL_SPACE
  1

  0
ENDBLK
  5
E
330
A
100
AcDbEntity
  8
0
100
AcDbBlockEnd
  0
BLOCK
  5
6E2
330
6E0
100
AcDbEntity
 67
     1
  8
0
100
AcDbBlockBegin
  2
*Paper_Space
 70
     0
 10
0.0
 20
0.0
 30
0.0
  3
*Paper_Space
  1

  0
ENDBLK
  5
6E3
330
6E0
100
AcDbEntity
 67
     1
  8
0
100
AcDbBlockEnd
  0
BLOCK
  5
27
330
1E
100
AcDbEntity
  8
0
100
AcDbBlockBegin
  2
DTY-EPP-BR2-1
 70
     0
 10
0.0
 20
0.0
 30
0.0
  3
DTY-EPP-BR2-1
  1

  0
CIRCLE
  5
28
330
1E
100
AcDbEntity
  8
0
  6
Continuous
 62
     2
100
AcDbCircle
 10
100.0
 20
61.0
 30
0.0
 40
1.5
  0
CIRCLE
  5
29
330
1E
100
AcDbEntity
  8
0
  6
Continuous
 62
     2
100
AcDbCircle
 10
122.0
 20
61.0
 30
0.0
 40
1.5
  0
CIRCLE
  5
2A
330
1E
100
AcDbEntity
  8
0
  6
Continuous
 62
     7
100
AcDbCircle
 10
100.0
 20
61.0
 30
0.0
 40
1.25
  0
CIRCLE
  5
2B
330
1E
100
AcDbEntity
  8
0
  6
Continuous
 62
     7
100
AcDbCircle
 10
122.0
 20
61.0
 30
0.0
 40
1.25
  0
LINE
  5
2C
330
1E
100
AcDbEntity
  8
0
  6
Continuous
 62
     7
100
AcDbLine
 10
-14.0
 20
64.0
 30
0.0
 11
-14.0
 21
58.0
 31
0.0
  0
LINE
  5
2D
330
1E
100
AcDbEntity
  8
0
  6
Continuous
 62
     7
100
AcDbLine
 10
-15.0
 20
63.0
 30
0.0
 11
-15.0
 21
59.0
 31
0.0
  0
LINE
  5
2E
330
1E
100
AcDbEntity
  8
0
  6
Continuous
 62
     2
100
AcDbLine
 10
122.0
 20
64.0
 30
0.0
 11
122.0
 21
58.0
 31
0.0
  0
LINE
  5
2F
330
1E
100
AcDbEntity
  8
0
  6
Continuous
 62
     2
100
AcDbLine
 10
100.0
 20
64.0
 30
0.0
 11
100.0
 21
58.0
 31
0.0
  0
LINE
  5
30
330
1E
100
AcDbEntity
  8
0
  6
Continuous
 62
     7
100
AcDbLine
 10
134.0
 20
64.0
 30
0.0
 11
134.0
 21
58.0
 31
0.0
  0
LINE
  5
31
330
1E
100
AcDbEntity
  8
0
  6
Continuous
 62
     7
100
AcDbLine
 10
134.0
 20
58.0
 30
0.0
 11
135.0
 21
59.00000000000011
 31
0.0
  0
LINE
  5
32
330
1E
100
AcDbEntity
  8
0
  6
Continuous
 62
     7
100
AcDbLine
 10
134.0
 20
64.0
 30
0.0
 11
135.0
 21
62.9999999999999
 31
0.0
  0
LINE
  5
33
330
1E
100
AcDbEntity
  8
0
  6
Continuous
 62
     7
100
AcDbLine
 10
135.0
 20
59.00000000000011
 30
0.0
 11
135.0
 21
62.9999999999999
 31
0.0
  0
LINE
  5
34
330
1E
100
AcDbEntity
  8
0
  6
Continuous
 62
     7
100
AcDbLine
 10
-14.0
 20
58.0
 30
0.0
 11
-15.0
 21
59.0
 31
0.0
  0
LINE
  5
35
330
1E
100
AcDbEntity
  8
0
  6
Continuous
 62
     7
100
AcDbLine
 10
-14.0
 20
64.0
 30
0.0
 11
-15.0
 21
63.0
 31
0.0
  0
LINE
  5
36
330
1E
100
AcDbEntity
  8
0
  6
Continuous
 62
     2
100
AcDbLine
 10
12.01671324912659
 20
18.0
 30
0.0
 11
-8.756271178956865
 21
18.0
 31
0.0
  0
LINE
  5
37
330
1E
100
AcDbEntity
  8
0
  6
Continuous
 62
     7
100
AcDbLine
 10
10.80000019526875
 20
15.25
 30
0.0
 11
8.000000004533887
 21
15.25
 31
0.0
  0
LINE
  5
38
330
1E
100
AcDbEntity
  8
0
  6
Continuous
 62
     7
100
AcDbLine
 10
10.79999976986551
 20
15.25000033895042
 30
0.0
 11
10.99999976986549
 21
15.5964106245211
 31
0.0
  0
LINE
  5
39
330
1E
100
AcDbEntity
  8
0
  6
Continuous
 62
     7
100
AcDbLine
 10
10.80000019526875
 20
20.75
 30
0.0
 11
10.80000019526875
 21
15.25
 31
0.0
  0
LINE
  5
3A
330
1E
100
AcDbEntity
  8
0
  6
Continuous
 62
     7
100
AcDbLine
 10
11.00000000453388
 20
20.40358924865723
 30
0.0
 11
11.00000000453388
 21
15.59641075134277
 31
0.0
  0
LINE
  5
3B
330
1E
100
AcDbEntity
  8
0
  6
Continuous
 62
     7
100
AcDbLine
 10
10.79999903628365
 20
20.75000020502772
 30
0.0
 11
10.99999939391162
 21
20.4035895780296
 31
0.0
  0
LINE
  5
3C
330
1E
100
AcDbEntity
  8
0
  6
Continuous
 62
     7
100
AcDbLine
 10
10.80000019526875
 20
20.75
 30
0.0
 11
8.000000004533887
 21
20.75
 31
0.0
  0
LINE
  5
3D
330
1E
100
AcDbEntity
  8
0
  6
Continuous
 62
     2
100
AcDbLine
 10
-12.0
 20
-5.168346535676207
 30
0.0
 11
-12.0
 21
11.3178853520651
 31
0.0
  0
LINE
  5
3E
330
1E
100
AcDbEntity
  8
0
  6
Continuous
 62
     2
100
AcDbLine
 10
12.0
 20
-5.168346535676207
 30
0.0
 11
12.0
 21
11.13054181425764
 31
0.0
  0
LINE
  5
3F
330
1E
100
AcDbEntity
  8
0
  6
Continuous
 62
     7
100
AcDbLine
 10
15.5
 20
9.699999809265136
 30
0.0
 11
15.5
 21
6.0
 31
0.0
  0
LINE
  5
40
330
1E
100
AcDbEntity
  8
0
  6
Continuous
 62
     7
100
AcDbLine
 10
15.49999990861079
 20
9.699999972612149
 30
0.0
 11
14.9803847940197
 21
9.999999960691212
 31
0.0
  0
LINE
  5
41
330
1E
100
AcDbEntity
  8
0
  6
Continuous
 62
     7
100
AcDbLine
 10
14.98038482666015
 20
10.0
 30
0.0
 11
9.01961612701416
 21
10.0
 31
0.0
  0
LINE
  5
42
330
1E
100
AcDbEntity
  8
0
  6
Continuous
 62
     7
100
AcDbLine
 10
15.5
 20
9.699999809265136
 30
0.0
 11
8.5
 21
9.699999809265136
 31
0.0
  0
LINE
  5
43
330
1E
100
AcDbEntity
  8
0
  6
Continuous
 62
     7
100
AcDbLine
 10
8.500000417021736
 20
9.699999766960727
 30
0.0
 11
9.019616051854312
 21
9.999999886169971
 31
0.0
  0
LINE
  5
44
330
1E
100
AcDbEntity
  8
0
  6
Continuous
 62
     7
100
AcDbLine
 10
8.5
 20
9.699999809265136
 30
0.0
 11
8.5
 21
6.0
 31
0.0
  0
LINE
  5
45
330
1E
100
AcDbEntity
  8
0
  6
Continuous
 62
     7
100
AcDbLine
 10
14.0
 20
0.0
 30
0.0
 11
14.0
 21
-3.200000762939451
 31
0.0
  0
LINE
  5
46
330
1E
100
AcDbEntity
  8
0
  6
Continuous
 62
     2
100
AcDbLine
 10
13.62099933624267
 20
0.0
 30
0.0
 11
13.62099933624267
 21
-3.579000473022459
 31
0.0
  0
LINE
  5
47
330
1E
100
AcDbEntity
  8
0
  6
Continuous
 62
     7
100
AcDbLine
 10
10.0
 20
0.0
 30
0.0
 11
10.0
 21
-3.200000762939451
 31
0.0
  0
LINE
  5
48
330
1E
100
AcDbEntity
  8
0
  6
Continuous
 62
     2
100
AcDbLine
 10
10.37900066375732
 20
0.0
 30
0.0
 11
10.37900066375732
 21
-3.579000473022459
 31
0.0
  0
LINE
  5
49
330
1E
100
AcDbEntity
  8
0
  6
Continuous
 62
     7
100
AcDbLine
 10
14.0
 20
-3.200000762939451
 30
0.0
 11
10.0
 21
-3.200000762939451
 31
0.0
  0
LINE
  5
4A
330
1E
100
AcDbEntity
  8
0
  6
Continuous
 62
     7
100
AcDbLine
 10
13.19999980926513
 20
-4.0
 30
0.0
 11
10.80000019073485
 21
-4.0
 31
0.0
  0
LINE
  5
4B
330
1E
100
AcDbEntity
  8
0
  6
Continuous
 62
     7
100
AcDbLine
 10
13.19999898111973
 20
-3.999998208886152
 30
0.0
 11
13.99999908860672
 21
-3.199998775748553
 31
0.0
  0
LINE
  5
4C
330
1E
100
AcDbEntity
  8
0
  6
Continuous
 62
     7
100
AcDbLine
 10
10.80000101888026
 20
-3.999998208886152
 30
0.0
 11
10.00000091139327
 21
-3.199998775748553
 31
0.0
  0
LINE
  5
4D
330
1E
100
AcDbEntity
  8
0
  6
Continuous
 62
     7
100
AcDbLine
 10
-8.5
 20
9.699999809265136
 30
0.0
 11
-8.5
 21
6.0
 31
0.0
  0
LINE
  5
4E
330
1E
100
AcDbEntity
  8
0
  6
Continuous
 62
     7
100
AcDbLine
 10
-8.50000009138921
 20
9.699999972612149
 30
0.0
 11
-9.019615205980301
 21
9.999999960691212
 31
0.0
  0
LINE
  5
4F
330
1E
100
AcDbEntity
  8
0
  6
Continuous
 62
     7
100
AcDbLine
 10
-9.019615173339843
 20
10.0
 30
0.0
 11
-14.98038387298584
 21
10.0
 31
0.0
  0
LINE
  5
50
330
1E
100
AcDbEntity
  8
0
  6
Continuous
 62
     7
100
AcDbLine
 10
-8.5
 20
9.699999809265136
 30
0.0
 11
-15.5
 21
9.699999809265136
 31
0.0
  0
LINE
  5
51
330
1E
100
AcDbEntity
  8
0
  6
Continuous
 62
     7
100
AcDbLine
 10
-15.49999958297826
 20
9.699999766960727
 30
0.0
 11
-14.98038394814568
 21
9.999999886169971
 31
0.0
  0
LINE
  5
52
330
1E
100
AcDbEntity
  8
0
  6
Continuous
 62
     7
100
AcDbLine
 10
-15.5
 20
9.699999809265136
 30
0.0
 11
-15.5
 21
6.0
 31
0.0
  0
LINE
  5
53
330
1E
100
AcDbEntity
  8
0
  6
Continuous
 62
     7
100
AcDbLine
 10
-10.0
 20
0.0
 30
0.0
 11
-10.0
 21
-3.200000762939451
 31
0.0
  0
LINE
  5
54
330
1E
100
AcDbEntity
  8
0
  6
Continuous
 62
     2
100
AcDbLine
 10
-10.37900066375732
 20
0.0
 30
0.0
 11
-10.37900066375732
 21
-3.579000473022459
 31
0.0
  0
LINE
  5
55
330
1E
100
AcDbEntity
  8
0
  6
Continuous
 62
     7
100
AcDbLine
 10
-14.0
 20
0.0
 30
0.0
 11
-14.0
 21
-3.200000762939451
 31
0.0
  0
LINE
  5
56
330
1E
100
AcDbEntity
  8
0
  6
Continuous
 62
     2
100
AcDbLine
 10
-13.62099933624267
 20
0.0
 30
0.0
 11
-13.62099933624267
 21
-3.579000473022459
 31
0.0
  0
LINE
  5
57
330
1E
100
AcDbEntity
  8
0
  6
Continuous
 62
     7
100
AcDbLine
 10
-10.0
 20
-3.200000762939451
 30
0.0
 11
-14.0
 21
-3.200000762939451
 31
0.0
  0
LINE
  5
58
330
1E
100
AcDbEntity
  8
0
  6
Continuous
 62
     7
100
AcDbLine
 10
-10.80000019073485
 20
-4.0
 30
0.0
 11
-13.19999980926513
 21
-4.0
 31
0.0
  0
LINE
  5
59
330
1E
100
AcDbEntity
  8
0
  6
Continuous
 62
     7
100
AcDbLine
 10
-10.80000101888026
 20
-3.999998208886152
 30
0.0
 11
-10.00000091139327
 21
-3.199998775748553
 31
0.0
  0
LINE
  5
5A
330
1E
100
AcDbEntity
  8
0
  6
Continuous
 62
     7
100
AcDbLine
 10
-13.19999898111973
 20
-3.999998208886152
 30
0.0
 11
-13.99999908860672
 21
-3.199998775748553
 31
0.0
  0
ARC
  5
5B
330
1E
100
AcDbEntity
  8
0
  6
Continuous
 62
     7
100
AcDbCircle
 10
0.0
 20
61.0
 30
0.0
 40
6.5
100
AcDbArc
 50
182.204227503972
 51
357.7957724960279
  0
LINE
  5
5C
330
1E
100
AcDbEntity
  8
0
  6
Continuous
 62
     7
100
AcDbLine
 10
-6.495190528383289
 20
60.75
 30
0.0
 11
6.495190528383289
 21
60.75
 31
0.0
  0
LINE
  5
5D
330
1E
100
AcDbEntity
  8
0
  6
Continuous
 62
     7
100
AcDbLine
 10
-6.495190528383289
 20
61.25
 30
0.0
 11
6.495190528383289
 21
61.25
 31
0.0
  0
ARC
  5
5E
330
1E
100
AcDbEntity
  8
0
  6
Continuous
 62
     7
100
AcDbCircle
 10
0.0
 20
61.0
 30
0.0
 40
7.5
100
AcDbArc
 50
203.5781784782018
 51
336.4218215217982
  0
LINE
  5
5F
330
1E
100
AcDbEntity
  8
0
  6
Continuous
 62
     7
100
AcDbLine
 10
5.766281297335397
 20
58.0
 30
0.0
 11
134.0
 21
58.0
 31
0.0
  0
LINE
  5
60
330
1E
100
AcDbEntity
  8
0
  6
Continuous
 62
     7
100
AcDbLine
 10
5.766281297335397
 20
64.0
 30
0.0
 11
134.0
 21
64.0
 31
0.0
  0
LINE
  5
61
330
1E
100
AcDbEntity
  8
0
  6
Continuous
 62
     7
100
AcDbLine
 10
-4.5
 20
67.0
 30
0.0
 11
-4.5
 21
71.0
 31
0.0
  0
LINE
  5
62
330
1E
100
AcDbEntity
  8
0
  6
Continuous
 62
     7
100
AcDbLine
 10
4.5
 20
67.0
 30
0.0
 11
4.5
 21
71.0
 31
0.0
  0
LINE
  5
63
330
1E
100
AcDbEntity
  8
0
  6
Continuous
 62
     7
100
AcDbLine
 10
-14.0
 20
58.0
 30
0.0
 11
-5.766281297335397
 21
58.0
 31
0.0
  0
LINE
  5
64
330
1E
100
AcDbEntity
  8
0
  6
Continuous
 62
     7
100
AcDbLine
 10
-14.0
 20
64.0
 30
0.0
 11
-5.766281297335397
 21
64.0
 31
0.0
  0
LINE
  5
65
330
1E
100
AcDbEntity
  8
0
  6
Continuous
 62
     2
100
AcDbLine
 10
-14.61613649583256
 20
61.0
 30
0.0
 11
137.7235215416357
 21
61.0
 31
0.0
  0
ARC
  5
66
330
1E
100
AcDbEntity
  8
0
  6
Continuous
 62
     7
100
AcDbCircle
 10
0.0
 20
61.0
 30
0.0
 40
7.5
100
AcDbArc
 50
23.57817847820184
 51
156.4218215217981
  0
ARC
  5
67
330
1E
100
AcDbEntity
  8
0
  6
Continuous
 62
     7
100
AcDbCircle
 10
0.0
 20
61.0
 30
0.0
 40
6.5
100
AcDbArc
 50
2.204227503972029
 51
177.795772496028
  0
LINE
  5
68
330
1E
100
AcDbEntity
  8
0
  6
Continuous
 62
     7
100
AcDbLine
 10
-4.5
 20
71.0
 30
0.0
 11
4.5
 21
71.0
 31
0.0
  0
LINE
  5
69
330
1E
100
AcDbEntity
  8
0
  6
Continuous
 62
     7
100
AcDbLine
 10
4.5
 20
22.0
 30
0.0
 11
4.5
 21
55.0
 31
0.0
  0
LINE
  5
6A
330
1E
100
AcDbEntity
  8
0
  6
Continuous
 62
     7
100
AcDbLine
 10
-4.5
 20
22.0
 30
0.0
 11
-4.5
 21
55.0
 31
0.0
  0
LINE
  5
6B
330
1E
100
AcDbEntity
  8
0
  6
Continuous
 62
     7
100
AcDbLine
 10
9.0
 20
0.0
 30
0.0
 11
15.99999999546611
 21
0.0
 31
0.0
  0
LINE
  5
6C
330
1E
100
AcDbEntity
  8
0
  6
Continuous
 62
     7
100
AcDbLine
 10
9.0
 20
0.0
 30
0.0
 11
8.0
 21
1.0
 31
0.0
  0
LINE
  5
6D
330
1E
100
AcDbEntity
  8
0
  6
Continuous
 62
     7
100
AcDbLine
 10
-9.0
 20
0.0
 30
0.0
 11
-8.0
 21
1.0
 31
0.0
  0
LINE
  5
6E
330
1E
100
AcDbEntity
  8
0
  6
Continuous
 62
     7
100
AcDbLine
 10
-8.0
 20
1.0
 30
0.0
 11
8.0
 21
1.0
 31
0.0
  0
LINE
  5
6F
330
1E
100
AcDbEntity
  8
0
  6
Continuous
 62
     7
100
AcDbLine
 10
8.0
 20
6.0
 30
0.0
 11
15.99999999546611
 21
6.0
 31
0.0
  0
LINE
  5
70
330
1E
100
AcDbEntity
  8
0
  6
Continuous
 62
     7
100
AcDbLine
 10
-16.00000000453389
 20
6.0
 30
0.0
 11
-8.0
 21
6.0
 31
0.0
  0
LINE
  5
71
330
1E
100
AcDbEntity
  8
0
  6
Continuous
 62
     7
100
AcDbLine
 10
8.0
 20
6.000000012805003
 30
0.0
 11
8.0
 21
22.0
 31
0.0
  0
LINE
  5
72
330
1E
100
AcDbEntity
  8
0
  6
Continuous
 62
     7
100
AcDbLine
 10
-8.0
 20
6.000000012805003
 30
0.0
 11
-8.0
 21
22.0
 31
0.0
  0
LINE
  5
73
330
1E
100
AcDbEntity
  8
0
  6
Continuous
 62
     7
100
AcDbLine
 10
-8.000000004533887
 20
22.0
 30
0.0
 11
7.999999995466112
 21
22.0
 31
0.0
  0
LINE
  5
74
330
1E
100
AcDbEntity
  8
0
  6
Continuous
 62
     7
100
AcDbLine
 10
-16.00000000453389
 20
0.0
 30
0.0
 11
-9.0
 21
0.0
 31
0.0
  0
LINE
  5
75
330
1E
100
AcDbEntity
  8
0
  6
Continuous
 62
     7
100
AcDbLine
 10
16.0
 20
0.0000000128050033
 30
0.0
 11
16.0
 21
6.000000012805003
 31
0.0
  0
LINE
  5
76
330
1E
100
AcDbEntity
  8
0
  6
Continuous
 62
     7
100
AcDbLine
 10
-16.0
 20
0.0000000128050033
 30
0.0
 11
-16.0
 21
6.000000012805003
 31
0.0
  0
LINE
  5
77
330
1E
100
AcDbEntity
  8
0
  6
Continuous
 62
     2
100
AcDbLine
 10
0.0
 20
-1.269528864671896
 30
0.0
 11
0.0
 21
72.85826154352013
 31
0.0
  0
LINE
  5
79
330
1E
100
AcDbEntity
  8
0
  6
CENTER
 62
     7
100
AcDbLine
 10
83.39999999999998
 20
30.89999999999999
 30
0.0
 11
138.6
 21
30.89999999999999
 31
0.0
  0
LINE
  5
7A
330
1E
100
AcDbEntity
  8
0
  6
CENTER
 62
     7
100
AcDbLine
 10
80.39999999999997
 20
58.0
 30
0.0
 11
80.39999999999997
 21
33.89999999999999
 31
0.0
  0
ARC
  5
7B
330
1E
100
AcDbEntity
  8
0
  6
CENTER
 62
     7
100
AcDbCircle
 10
83.39999999999998
 20
33.89999999999999
 30
0.0
 40
3.0
100
AcDbArc
 50
180.0
 51
270.0
  0
ARC
  5
7C
330
1E
100
AcDbEntity
  8
0
  6
CENTER
 62
     7
100
AcDbCircle
 10
85.39999999999997
 20
60.1
 30
0.0
 40
5.0
100
AcDbArc
 50
90.0
 51
128.7394245978556
  0
LINE
  5
7D
330
1E
100
AcDbEntity
  8
0
  6
CENTER
 62
     7
100
AcDbLine
 10
85.39999999999997
 20
65.09999999999999
 30
0.0
 11
136.6
 21
65.09999999999999
 31
0.0
  0
ARC
  5
7E
330
1E
100
AcDbEntity
  8
0
  6
CENTER
 62
     7
100
AcDbCircle
 10
136.6
 20
60.1
 30
0.0
 40
5.0
100
AcDbArc
 50
0.0
 51
90.0
  0
LINE
  5
7F
330
1E
100
AcDbEntity
  8
0
  6
CENTER
 62
     7
100
AcDbLine
 10
141.6
 20
60.1
 30
0.0
 11
141.6
 21
33.89999999999999
 31
0.0
  0
ARC
  5
80
330
1E
100
AcDbEntity
  8
0
  6
CENTER
 62
     7
100
AcDbCircle
 10
138.6
 20
33.89999999999999
 30
0.0
 40
3.0
100
AcDbArc
 50
270.0
 51
0.0
  0
ENDBLK
  5
81
330
1E
100
AcDbEntity
  8
0
100
AcDbBlockEnd
  0
BLOCK
  5
82
330
1F
100
AcDbEntity
  8
0
100
AcDbBlockBegin
  2
DTY-EPP-BR2-2
 70
     0
 10
0.0
 20
0.0
 30
0.0
  3
DTY-EPP-BR2-2
  1

  0
LINE
  5
83
330
1F
100
AcDbEntity
  8
0
  6
CENTER
 62
     7
100
AcDbLine
 10
-5.0
 20
30.9
 30
0.0
 11
-4.5
 21
30.9
 31
0.0
  0
LINE
  5
84
330
1F
100
AcDbEntity
  8
0
  6
CENTER
 62
     7
100
AcDbLine
 10
4.5
 20
30.9
 30
0.0
 11
8.0
 21
30.9
 31
0.0
  0
ARC
  5
85
330
1F
100
AcDbEntity
  8
0
  6
CENTER
 62
     7
100
AcDbCircle
 10
8.0
 20
31.9
 30
0.0
 40
1.0
100
AcDbArc
 50
270.0
 51
0.0
  0
ARC
  5
86
330
1F
100
AcDbEntity
  8
0
  6
CENTER
 62
     7
100
AcDbCircle
 10
-5.0
 20
31.9
 30
0.0
 40
1.0
100
AcDbArc
 50
180.0
 51
270.0
  0
LINE
  5
87
330
1F
100
AcDbEntity
  8
0
  6
CENTER
 62
     7
100
AcDbLine
 10
-6.0
 20
31.9
 30
0.0
 11
-6.0
 21
53.5
 31
0.0
  0
LINE
  5
88
330
1F
100
AcDbEntity
  8
0
  6
CENTER
 62
     7
100
AcDbLine
 10
9.0
 20
31.9
 30
0.0
 11
9.0
 21
54.5
 31
0.0
  0
CIRCLE
  5
89
330
1F
100
AcDbEntity
  8
0
  6
Continuous
 62
     7
100
AcDbCircle
 10
-8.0
 20
61.0
 30
0.0
 40
1.6
  0
CIRCLE
  5
8A
330
1F
100
AcDbEntity
  8
0
  6
Continuous
 62
     2
100
AcDbCircle
 10
-8.0
 20
61.0
 30
0.0
 40
2.0
  0
CIRCLE
  5
8B
330
1F
100
AcDbEntity
  8
0
  6
Continuous
 62
     7
100
AcDbCircle
 10
9.0
 20
61.0
 30
0.0
 40
2.0
  0
CIRCLE
  5
8C
330
1F
100
AcDbEntity
  8
0
  6
Continuous
 62
     7
100
AcDbCircle
 10
9.0
 20
61.0
 30
0.0
 40
3.0
  0
CIRCLE
  5
8D
330
1F
100
AcDbEntity
  8
0
  6
Continuous
 62
     2
100
AcDbCircle
 10
-7.0
 20
18.0
 30
0.0
 40
1.0
  0
CIRCLE
  5
8E
330
1F
100
AcDbEntity
  8
0
  6
Continuous
 62
     7
100
AcDbCircle
 10
-7.0
 20
18.0
 30
0.0
 40
1.5
  0
LINE
  5
8F
330
1F
100
AcDbEntity
  8
0
  6
Continuous
 62
     7
100
AcDbLine
 10
-1.199998981119732
 20
-3.999998208886152
 30
0.0
 11
-1.999999088606728
 21
-3.199998775748553
 31
0.0
  0
LINE
  5
90
330
1F
100
AcDbEntity
  8
0
  6
Continuous
 62
     7
100
AcDbLine
 10
1.199998981119732
 20
-3.999998208886152
 30
0.0
 11
1.999999088606728
 21
-3.199998775748553
 31
0.0
  0
LINE
  5
91
330
1F
100
AcDbEntity
  8
0
  6
Continuous
 62
     7
100
AcDbLine
 10
1.199999809265136
 20
-4.0
 30
0.0
 11
-1.199999809265136
 21
-4.0
 31
0.0
  0
LINE
  5
92
330
1F
100
AcDbEntity
  8
0
  6
Continuous
 62
     7
100
AcDbLine
 10
2.0
 20
-3.200000762939451
 30
0.0
 11
-2.0
 21
-3.200000762939451
 31
0.0
  0
LINE
  5
93
330
1F
100
AcDbEntity
  8
0
  6
Continuous
 62
     2
100
AcDbLine
 10
-1.620999336242675
 20
0.0
 30
0.0
 11
-1.620999336242675
 21
-3.579000473022459
 31
0.0
  0
LINE
  5
94
330
1F
100
AcDbEntity
  8
0
  6
Continuous
 62
     7
100
AcDbLine
 10
-2.0
 20
0.0
 30
0.0
 11
-2.0
 21
-3.200000762939451
 31
0.0
  0
LINE
  5
95
330
1F
100
AcDbEntity
  8
0
  6
Continuous
 62
     2
100
AcDbLine
 10
1.620999336242675
 20
0.0
 30
0.0
 11
1.620999336242675
 21
-3.579000473022459
 31
0.0
  0
LINE
  5
96
330
1F
100
AcDbEntity
  8
0
  6
Continuous
 62
     7
100
AcDbLine
 10
2.0
 20
0.0
 30
0.0
 11
2.0
 21
-3.200000762939451
 31
0.0
  0
LINE
  5
97
330
1F
100
AcDbEntity
  8
0
  6
Continuous
 62
     7
100
AcDbLine
 10
-3.5
 20
9.699999809265136
 30
0.0
 11
-3.5
 21
6.0
 31
0.0
  0
LINE
  5
98
330
1F
100
AcDbEntity
  8
0
  6
Continuous
 62
     7
100
AcDbLine
 10
-3.499999582978261
 20
9.699999766960727
 30
0.0
 11
-2.980383948145685
 21
9.999999886169971
 31
0.0
  0
LINE
  5
99
330
1F
100
AcDbEntity
  8
0
  6
Continuous
 62
     7
100
AcDbLine
 10
3.5
 20
9.699999809265136
 30
0.0
 11
-3.5
 21
9.699999809265136
 31
0.0
  0
LINE
  5
9A
330
1F
100
AcDbEntity
  8
0
  6
Continuous
 62
     7
100
AcDbLine
 10
2.980384826660156
 20
10.0
 30
0.0
 11
-2.980383872985838
 21
10.0
 31
0.0
  0
LINE
  5
9B
330
1F
100
AcDbEntity
  8
0
  6
Continuous
 62
     7
100
AcDbLine
 10
3.499999908610787
 20
9.699999972612149
 30
0.0
 11
2.980384794019698
 21
9.999999960691212
 31
0.0
  0
LINE
  5
9C
330
1F
100
AcDbEntity
  8
0
  6
Continuous
 62
     7
100
AcDbLine
 10
3.5
 20
9.699999809265136
 30
0.0
 11
3.5
 21
6.0
 31
0.0
  0
LINE
  5
9D
330
1F
100
AcDbEntity
  8
0
  6
Continuous
 62
     2
100
AcDbLine
 10
-7.0
 20
14.20144487707807
 30
0.0
 11
-7.0
 21
21.56767155020429
 31
0.0
  0
LINE
  5
9E
330
1F
100
AcDbEntity
  8
0
  6
Continuous
 62
     2
100
AcDbLine
 10
-10.69480013152332
 20
18.0
 30
0.0
 11
-3.212569871764741
 21
18.0
 31
0.0
  0
LINE
  5
9F
330
1F
100
AcDbEntity
  8
0
  6
Continuous
 62
     7
100
AcDbLine
 10
-4.5
 20
68.5
 30
0.0
 11
-4.5
 21
71.0
 31
0.0
  0
LINE
  5
A0
330
1F
100
AcDbEntity
  8
0
  6
Continuous
 62
     7
100
AcDbLine
 10
4.5
 20
68.5
 30
0.0
 11
4.5
 21
71.0
 31
0.0
  0
LINE
  5
A1
330
1F
100
AcDbEntity
  8
0
  6
Continuous
 62
     2
100
AcDbLine
 10
-13.98345874764848
 20
61.0
 30
0.0
 11
19.8163544746036
 21
61.0
 31
0.0
  0
LINE
  5
A2
330
1F
100
AcDbEntity
  8
0
  6
Continuous
 62
     7
100
AcDbLine
 10
5.5
 20
53.49999999550522
 30
0.0
 11
5.5
 21
68.49999999550522
 31
0.0
  0
LINE
  5
A3
330
1F
100
AcDbEntity
  8
0
  6
Continuous
 62
     7
100
AcDbLine
 10
18.0
 20
54.49999999550522
 30
0.0
 11
18.0
 21
60.75
 31
0.0
  0
LINE
  5
A4
330
1F
100
AcDbEntity
  8
0
  6
Continuous
 62
     7
100
AcDbLine
 10
-12.0000000123118
 20
68.5
 30
0.0
 11
-4.5
 21
68.5
 31
0.0
  0
LINE
  5
A5
330
1F
100
AcDbEntity
  8
0
  6
Continuous
 62
     7
100
AcDbLine
 10
-12.0000000123118
 20
53.5
 30
0.0
 11
-4.5
 21
53.5
 31
0.0
  0
LINE
  5
A6
330
1F
100
AcDbEntity
  8
0
  6
Continuous
 62
     7
100
AcDbLine
 10
5.499999987688199
 20
67.5
 30
0.0
 11
17.9999999876882
 21
67.5
 31
0.0
  0
LINE
  5
A7
330
1F
100
AcDbEntity
  8
0
  6
Continuous
 62
     7
100
AcDbLine
 10
5.499999987688199
 20
54.5
 30
0.0
 11
17.9999999876882
 21
54.5
 31
0.0
  0
LINE
  5
A8
330
1F
100
AcDbEntity
  8
0
  6
Continuous
 62
     7
100
AcDbLine
 10
-12.0
 20
53.5
 30
0.0
 11
-12.0
 21
68.49999999550522
 31
0.0
  0
LINE
  5
A9
330
1F
100
AcDbEntity
  8
0
  6
Continuous
 62
     2
100
AcDbLine
 10
-8.0
 20
56.68579078204782
 30
0.0
 11
-8.0
 21
65.36691480425537
 31
0.0
  0
LINE
  5
AA
330
1F
100
AcDbEntity
  8
0
  6
Continuous
 62
     2
100
AcDbLine
 10
9.0
 20
56.76471009137328
 30
0.0
 11
9.0
 21
65.4458341171728
 31
0.0
  0
LINE
  5
AB
330
1F
100
AcDbEntity
  8
0
  6
Continuous
 62
     7
100
AcDbLine
 10
12.49106001094223
 20
61.25
 30
0.0
 11
18.0
 21
61.25
 31
0.0
  0
LINE
  5
AC
330
1F
100
AcDbEntity
  8
0
  6
Continuous
 62
     7
100
AcDbLine
 10
12.49106001094223
 20
60.75
 30
0.0
 11
18.0
 21
60.75
 31
0.0
  0
LINE
  5
AD
330
1F
100
AcDbEntity
  8
0
  6
Continuous
 62
     7
100
AcDbLine
 10
18.0
 20
61.25
 30
0.0
 11
18.0
 21
67.49999999550522
 31
0.0
  0
ARC
  5
AE
330
1F
100
AcDbEntity
  8
0
  6
Continuous
 62
     7
100
AcDbCircle
 10
0.0
 20
47.5
 30
0.0
 40
7.499999999999997
100
AcDbArc
 50
53.13010235415599
 51
126.869897645844
  0
LINE
  5
AF
330
1F
100
AcDbEntity
  8
0
  6
Continuous
 62
     7
100
AcDbLine
 10
4.5
 20
53.5
 30
0.0
 11
5.499999987688199
 21
53.5
 31
0.0
  0
ARC
  5
B0
330
1F
100
AcDbEntity
  8
0
  6
Continuous
 62
     7
100
AcDbCircle
 10
0.0
 20
74.5
 30
0.0
 40
7.499999999999997
100
AcDbArc
 50
233.130102354156
 51
306.869897645844
  0
LINE
  5
B1
330
1F
100
AcDbEntity
  8
0
  6
Continuous
 62
     7
100
AcDbLine
 10
4.5
 20
68.5
 30
0.0
 11
5.499999987688199
 21
68.5
 31
0.0
  0
LINE
  5
B2
330
1F
100
AcDbEntity
  8
0
  6
Continuous
 62
     7
100
AcDbLine
 10
-4.5
 20
71.0
 30
0.0
 11
4.5
 21
71.0
 31
0.0
  0
LINE
  5
B3
330
1F
100
AcDbEntity
  8
0
  6
Continuous
 62
     7
100
AcDbLine
 10
4.5
 20
22.0
 30
0.0
 11
4.5
 21
53.5
 31
0.0
  0
LINE
  5
B4
330
1F
100
AcDbEntity
  8
0
  6
Continuous
 62
     7
100
AcDbLine
 10
-4.5
 20
22.0
 30
0.0
 11
-4.5
 21
53.5
 31
0.0
  0
LINE
  5
B5
330
1F
100
AcDbEntity
  8
0
  6
Continuous
 62
     2
100
AcDbLine
 10
0.0
 20
-4.765138804077196
 30
0.0
 11
0.0
 21
75.08191366433369
 31
0.0
  0
LINE
  5
B6
330
1F
100
AcDbEntity
  8
0
  6
Continuous
 62
     7
100
AcDbLine
 10
-11.0
 20
0.0
 30
0.0
 11
7.0
 21
0.0
 31
0.0
  0
LINE
  5
B7
330
1F
100
AcDbEntity
  8
0
  6
Continuous
 62
     7
100
AcDbLine
 10
-11.0
 20
6.0
 30
0.0
 11
7.0
 21
6.0
 31
0.0
  0
LINE
  5
B8
330
1F
100
AcDbEntity
  8
0
  6
Continuous
 62
     7
100
AcDbLine
 10
-11.0
 20
22.0
 30
0.0
 11
7.0
 21
22.0
 31
0.0
  0
LINE
  5
B9
330
1F
100
AcDbEntity
  8
0
  6
Continuous
 62
     7
100
AcDbLine
 10
7.0
 20
0.0000000128050033
 30
0.0
 11
7.0
 21
22.000000012805
 31
0.0
  0
LINE
  5
BA
330
1F
100
AcDbEntity
  8
0
  6
Continuous
 62
     7
100
AcDbLine
 10
-11.0
 20
0.0000000128050033
 30
0.0
 11
-11.0
 21
22.000000012805
 31
0.0
  0
ENDBLK
  5
BB
330
1F
100
AcDbEntity
  8
0
100
AcDbBlockEnd
  0
BLOCK
  5
BC
330
20
100
AcDbEntity
  8
0
100
AcDbBlockBegin
  2
DTY-EPP-BR2-3
 70
     0
 10
0.0
 20
0.0
 30
0.0
  3
DTY-EPP-BR2-3
  1

  0
ARC
  5
BD
330
20
100
AcDbEntity
  8
0
  6
CENTER
 62
     7
100
AcDbCircle
 10
139.7
 20
-7.0
 30
0.0
 40
2.0
100
AcDbArc
 50
270.0
 51
0.0
  0
ARC
  5
BE
330
20
100
AcDbEntity
  8
0
  6
CENTER
 62
     7
100
AcDbCircle
 10
82.49999999999998
 20
-7.0
 30
0.0
 40
2.0
100
AcDbArc
 50
180.0
 51
270.0
  0
ARC
  5
BF
330
20
100
AcDbEntity
  8
0
  6
CENTER
 62
     7
100
AcDbCircle
 10
82.49999999999998
 20
4.0
 30
0.0
 40
2.0
100
AcDbArc
 50
90.0
 51
180.0
  0
ARC
  5
C0
330
20
100
AcDbEntity
  8
0
  6
CENTER
 62
     7
100
AcDbCircle
 10
139.7
 20
4.0
 30
0.0
 40
2.0
100
AcDbArc
 50
0.0
 51
90.0
  0
ARC
  5
C1
330
20
100
AcDbEntity
  8
0
  6
Continuous
 62
     7
100
AcDbCircle
 10
122.1
 20
-11.25
 30
0.0
 40
2.75
100
AcDbArc
 50
195.8266201318724
 51
344.1733798681276
  0
ARC
  5
C2
330
20
100
AcDbEntity
  8
0
  6
Continuous
 62
     7
100
AcDbCircle
 10
100.1
 20
-11.25
 30
0.0
 40
2.75
100
AcDbArc
 50
195.8266201318724
 51
344.1733798681276
  0
LINE
  5
C3
330
20
100
AcDbEntity
  8
0
  6
Continuous
 62
     7
100
AcDbLine
 10
80.0
 20
-9.0
 30
0.0
 11
77.0
 21
-6.0
 31
0.0
  0
LINE
  5
C4
330
20
100
AcDbEntity
  8
0
  6
Continuous
 62
     7
100
AcDbLine
 10
134.0
 20
-12.0
 30
0.0
 11
134.0
 21
-9.0
 31
0.0
  0
LINE
  5
C5
330
20
100
AcDbEntity
  8
0
  6
Continuous
 62
     7
100
AcDbLine
 10
134.0
 20
-12.0
 30
0.0
 11
135.0
 21
-10.99999999999997
 31
0.0
  0
LINE
  5
C6
330
20
100
AcDbEntity
  8
0
  6
Continuous
 62
     2
100
AcDbLine
 10
70.13058965223908
 20
-9.0
 30
0.0
 11
-15.84151486683262
 21
-9.0
 31
0.0
  0
LINE
  5
C7
330
20
100
AcDbEntity
  8
0
  6
Continuous
 62
     7
100
AcDbLine
 10
135.0
 20
-10.99999999999997
 30
0.0
 11
135.0
 21
-9.0
 31
0.0
  0
LINE
  5
C8
330
20
100
AcDbEntity
  8
0
  6
Continuous
 62
     7
100
AcDbLine
 10
-14.0
 20
-12.0
 30
0.0
 11
-15.0
 21
-11.0
 31
0.0
  0
LINE
  5
C9
330
20
100
AcDbEntity
  8
0
  6
Continuous
 62
     7
100
AcDbLine
 10
-14.0
 20
-6.0
 30
0.0
 11
-15.0
 21
-6.999999999999927
 31
0.0
  0
LINE
  5
CA
330
20
100
AcDbEntity
  8
0
  6
Continuous
 62
     7
100
AcDbLine
 10
-15.0
 20
-6.999999999999927
 30
0.0
 11
-15.0
 21
-11.0
 31
0.0
  0
LINE
  5
CB
330
20
100
AcDbEntity
  8
0
  6
Continuous
 62
     2
100
AcDbLine
 10
-6.035581160978224
 20
0.0
 30
0.0
 11
6.061305930138614
 21
0.0
 31
0.0
  0
CIRCLE
  5
CC
330
20
100
AcDbEntity
  8
0
  6
Continuous
 62
     7
100
AcDbCircle
 10
0.0
 20
0.0
 30
0.0
 40
3.6
  0
LINE
  5
CD
330
20
100
AcDbEntity
  8
0
  6
Continuous
 62
     7
100
AcDbLine
 10
-14.0
 20
-6.0
 30
0.0
 11
-6.5
 21
-6.0
 31
0.0
  0
LINE
  5
CE
330
20
100
AcDbEntity
  8
0
  6
Continuous
 62
     7
100
AcDbLine
 10
-14.0
 20
-12.0
 30
0.0
 11
-6.5
 21
-12.0
 31
0.0
  0
LINE
  5
CF
330
20
100
AcDbEntity
  8
0
  6
Continuous
 62
     7
100
AcDbLine
 10
6.5
 20
-6.0
 30
0.0
 11
76.99999999999999
 21
-6.0
 31
0.0
  0
LINE
  5
D0
330
20
100
AcDbEntity
  8
0
  6
Continuous
 62
     7
100
AcDbLine
 10
6.5
 20
-12.0
 30
0.0
 11
134.0
 21
-12.0
 31
0.0
  0
LINE
  5
D1
330
20
100
AcDbEntity
  8
0
  6
Continuous
 62
     7
100
AcDbLine
 10
7.5
 20
11.0
 30
0.0
 11
15.99999999546611
 21
11.0
 31
0.0
  0
CIRCLE
  5
D2
330
20
100
AcDbEntity
  8
0
  6
Continuous
 62
     7
100
AcDbCircle
 10
0.0
 20
-14.0
 30
0.0
 40
3.0
  0
LINE
  5
D3
330
20
100
AcDbEntity
  8
0
  6
Continuous
 62
     2
100
AcDbLine
 10
-4.132438524590155
 20
-14.0
 30
0.0
 11
4.089137668883211
 21
-14.0
 31
0.0
  0
CIRCLE
  5
D4
330
20
100
AcDbEntity
  8
0
  6
Continuous
 62
     7
100
AcDbCircle
 10
0.0000001192092896
 20
-14.0
 30
0.0
 40
2.403589248657226
  0
CIRCLE
  5
D5
330
20
100
AcDbEntity
  8
0
  6
Continuous
 62
     7
100
AcDbCircle
 10
0.0
 20
-14.0
 30
0.0
 40
2.75
  0
LINE
  5
D6
330
20
100
AcDbEntity
  8
0
  6
Continuous
 62
     7
100
AcDbLine
 10
-0.7216879559569236
 20
-12.75000007973472
 30
0.0
 11
-1.443375663656724
 21
-14.00000006927689
 31
0.0
  0
LINE
  5
D7
330
20
100
AcDbEntity
  8
0
  6
Continuous
 62
     7
100
AcDbLine
 10
1.443374837750496
 20
-13.999999453886
 30
0.0
 11
0.7216871300506968
 21
-15.24999944342818
 31
0.0
  0
LINE
  5
D8
330
20
100
AcDbEntity
  8
0
  6
Continuous
 62
     7
100
AcDbLine
 10
-1.443374837750496
 20
-13.999999453886
 30
0.0
 11
-0.7216871300506968
 21
-15.24999944342818
 31
0.0
  0
LINE
  5
D9
330
20
100
AcDbEntity
  8
0
  6
Continuous
 62
     7
100
AcDbLine
 10
0.7216879559569236
 20
-12.75000007973472
 30
0.0
 11
1.443375663656724
 21
-14.00000006927689
 31
0.0
  0
LINE
  5
DA
330
20
100
AcDbEntity
  8
0
  6
Continuous
 62
     7
100
AcDbLine
 10
0.721687912940979
 20
-15.25
 30
0.0
 11
-0.721687912940979
 21
-15.25
 31
0.0
  0
LINE
  5
DB
330
20
100
AcDbEntity
  8
0
  6
Continuous
 62
     7
100
AcDbLine
 10
0.7216880321502686
 20
-12.75
 30
0.0
 11
-0.7216880321502686
 21
-12.75
 31
0.0
  0
LINE
  5
DC
330
20
100
AcDbEntity
  8
0
  6
Continuous
 62
     7
100
AcDbLine
 10
0.25
 20
12.0
 30
0.0
 11
7.499999995505218
 21
12.0
 31
0.0
  0
LINE
  5
DD
330
20
100
AcDbEntity
  8
0
  6
Continuous
 62
     7
100
AcDbLine
 10
-0.25
 20
12.0
 30
0.0
 11
-0.25
 21
4.493050188902857
 31
0.0
  0
LINE
  5
DE
330
20
100
AcDbEntity
  8
0
  6
Continuous
 62
     7
100
AcDbLine
 10
0.25
 20
12.0
 30
0.0
 11
0.25
 21
4.493050188902857
 31
0.0
  0
LINE
  5
DF
330
20
100
AcDbEntity
  8
0
  6
Continuous
 62
     7
100
AcDbLine
 10
-6.5
 20
-5.499999987688199
 30
0.0
 11
-6.5
 21
-6.0
 31
0.0
  0
LINE
  5
E0
330
20
100
AcDbEntity
  8
0
  6
Continuous
 62
     7
100
AcDbLine
 10
6.5
 20
-5.499999987688199
 30
0.0
 11
6.5
 21
-6.0
 31
0.0
  0
LINE
  5
E1
330
20
100
AcDbEntity
  8
0
  6
Continuous
 62
     7
100
AcDbLine
 10
-7.5
 20
12.0000000123118
 30
0.0
 11
-7.5
 21
-5.499999987688199
 31
0.0
  0
LINE
  5
E2
330
20
100
AcDbEntity
  8
0
  6
Continuous
 62
     7
100
AcDbLine
 10
7.5
 20
12.0000000123118
 30
0.0
 11
7.5
 21
-5.499999987688199
 31
0.0
  0
LINE
  5
E3
330
20
100
AcDbEntity
  8
0
  6
Continuous
 62
     7
100
AcDbLine
 10
-6.500000004494777
 20
-18.0
 30
0.0
 11
6.499999995505219
 21
-18.0
 31
0.0
  0
LINE
  5
E4
330
20
100
AcDbEntity
  8
0
  6
Continuous
 62
     7
100
AcDbLine
 10
-7.500000004494777
 20
-5.5
 30
0.0
 11
7.499999995505218
 21
-5.5
 31
0.0
  0
LINE
  5
E5
330
20
100
AcDbEntity
  8
0
  6
Continuous
 62
     7
100
AcDbLine
 10
-7.500000004494777
 20
12.0
 30
0.0
 11
-0.25
 21
12.0
 31
0.0
  0
LINE
  5
E6
330
20
100
AcDbEntity
  8
0
  6
Continuous
 62
     2
100
AcDbLine
 10
0.0
 20
13.98345874764848
 30
0.0
 11
0.0
 21
-19.8163544746036
 31
0.0
  0
ARC
  5
E7
330
20
100
AcDbEntity
  8
0
  6
Continuous
 62
     7
100
AcDbCircle
 10
12.125
 20
-9.0
 30
0.0
 40
6.375
100
AcDbArc
 50
151.927513064147
 51
208.072486935853
  0
LINE
  5
E8
330
20
100
AcDbEntity
  8
0
  6
Continuous
 62
     7
100
AcDbLine
 10
6.5
 20
-12.0
 30
0.0
 11
6.5
 21
-17.9999999876882
 31
0.0
  0
ARC
  5
E9
330
20
100
AcDbEntity
  8
0
  6
Continuous
 62
     7
100
AcDbCircle
 10
-12.125
 20
-9.0
 30
0.0
 40
6.375
100
AcDbArc
 50
331.9275130641471
 51
28.07248693585297
  0
LINE
  5
EA
330
20
100
AcDbEntity
  8
0
  6
Continuous
 62
     7
100
AcDbLine
 10
-6.5
 20
-12.0
 30
0.0
 11
-6.5
 21
-17.9999999876882
 31
0.0
  0
LINE
  5
EB
330
20
100
AcDbEntity
  8
0
  6
Continuous
 62
     7
100
AcDbLine
 10
-14.0
 20
-6.0
 30
0.0
 11
-14.0
 21
-12.0
 31
0.0
  0
LINE
  5
EC
330
20
100
AcDbEntity
  8
0
  6
Continuous
 62
     2
100
AcDbLine
 10
11.69778997159397
 20
7.0
 30
0.0
 11
6.231171497017227
 21
7.0
 31
0.0
  0
LINE
  5
ED
330
20
100
AcDbEntity
  8
0
  6
Continuous
 62
     7
100
AcDbLine
 10
10.80000019073485
 20
4.25
 30
0.0
 11
8.0
 21
4.25
 31
0.0
  0
LINE
  5
EE
330
20
100
AcDbEntity
  8
0
  6
Continuous
 62
     7
100
AcDbLine
 10
10.79999976533162
 20
4.250000338950428
 30
0.0
 11
10.9999997653316
 21
4.596410624521097
 31
0.0
  0
LINE
  5
EF
330
20
100
AcDbEntity
  8
0
  6
Continuous
 62
     7
100
AcDbLine
 10
10.80000019073485
 20
9.75
 30
0.0
 11
10.80000019073485
 21
4.25
 31
0.0
  0
LINE
  5
F0
330
20
100
AcDbEntity
  8
0
  6
Continuous
 62
     7
100
AcDbLine
 10
11.0
 20
9.403589248657224
 30
0.0
 11
11.0
 21
4.596410751342771
 31
0.0
  0
LINE
  5
F1
330
20
100
AcDbEntity
  8
0
  6
Continuous
 62
     7
100
AcDbLine
 10
10.79999903174976
 20
9.750000205027733
 30
0.0
 11
10.99999938937773
 21
9.403589578029595
 31
0.0
  0
LINE
  5
F2
330
20
100
AcDbEntity
  8
0
  6
Continuous
 62
     7
100
AcDbLine
 10
10.80000019073485
 20
9.75
 30
0.0
 11
8.0
 21
9.75
 31
0.0
  0
CIRCLE
  5
F3
330
20
100
AcDbEntity
  8
0
  6
Continuous
 62
     7
100
AcDbCircle
 10
-12.0
 20
0.0
 30
0.0
 40
2.1
  0
CIRCLE
  5
F4
330
20
100
AcDbEntity
  8
0
  6
Continuous
 62
     7
100
AcDbCircle
 10
12.0
 20
0.0
 30
0.0
 40
2.1
  0
LINE
  5
F5
330
20
100
AcDbEntity
  8
0
  6
Continuous
 62
     2
100
AcDbLine
 10
8.749169091980832
 20
0.0
 30
0.0
 11
15.22883921427905
 21
0.0
 31
0.0
  0
CIRCLE
  5
F6
330
20
100
AcDbEntity
  8
0
  6
Continuous
 62
     7
100
AcDbCircle
 10
0.0
 20
0.0
 30
0.0
 40
4.5
  0
LINE
  5
F7
330
20
100
AcDbEntity
  8
0
  6
Continuous
 62
     2
100
AcDbLine
 10
12.0
 20
-3.113857078311069
 30
0.0
 11
12.0
 21
3.317815487525678
 31
0.0
  0
LINE
  5
F8
330
20
100
AcDbEntity
  8
0
  6
Continuous
 62
     2
100
AcDbLine
 10
-12.0
 20
-3.305847304156941
 30
0.0
 11
-12.0
 21
3.344740946028479
 31
0.0
  0
LINE
  5
F9
330
20
100
AcDbEntity
  8
0
  6
Continuous
 62
     2
100
AcDbLine
 10
-15.00962135644593
 20
0.0
 30
0.0
 11
-9.15391946814681
 21
0.0
 31
0.0
  0
LINE
  5
FA
330
20
100
AcDbEntity
  8
0
  6
Continuous
 62
     7
100
AcDbLine
 10
-16.0
 20
11.0
 30
0.0
 11
-16.0
 21
-7.0
 31
0.0
  0
LINE
  5
FB
330
20
100
AcDbEntity
  8
0
  6
Continuous
 62
     7
100
AcDbLine
 10
-8.0
 20
11.0
 30
0.0
 11
-8.0
 21
-6.0
 31
0.0
  0
LINE
  5
FC
330
20
100
AcDbEntity
  8
0
  6
Continuous
 62
     7
100
AcDbLine
 10
8.0
 20
11.0
 30
0.0
 11
8.0
 21
-6.0
 31
0.0
  0
LINE
  5
FD
330
20
100
AcDbEntity
  8
0
  6
Continuous
 62
     7
100
AcDbLine
 10
16.0
 20
11.0
 30
0.0
 11
16.0
 21
-6.0
 31
0.0
  0
LINE
  5
FE
330
20
100
AcDbEntity
  8
0
  6
Continuous
 62
     7
100
AcDbLine
 10
-16.00000000453389
 20
-7.0
 30
0.0
 11
-15.0
 21
-7.0
 31
0.0
  0
LINE
  5
FF
330
20
100
AcDbEntity
  8
0
  6
Continuous
 62
     7
100
AcDbLine
 10
-16.00000000453389
 20
11.0
 30
0.0
 11
-7.5
 21
11.0
 31
0.0
  0
LINE
  5
100
330
20
100
AcDbEntity
  8
0
  6
CENTER
 62
     7
100
AcDbLine
 10
80.49999999999998
 20
4.0
 30
0.0
 11
80.49999999999998
 21
-7.0
 31
0.0
  0
LINE
  5
101
330
20
100
AcDbEntity
  8
0
  6
CENTER
 62
     7
100
AcDbLine
 10
141.6999999999999
 20
4.0
 30
0.0
 11
141.6999999999999
 21
-7.0
 31
0.0
  0
LINE
  5
102
330
20
100
AcDbEntity
  8
0
  6
CENTER
 62
     7
100
AcDbLine
 10
82.49999999999998
 20
6.0
 30
0.0
 11
139.7
 21
6.0
 31
0.0
  0
LINE
  5
103
330
20
100
AcDbEntity
  8
0
  6
Continuous
 62
     7
100
AcDbLine
 10
80.0
 20
-9.0
 30
0.0
 11
139.7
 21
-9.0
 31
0.0
  0
ENDBLK
  5
104
330
20
100
AcDbEntity
  8
0
100
AcDbBlockEnd
  0
BLOCK
  5
22
330
21
100
AcDbEntity
  8
0
 62
     0
100
AcDbBlockBegin
  2
_OPEN30
 70
     2
 10
0.0
 20
0.0
 30
0.0
  3
_OPEN30
  1

  0
LINE
  5
23
330
21
100
AcDbEntity
  8
0
  6
ByBlock
 62
     0
100
AcDbLine
 10
-1.0
 20
0.267949
 30
0.0
 11
0.0
 21
0.0
 31
0.0
  0
LINE
  5
24
330
21
100
AcDbEntity
  8
0
  6
ByBlock
 62
     0
100
AcDbLine
 10
0.0
 20
0.0
 30
0.0
 11
-1.0
 21
-0.267949
 31
0.0
  0
LINE
  5
25
330
21
100
AcDbEntity
  8
0
  6
ByBlock
 62
     0
100
AcDbLine
 10
0.0
 20
0.0
 30
0.0
 11
-1.0
 21
0.0
 31
0.0
  0
ENDBLK
  5
26
330
21
100
AcDbEntity
  8
0
 62
     0
100
AcDbBlockEnd
  0
ENDSEC
  0
SECTION
  2
ENTITIES
  0
LINE
  5
403
330
A
100
AcDbEntity
  8
0
  6
Continuous
 62
     7
100
AcDbLine
 10
99.37952950263913
 20
195.9286760249742
 30
0.0
 11
339.3795295026391
 21
195.9286760249742
 31
0.0
  0
MTEXT
  5
404
330
A
100
AcDbEntity
  8
0
  6
Continuous
 62
     7
100
AcDbMText
 10
297.3372282688643
 20
193.3686661639819
 30
0.0
 40
3.199999809265136
 41
0.0
 71
     1
 72
     5
  1
\W1.121;\A1;KOGANEI CORP.
 73
     1
 44
1.0
1001
ACAD
1000
MTEXTBEGIN
1070
    73
1070
     1
1070
    44
1040
1.0
1070
    74
1070
     0
1000
MTEXTEND
  0
MTEXT
  5
405
330
A
100
AcDbEntity
  8
0
  6
Continuous
 62
     7
100
AcDbMText
 10
104.7531764059071
 20
199.4286760249742
 30
0.0
 40
3.199999809265136
 41
0.0
 71
     4
 72
     5
  1
{\W1.076;MUFFLER}
 73
     1
 44
1.0
1001
ACAD
1000
ACAD_MTEXT_DEFINED_HEIGHT_BEGIN
1070
    46
1040
0.0
1000
ACAD_MTEXT_DEFINED_HEIGHT_END
1000
MTEXTBEGIN
1070
    73
1070
     1
1070
    44
1040
1.0
1070
    74
1070
     0
1000
MTEXTEND
  0
LINE
  5
406
330
A
100
AcDbEntity
  8
0
  6
Continuous
 62
     7
100
AcDbLine
 10
99.37952950263913
 20
203.9286760249743
 30
0.0
 11
99.37952950263913
 21
195.9286760249742
 31
0.0
  0
MTEXT
  5
407
330
A
100
AcDbEntity
  8
0
  6
Continuous
 62
     7
100
AcDbMText
 10
299.2789837758005
 20
199.9286760249742
 30
0.0
 40
3.199999809265136
 41
0.0
 71
     4
 72
     5
  1
{\W1.311;Rev. 1.0}
 73
     1
 44
1.0
1001
ACAD
1000
ACAD_MTEXT_DEFINED_HEIGHT_BEGIN
1070
    46
1040
0.0
1000
ACAD_MTEXT_DEFINED_HEIGHT_END
1000
MTEXTBEGIN
1070
    73
1070
     1
1070
    44
1040
1.0
1070
    74
1070
     0
1000
MTEXTEND
  0
MTEXT
  5
408
330
A
100
AcDbEntity
  8
0
  6
Continuous
 62
     7
100
AcDbMText
 10
249.512863185653
 20
199.9286760249742
 30
0.0
 40
3.199999809265136
 41
0.0
 71
     4
 72
     5
  1
KM1
 73
     1
 44
1.0
1001
ACAD
1000
ACAD_MTEXT_DEFINED_HEIGHT_BEGIN
1070
    46
1040
0.0
1000
ACAD_MTEXT_DEFINED_HEIGHT_END
1000
MTEXTBEGIN
1070
    73
1070
     1
1070
    44
1040
1.0
1070
    74
1070
     0
1000
MTEXTEND
  0
LINE
  5
409
330
A
100
AcDbEntity
  8
0
  6
Continuous
 62
     7
100
AcDbLine
 10
227.3795295026391
 20
203.9286760249743
 30
0.0
 11
227.3795295026391
 21
195.9286760249742
 31
0.0
  0
LINE
  5
40A
330
A
100
AcDbEntity
  8
0
  6
Continuous
 62
     7
100
AcDbLine
 10
283.3795295026391
 20
203.9286760249743
 30
0.0
 11
283.3795295026391
 21
187.9286760249742
 31
0.0
  0
MTEXT
  5
40B
330
A
100
AcDbEntity
  8
0
  6
Continuous
 62
     7
100
AcDbMText
 10
-19.9538063738257
 20
208.9286760249743
 30
0.0
 40
3.200000047683714
 41
0.0
 71
     5
 72
     5
  1
\W0.853;\A1;MODEL
 73
     1
 44
1.0
1001
ACAD
1000
MTEXTBEGIN
1070
    73
1070
     1
1070
    44
1040
1.0
1070
    74
1070
     0
1000
MTEXTEND
  0
MTEXT
  5
40C
330
A
100
AcDbEntity
  8
0
  6
Continuous
 62
     7
100
AcDbMText
 10
72.37952950263911
 20
210.5286760488162
 30
0.0
 40
3.200000047683714
 41
0.0
 71
     2
 72
     5
  1
{\W0.872;KM-41}
 73
     1
 44
1.0
1001
ACAD
1000
ACAD_MTEXT_DEFINED_HEIGHT_BEGIN
1070
    46
1040
0.0
1000
ACAD_MTEXT_DEFINED_HEIGHT_END
1000
MTEXTBEGIN
1070
    73
1070
     1
1070
    44
1040
1.0
1070
    74
1070
     0
1000
MTEXTEND
  0
MTEXT
  5
40D
330
A
100
AcDbEntity
  8
0
  6
Continuous
 62
     7
100
AcDbMText
 10
72.37952950263911
 20
332.5286760488161
 30
0.0
 40
3.200000047683714
 41
0.0
 71
     2
 72
     5
  1
{\W0.91;KM-22}
 73
     1
 44
1.0
1001
ACAD
1000
ACAD_MTEXT_DEFINED_HEIGHT_BEGIN
1070
    46
1040
0.0
1000
ACAD_MTEXT_DEFINED_HEIGHT_END
1000
MTEXTBEGIN
1070
    73
1070
     1
1070
    44
1040
1.0
1070
    74
1070
     0
1000
MTEXTEND
  0
MTEXT
  5
40E
330
A
100
AcDbEntity
  8
0
  6
Continuous
 62
     7
100
AcDbMText
 10
-19.9538063738257
 20
330.9286760249743
 30
0.0
 40
3.200000047683714
 41
0.0
 71
     5
 72
     5
  1
\W0.853;\A1;MODEL
 73
     1
 44
1.0
1001
ACAD
1000
MTEXTBEGIN
1070
    73
1070
     1
1070
    44
1040
1.0
1070
    74
1070
     0
1000
MTEXTEND
  0
MTEXT
  5
40F
330
A
100
AcDbEntity
  8
0
  6
Continuous
 62
     7
100
AcDbMText
 10
164.7128653791039
 20
330.9286760249743
 30
0.0
 40
3.200000047683714
 41
0.0
 71
     5
 72
     5
  1
\W0.853;\A1;MODEL
 73
     1
 44
1.0
1001
ACAD
1000
MTEXTBEGIN
1070
    73
1070
     1
1070
    44
1040
1.0
1070
    74
1070
     0
1000
MTEXTEND
  0
MTEXT
  5
410
330
A
100
AcDbEntity
  8
0
  6
Continuous
 62
     7
100
AcDbMText
 10
257.0462012555688
 20
332.5286760488161
 30
0.0
 40
3.200000047683714
 41
0.0
 71
     2
 72
     5
  1
{\W0.853;KM-23}
 73
     1
 44
1.0
1001
ACAD
1000
ACAD_MTEXT_DEFINED_HEIGHT_BEGIN
1070
    46
1040
0.0
1000
ACAD_MTEXT_DEFINED_HEIGHT_END
1000
MTEXTBEGIN
1070
    73
1070
     1
1070
    44
1040
1.0
1070
    74
1070
     0
1000
MTEXTEND
  0
MTEXT
  5
411
330
A
100
AcDbEntity
  8
0
  6
Continuous
 62
     7
100
AcDbMText
 10
257.0462012555688
 20
454.5286760488161
 30
0.0
 40
3.200000047683714
 41
0.0
 71
     2
 72
     5
  1
{\W0.853;KM-10}
 73
     1
 44
1.0
1001
ACAD
1000
ACAD_MTEXT_DEFINED_HEIGHT_BEGIN
1070
    46
1040
0.0
1000
ACAD_MTEXT_DEFINED_HEIGHT_END
1000
MTEXTBEGIN
1070
    73
1070
     1
1070
    44
1040
1.0
1070
    74
1070
     0
1000
MTEXTEND
  0
MTEXT
  5
412
330
A
100
AcDbEntity
  8
0
  6
Continuous
 62
     7
100
AcDbMText
 10
164.7128653791039
 20
452.9286760249743
 30
0.0
 40
3.200000047683714
 41
0.0
 71
     5
 72
     5
  1
\W0.853;\A1;MODEL
 73
     1
 44
1.0
1001
ACAD
1000
MTEXTBEGIN
1070
    73
1070
     1
1070
    44
1040
1.0
1070
    74
1070
     0
1000
MTEXTEND
  0
MTEXT
  5
413
330
A
100
AcDbEntity
  8
0
  6
Continuous
 62
     7
100
AcDbMText
 10
-19.9538063738257
 20
452.9286760249743
 30
0.0
 40
3.200000047683714
 41
0.0
 71
     5
 72
     5
  1
\W0.853;\A1;MODEL
 73
     1
 44
1.0
1001
ACAD
1000
MTEXTBEGIN
1070
    73
1070
     1
1070
    44
1040
1.0
1070
    74
1070
     0
1000
MTEXTEND
  0
MTEXT
  5
414
330
A
100
AcDbEntity
  8
0
  6
Continuous
 62
     7
100
AcDbMText
 10
72.37952950263911
 20
454.5286760488161
 30
0.0
 40
3.200000047683714
 41
0.0
 71
     2
 72
     5
  1
{\W0.853;KM-05}
 73
     1
 44
1.0
1001
ACAD
1000
ACAD_MTEXT_DEFINED_HEIGHT_BEGIN
1070
    46
1040
0.0
1000
ACAD_MTEXT_DEFINED_HEIGHT_END
1000
MTEXTBEGIN
1070
    73
1070
     1
1070
    44
1040
1.0
1070
    74
1070
     0
1000
MTEXTEND
  0
MTEXT
  5
415
330
A
100
AcDbEntity
  8
0
  6
Continuous
 62
     7
100
AcDbMText
 10
-204.6204704973609
 20
208.9286760249743
 30
0.0
 40
3.200000047683714
 41
0.0
 71
     5
 72
     5
  1
\W0.853;\A1;MODEL
 73
     1
 44
1.0
1001
ACAD
1000
MTEXTBEGIN
1070
    73
1070
     1
1070
    44
1040
1.0
1070
    74
1070
     0
1000
MTEXTEND
  0
MTEXT
  5
416
330
A
100
AcDbEntity
  8
0
  6
Continuous
 62
     7
100
AcDbMText
 10
-112.2871422502905
 20
210.5286760488162
 30
0.0
 40
3.200000047683714
 41
0.0
 71
     2
 72
     5
  1
{\W0.91;KM-31}
 73
     1
 44
1.0
1001
ACAD
1000
ACAD_MTEXT_DEFINED_HEIGHT_BEGIN
1070
    46
1040
0.0
1000
ACAD_MTEXT_DEFINED_HEIGHT_END
1000
MTEXTBEGIN
1070
    73
1070
     1
1070
    44
1040
1.0
1070
    74
1070
     0
1000
MTEXTEND
  0
MTEXT
  5
417
330
A
100
AcDbEntity
  8
0
  6
Continuous
 62
     7
100
AcDbMText
 10
-204.6204704973609
 20
330.9286760249743
 30
0.0
 40
3.200000047683714
 41
0.0
 71
     5
 72
     5
  1
\W0.853;\A1;MODEL
 73
     1
 44
1.0
1001
ACAD
1000
MTEXTBEGIN
1070
    73
1070
     1
1070
    44
1040
1.0
1070
    74
1070
     0
1000
MTEXTEND
  0
MTEXT
  5
418
330
A
100
AcDbEntity
  8
0
  6
Continuous
 62
     7
100
AcDbMText
 10
-112.2871422502905
 20
332.5286760488161
 30
0.0
 40
3.200000047683714
 41
0.0
 71
     2
 72
     5
  1
{\W0.853;KM-11}
 73
     1
 44
1.0
1001
ACAD
1000
ACAD_MTEXT_DEFINED_HEIGHT_BEGIN
1070
    46
1040
0.0
1000
ACAD_MTEXT_DEFINED_HEIGHT_END
1000
MTEXTBEGIN
1070
    73
1070
     1
1070
    44
1040
1.0
1070
    74
1070
     0
1000
MTEXTEND
  0
MTEXT
  5
419
330
A
100
AcDbEntity
  8
0
  6
Continuous
 62
     7
100
AcDbMText
 10
-204.6204704973609
 20
452.9286760249743
 30
0.0
 40
3.200000047683714
 41
0.0
 71
     5
 72
     5
  1
\W0.853;\A1;MODEL
 73
     1
 44
1.0
1001
ACAD
1000
MTEXTBEGIN
1070
    73
1070
     1
1070
    44
1040
1.0
1070
    74
1070
     0
1000
MTEXTEND
  0
MTEXT
  5
41A
330
A
100
AcDbEntity
  8
0
  6
Continuous
 62
     7
100
AcDbMText
 10
-112.2871422502905
 20
454.5286760488161
 30
0.0
 40
3.200000047683714
 41
0.0
 71
     2
 72
     5
  1
{\W0.853;KM-03}
 73
     1
 44
1.0
1001
ACAD
1000
ACAD_MTEXT_DEFINED_HEIGHT_BEGIN
1070
    46
1040
0.0
1000
ACAD_MTEXT_DEFINED_HEIGHT_END
1000
MTEXTBEGIN
1070
    73
1070
     1
1070
    44
1040
1.0
1070
    74
1070
     0
1000
MTEXTEND
  0
LINE
  5
41B
330
A
100
AcDbEntity
  8
0
  6
Continuous
 62
     7
100
AcDbLine
 10
-9.953806373825726
 20
212.9286760249743
 30
0.0
 11
-9.953806373825726
 21
204.9286760249743
 31
0.0
  0
LINE
  5
41C
330
A
100
AcDbEntity
  8
0
  6
Continuous
 62
     7
100
AcDbLine
 10
-9.953806373825726
 20
334.9286760249743
 30
0.0
 11
-9.953806373825726
 21
326.9286760249743
 31
0.0
  0
LINE
  5
41D
330
A
100
AcDbEntity
  8
0
  6
Continuous
 62
     7
100
AcDbLine
 10
174.7128653791039
 20
334.9286760249743
 30
0.0
 11
174.7128653791039
 21
326.9286760249743
 31
0.0
  0
LINE
  5
41E
330
A
100
AcDbEntity
  8
0
  6
Continuous
 62
     7
100
AcDbLine
 10
174.7128653791039
 20
456.9286760249743
 30
0.0
 11
174.7128653791039
 21
448.9286760249743
 31
0.0
  0
LINE
  5
41F
330
A
100
AcDbEntity
  8
0
  6
Continuous
 62
     7
100
AcDbLine
 10
-9.953806373825726
 20
456.9286760249743
 30
0.0
 11
-9.953806373825726
 21
448.9286760249743
 31
0.0
  0
LINE
  5
420
330
A
100
AcDbEntity
  8
0
  6
Continuous
 62
     7
100
AcDbLine
 10
-214.6204704973609
 20
212.9286760249743
 30
0.0
 11
339.3795295026391
 21
212.9286760249743
 31
0.0
  0
LINE
  5
421
330
A
100
AcDbEntity
  8
0
  6
Continuous
 62
     7
100
AcDbLine
 10
-194.6204704973609
 20
212.9286760249743
 30
0.0
 11
-194.6204704973609
 21
204.9286760249743
 31
0.0
  0
LINE
  5
422
330
A
100
AcDbEntity
  8
0
  6
Continuous
 62
     7
100
AcDbLine
 10
-214.6204704973609
 20
334.9286760249743
 30
0.0
 11
339.3795295026391
 21
334.9286760249743
 31
0.0
  0
LINE
  5
423
330
A
100
AcDbEntity
  8
0
  6
Continuous
 62
     7
100
AcDbLine
 10
-194.6204704973609
 20
334.9286760249743
 30
0.0
 11
-194.6204704973609
 21
326.9286760249743
 31
0.0
  0
LINE
  5
424
330
A
100
AcDbEntity
  8
0
  6
Continuous
 62
     7
100
AcDbLine
 10
-214.6204704973609
 20
456.9286760249743
 30
0.0
 11
339.3795295026391
 21
456.9286760249743
 31
0.0
  0
LINE
  5
425
330
A
100
AcDbEntity
  8
0
  6
Continuous
 62
     7
100
AcDbLine
 10
-194.6204704973609
 20
456.9286760249743
 30
0.0
 11
-194.6204704973609
 21
448.9286760249743
 31
0.0
  0
LINE
  5
426
330
A
100
AcDbEntity
  8
0
  6
Continuous
 62
     7
100
AcDbLine
 10
-214.6204704973609
 20
326.9286760249743
 30
0.0
 11
339.3795295026391
 21
326.9286760249743
 31
0.0
  0
LINE
  5
427
330
A
100
AcDbEntity
  8
0
  6
Continuous
 62
     7
100
AcDbLine
 10
-214.6204704973609
 20
448.9286760249743
 30
0.0
 11
339.3795295026391
 21
448.9286760249743
 31
0.0
  0
LINE
  5
428
330
A
100
AcDbEntity
  8
0
  6
Continuous
 62
     7
100
AcDbLine
 10
154.7128653791039
 20
570.9286760249742
 30
0.0
 11
154.7128653791039
 21
204.9286760249743
 31
0.0
  0
LINE
  5
429
330
A
100
AcDbEntity
  8
0
  6
Continuous
 62
     7
100
AcDbLine
 10
-29.95380637382573
 20
570.9286760249742
 30
0.0
 11
-29.95380637382573
 21
204.9286760249743
 31
0.0
  0
LINE
  5
42A
330
A
100
AcDbEntity
  8
0
  6
Continuous
 62
     7
100
AcDbLine
 10
-214.6204704973609
 20
203.9286760249743
 30
0.0
 11
339.3795295026391
 21
203.9286760249743
 31
0.0
  0
LINE
  5
42B
330
A
100
AcDbEntity
  8
0
  6
Continuous
 62
     7
100
AcDbLine
 10
-214.6204704973609
 20
204.9286760249743
 30
0.0
 11
339.3795295026391
 21
204.9286760249743
 31
0.0
  0
LINE
  5
42C
330
A
100
AcDbEntity
  8
0
  6
Continuous
 62
     7
100
AcDbLine
 10
-214.6204704973609
 20
570.9286760249742
 30
0.0
 11
-214.6204704973609
 21
187.9286760249742
 31
0.0
  0
LINE
  5
42D
330
A
100
AcDbEntity
  8
0
  6
Continuous
 62
     7
100
AcDbLine
 10
339.3795295026391
 20
570.9286760249742
 30
0.0
 11
339.3795295026391
 21
187.9286760249742
 31
0.0
  0
LINE
  5
42E
330
A
100
AcDbEntity
  8
0
  6
Continuous
 62
     7
100
AcDbLine
 10
-214.6204704973609
 20
570.9286760249742
 30
0.0
 11
339.3795295026391
 21
570.9286760249742
 31
0.0
  0
LINE
  5
42F
330
A
100
AcDbEntity
  8
0
  6
Continuous
 62
     7
100
AcDbLine
 10
-214.6204704973609
 20
187.9286760249742
 30
0.0
 11
339.3795295026391
 21
187.9286760249742
 31
0.0
  0
LINE
  5
430
330
A
100
AcDbEntity
  8
0
  6
CENTER
 62
     2
100
AcDbLine
 10
-169.6204704973609
 20
517.8205150249741
 30
0.0
 11
-169.6204704973609
 21
510.1459820249742
 31
0.0
  0
LINE
  5
431
330
A
100
AcDbEntity
  8
0
  6
CENTER
 62
     2
100
AcDbLine
 10
-173.4287284973609
 20
513.9286760249742
 30
0.0
 11
-165.7886124973608
 21
513.9286760249742
 31
0.0
  0
LINE
  5
432
330
A
100
AcDbEntity
  8
0
 62
     2
100
AcDbLine
 10
-94.12047049736088
 20
512.6786760249742
 30
0.0
 11
-91.62047049736088
 21
512.6786760249742
 31
0.0
  0
LINE
  5
433
330
A
100
AcDbEntity
  8
0
 62
     2
100
AcDbLine
 10
-94.12047049736088
 20
515.1786760249742
 30
0.0
 11
-91.62047049736088
 21
515.1786760249742
 31
0.0
  0
LINE
  5
434
330
A
100
AcDbEntity
  8
0
 62
     7
100
AcDbLine
 10
-94.12047049736088
 20
515.4286760249743
 30
0.0
 11
-91.62047049736088
 21
515.4286760249743
 31
0.0
  0
LINE
  5
435
330
A
100
AcDbEntity
  8
0
 62
     7
100
AcDbLine
 10
-94.12047049736088
 20
512.4286760249742
 30
0.0
 11
-91.62047049736088
 21
512.4286760249742
 31
0.0
  0
LINE
  5
436
330
A
100
AcDbEntity
  8
0
 62
     7
100
AcDbLine
 10
-91.62047049736088
 20
516.9286760249742
 30
0.0
 11
-80.12047049736095
 21
516.9286760249742
 31
0.0
  0
LINE
  5
437
330
A
100
AcDbEntity
  8
0
 62
     7
100
AcDbLine
 10
-91.62047049736088
 20
510.9286760249743
 30
0.0
 11
-80.12047049736095
 21
510.9286760249743
 31
0.0
  0
LINE
  5
438
330
A
100
AcDbEntity
  8
0
 62
     7
100
AcDbLine
 10
-82.12047049736098
 20
515.5286750249741
 30
0.0
 11
-80.12047049736095
 21
515.5286750249741
 31
0.0
  0
LINE
  5
439
330
A
100
AcDbEntity
  8
0
 62
     7
100
AcDbLine
 10
-82.12047049736098
 20
514.6286760249743
 30
0.0
 11
-80.12047049736095
 21
514.6286760249743
 31
0.0
  0
LINE
  5
43A
330
A
100
AcDbEntity
  8
0
 62
     7
100
AcDbLine
 10
-82.12047049736098
 20
516.4286760249742
 30
0.0
 11
-80.12047049736095
 21
516.4286760249742
 31
0.0
  0
LINE
  5
43B
330
A
100
AcDbEntity
  8
0
 62
     7
100
AcDbLine
 10
-82.12047049736098
 20
513.2286760249741
 30
0.0
 11
-80.12047049736095
 21
513.2286760249741
 31
0.0
  0
LINE
  5
43C
330
A
100
AcDbEntity
  8
0
 62
     7
100
AcDbLine
 10
-80.12047049736095
 20
516.9286760249742
 30
0.0
 11
-80.12047049736095
 21
510.9286760249743
 31
0.0
  0
LINE
  5
43D
330
A
100
AcDbEntity
  8
0
 62
     7
100
AcDbLine
 10
-82.12047049736098
 20
512.3286770249742
 30
0.0
 11
-80.12047049736095
 21
512.3286770249742
 31
0.0
  0
LINE
  5
43E
330
A
100
AcDbEntity
  8
0
 62
     7
100
AcDbLine
 10
-82.12047049736098
 20
511.4286760249743
 30
0.0
 11
-80.12047049736095
 21
511.4286760249743
 31
0.0
  0
LINE
  5
43F
330
A
100
AcDbEntity
  8
0
 62
     7
100
AcDbLine
 10
-82.12047049736098
 20
516.9286760249742
 30
0.0
 11
-82.12047049736098
 21
510.9286760249743
 31
0.0
  0
LINE
  5
440
330
A
100
AcDbEntity
  8
0
  6
CENTER
 62
     2
100
AcDbLine
 10
-95.10178649736088
 20
513.9286760249742
 30
0.0
 11
-78.48801649736079
 21
513.9286760249742
 31
0.0
  0
LINE
  5
441
330
A
100
AcDbEntity
  8
0
 62
     7
100
AcDbLine
 10
-79.62047049736089
 20
516.4286760249742
 30
0.0
 11
-79.62047049736089
 21
511.4286760249743
 31
0.0
  0
LINE
  5
442
330
A
100
AcDbEntity
  8
0
 62
     7
100
AcDbLine
 10
-94.12047049736088
 20
515.4286760249743
 30
0.0
 11
-94.12047049736088
 21
512.4286760249742
 31
0.0
  0
CIRCLE
  5
443
330
A
100
AcDbEntity
  8
0
 62
     7
100
AcDbCircle
 10
-169.6204704973609
 20
513.9286760249742
 30
0.0
 40
3.0
  0
ARC
  5
444
330
A
100
AcDbEntity
  8
0
 62
     7
100
AcDbCircle
 10
-80.12047049736095
 20
511.4286760249743
 30
0.0
 40
0.5
100
AcDbArc
 50
270.0
 51
0.0
  0
ARC
  5
445
330
A
100
AcDbEntity
  8
0
 62
     7
100
AcDbCircle
 10
-80.12047049736095
 20
516.4286760249742
 30
0.0
 40
0.5
100
AcDbArc
 50
0.0
 51
90.0
  0
POINT
  5
446
330
A
100
AcDbEntity
  8
0
  6
Continuous
 62
     7
100
AcDbPoint
 10
91.0462036261743
 20
513.9286760249742
 30
0.0
  0
POINT
  5
447
330
A
100
AcDbEntity
  8
0
  6
Continuous
 62
     7
100
AcDbPoint
 10
105.0461936261742
 20
513.9286760249742
 30
0.0
  0
POINT
  5
448
330
A
100
AcDbEntity
  8
0
  6
Continuous
 62
     7
100
AcDbPoint
 10
15.04619362617427
 20
513.9286760249742
 30
0.0
  0
POINT
  5
449
330
A
100
AcDbEntity
  8
0
  6
Continuous
 62
     7
100
AcDbPoint
 10
19.04619362617427
 20
513.9286760249742
 30
0.0
  0
LINE
  5
44A
330
A
100
AcDbEntity
  8
0
  6
Continuous
 62
     7
100
AcDbLine
 10
91.0462036261743
 20
517.9286760249742
 30
0.0
 11
91.0462036261743
 21
509.9286760249742
 31
0.0
  0
LINE
  5
44B
330
A
100
AcDbEntity
  8
0
  6
Continuous
 62
     7
100
AcDbLine
 10
87.5462036261743
 20
516.4286760249742
 30
0.0
 11
87.5462036261743
 21
511.4286760249743
 31
0.0
  0
LINE
  5
44C
330
A
100
AcDbEntity
  8
0
  6
Continuous
 62
     7
100
AcDbLine
 10
105.0461936261742
 20
517.4286760249742
 30
0.0
 11
105.0461936261742
 21
510.4286760249742
 31
0.0
  0
LINE
  5
44D
330
A
100
AcDbEntity
  8
0
  6
CENTER
 62
     2
100
AcDbLine
 10
86.58920362617426
 20
513.9286760249742
 30
0.0
 11
106.1786436261743
 21
513.9286760249742
 31
0.0
  0
LINE
  5
44E
330
A
100
AcDbEntity
  8
0
  6
Continuous
 62
     7
100
AcDbLine
 10
91.0462036261743
 20
517.9286760249742
 30
0.0
 11
104.5461936261742
 21
517.9286760249742
 31
0.0
  0
LINE
  5
44F
330
A
100
AcDbEntity
  8
0
  6
Continuous
 62
     7
100
AcDbLine
 10
91.0462036261743
 20
509.9286760249742
 30
0.0
 11
104.5461936261742
 21
509.9286760249742
 31
0.0
  0
LINE
  5
450
330
A
100
AcDbEntity
  8
0
  6
Continuous
 62
     7
100
AcDbLine
 10
87.5462036261743
 20
516.4286760249742
 30
0.0
 11
91.0462036261743
 21
516.4286760249742
 31
0.0
  0
LINE
  5
451
330
A
100
AcDbEntity
  8
0
  6
Continuous
 62
     7
100
AcDbLine
 10
87.5462036261743
 20
511.4286760249743
 30
0.0
 11
91.0462036261743
 21
511.4286760249743
 31
0.0
  0
LINE
  5
452
330
A
100
AcDbEntity
  8
0
  6
Continuous
 62
     7
100
AcDbLine
 10
102.5461936261742
 20
517.9286760249742
 30
0.0
 11
102.5461936261742
 21
509.9286760249742
 31
0.0
  0
LINE
  5
453
330
A
100
AcDbEntity
  8
0
  6
Continuous
 62
     7
100
AcDbLine
 10
102.5461936261742
 20
510.2286760249742
 30
0.0
 11
104.5461936261742
 21
510.2286760249742
 31
0.0
  0
LINE
  5
454
330
A
100
AcDbEntity
  8
0
  6
Continuous
 62
     7
100
AcDbLine
 10
102.5461936261742
 20
510.7286760249742
 30
0.0
 11
104.5461936261742
 21
510.7286760249742
 31
0.0
  0
LINE
  5
455
330
A
100
AcDbEntity
  8
0
  6
Continuous
 62
     7
100
AcDbLine
 10
102.5461936261742
 20
511.4286760249743
 30
0.0
 11
104.5461936261742
 21
511.4286760249743
 31
0.0
  0
LINE
  5
456
330
A
100
AcDbEntity
  8
0
  6
Continuous
 62
     7
100
AcDbLine
 10
102.5461936261742
 20
512.3286760249741
 30
0.0
 11
104.5461936261742
 21
512.3286760249741
 31
0.0
  0
LINE
  5
457
330
A
100
AcDbEntity
  8
0
  6
Continuous
 62
     7
100
AcDbLine
 10
104.5461936261742
 20
517.9286760249742
 30
0.0
 11
104.5461936261742
 21
509.9286760249742
 31
0.0
  0
LINE
  5
458
330
A
100
AcDbEntity
  8
0
  6
Continuous
 62
     7
100
AcDbLine
 10
102.5461936261742
 20
513.2286760249741
 30
0.0
 11
104.5461936261742
 21
513.2286760249741
 31
0.0
  0
LINE
  5
459
330
A
100
AcDbEntity
  8
0
  6
Continuous
 62
     7
100
AcDbLine
 10
102.5461936261742
 20
517.6286760249743
 30
0.0
 11
104.5461936261742
 21
517.6286760249743
 31
0.0
  0
LINE
  5
45A
330
A
100
AcDbEntity
  8
0
  6
Continuous
 62
     7
100
AcDbLine
 10
102.5461936261742
 20
517.1286760249743
 30
0.0
 11
104.5461936261742
 21
517.1286760249743
 31
0.0
  0
LINE
  5
45B
330
A
100
AcDbEntity
  8
0
  6
Continuous
 62
     7
100
AcDbLine
 10
102.5461936261742
 20
516.4286760249742
 30
0.0
 11
104.5461936261742
 21
516.4286760249742
 31
0.0
  0
LINE
  5
45C
330
A
100
AcDbEntity
  8
0
  6
Continuous
 62
     7
100
AcDbLine
 10
102.5461936261742
 20
514.6286760249743
 30
0.0
 11
104.5461936261742
 21
514.6286760249743
 31
0.0
  0
LINE
  5
45D
330
A
100
AcDbEntity
  8
0
  6
Continuous
 62
     7
100
AcDbLine
 10
102.5461936261742
 20
515.5286760249743
 30
0.0
 11
104.5461936261742
 21
515.5286760249743
 31
0.0
  0
LINE
  5
45E
330
A
100
AcDbEntity
  8
0
  6
Continuous
 62
     2
100
AcDbLine
 10
87.5462036261743
 20
511.9286760249742
 30
0.0
 11
91.0462036261743
 21
511.9286760249742
 31
0.0
  0
LINE
  5
45F
330
A
100
AcDbEntity
  8
0
  6
Continuous
 62
     2
100
AcDbLine
 10
87.5462036261743
 20
515.9286760249742
 30
0.0
 11
91.0462036261743
 21
515.9286760249742
 31
0.0
  0
LINE
  5
460
330
A
100
AcDbEntity
  8
0
  6
CENTER
 62
     2
100
AcDbLine
 10
9.0461936261743
 20
513.9286760249742
 30
0.0
 11
21.04619362617427
 21
513.9286760249742
 31
0.0
  0
LINE
  5
461
330
A
100
AcDbEntity
  8
0
  6
CENTER
 62
     2
100
AcDbLine
 10
15.04619362617427
 20
519.9286760249743
 30
0.0
 11
15.04619362617427
 21
507.9286760249742
 31
0.0
  0
ARC
  5
462
330
A
100
AcDbEntity
  8
0
  6
Continuous
 62
     7
100
AcDbCircle
 10
104.5461936261742
 20
517.4286760249742
 30
0.0
 40
0.5
100
AcDbArc
 50
0.0
 51
89.99998999999899
  0
ARC
  5
463
330
A
100
AcDbEntity
  8
0
  6
Continuous
 62
     7
100
AcDbCircle
 10
104.5461936261742
 20
510.4286760249742
 30
0.0
 40
0.5
100
AcDbArc
 50
270.0
 51
0.0
  0
CIRCLE
  5
464
330
A
100
AcDbEntity
  8
0
  6
Continuous
 62
     7
100
AcDbCircle
 10
15.04619362617427
 20
513.9286760249742
 30
0.0
 40
4.0
  0
POINT
  5
465
330
A
100
AcDbEntity
  8
0
  6
Continuous
 62
     7
100
AcDbPoint
 10
-98.62047049736089
 20
391.9286760249743
 30
0.0
  0
POINT
  5
466
330
A
100
AcDbEntity
  8
0
  6
Continuous
 62
     7
100
AcDbPoint
 10
-69.62047049736089
 20
391.9286760249743
 30
0.0
  0
POINT
  5
467
330
A
100
AcDbEntity
  8
0
  6
Continuous
 62
     7
100
AcDbPoint
 10
-169.9538163738256
 20
391.9286760249743
 30
0.0
  0
POINT
  5
468
330
A
100
AcDbEntity
  8
0
  6
Continuous
 62
     7
100
AcDbPoint
 10
-161.9538263738256
 20
391.9286760249743
 30
0.0
  0
LINE
  5
469
330
A
100
AcDbEntity
  8
0
  6
CENTER
 62
     2
100
AcDbLine
 10
-105.1471904973608
 20
391.9286760249743
 30
0.0
 11
-67.83950049736088
 21
391.9286760249743
 31
0.0
  0
LINE
  5
46A
330
A
100
AcDbEntity
  8
0
  6
Continuous
 62
     7
100
AcDbLine
 10
-89.6204704973609
 20
383.9286760249743
 30
0.0
 11
-70.12047049736088
 21
383.9286760249743
 31
0.0
  0
LINE
  5
46B
330
A
100
AcDbEntity
  8
0
  6
Continuous
 62
     7
100
AcDbLine
 10
-89.6204704973609
 20
399.9286760249743
 30
0.0
 11
-70.12047049736088
 21
399.9286760249743
 31
0.0
  0
LINE
  5
46C
330
A
100
AcDbEntity
  8
0
  6
Continuous
 62
     7
100
AcDbLine
 10
-69.62047049736089
 20
399.4286760249743
 30
0.0
 11
-69.62047049736089
 21
384.4286760249742
 31
0.0
  0
LINE
  5
46D
330
A
100
AcDbEntity
  8
0
  6
Continuous
 62
     7
100
AcDbLine
 10
-96.62047049736088
 20
400.0115760249742
 30
0.0
 11
-96.62047049736088
 21
383.8457760249743
 31
0.0
  0
LINE
  5
46E
330
A
100
AcDbEntity
  8
0
  6
Continuous
 62
     7
100
AcDbLine
 10
-96.62047049736088
 20
400.0115760249742
 30
0.0
 11
-89.6204704973609
 21
400.0115760249742
 31
0.0
  0
LINE
  5
46F
330
A
100
AcDbEntity
  8
0
  6
Continuous
 62
     7
100
AcDbLine
 10
-96.62047049736088
 20
395.9701260249742
 30
0.0
 11
-89.6204704973609
 21
395.9701260249742
 31
0.0
  0
LINE
  5
470
330
A
100
AcDbEntity
  8
0
  6
Continuous
 62
     7
100
AcDbLine
 10
-96.62047049736088
 20
387.8872260249743
 30
0.0
 11
-89.6204704973609
 21
387.8872260249743
 31
0.0
  0
LINE
  5
471
330
A
100
AcDbEntity
  8
0
  6
Continuous
 62
     7
100
AcDbLine
 10
-96.62047049736088
 20
383.8457760249743
 30
0.0
 11
-89.6204704973609
 21
383.8457760249743
 31
0.0
  0
LINE
  5
472
330
A
100
AcDbEntity
  8
0
  6
Continuous
 62
     7
100
AcDbLine
 10
-89.6204704973609
 20
400.0115760249742
 30
0.0
 11
-89.6204704973609
 21
383.8457760249743
 31
0.0
  0
LINE
  5
473
330
A
100
AcDbEntity
  8
0
  6
Continuous
 62
     7
100
AcDbLine
 10
-74.62047049736089
 20
399.9286760249743
 30
0.0
 11
-74.62047049736089
 21
392.9286760249743
 31
0.0
  0
LINE
  5
474
330
A
100
AcDbEntity
  8
0
  6
Continuous
 62
     7
100
AcDbLine
 10
-87.62047049736088
 20
399.9286760249743
 30
0.0
 11
-87.62047049736088
 21
393.9286760249743
 31
0.0
  0
LINE
  5
475
330
A
100
AcDbEntity
  8
0
  6
Continuous
 62
     7
100
AcDbLine
 10
-71.62047049736088
 20
399.9286760249743
 30
0.0
 11
-71.62047049736088
 21
383.9286760249743
 31
0.0
  0
LINE
  5
476
330
A
100
AcDbEntity
  8
0
  6
Continuous
 62
     7
100
AcDbLine
 10
-74.62047049736089
 20
392.9286760249743
 30
0.0
 11
-78.12047049736088
 21
393.1979060249743
 31
0.0
  0
LINE
  5
477
330
A
100
AcDbEntity
  8
0
  6
Continuous
 62
     7
100
AcDbLine
 10
-74.6204604973608
 20
390.9286760249742
 30
0.0
 11
-78.12047049736088
 21
390.6594460249743
 31
0.0
  0
LINE
  5
478
330
A
100
AcDbEntity
  8
0
  6
Continuous
 62
     7
100
AcDbLine
 10
-84.12047049736088
 20
399.9286760249743
 30
0.0
 11
-84.12047049736088
 21
393.6594460249743
 31
0.0
  0
LINE
  5
479
330
A
100
AcDbEntity
  8
0
  6
Continuous
 62
     7
100
AcDbLine
 10
-78.12047049736088
 20
399.9286760249743
 30
0.0
 11
-78.12047049736088
 21
393.1979060249743
 31
0.0
  0
LINE
  5
47A
330
A
100
AcDbEntity
  8
0
  6
Continuous
 62
     7
100
AcDbLine
 10
-79.37047049736088
 20
399.9286760249743
 30
0.0
 11
-79.37047049736088
 21
393.2940560249743
 31
0.0
  0
LINE
  5
47B
330
A
100
AcDbEntity
  8
0
  6
Continuous
 62
     7
100
AcDbLine
 10
-82.87047049736088
 20
399.9286760249743
 30
0.0
 11
-82.87047049736088
 21
393.5632960249742
 31
0.0
  0
LINE
  5
47C
330
A
100
AcDbEntity
  8
0
  6
Continuous
 62
     7
100
AcDbLine
 10
-87.62047049736088
 20
389.9286760249743
 30
0.0
 11
-87.62047049736088
 21
383.9286760249743
 31
0.0
  0
LINE
  5
47D
330
A
100
AcDbEntity
  8
0
  6
Continuous
 62
     7
100
AcDbLine
 10
-84.12047049736088
 20
390.1979060249743
 30
0.0
 11
-84.12047049736088
 21
383.9286760249743
 31
0.0
  0
LINE
  5
47E
330
A
100
AcDbEntity
  8
0
  6
Continuous
 62
     7
100
AcDbLine
 10
-82.87047049736088
 20
390.2940560249743
 30
0.0
 11
-82.87047049736088
 21
383.9286760249743
 31
0.0
  0
LINE
  5
47F
330
A
100
AcDbEntity
  8
0
  6
Continuous
 62
     7
100
AcDbLine
 10
-79.37047049736088
 20
390.5632860249743
 30
0.0
 11
-79.37047049736088
 21
383.9286760249743
 31
0.0
  0
LINE
  5
480
330
A
100
AcDbEntity
  8
0
  6
Continuous
 62
     7
100
AcDbLine
 10
-74.62047049736089
 20
390.9286760249742
 30
0.0
 11
-74.62047049736089
 21
383.9286760249743
 31
0.0
  0
LINE
  5
481
330
A
100
AcDbEntity
  8
0
  6
Continuous
 62
     7
100
AcDbLine
 10
-78.12047049736088
 20
390.6594460249743
 30
0.0
 11
-78.12047049736088
 21
383.9286760249743
 31
0.0
  0
LINE
  5
482
330
A
100
AcDbEntity
  8
0
  6
Continuous
 62
     7
100
AcDbLine
 10
-84.12046049736096
 20
393.6594460249743
 30
0.0
 11
-87.62047049736088
 21
393.9286760249743
 31
0.0
  0
LINE
  5
483
330
A
100
AcDbEntity
  8
0
  6
Continuous
 62
     7
100
AcDbLine
 10
-84.12047049736088
 20
390.1979060249743
 30
0.0
 11
-87.62047049736088
 21
389.9286760249743
 31
0.0
  0
LINE
  5
484
330
A
100
AcDbEntity
  8
0
  6
Continuous
 62
     7
100
AcDbLine
 10
-79.37047049736088
 20
390.5632860249743
 30
0.0
 11
-82.87047049736088
 21
390.2940560249743
 31
0.0
  0
LINE
  5
485
330
A
100
AcDbEntity
  8
0
  6
Continuous
 62
     7
100
AcDbLine
 10
-79.37047049736088
 20
393.2940560249743
 30
0.0
 11
-82.87046049736089
 21
393.5632960249742
 31
0.0
  0
LINE
  5
486
330
A
100
AcDbEntity
  8
0
  6
Continuous
 62
     7
100
AcDbLine
 10
-87.62047049736088
 20
397.9286760249743
 30
0.0
 11
-84.12047049736088
 21
398.0632860249743
 31
0.0
  0
LINE
  5
487
330
A
100
AcDbEntity
  8
0
  6
Continuous
 62
     7
100
AcDbLine
 10
-87.62047049736088
 20
385.9286760249743
 30
0.0
 11
-84.12047049736088
 21
385.7940660249743
 31
0.0
  0
LINE
  5
488
330
A
100
AcDbEntity
  8
0
  6
Continuous
 62
     7
100
AcDbLine
 10
-82.87047049736088
 20
385.7459860249743
 30
0.0
 11
-79.37047049736088
 21
385.6113660249743
 31
0.0
  0
LINE
  5
489
330
A
100
AcDbEntity
  8
0
  6
Continuous
 62
     7
100
AcDbLine
 10
-78.12047049736088
 20
385.5632960249743
 30
0.0
 11
-74.62048049736089
 21
385.4286760249743
 31
0.0
  0
LINE
  5
48A
330
A
100
AcDbEntity
  8
0
  6
Continuous
 62
     7
100
AcDbLine
 10
-82.87047049736088
 20
398.1113660249743
 30
0.0
 11
-79.37047049736088
 21
398.2459860249743
 31
0.0
  0
LINE
  5
48B
330
A
100
AcDbEntity
  8
0
  6
Continuous
 62
     7
100
AcDbLine
 10
-78.12047049736088
 20
398.2940560249743
 30
0.0
 11
-74.62047049736089
 21
398.4286760249743
 31
0.0
  0
LINE
  5
48C
330
A
100
AcDbEntity
  8
0
  6
Continuous
 62
     7
100
AcDbLine
 10
-102.6204704973609
 20
396.6676690930167
 30
0.0
 11
-102.6204704973609
 21
387.1896729569318
 31
0.0
  0
LINE
  5
48D
330
A
100
AcDbEntity
  8
0
  6
Continuous
 62
     7
100
AcDbLine
 10
-102.6204704973609
 20
396.6676690930167
 30
0.0
 11
-96.62047049736088
 21
396.8551660249742
 31
0.0
  0
LINE
  5
48E
330
A
100
AcDbEntity
  8
0
  6
Continuous
 62
     2
100
AcDbLine
 10
-102.6204804973609
 20
396.0866860249743
 30
0.0
 11
-96.62047049736088
 21
396.2741860249743
 31
0.0
  0
LINE
  5
48F
330
A
100
AcDbEntity
  8
0
  6
Continuous
 62
     7
100
AcDbLine
 10
-102.6204704973609
 20
387.1896729569318
 30
0.0
 11
-96.62047049736088
 21
387.0021760249743
 31
0.0
  0
LINE
  5
490
330
A
100
AcDbEntity
  8
0
  6
CENTER
 62
     2
100
AcDbLine
 10
-179.9538163738256
 20
391.9286760249743
 30
0.0
 11
-159.9538263738257
 21
391.9286760249743
 31
0.0
  0
LINE
  5
491
330
A
100
AcDbEntity
  8
0
  6
CENTER
 62
     2
100
AcDbLine
 10
-169.9538163738256
 20
401.9286760249742
 30
0.0
 11
-169.9538163738256
 21
381.9286760249743
 31
0.0
  0
ARC
  5
492
330
A
100
AcDbEntity
  8
0
  6
Continuous
 62
     7
100
AcDbCircle
 10
-70.12047049736088
 20
399.4286760249743
 30
0.0
 40
0.5
100
AcDbArc
 50
0.0
 51
89.99998999999899
  0
ARC
  5
493
330
A
100
AcDbEntity
  8
0
  6
Continuous
 62
     7
100
AcDbCircle
 10
-70.12047049736088
 20
384.4286760249742
 30
0.0
 40
0.5
100
AcDbArc
 50
270.0
 51
0.0
  0
ARC
  5
494
330
A
100
AcDbEntity
  8
0
  6
Continuous
 62
     7
100
AcDbCircle
 10
-169.9538163738256
 20
391.9286760249743
 30
0.0
 40
8.0
100
AcDbArc
 50
151.0449483092511
 51
208.9550091596435
  0
ARC
  5
495
330
A
100
AcDbEntity
  8
0
  6
Continuous
 62
     7
100
AcDbCircle
 10
-169.9538163738256
 20
391.9286760249743
 30
0.0
 40
8.0
100
AcDbArc
 50
211.0449522719063
 51
268.9550425091805
  0
ARC
  5
496
330
A
100
AcDbEntity
  8
0
  6
Continuous
 62
     7
100
AcDbCircle
 10
-169.9538163738256
 20
391.9286760249743
 30
0.0
 40
8.0
100
AcDbArc
 50
271.0449048319406
 51
328.9550791214248
  0
ARC
  5
497
330
A
100
AcDbEntity
  8
0
  6
Continuous
 62
     7
100
AcDbCircle
 10
-169.9538163738256
 20
391.9286760249743
 30
0.0
 40
8.0
100
AcDbArc
 50
331.0449604159664
 51
28.9549970529278
  0
ARC
  5
498
330
A
100
AcDbEntity
  8
0
  6
Continuous
 62
     7
100
AcDbCircle
 10
-169.9538163738256
 20
391.9286760249743
 30
0.0
 40
8.0
100
AcDbArc
 50
31.04496839245543
 51
88.95490361197007
  0
ARC
  5
499
330
A
100
AcDbEntity
  8
0
  6
Continuous
 62
     7
100
AcDbCircle
 10
-169.9538163738256
 20
391.9286760249743
 30
0.0
 40
8.0
100
AcDbArc
 50
91.04505648328949
 51
148.9549274700748
  0
POINT
  5
49A
330
A
100
AcDbEntity
  8
0
  6
Continuous
 62
     7
100
AcDbPoint
 10
289.7128753791039
 20
513.9286760249742
 30
0.0
  0
POINT
  5
49B
330
A
100
AcDbEntity
  8
0
  6
Continuous
 62
     7
100
AcDbPoint
 10
199.7128653791039
 20
513.9286760249742
 30
0.0
  0
POINT
  5
49C
330
A
100
AcDbEntity
  8
0
  6
Continuous
 62
     7
100
AcDbPoint
 10
204.712865379104
 20
513.9286760249742
 30
0.0
  0
LINE
  5
49D
330
A
100
AcDbEntity
  8
0
  6
Continuous
 62
     7
100
AcDbLine
 10
284.1657953791039
 20
519.7021760249741
 30
0.0
 11
289.266325379104
 21
519.7021760249741
 31
0.0
  0
LINE
  5
49E
330
A
100
AcDbEntity
  8
0
  6
Continuous
 62
     7
100
AcDbLine
 10
284.1657953791039
 20
508.1551760249742
 30
0.0
 11
289.2662953791038
 21
508.1551760249742
 31
0.0
  0
LINE
  5
49F
330
A
100
AcDbEntity
  8
0
  6
Continuous
 62
     7
100
AcDbLine
 10
273.7128853791039
 20
518.6676673166214
 30
0.0
 11
273.7128853791038
 21
509.1896746916765
 31
0.0
  0
LINE
  5
4A0
330
A
100
AcDbEntity
  8
0
  6
Continuous
 62
     7
100
AcDbLine
 10
289.2663053791039
 20
519.7021860249742
 30
0.0
 11
289.7128853791039
 21
518.9286860249742
 31
0.0
  0
LINE
  5
4A1
330
A
100
AcDbEntity
  8
0
  6
Continuous
 62
     7
100
AcDbLine
 10
289.7128653791039
 20
508.9286660249743
 30
0.0
 11
289.2662853791039
 21
508.1551760249742
 31
0.0
  0
LINE
  5
4A2
330
A
100
AcDbEntity
  8
0
  6
Continuous
 62
     7
100
AcDbLine
 10
273.7128853791039
 20
518.6676673166214
 30
0.0
 11
281.7131853791039
 21
518.9176760249742
 31
0.0
  0
LINE
  5
4A3
330
A
100
AcDbEntity
  8
0
  6
Continuous
 62
     2
100
AcDbLine
 10
273.7128853791039
 20
518.0866860249742
 30
0.0
 11
281.7128753791039
 21
518.3366860249742
 31
0.0
  0
LINE
  5
4A4
330
A
100
AcDbEntity
  8
0
  6
Continuous
 62
     7
100
AcDbLine
 10
273.7128853791038
 20
509.1896746916765
 30
0.0
 11
281.7128853791039
 21
508.9396760249742
 31
0.0
  0
LINE
  5
4A5
330
A
100
AcDbEntity
  8
0
  6
Continuous
 62
     7
100
AcDbLine
 10
283.7128753791039
 20
518.9176760249742
 30
0.0
 11
283.7128753791039
 21
508.9396560249743
 31
0.0
  0
LINE
  5
4A6
330
A
100
AcDbEntity
  8
0
  6
Continuous
 62
     7
100
AcDbLine
 10
284.1658053791039
 20
516.8154260249743
 30
0.0
 11
289.2662953791038
 21
516.8154260249743
 31
0.0
  0
LINE
  5
4A7
330
A
100
AcDbEntity
  8
0
  6
Continuous
 62
     7
100
AcDbLine
 10
284.1657953791039
 20
511.0419260249742
 30
0.0
 11
289.2662953791038
 21
511.0419260249742
 31
0.0
  0
LINE
  5
4A8
330
A
100
AcDbEntity
  8
0
  6
Continuous
 62
     7
100
AcDbLine
 10
283.7128753791039
 20
518.9176760249742
 30
0.0
 11
284.1658053791039
 21
519.7021860249742
 31
0.0
  0
LINE
  5
4A9
330
A
100
AcDbEntity
  8
0
  6
Continuous
 62
     7
100
AcDbLine
 10
283.7128653791041
 20
508.9396660249741
 30
0.0
 11
284.1657953791039
 21
508.1551660249743
 31
0.0
  0
LINE
  5
4AA
330
A
100
AcDbEntity
  8
0
  6
Continuous
 62
     7
100
AcDbLine
 10
289.7128753791039
 20
508.9286660249743
 30
0.0
 11
289.7128753791039
 21
518.9287260249742
 31
0.0
  0
LINE
  5
4AB
330
A
100
AcDbEntity
  8
0
  6
CENTER
 62
     2
100
AcDbLine
 10
271.1381250272315
 20
513.9286760249741
 30
0.0
 11
290.7306353791039
 21
513.9286760249742
 31
0.0
  0
LINE
  5
4AC
330
A
100
AcDbEntity
  8
0
  6
Continuous
 62
     7
100
AcDbLine
 10
281.7128753791039
 20
518.9176660249743
 30
0.0
 11
281.7128753791039
 21
508.9396760249742
 31
0.0
  0
LINE
  5
4AD
330
A
100
AcDbEntity
  8
0
  6
Continuous
 62
     7
100
AcDbLine
 10
281.7128753791039
 20
518.9176760249742
 30
0.0
 11
283.7128753791039
 21
518.9176760249742
 31
0.0
  0
LINE
  5
4AE
330
A
100
AcDbEntity
  8
0
  6
Continuous
 62
     7
100
AcDbLine
 10
281.7128753791039
 20
508.9396760249742
 30
0.0
 11
283.7128753791039
 21
508.9396760249742
 31
0.0
  0
LINE
  5
4AF
330
A
100
AcDbEntity
  8
0
  6
Continuous
 62
     7
100
AcDbLine
 10
204.712865379104
 20
516.8154260249743
 30
0.0
 11
204.712865379104
 21
511.0419260249742
 31
0.0
  0
LINE
  5
4B0
330
A
100
AcDbEntity
  8
0
  6
Continuous
 62
     7
100
AcDbLine
 10
194.7128653791039
 20
516.8154260249743
 30
0.0
 11
194.7128653791039
 21
511.0419260249742
 31
0.0
  0
LINE
  5
4B1
330
A
100
AcDbEntity
  8
0
  6
Continuous
 62
     7
100
AcDbLine
 10
194.7128653791039
 20
516.8154360249742
 30
0.0
 11
199.7128653791039
 21
519.7021860249742
 31
0.0
  0
LINE
  5
4B2
330
A
100
AcDbEntity
  8
0
  6
Continuous
 62
     7
100
AcDbLine
 10
199.7128553791039
 20
508.1551560249741
 30
0.0
 11
204.7128553791039
 21
511.0419060249743
 31
0.0
  0
LINE
  5
4B3
330
A
100
AcDbEntity
  8
0
  6
Continuous
 62
     7
100
AcDbLine
 10
199.7128653791039
 20
519.7021760249741
 30
0.0
 11
204.712865379104
 21
516.8154260249743
 31
0.0
  0
LINE
  5
4B4
330
A
100
AcDbEntity
  8
0
  6
Continuous
 62
     7
100
AcDbLine
 10
194.7128653791039
 20
511.0419260249742
 30
0.0
 11
199.7128653791039
 21
508.1551760249742
 31
0.0
  0
LINE
  5
4B5
330
A
100
AcDbEntity
  8
0
  6
CENTER
 62
     2
100
AcDbLine
 10
193.712865379104
 20
513.9286760249742
 30
0.0
 11
205.712865379104
 21
513.9286760249742
 31
0.0
  0
LINE
  5
4B6
330
A
100
AcDbEntity
  8
0
  6
CENTER
 62
     2
100
AcDbLine
 10
199.7128653791039
 20
520.4286760249742
 30
0.0
 11
199.7128653791039
 21
507.4286760249743
 31
0.0
  0
ARC
  5
4B7
330
A
100
AcDbEntity
  8
0
  6
Continuous
 62
     7
100
AcDbCircle
 10
287.1570353791039
 20
518.2587960249742
 30
0.0
 40
2.55584
100
AcDbArc
 50
325.616000000001
 51
0.0
  0
ARC
  5
4B8
330
A
100
AcDbEntity
  8
0
  6
Continuous
 62
     7
100
AcDbCircle
 10
287.1570453791039
 20
509.5985460249742
 30
0.0
 40
2.555829999999998
100
AcDbArc
 50
0.0
 51
34.38408000000237
  0
ARC
  5
4B9
330
A
100
AcDbEntity
  8
0
  6
Continuous
 62
     7
100
AcDbCircle
 10
280.1593853791039
 20
513.9286760249742
 30
0.0
 40
9.55348
100
AcDbArc
 50
342.412199999999
 51
17.58783999999909
  0
ARC
  5
4BA
330
A
100
AcDbEntity
  8
0
  6
Continuous
 62
     7
100
AcDbCircle
 10
286.2391553791038
 20
518.2587960249742
 30
0.0
 40
2.526279999999998
100
AcDbArc
 50
180.0
 51
214.8439999999996
  0
ARC
  5
4BB
330
A
100
AcDbEntity
  8
0
  6
Continuous
 62
     7
100
AcDbCircle
 10
293.1386253791038
 20
513.9286760249742
 30
0.0
 40
9.42575
100
AcDbArc
 50
162.1659000000013
 51
197.8340999999987
  0
ARC
  5
4BC
330
A
100
AcDbEntity
  8
0
  6
Continuous
 62
     7
100
AcDbCircle
 10
286.2391553791038
 20
509.5985560249743
 30
0.0
 40
2.526279999999998
100
AcDbArc
 50
145.1560000000004
 51
180.0
  0
POINT
  5
4BD
330
A
100
AcDbEntity
  8
0
100
AcDbPoint
 10
83.04619362617428
 20
391.9286760249743
 30
0.0
  0
POINT
  5
4BE
330
A
100
AcDbEntity
  8
0
100
AcDbPoint
 10
115.0461936261742
 20
391.9286760249743
 30
0.0
  0
LINE
  5
4BF
330
A
100
AcDbEntity
  8
0
100
AcDbLine
 10
95.04619362617427
 20
383.9286720249743
 30
0.0
 11
114.5461936261742
 21
383.9286720249743
 31
0.0
  0
LINE
  5
4C0
330
A
100
AcDbEntity
  8
0
100
AcDbLine
 10
95.04619362617427
 20
399.9286760249743
 30
0.0
 11
114.5461936261742
 21
399.9286760249743
 31
0.0
  0
LINE
  5
4C1
330
A
100
AcDbEntity
  8
0
100
AcDbLine
 10
115.0461936261742
 20
399.4286760249743
 30
0.0
 11
115.0461936261742
 21
384.4286720249743
 31
0.0
  0
LINE
  5
4C2
330
A
100
AcDbEntity
  8
0
100
AcDbLine
 10
88.04619362617428
 20
400.0115810249742
 30
0.0
 11
88.04619362617428
 21
383.8457710249743
 31
0.0
  0
LINE
  5
4C3
330
A
100
AcDbEntity
  8
0
100
AcDbLine
 10
88.04619362617428
 20
400.0115810249742
 30
0.0
 11
95.04619362617427
 21
400.0115810249742
 31
0.0
  0
LINE
  5
4C4
330
A
100
AcDbEntity
  8
0
100
AcDbLine
 10
88.04619362617428
 20
395.9701260249742
 30
0.0
 11
95.04619362617427
 21
395.9701260249742
 31
0.0
  0
LINE
  5
4C5
330
A
100
AcDbEntity
  8
0
100
AcDbLine
 10
88.04619362617428
 20
387.8872250249743
 30
0.0
 11
95.04619362617427
 21
387.8872250249743
 31
0.0
  0
LINE
  5
4C6
330
A
100
AcDbEntity
  8
0
100
AcDbLine
 10
88.04619362617428
 20
383.8457710249743
 30
0.0
 11
95.04619362617427
 21
383.8457710249743
 31
0.0
  0
LINE
  5
4C7
330
A
100
AcDbEntity
  8
0
100
AcDbLine
 10
79.04619362617427
 20
398.3821710249744
 30
0.0
 11
88.04619362617428
 21
398.6634210249743
 31
0.0
  0
LINE
  5
4C8
330
A
100
AcDbEntity
  8
0
100
AcDbLine
 10
79.04619362617427
 20
385.4751770249743
 30
0.0
 11
88.04619362617428
 21
385.1939270249743
 31
0.0
  0
LINE
  5
4C9
330
A
100
AcDbEntity
  8
0
 62
     2
100
AcDbLine
 10
79.04619362617427
 20
397.5261720249743
 30
0.0
 11
88.04619362617428
 21
397.8074220249742
 31
0.0
  0
LINE
  5
4CA
330
A
100
AcDbEntity
  8
0
 62
     2
100
AcDbLine
 10
79.04619362617427
 20
386.3311800249743
 30
0.0
 11
88.04619362617428
 21
386.0499300249743
 31
0.0
  0
LINE
  5
4CB
330
A
100
AcDbEntity
  8
0
100
AcDbLine
 10
79.04619362617427
 20
398.3821710249744
 30
0.0
 11
79.04619362617427
 21
385.4751770249743
 31
0.0
  0
LINE
  5
4CC
330
A
100
AcDbEntity
  8
0
100
AcDbLine
 10
95.04619362617427
 20
400.0115810249742
 30
0.0
 11
95.04619362617427
 21
383.8457710249743
 31
0.0
  0
LINE
  5
4CD
330
A
100
AcDbEntity
  8
0
100
AcDbLine
 10
110.0461936261742
 20
399.9286760249743
 30
0.0
 11
110.0461936261742
 21
392.9286760249743
 31
0.0
  0
LINE
  5
4CE
330
A
100
AcDbEntity
  8
0
100
AcDbLine
 10
97.04619362617428
 20
399.9286760249743
 30
0.0
 11
97.04619362617428
 21
393.9286760249743
 31
0.0
  0
LINE
  5
4CF
330
A
100
AcDbEntity
  8
0
100
AcDbLine
 10
113.0461936261742
 20
399.9286760249743
 30
0.0
 11
113.0461936261742
 21
383.9286720249743
 31
0.0
  0
LINE
  5
4D0
330
A
100
AcDbEntity
  8
0
100
AcDbLine
 10
110.0461936261742
 20
392.9286760249743
 30
0.0
 11
106.5461936261743
 21
393.1979060249743
 31
0.0
  0
LINE
  5
4D1
330
A
100
AcDbEntity
  8
0
100
AcDbLine
 10
110.0461936261742
 20
390.9286760249742
 30
0.0
 11
106.5461936261743
 21
390.6594460249743
 31
0.0
  0
LINE
  5
4D2
330
A
100
AcDbEntity
  8
0
100
AcDbLine
 10
100.5461936261742
 20
399.9286760249743
 30
0.0
 11
100.5461936261742
 21
393.6594460249743
 31
0.0
  0
LINE
  5
4D3
330
A
100
AcDbEntity
  8
0
100
AcDbLine
 10
106.5461936261743
 20
399.9286760249743
 30
0.0
 11
106.5461936261743
 21
393.1979060249743
 31
0.0
  0
LINE
  5
4D4
330
A
100
AcDbEntity
  8
0
100
AcDbLine
 10
105.2961936261743
 20
399.9286760249743
 30
0.0
 11
105.2961936261743
 21
393.2940590249743
 31
0.0
  0
LINE
  5
4D5
330
A
100
AcDbEntity
  8
0
100
AcDbLine
 10
101.7961936261742
 20
399.9286760249743
 30
0.0
 11
101.7961936261742
 21
393.5632930249743
 31
0.0
  0
LINE
  5
4D6
330
A
100
AcDbEntity
  8
0
100
AcDbLine
 10
97.04619362617428
 20
389.9286760249743
 30
0.0
 11
97.04619362617428
 21
383.9286720249743
 31
0.0
  0
LINE
  5
4D7
330
A
100
AcDbEntity
  8
0
100
AcDbLine
 10
100.5461936261742
 20
390.1979060249743
 30
0.0
 11
100.5461936261742
 21
383.9286720249743
 31
0.0
  0
LINE
  5
4D8
330
A
100
AcDbEntity
  8
0
100
AcDbLine
 10
101.7961936261742
 20
390.2940590249743
 30
0.0
 11
101.7961936261742
 21
383.9286720249743
 31
0.0
  0
LINE
  5
4D9
330
A
100
AcDbEntity
  8
0
100
AcDbLine
 10
105.2961936261743
 20
390.5632930249743
 30
0.0
 11
105.2961936261743
 21
383.9286720249743
 31
0.0
  0
LINE
  5
4DA
330
A
100
AcDbEntity
  8
0
100
AcDbLine
 10
110.0461936261742
 20
390.9286760249742
 30
0.0
 11
110.0461936261742
 21
383.9286720249743
 31
0.0
  0
LINE
  5
4DB
330
A
100
AcDbEntity
  8
0
100
AcDbLine
 10
106.5461936261743
 20
390.6594460249743
 30
0.0
 11
106.5461936261743
 21
383.9286720249743
 31
0.0
  0
LINE
  5
4DC
330
A
100
AcDbEntity
  8
0
100
AcDbLine
 10
100.5461936261742
 20
393.6594460249743
 30
0.0
 11
97.04619362617428
 21
393.9286760249743
 31
0.0
  0
LINE
  5
4DD
330
A
100
AcDbEntity
  8
0
100
AcDbLine
 10
100.5461936261742
 20
390.1979060249743
 30
0.0
 11
97.04619362617428
 21
389.9286760249743
 31
0.0
  0
LINE
  5
4DE
330
A
100
AcDbEntity
  8
0
100
AcDbLine
 10
105.2961936261743
 20
390.5632890249743
 30
0.0
 11
101.7961936261742
 21
390.2940590249743
 31
0.0
  0
LINE
  5
4DF
330
A
100
AcDbEntity
  8
0
100
AcDbLine
 10
105.2961936261743
 20
393.2940590249743
 30
0.0
 11
101.7961936261742
 21
393.5632930249743
 31
0.0
  0
LINE
  5
4E0
330
A
100
AcDbEntity
  8
0
100
AcDbLine
 10
97.04619362617428
 20
397.9286760249743
 30
0.0
 11
100.5461936261742
 21
398.0632890249743
 31
0.0
  0
LINE
  5
4E1
330
A
100
AcDbEntity
  8
0
100
AcDbLine
 10
97.04619362617428
 20
385.9286760249743
 30
0.0
 11
100.5461936261742
 21
385.7940630249743
 31
0.0
  0
LINE
  5
4E2
330
A
100
AcDbEntity
  8
0
100
AcDbLine
 10
101.7961936261742
 20
385.7459860249743
 30
0.0
 11
105.2961936261743
 21
385.6113690249744
 31
0.0
  0
LINE
  5
4E3
330
A
100
AcDbEntity
  8
0
100
AcDbLine
 10
106.5461936261743
 20
385.5632930249743
 30
0.0
 11
110.0461936261742
 21
385.4286760249743
 31
0.0
  0
LINE
  5
4E4
330
A
100
AcDbEntity
  8
0
100
AcDbLine
 10
101.7961936261742
 20
398.1113650249742
 30
0.0
 11
105.2961936261743
 21
398.2459820249743
 31
0.0
  0
LINE
  5
4E5
330
A
100
AcDbEntity
  8
0
100
AcDbLine
 10
106.5461936261743
 20
398.2940590249743
 30
0.0
 11
110.0461936261742
 21
398.4286760249743
 31
0.0
  0
ARC
  5
4E6
330
A
100
AcDbEntity
  8
0
100
AcDbCircle
 10
114.5461936261742
 20
399.4286760249743
 30
0.0
 40
0.5
100
AcDbArc
 50
0.0
 51
90.0
  0
ARC
  5
4E7
330
A
100
AcDbEntity
  8
0
100
AcDbCircle
 10
114.5461936261742
 20
384.4286720249743
 30
0.0
 40
0.5
100
AcDbArc
 50
270.0
 51
0.0
  0
LINE
  5
4E8
330
A
100
AcDbEntity
  8
0
  6
CENTER
 62
     2
100
AcDbLine
 10
77.8267647570044
 20
391.9286760249743
 30
0.0
 11
118.0545908425715
 21
391.9286760249743
 31
0.0
  0
POINT
  5
4E9
330
A
100
AcDbEntity
  8
0
100
AcDbPoint
 10
-111.2704724973609
 20
269.9286690249743
 30
0.0
  0
POINT
  5
4EA
330
A
100
AcDbEntity
  8
0
100
AcDbPoint
 10
-49.62047049736089
 20
269.9286690249743
 30
0.0
  0
LINE
  5
4EB
330
A
100
AcDbEntity
  8
0
100
AcDbLine
 10
-117.6204704973609
 20
278.0612335476894
 30
0.0
 11
-117.6204704973609
 21
261.796112229139
 31
0.0
  0
LINE
  5
4EC
330
A
100
AcDbEntity
  8
0
 62
     2
100
AcDbLine
 10
-106.620474497361
 20
277.5489880249743
 30
0.0
 11
-117.4494084973609
 21
277.2105860249744
 31
0.0
  0
LINE
  5
4ED
330
A
100
AcDbEntity
  8
0
100
AcDbLine
 10
-105.620478497361
 20
278.4362330249743
 30
0.0
 11
-117.6204704973609
 21
278.0612335476894
 31
0.0
  0
LINE
  5
4EE
330
A
100
AcDbEntity
  8
0
100
AcDbLine
 10
-105.620478497361
 20
261.4211040249744
 30
0.0
 11
-117.6204704973609
 21
261.796112229139
 31
0.0
  0
LINE
  5
4EF
330
A
100
AcDbEntity
  8
0
 62
     2
100
AcDbLine
 10
-106.6204704973609
 20
262.3083570249743
 30
0.0
 11
-117.4494004973609
 21
262.6467670249744
 31
0.0
  0
LINE
  5
4F0
330
A
100
AcDbEntity
  8
0
 62
     2
100
AcDbLine
 10
-106.620474497361
 20
277.5489840249743
 30
0.0
 11
-106.1171824973609
 21
278.4207150249744
 31
0.0
  0
LINE
  5
4F1
330
A
100
AcDbEntity
  8
0
100
AcDbLine
 10
-106.6204704973609
 20
261.4523620249743
 30
0.0
 11
-106.6204704973609
 21
278.4049870249743
 31
0.0
  0
LINE
  5
4F2
330
A
100
AcDbEntity
  8
0
 62
     2
100
AcDbLine
 10
-106.6204824973609
 20
262.3083570249743
 30
0.0
 11
-106.117186497361
 21
261.4366300249744
 31
0.0
  0
LINE
  5
4F3
330
A
100
AcDbEntity
  8
0
100
AcDbLine
 10
-105.620470497361
 20
282.9286760249743
 30
0.0
 11
-105.620470497361
 21
256.9286730249743
 31
0.0
  0
LINE
  5
4F4
330
A
100
AcDbEntity
  8
0
100
AcDbLine
 10
-105.620470497361
 20
282.9286760249743
 30
0.0
 11
-50.62047049736077
 21
282.9286760249743
 31
0.0
  0
LINE
  5
4F5
330
A
100
AcDbEntity
  8
0
100
AcDbLine
 10
-105.620470497361
 20
256.9286730249743
 30
0.0
 11
-50.62047049736077
 21
256.9286730249743
 31
0.0
  0
LINE
  5
4F6
330
A
100
AcDbEntity
  8
0
100
AcDbLine
 10
-49.62047049736089
 20
281.9286760249743
 30
0.0
 11
-49.62047049736089
 21
257.9286730249743
 31
0.0
  0
LINE
  5
4F7
330
A
100
AcDbEntity
  8
0
100
AcDbLine
 10
-94.62047049736099
 20
282.9286760249743
 30
0.0
 11
-94.62047049736099
 21
256.9286730249743
 31
0.0
  0
LINE
  5
4F8
330
A
100
AcDbEntity
  8
0
100
AcDbLine
 10
-105.620470497361
 20
274.9286760249743
 30
0.0
 11
-94.62047049736099
 21
274.9286760249743
 31
0.0
  0
LINE
  5
4F9
330
A
100
AcDbEntity
  8
0
100
AcDbLine
 10
-105.620470497361
 20
277.8209800249744
 30
0.0
 11
-94.62047049736099
 21
277.8209800249744
 31
0.0
  0
LINE
  5
4FA
330
A
100
AcDbEntity
  8
0
100
AcDbLine
 10
-105.620470497361
 20
264.9286760249743
 30
0.0
 11
-94.62047049736099
 21
264.9286760249743
 31
0.0
  0
LINE
  5
4FB
330
A
100
AcDbEntity
  8
0
100
AcDbLine
 10
-105.620470497361
 20
262.0363690249744
 30
0.0
 11
-94.62047049736099
 21
262.0363690249744
 31
0.0
  0
LINE
  5
4FC
330
A
100
AcDbEntity
  8
0
100
AcDbLine
 10
-52.62047049736088
 20
282.9286760249743
 30
0.0
 11
-52.62047049736088
 21
256.9286730249743
 31
0.0
  0
LINE
  5
4FD
330
A
100
AcDbEntity
  8
0
100
AcDbLine
 10
-92.52047249736095
 20
281.4313810249743
 30
0.0
 11
-92.52047249736095
 21
272.9259680249743
 31
0.0
  0
LINE
  5
4FE
330
A
100
AcDbEntity
  8
0
100
AcDbLine
 10
-92.52047249736095
 20
272.9259680249743
 30
0.0
 11
-88.82047549736077
 21
272.8259660249743
 31
0.0
  0
LINE
  5
4FF
330
A
100
AcDbEntity
  8
0
100
AcDbLine
 10
-55.92045849736098
 20
282.4205700249743
 30
0.0
 11
-59.62045549736081
 21
282.3205720249744
 31
0.0
  0
LINE
  5
500
330
A
100
AcDbEntity
  8
0
100
AcDbLine
 10
-88.82046749736106
 20
281.5313830249743
 30
0.0
 11
-92.52047249736095
 21
281.4313810249743
 31
0.0
  0
LINE
  5
501
330
A
100
AcDbEntity
  8
0
100
AcDbLine
 10
-84.12047049736097
 20
281.6584090249743
 30
0.0
 11
-87.8204674973608
 21
281.5584100249743
 31
0.0
  0
LINE
  5
502
330
A
100
AcDbEntity
  8
0
100
AcDbLine
 10
-79.42046649736098
 20
281.7854380249743
 30
0.0
 11
-83.12046349736098
 21
281.6854360249743
 31
0.0
  0
LINE
  5
503
330
A
100
AcDbEntity
  8
0
100
AcDbLine
 10
-74.72046949736095
 20
281.9124640249743
 30
0.0
 11
-78.42046649736079
 21
281.8124620249743
 31
0.0
  0
LINE
  5
504
330
A
100
AcDbEntity
  8
0
100
AcDbLine
 10
-70.02046449736099
 20
282.0394900249743
 30
0.0
 11
-73.72046949736095
 21
281.9394910249743
 31
0.0
  0
LINE
  5
505
330
A
100
AcDbEntity
  8
0
100
AcDbLine
 10
-65.32046049736078
 20
282.1665190249742
 30
0.0
 11
-69.02045749736098
 21
282.0665170249743
 31
0.0
  0
LINE
  5
506
330
A
100
AcDbEntity
  8
0
100
AcDbLine
 10
-60.62046349736096
 20
282.2935450249742
 30
0.0
 11
-64.32046049736086
 21
282.1935420249743
 31
0.0
  0
LINE
  5
507
330
A
100
AcDbEntity
  8
0
100
AcDbLine
 10
-59.62046349736096
 20
272.0367770249743
 30
0.0
 11
-55.92046649736087
 21
271.9367790249743
 31
0.0
  0
LINE
  5
508
330
A
100
AcDbEntity
  8
0
100
AcDbLine
 10
-64.32046049736086
 20
272.1638030249744
 30
0.0
 11
-60.62046349736096
 21
272.0638040249743
 31
0.0
  0
LINE
  5
509
330
A
100
AcDbEntity
  8
0
100
AcDbLine
 10
-69.02046449736099
 20
272.2908320249743
 30
0.0
 11
-65.32046049736078
 21
272.1908340249743
 31
0.0
  0
LINE
  5
50A
330
A
100
AcDbEntity
  8
0
100
AcDbLine
 10
-73.72046949736095
 20
272.4178580249744
 30
0.0
 11
-70.02046449736099
 21
272.3178590249743
 31
0.0
  0
LINE
  5
50B
330
A
100
AcDbEntity
  8
0
100
AcDbLine
 10
-78.42046649736079
 20
272.5448870249743
 30
0.0
 11
-74.72046949736095
 21
272.4448850249743
 31
0.0
  0
LINE
  5
50C
330
A
100
AcDbEntity
  8
0
100
AcDbLine
 10
-83.12047049736097
 20
272.6719130249743
 30
0.0
 11
-79.42046649736098
 21
272.5719150249744
 31
0.0
  0
LINE
  5
50D
330
A
100
AcDbEntity
  8
0
100
AcDbLine
 10
-87.8204674973608
 20
272.7989390249744
 30
0.0
 11
-84.12047049736097
 21
272.6989400249743
 31
0.0
  0
LINE
  5
50E
330
A
100
AcDbEntity
  8
0
100
AcDbLine
 10
-55.92045849736098
 20
282.4205700249743
 30
0.0
 11
-55.92045849736098
 21
271.9367750249743
 31
0.0
  0
LINE
  5
50F
330
A
100
AcDbEntity
  8
0
100
AcDbLine
 10
-88.82046749736106
 20
281.5313800249743
 30
0.0
 11
-88.82046749736106
 21
272.8259660249743
 31
0.0
  0
LINE
  5
510
330
A
100
AcDbEntity
  8
0
100
AcDbLine
 10
-87.8204674973608
 20
281.5584070249743
 30
0.0
 11
-87.8204674973608
 21
272.7989390249744
 31
0.0
  0
LINE
  5
511
330
A
100
AcDbEntity
  8
0
100
AcDbLine
 10
-84.12047049736097
 20
281.6584090249743
 30
0.0
 11
-84.12047049736097
 21
272.6989400249743
 31
0.0
  0
LINE
  5
512
330
A
100
AcDbEntity
  8
0
100
AcDbLine
 10
-83.12046349736098
 20
281.6854360249743
 30
0.0
 11
-83.12046349736098
 21
272.6719130249743
 31
0.0
  0
LINE
  5
513
330
A
100
AcDbEntity
  8
0
100
AcDbLine
 10
-79.42046649736098
 20
281.7854350249742
 30
0.0
 11
-79.42046649736098
 21
272.5719150249744
 31
0.0
  0
LINE
  5
514
330
A
100
AcDbEntity
  8
0
100
AcDbLine
 10
-78.42046649736079
 20
281.8124620249743
 30
0.0
 11
-78.42046649736079
 21
272.5448840249744
 31
0.0
  0
LINE
  5
515
330
A
100
AcDbEntity
  8
0
100
AcDbLine
 10
-74.72046949736095
 20
281.9124600249743
 30
0.0
 11
-74.72046949736095
 21
272.4448850249743
 31
0.0
  0
LINE
  5
516
330
A
100
AcDbEntity
  8
0
100
AcDbLine
 10
-73.72046949736095
 20
281.9394870249743
 30
0.0
 11
-73.72046949736095
 21
272.4178580249744
 31
0.0
  0
LINE
  5
517
330
A
100
AcDbEntity
  8
0
100
AcDbLine
 10
-70.02046449736099
 20
282.0394900249743
 30
0.0
 11
-70.02046449736099
 21
272.3178590249743
 31
0.0
  0
LINE
  5
518
330
A
100
AcDbEntity
  8
0
100
AcDbLine
 10
-69.02046449736099
 20
282.0665170249743
 30
0.0
 11
-69.02046449736099
 21
272.2908320249743
 31
0.0
  0
LINE
  5
519
330
A
100
AcDbEntity
  8
0
100
AcDbLine
 10
-65.32046049736078
 20
282.1665150249743
 30
0.0
 11
-65.32046049736078
 21
272.1908300249743
 31
0.0
  0
LINE
  5
51A
330
A
100
AcDbEntity
  8
0
100
AcDbLine
 10
-64.32046049736086
 20
282.1935420249743
 30
0.0
 11
-64.32046049736086
 21
272.1638030249744
 31
0.0
  0
LINE
  5
51B
330
A
100
AcDbEntity
  8
0
100
AcDbLine
 10
-60.62046349736096
 20
282.2935410249743
 30
0.0
 11
-60.62046349736096
 21
272.0638040249743
 31
0.0
  0
LINE
  5
51C
330
A
100
AcDbEntity
  8
0
100
AcDbLine
 10
-59.62045549736081
 20
282.3205680249743
 30
0.0
 11
-59.62045549736081
 21
272.0367770249743
 31
0.0
  0
LINE
  5
51D
330
A
100
AcDbEntity
  8
0
100
AcDbLine
 10
-92.52047249736095
 20
258.4259570249744
 30
0.0
 11
-92.52047249736095
 21
266.9313700249743
 31
0.0
  0
LINE
  5
51E
330
A
100
AcDbEntity
  8
0
100
AcDbLine
 10
-92.52047249736095
 20
266.9313700249743
 30
0.0
 11
-88.82047549736077
 21
267.0313720249744
 31
0.0
  0
LINE
  5
51F
330
A
100
AcDbEntity
  8
0
100
AcDbLine
 10
-55.920451497361
 20
257.4367670249744
 30
0.0
 11
-59.62045549736081
 21
257.5367660249743
 31
0.0
  0
LINE
  5
520
330
A
100
AcDbEntity
  8
0
100
AcDbLine
 10
-88.82046749736106
 20
258.3259580249743
 30
0.0
 11
-92.52047249736095
 21
258.4259570249744
 31
0.0
  0
LINE
  5
521
330
A
100
AcDbEntity
  8
0
100
AcDbLine
 10
-84.12046349736078
 20
258.1989290249743
 30
0.0
 11
-87.8204674973608
 21
258.2989270249744
 31
0.0
  0
LINE
  5
522
330
A
100
AcDbEntity
  8
0
100
AcDbLine
 10
-79.42046649736098
 20
258.0718990249744
 30
0.0
 11
-83.12046349736098
 21
258.1719050249744
 31
0.0
  0
LINE
  5
523
330
A
100
AcDbEntity
  8
0
100
AcDbLine
 10
-74.72046949736095
 20
257.9448770249744
 30
0.0
 11
-78.42046649736079
 21
258.0448760249744
 31
0.0
  0
LINE
  5
524
330
A
100
AcDbEntity
  8
0
100
AcDbLine
 10
-70.02045749736097
 20
257.8178480249743
 30
0.0
 11
-73.72046149736099
 21
257.9178470249744
 31
0.0
  0
LINE
  5
525
330
A
100
AcDbEntity
  8
0
100
AcDbLine
 10
-65.32046049736078
 20
257.6908190249743
 30
0.0
 11
-69.02046449736099
 21
257.7908170249743
 31
0.0
  0
LINE
  5
526
330
A
100
AcDbEntity
  8
0
100
AcDbLine
 10
-60.62045549736097
 20
257.5637970249744
 30
0.0
 11
-64.32046049736086
 21
257.6637950249744
 31
0.0
  0
LINE
  5
527
330
A
100
AcDbEntity
  8
0
100
AcDbLine
 10
-59.62045549736081
 20
267.8205600249743
 30
0.0
 11
-55.92045849736098
 21
267.9205590249743
 31
0.0
  0
LINE
  5
528
330
A
100
AcDbEntity
  8
0
100
AcDbLine
 10
-64.32046049736086
 20
267.6935350249743
 30
0.0
 11
-60.62046349736096
 21
267.7935330249744
 31
0.0
  0
LINE
  5
529
330
A
100
AcDbEntity
  8
0
100
AcDbLine
 10
-69.02045749736098
 20
267.5665050249743
 30
0.0
 11
-65.32046049736078
 21
267.6665040249744
 31
0.0
  0
LINE
  5
52A
330
A
100
AcDbEntity
  8
0
100
AcDbLine
 10
-73.72046949736095
 20
267.4394800249743
 30
0.0
 11
-70.02046449736099
 21
267.5394780249744
 31
0.0
  0
LINE
  5
52B
330
A
100
AcDbEntity
  8
0
100
AcDbLine
 10
-78.42046649736079
 20
267.3124500249743
 30
0.0
 11
-74.72046949736095
 21
267.4124530249744
 31
0.0
  0
LINE
  5
52C
330
A
100
AcDbEntity
  8
0
100
AcDbLine
 10
-83.12047049736097
 20
267.1854250249743
 30
0.0
 11
-79.42046649736098
 21
267.2854270249743
 31
0.0
  0
LINE
  5
52D
330
A
100
AcDbEntity
  8
0
100
AcDbLine
 10
-87.8204674973608
 20
267.0583990249743
 30
0.0
 11
-84.12047049736097
 21
267.1583980249744
 31
0.0
  0
LINE
  5
52E
330
A
100
AcDbEntity
  8
0
100
AcDbLine
 10
-55.92045849736098
 20
257.4367670249744
 30
0.0
 11
-55.92045849736098
 21
267.9205630249744
 31
0.0
  0
LINE
  5
52F
330
A
100
AcDbEntity
  8
0
100
AcDbLine
 10
-88.82046749736106
 20
258.3259580249743
 30
0.0
 11
-88.82046749736106
 21
267.0313720249744
 31
0.0
  0
LINE
  5
530
330
A
100
AcDbEntity
  8
0
100
AcDbLine
 10
-87.8204674973608
 20
258.2989270249744
 30
0.0
 11
-87.8204674973608
 21
267.0583990249743
 31
0.0
  0
LINE
  5
531
330
A
100
AcDbEntity
  8
0
100
AcDbLine
 10
-84.12047049736097
 20
258.1989290249743
 30
0.0
 11
-84.12047049736097
 21
267.1583980249744
 31
0.0
  0
LINE
  5
532
330
A
100
AcDbEntity
  8
0
100
AcDbLine
 10
-83.12046349736098
 20
258.1719050249744
 30
0.0
 11
-83.12046349736098
 21
267.1854250249743
 31
0.0
  0
LINE
  5
533
330
A
100
AcDbEntity
  8
0
100
AcDbLine
 10
-79.42046649736098
 20
258.0719070249744
 30
0.0
 11
-79.42046649736098
 21
267.2854230249744
 31
0.0
  0
LINE
  5
534
330
A
100
AcDbEntity
  8
0
100
AcDbLine
 10
-78.42046649736079
 20
258.0448760249744
 30
0.0
 11
-78.42046649736079
 21
267.3124540249743
 31
0.0
  0
LINE
  5
535
330
A
100
AcDbEntity
  8
0
100
AcDbLine
 10
-74.72046949736095
 20
257.9448770249744
 30
0.0
 11
-74.72046949736095
 21
267.4124530249744
 31
0.0
  0
LINE
  5
536
330
A
100
AcDbEntity
  8
0
100
AcDbLine
 10
-73.72046949736095
 20
257.9178470249744
 30
0.0
 11
-73.72046949736095
 21
267.4394800249743
 31
0.0
  0
LINE
  5
537
330
A
100
AcDbEntity
  8
0
100
AcDbLine
 10
-70.02046449736099
 20
257.8178480249743
 30
0.0
 11
-70.02046449736099
 21
267.5394780249744
 31
0.0
  0
LINE
  5
538
330
A
100
AcDbEntity
  8
0
100
AcDbLine
 10
-69.02046449736099
 20
257.7908250249744
 30
0.0
 11
-69.02046449736099
 21
267.5665050249743
 31
0.0
  0
LINE
  5
539
330
A
100
AcDbEntity
  8
0
100
AcDbLine
 10
-65.32046049736078
 20
257.6908190249743
 30
0.0
 11
-65.32046049736078
 21
267.6665080249744
 31
0.0
  0
LINE
  5
53A
330
A
100
AcDbEntity
  8
0
100
AcDbLine
 10
-64.32046049736086
 20
257.6637950249744
 30
0.0
 11
-64.32046049736086
 21
267.6935350249743
 31
0.0
  0
LINE
  5
53B
330
A
100
AcDbEntity
  8
0
100
AcDbLine
 10
-60.62046349736096
 20
257.5637970249744
 30
0.0
 11
-60.62046349736096
 21
267.7935330249744
 31
0.0
  0
LINE
  5
53C
330
A
100
AcDbEntity
  8
0
100
AcDbLine
 10
-59.62045549736081
 20
257.5367660249743
 30
0.0
 11
-59.62045549736081
 21
267.8205600249743
 31
0.0
  0
LINE
  5
53D
330
A
100
AcDbEntity
  8
0
100
AcDbLine
 10
-88.82046749736106
 20
279.5306510249743
 30
0.0
 11
-92.52047249736095
 21
279.4306490249744
 31
0.0
  0
LINE
  5
53E
330
A
100
AcDbEntity
  8
0
100
AcDbLine
 10
-84.12047049736097
 20
279.6576770249743
 30
0.0
 11
-87.8204674973608
 21
279.5576780249743
 31
0.0
  0
LINE
  5
53F
330
A
100
AcDbEntity
  8
0
100
AcDbLine
 10
-79.42046649736098
 20
279.7847060249743
 30
0.0
 11
-83.12046349736098
 21
279.6847040249744
 31
0.0
  0
LINE
  5
540
330
A
100
AcDbEntity
  8
0
100
AcDbLine
 10
-74.72046949736095
 20
279.9117320249743
 30
0.0
 11
-78.42046649736079
 21
279.8117290249743
 31
0.0
  0
LINE
  5
541
330
A
100
AcDbEntity
  8
0
100
AcDbLine
 10
-70.02046449736099
 20
280.0387570249743
 30
0.0
 11
-73.72046949736095
 21
279.9387590249743
 31
0.0
  0
LINE
  5
542
330
A
100
AcDbEntity
  8
0
100
AcDbLine
 10
-65.32046049736078
 20
280.1657870249743
 30
0.0
 11
-69.02045749736098
 21
280.0657840249743
 31
0.0
  0
LINE
  5
543
330
A
100
AcDbEntity
  8
0
100
AcDbLine
 10
-60.62046349736096
 20
280.2928120249744
 30
0.0
 11
-64.32046049736086
 21
280.1928140249743
 31
0.0
  0
LINE
  5
544
330
A
100
AcDbEntity
  8
0
100
AcDbLine
 10
-55.92045849736098
 20
280.4198380249744
 30
0.0
 11
-59.62045549736081
 21
280.3198390249743
 31
0.0
  0
LINE
  5
545
330
A
100
AcDbEntity
  8
0
100
AcDbLine
 10
-88.82046749736106
 20
260.3266910249744
 30
0.0
 11
-92.52047249736095
 21
260.4266890249743
 31
0.0
  0
LINE
  5
546
330
A
100
AcDbEntity
  8
0
100
AcDbLine
 10
-84.12047049736097
 20
260.1996610249742
 30
0.0
 11
-87.8204674973608
 21
260.2996600249743
 31
0.0
  0
LINE
  5
547
330
A
100
AcDbEntity
  8
0
100
AcDbLine
 10
-79.42046649736098
 20
260.0726320249743
 30
0.0
 11
-83.12047049736097
 21
260.1726300249743
 31
0.0
  0
LINE
  5
548
330
A
100
AcDbEntity
  8
0
100
AcDbLine
 10
-74.72046949736095
 20
259.9456100249743
 30
0.0
 11
-78.42046649736079
 21
260.0456080249744
 31
0.0
  0
LINE
  5
549
330
A
100
AcDbEntity
  8
0
100
AcDbLine
 10
-70.02045749736097
 20
259.8185800249744
 30
0.0
 11
-73.72046149736099
 21
259.9185790249744
 31
0.0
  0
LINE
  5
54A
330
A
100
AcDbEntity
  8
0
100
AcDbLine
 10
-65.32046049736078
 20
259.6915510249743
 30
0.0
 11
-69.02045749736098
 21
259.7915500249744
 31
0.0
  0
LINE
  5
54B
330
A
100
AcDbEntity
  8
0
100
AcDbLine
 10
-60.62045549736097
 20
259.5645220249743
 30
0.0
 11
-64.32046049736086
 21
259.6645280249743
 31
0.0
  0
LINE
  5
54C
330
A
100
AcDbEntity
  8
0
100
AcDbLine
 10
-55.92046649736087
 20
259.4375000249743
 30
0.0
 11
-59.62046349736096
 21
259.5374980249744
 31
0.0
  0
ARC
  5
54D
330
A
100
AcDbEntity
  8
0
100
AcDbCircle
 10
-50.62047049736077
 20
281.9286760249743
 30
0.0
 40
1.0
100
AcDbArc
 50
0.0
 51
90.0
  0
ARC
  5
54E
330
A
100
AcDbEntity
  8
0
100
AcDbCircle
 10
-50.62047049736077
 20
257.9286730249743
 30
0.0
 40
1.0
100
AcDbArc
 50
270.0
 51
0.0
  0
LINE
  5
54F
330
A
100
AcDbEntity
  8
0
  6
CENTER
 62
     2
100
AcDbLine
 10
-123.974046731051
 20
269.9286760249744
 30
0.0
 11
-42.35160110218179
 21
269.9286760249743
 31
0.0
  0
LINE
  5
550
330
A
100
AcDbEntity
  8
0
  6
CENTER
 62
     2
100
AcDbLine
 10
-185.6204704973609
 20
269.9286760249743
 30
0.0
 11
-153.6204704973609
 21
269.9286760249743
 31
0.0
  0
LINE
  5
551
330
A
100
AcDbEntity
  8
0
  6
CENTER
 62
     2
100
AcDbLine
 10
-169.6204704973609
 20
285.9286760249743
 30
0.0
 11
-169.6204704973609
 21
253.9286760249743
 31
0.0
  0
CIRCLE
  5
552
330
A
100
AcDbEntity
  8
0
  6
SBK2
100
AcDbCircle
 10
-169.6204704973609
 20
269.9286760249743
 30
0.0
 40
13.0
  0
LINE
  5
553
330
A
100
AcDbEntity
  8
0
  6
Continuous
 62
     7
100
AcDbLine
 10
254.3795234026391
 20
398.1982786213738
 30
0.0
 11
254.3795234026391
 21
385.6720656685747
 31
0.0
  0
LINE
  5
554
330
A
100
AcDbEntity
  8
0
  6
CENTER
 62
     2
100
AcDbLine
 10
253.4995234026391
 20
391.9351721449743
 30
0.0
 11
319.1295234026392
 21
391.9351721449743
 31
0.0
  0
LINE
  5
555
330
A
100
AcDbEntity
  8
0
  6
Continuous
 62
     7
100
AcDbLine
 10
272.3795234026392
 20
381.9351721449743
 30
0.0
 11
315.8795234026392
 21
381.9351721449743
 31
0.0
  0
LINE
  5
556
330
A
100
AcDbEntity
  8
0
  6
Continuous
 62
     7
100
AcDbLine
 10
316.8795234026392
 20
400.9351721449743
 30
0.0
 11
316.8795234026392
 21
382.9351721449743
 31
0.0
  0
LINE
  5
557
330
A
100
AcDbEntity
  8
0
  6
Continuous
 62
     7
100
AcDbLine
 10
310.3695234026392
 20
390.0651721449743
 30
0.0
 11
308.5195234026392
 21
390.0351721449742
 31
0.0
  0
LINE
  5
558
330
A
100
AcDbEntity
  8
0
  6
Continuous
 62
     7
100
AcDbLine
 10
304.3795234026392
 20
389.4651721449743
 30
0.0
 11
304.3795234026392
 21
381.9351721449743
 31
0.0
  0
LINE
  5
559
330
A
100
AcDbEntity
  8
0
  6
Continuous
 62
     7
100
AcDbLine
 10
274.0795234026391
 20
384.9351721449743
 30
0.0
 11
275.929523402639
 21
384.9351721449743
 31
0.0
  0
LINE
  5
55A
330
A
100
AcDbEntity
  8
0
  6
Continuous
 62
     7
100
AcDbLine
 10
281.7795234026391
 20
384.9351721449743
 30
0.0
 11
283.6295234026392
 21
384.9351721449743
 31
0.0
  0
LINE
  5
55B
330
A
100
AcDbEntity
  8
0
  6
Continuous
 62
     7
100
AcDbLine
 10
285.6295234026392
 20
384.9351721449743
 30
0.0
 11
287.4795234026391
 21
384.9351721449743
 31
0.0
  0
LINE
  5
55C
330
A
100
AcDbEntity
  8
0
  6
Continuous
 62
     7
100
AcDbLine
 10
289.4795234026391
 20
384.9351721449743
 30
0.0
 11
291.3295234026392
 21
384.9351721449743
 31
0.0
  0
LINE
  5
55D
330
A
100
AcDbEntity
  8
0
  6
Continuous
 62
     7
100
AcDbLine
 10
297.1795234026392
 20
384.9351721449743
 30
0.0
 11
299.0295234026391
 21
384.9351721449743
 31
0.0
  0
LINE
  5
55E
330
A
100
AcDbEntity
  8
0
  6
Continuous
 62
     7
100
AcDbLine
 10
301.0295234026391
 20
384.9351721449743
 30
0.0
 11
302.8795234026392
 21
384.9351721449743
 31
0.0
  0
LINE
  5
55F
330
A
100
AcDbEntity
  8
0
  6
Continuous
 62
     7
100
AcDbLine
 10
304.8795234026392
 20
384.9351721449743
 30
0.0
 11
306.5295234026391
 21
384.9351721449743
 31
0.0
  0
LINE
  5
560
330
A
100
AcDbEntity
  8
0
  6
Continuous
 62
     7
100
AcDbLine
 10
308.5295234026391
 20
384.9351721449743
 30
0.0
 11
310.3795234026392
 21
384.9351721449743
 31
0.0
  0
LINE
  5
561
330
A
100
AcDbEntity
  8
0
  6
Continuous
 62
     7
100
AcDbLine
 10
279.7695234026392
 20
389.5251721449742
 30
0.0
 11
277.9195234026391
 21
389.4951721449743
 31
0.0
  0
LINE
  5
562
330
A
100
AcDbEntity
  8
0
  6
Continuous
 62
     7
100
AcDbLine
 10
283.6195234026392
 20
389.5951721449742
 30
0.0
 11
281.7695234026392
 21
389.5651721449743
 31
0.0
  0
LINE
  5
563
330
A
100
AcDbEntity
  8
0
  6
Continuous
 62
     7
100
AcDbLine
 10
287.4695234026392
 20
389.6651721449743
 30
0.0
 11
285.6195234026392
 21
389.6351721449743
 31
0.0
  0
LINE
  5
564
330
A
100
AcDbEntity
  8
0
  6
Continuous
 62
     7
100
AcDbLine
 10
295.1695234026392
 20
389.7951721449743
 30
0.0
 11
293.3195234026391
 21
389.7651721449743
 31
0.0
  0
LINE
  5
565
330
A
100
AcDbEntity
  8
0
  6
Continuous
 62
     7
100
AcDbLine
 10
299.0195234026391
 20
389.8651721449743
 30
0.0
 11
297.1695234026391
 21
389.8351721449742
 31
0.0
  0
LINE
  5
566
330
A
100
AcDbEntity
  8
0
  6
Continuous
 62
     7
100
AcDbLine
 10
302.8695234026392
 20
389.9351721449743
 30
0.0
 11
301.0195234026391
 21
389.8951721449742
 31
0.0
  0
LINE
  5
567
330
A
100
AcDbEntity
  8
0
  6
Continuous
 62
     7
100
AcDbLine
 10
306.5195234026392
 20
389.9951721449743
 30
0.0
 11
304.8695234026392
 21
389.9651721449743
 31
0.0
  0
LINE
  5
568
330
A
100
AcDbEntity
  8
0
  6
CENTER
 62
     2
100
AcDbLine
 10
199.7128592791039
 20
402.7616682649743
 30
0.0
 11
199.7128592791039
 21
381.2116682649742
 31
0.0
  0
LINE
  5
569
330
A
100
AcDbEntity
  8
0
  6
CENTER
 62
     2
100
AcDbLine
 10
210.7328592791039
 20
391.9416682649743
 30
0.0
 11
188.7428592791039
 21
391.9416682649743
 31
0.0
  0
LINE
  5
56A
330
A
100
AcDbEntity
  8
0
  6
Continuous
 62
     7
100
AcDbLine
 10
272.3795234026392
 20
391.9351721449743
 30
0.0
 11
272.3795234026392
 21
381.9351721449743
 31
0.0
  0
LINE
  5
56B
330
A
100
AcDbEntity
  8
0
  6
Continuous
 62
     7
100
AcDbLine
 10
264.3795234026391
 20
391.9351721449743
 30
0.0
 11
264.3795234026391
 21
382.1202175749743
 31
0.0
  0
LINE
  5
56C
330
A
100
AcDbEntity
  8
0
  6
Continuous
 62
     2
100
AcDbLine
 10
262.3695234026391
 20
386.1051721449743
 30
0.0
 11
254.8195234026391
 21
386.5051721449743
 31
0.0
  0
LINE
  5
56D
330
A
100
AcDbEntity
  8
0
  6
Continuous
 62
     7
100
AcDbLine
 10
262.3795234026391
 20
385.2551721449743
 30
0.0
 11
262.3795234026391
 21
391.9351721449743
 31
0.0
  0
LINE
  5
56E
330
A
100
AcDbEntity
  8
0
  6
Continuous
 62
     2
100
AcDbLine
 10
264.0195234026391
 20
385.1651721449743
 30
0.0
 11
262.3795234026391
 21
386.1051721449743
 31
0.0
  0
LINE
  5
56F
330
A
100
AcDbEntity
  8
0
  6
Continuous
 62
     7
100
AcDbLine
 10
264.3795234026391
 20
385.1451721449743
 30
0.0
 11
254.3795234026391
 21
385.6720656685747
 31
0.0
  0
LINE
  5
570
330
A
100
AcDbEntity
  8
0
  6
Continuous
 62
     7
100
AcDbLine
 10
313.8795234026392
 20
391.9351721449743
 30
0.0
 11
313.8795234026392
 21
381.9351721449743
 31
0.0
  0
LINE
  5
571
330
A
100
AcDbEntity
  8
0
  6
Continuous
 62
     7
100
AcDbLine
 10
310.8795234026392
 20
389.5651721449743
 30
0.0
 11
310.8795234026392
 21
381.9351721449743
 31
0.0
  0
LINE
  5
572
330
A
100
AcDbEntity
  8
0
  6
Continuous
 62
     7
100
AcDbLine
 10
308.0295234026392
 20
389.5351721449742
 30
0.0
 11
308.0295234026392
 21
381.9351721449743
 31
0.0
  0
LINE
  5
573
330
A
100
AcDbEntity
  8
0
  6
Continuous
 62
     7
100
AcDbLine
 10
307.0295234026391
 20
389.4951721449743
 30
0.0
 11
307.0295234026391
 21
381.9351721449743
 31
0.0
  0
LINE
  5
574
330
A
100
AcDbEntity
  8
0
  6
Continuous
 62
     7
100
AcDbLine
 10
303.3795234026392
 20
389.4351721449743
 30
0.0
 11
303.3795234026392
 21
381.9351721449743
 31
0.0
  0
LINE
  5
575
330
A
100
AcDbEntity
  8
0
  6
Continuous
 62
     7
100
AcDbLine
 10
300.5295234026391
 20
389.3951721449742
 30
0.0
 11
300.5295234026391
 21
381.9351721449743
 31
0.0
  0
LINE
  5
576
330
A
100
AcDbEntity
  8
0
  6
Continuous
 62
     7
100
AcDbLine
 10
299.5295234026391
 20
389.3651721449743
 30
0.0
 11
299.5295234026391
 21
381.9351721449743
 31
0.0
  0
LINE
  5
577
330
A
100
AcDbEntity
  8
0
  6
Continuous
 62
     7
100
AcDbLine
 10
296.6795234026391
 20
389.3351721449743
 30
0.0
 11
296.6795234026391
 21
381.9351721449743
 31
0.0
  0
LINE
  5
578
330
A
100
AcDbEntity
  8
0
  6
Continuous
 62
     7
100
AcDbLine
 10
295.6795234026391
 20
389.2951721449743
 30
0.0
 11
295.6795234026391
 21
381.9351721449743
 31
0.0
  0
LINE
  5
579
330
A
100
AcDbEntity
  8
0
  6
Continuous
 62
     7
100
AcDbLine
 10
292.8295234026391
 20
389.2651721449743
 30
0.0
 11
292.8295234026391
 21
381.9351721449743
 31
0.0
  0
LINE
  5
57A
330
A
100
AcDbEntity
  8
0
  6
Continuous
 62
     7
100
AcDbLine
 10
291.3195234026391
 20
389.7351721449743
 30
0.0
 11
289.4695234026391
 21
389.6951721449743
 31
0.0
  0
LINE
  5
57B
330
A
100
AcDbEntity
  8
0
  6
Continuous
 62
     7
100
AcDbLine
 10
293.3295234026392
 20
384.9351721449743
 30
0.0
 11
295.1795234026392
 21
384.9351721449743
 31
0.0
  0
LINE
  5
57C
330
A
100
AcDbEntity
  8
0
  6
Continuous
 62
     7
100
AcDbLine
 10
291.8295234026392
 20
389.2351721449743
 30
0.0
 11
291.8295234026392
 21
381.9351721449743
 31
0.0
  0
LINE
  5
57D
330
A
100
AcDbEntity
  8
0
  6
Continuous
 62
     7
100
AcDbLine
 10
288.9795234026392
 20
389.1951721449743
 30
0.0
 11
288.9795234026392
 21
381.9351721449743
 31
0.0
  0
LINE
  5
57E
330
A
100
AcDbEntity
  8
0
  6
Continuous
 62
     7
100
AcDbLine
 10
287.9795234026391
 20
389.1651721449743
 30
0.0
 11
287.9795234026391
 21
381.9351721449743
 31
0.0
  0
LINE
  5
57F
330
A
100
AcDbEntity
  8
0
  6
Continuous
 62
     7
100
AcDbLine
 10
285.1295234026391
 20
389.1351721449743
 30
0.0
 11
285.1295234026391
 21
381.9351721449743
 31
0.0
  0
LINE
  5
580
330
A
100
AcDbEntity
  8
0
  6
Continuous
 62
     7
100
AcDbLine
 10
284.1295234026392
 20
389.0951721449742
 30
0.0
 11
284.1295234026392
 21
381.9351721449743
 31
0.0
  0
LINE
  5
581
330
A
100
AcDbEntity
  8
0
  6
Continuous
 62
     7
100
AcDbLine
 10
281.2795234026392
 20
389.0651721449743
 30
0.0
 11
281.2795234026392
 21
381.9351721449743
 31
0.0
  0
LINE
  5
582
330
A
100
AcDbEntity
  8
0
  6
Continuous
 62
     7
100
AcDbLine
 10
280.2795234026391
 20
389.0251721449743
 30
0.0
 11
280.2795234026391
 21
381.9351721449743
 31
0.0
  0
LINE
  5
583
330
A
100
AcDbEntity
  8
0
  6
Continuous
 62
     7
100
AcDbLine
 10
276.4295234026392
 20
388.9651721449742
 30
0.0
 11
276.4295234026392
 21
381.9351721449743
 31
0.0
  0
LINE
  5
584
330
A
100
AcDbEntity
  8
0
  6
Continuous
 62
     7
100
AcDbLine
 10
273.5795234026392
 20
388.9251721449743
 30
0.0
 11
273.5795234026392
 21
381.9351721449743
 31
0.0
  0
LINE
  5
585
330
A
100
AcDbEntity
  8
0
  6
Continuous
 62
     7
100
AcDbLine
 10
277.9295234026391
 20
384.9351721449743
 30
0.0
 11
279.7795234026391
 21
384.9351721449743
 31
0.0
  0
LINE
  5
586
330
A
100
AcDbEntity
  8
0
  6
Continuous
 62
     7
100
AcDbLine
 10
275.9195234026391
 20
389.4651721449743
 30
0.0
 11
274.0695234026391
 21
389.4251721449743
 31
0.0
  0
LINE
  5
587
330
A
100
AcDbEntity
  8
0
  6
Continuous
 62
     7
100
AcDbLine
 10
277.4295234026391
 20
388.9751721449743
 30
0.0
 11
277.4295234026391
 21
381.9351721449743
 31
0.0
  0
LINE
  5
588
330
A
100
AcDbEntity
  8
0
  6
Continuous
 62
     7
100
AcDbLine
 10
272.3795234026392
 20
401.9351721449742
 30
0.0
 11
315.8795234026392
 21
401.9351721449742
 31
0.0
  0
LINE
  5
589
330
A
100
AcDbEntity
  8
0
  6
Continuous
 62
     7
100
AcDbLine
 10
310.3695234026392
 20
393.8051721449743
 30
0.0
 11
308.5195234026392
 21
393.8351721449743
 31
0.0
  0
LINE
  5
58A
330
A
100
AcDbEntity
  8
0
  6
Continuous
 62
     7
100
AcDbLine
 10
304.3795234026392
 20
394.4051721449742
 30
0.0
 11
304.3795234026392
 21
401.9351721449742
 31
0.0
  0
LINE
  5
58B
330
A
100
AcDbEntity
  8
0
  6
Continuous
 62
     7
100
AcDbLine
 10
274.0795234026391
 20
398.9351721449743
 30
0.0
 11
275.929523402639
 21
398.9351721449743
 31
0.0
  0
LINE
  5
58C
330
A
100
AcDbEntity
  8
0
  6
Continuous
 62
     7
100
AcDbLine
 10
281.7795234026391
 20
398.9351721449743
 30
0.0
 11
283.6295234026392
 21
398.9351721449743
 31
0.0
  0
LINE
  5
58D
330
A
100
AcDbEntity
  8
0
  6
Continuous
 62
     7
100
AcDbLine
 10
285.6295234026392
 20
398.9351721449743
 30
0.0
 11
287.4795234026391
 21
398.9351721449743
 31
0.0
  0
LINE
  5
58E
330
A
100
AcDbEntity
  8
0
  6
Continuous
 62
     7
100
AcDbLine
 10
289.4795234026391
 20
398.9351721449743
 30
0.0
 11
291.3295234026392
 21
398.9351721449743
 31
0.0
  0
LINE
  5
58F
330
A
100
AcDbEntity
  8
0
  6
Continuous
 62
     7
100
AcDbLine
 10
297.1795234026392
 20
398.9351721449743
 30
0.0
 11
299.0295234026391
 21
398.9351721449743
 31
0.0
  0
LINE
  5
590
330
A
100
AcDbEntity
  8
0
  6
Continuous
 62
     7
100
AcDbLine
 10
301.0295234026391
 20
398.9351721449743
 30
0.0
 11
302.8795234026392
 21
398.9351721449743
 31
0.0
  0
LINE
  5
591
330
A
100
AcDbEntity
  8
0
  6
Continuous
 62
     7
100
AcDbLine
 10
304.8795234026392
 20
398.9351721449743
 30
0.0
 11
306.5295234026391
 21
398.9351721449743
 31
0.0
  0
LINE
  5
592
330
A
100
AcDbEntity
  8
0
  6
Continuous
 62
     7
100
AcDbLine
 10
308.5295234026391
 20
398.9351721449743
 30
0.0
 11
310.3795234026392
 21
398.9351721449743
 31
0.0
  0
LINE
  5
593
330
A
100
AcDbEntity
  8
0
  6
Continuous
 62
     7
100
AcDbLine
 10
279.7695234026392
 20
394.3451721449743
 30
0.0
 11
277.9195234026391
 21
394.3751721449743
 31
0.0
  0
LINE
  5
594
330
A
100
AcDbEntity
  8
0
  6
Continuous
 62
     7
100
AcDbLine
 10
283.6195234026392
 20
394.2751721449742
 30
0.0
 11
281.7695234026392
 21
394.3051721449743
 31
0.0
  0
LINE
  5
595
330
A
100
AcDbEntity
  8
0
  6
Continuous
 62
     7
100
AcDbLine
 10
287.4695234026392
 20
394.2051721449743
 30
0.0
 11
285.6195234026392
 21
394.2351721449743
 31
0.0
  0
LINE
  5
596
330
A
100
AcDbEntity
  8
0
  6
Continuous
 62
     7
100
AcDbLine
 10
295.1695234026392
 20
394.0751721449743
 30
0.0
 11
293.3195234026391
 21
394.1051721449743
 31
0.0
  0
LINE
  5
597
330
A
100
AcDbEntity
  8
0
  6
Continuous
 62
     7
100
AcDbLine
 10
299.0195234026391
 20
394.0051721449743
 30
0.0
 11
297.1695234026391
 21
394.0351721449742
 31
0.0
  0
LINE
  5
598
330
A
100
AcDbEntity
  8
0
  6
Continuous
 62
     7
100
AcDbLine
 10
302.8695234026392
 20
393.9351721449743
 30
0.0
 11
301.0195234026391
 21
393.9651721449743
 31
0.0
  0
LINE
  5
599
330
A
100
AcDbEntity
  8
0
  6
Continuous
 62
     7
100
AcDbLine
 10
306.5195234026392
 20
393.8751721449743
 30
0.0
 11
304.8695234026392
 21
393.9051721449743
 31
0.0
  0
LINE
  5
59A
330
A
100
AcDbEntity
  8
0
  6
Continuous
 62
     7
100
AcDbLine
 10
272.3795234026392
 20
391.9351721449743
 30
0.0
 11
272.3795234026392
 21
401.9351721449742
 31
0.0
  0
LINE
  5
59B
330
A
100
AcDbEntity
  8
0
  6
Continuous
 62
     7
100
AcDbLine
 10
264.3795234026391
 20
391.9351721449743
 30
0.0
 11
264.3795234026391
 21
401.7501267349742
 31
0.0
  0
LINE
  5
59C
330
A
100
AcDbEntity
  8
0
  6
Continuous
 62
     2
100
AcDbLine
 10
262.3695234026391
 20
397.7651721449743
 30
0.0
 11
254.8195234026391
 21
397.3651721449743
 31
0.0
  0
LINE
  5
59D
330
A
100
AcDbEntity
  8
0
  6
Continuous
 62
     2
100
AcDbLine
 10
264.0195234026391
 20
398.7051721449743
 30
0.0
 11
262.3795234026391
 21
397.7651721449743
 31
0.0
  0
LINE
  5
59E
330
A
100
AcDbEntity
  8
0
  6
Continuous
 62
     7
100
AcDbLine
 10
264.3795234026391
 20
398.7251721449742
 30
0.0
 11
254.3795234026391
 21
398.1982786213738
 31
0.0
  0
LINE
  5
59F
330
A
100
AcDbEntity
  8
0
  6
Continuous
 62
     7
100
AcDbLine
 10
313.8795234026392
 20
391.9351721449743
 30
0.0
 11
313.8795234026392
 21
401.9351721449742
 31
0.0
  0
LINE
  5
5A0
330
A
100
AcDbEntity
  8
0
  6
Continuous
 62
     7
100
AcDbLine
 10
310.8795234026392
 20
394.3051721449743
 30
0.0
 11
310.8795234026392
 21
401.9351721449742
 31
0.0
  0
LINE
  5
5A1
330
A
100
AcDbEntity
  8
0
  6
Continuous
 62
     7
100
AcDbLine
 10
308.0295234026392
 20
394.3351721449742
 30
0.0
 11
308.0295234026392
 21
401.9351721449742
 31
0.0
  0
LINE
  5
5A2
330
A
100
AcDbEntity
  8
0
  6
Continuous
 62
     7
100
AcDbLine
 10
307.0295234026391
 20
394.3751721449743
 30
0.0
 11
307.0295234026391
 21
401.9351721449742
 31
0.0
  0
LINE
  5
5A3
330
A
100
AcDbEntity
  8
0
  6
Continuous
 62
     7
100
AcDbLine
 10
303.3795234026392
 20
394.4351721449743
 30
0.0
 11
303.3795234026392
 21
401.9351721449742
 31
0.0
  0
LINE
  5
5A4
330
A
100
AcDbEntity
  8
0
  6
Continuous
 62
     7
100
AcDbLine
 10
300.5295234026391
 20
394.4651721449742
 30
0.0
 11
300.5295234026391
 21
401.9351721449742
 31
0.0
  0
LINE
  5
5A5
330
A
100
AcDbEntity
  8
0
  6
Continuous
 62
     7
100
AcDbLine
 10
299.5295234026391
 20
394.5051721449743
 30
0.0
 11
299.5295234026391
 21
401.9351721449742
 31
0.0
  0
LINE
  5
5A6
330
A
100
AcDbEntity
  8
0
  6
Continuous
 62
     7
100
AcDbLine
 10
296.6795234026391
 20
394.5351721449743
 30
0.0
 11
296.6795234026391
 21
401.9351721449742
 31
0.0
  0
LINE
  5
5A7
330
A
100
AcDbEntity
  8
0
  6
Continuous
 62
     7
100
AcDbLine
 10
295.6795234026391
 20
394.5751721449743
 30
0.0
 11
295.6795234026391
 21
401.9351721449742
 31
0.0
  0
LINE
  5
5A8
330
A
100
AcDbEntity
  8
0
  6
Continuous
 62
     7
100
AcDbLine
 10
292.8295234026391
 20
394.6051721449743
 30
0.0
 11
292.8295234026391
 21
401.9351721449742
 31
0.0
  0
LINE
  5
5A9
330
A
100
AcDbEntity
  8
0
  6
Continuous
 62
     7
100
AcDbLine
 10
291.3195234026391
 20
394.1351721449743
 30
0.0
 11
289.4695234026391
 21
394.1751721449743
 31
0.0
  0
LINE
  5
5AA
330
A
100
AcDbEntity
  8
0
  6
Continuous
 62
     7
100
AcDbLine
 10
293.3295234026392
 20
398.9351721449743
 30
0.0
 11
295.1795234026392
 21
398.9351721449743
 31
0.0
  0
LINE
  5
5AB
330
A
100
AcDbEntity
  8
0
  6
Continuous
 62
     7
100
AcDbLine
 10
291.8295234026392
 20
394.6351721449742
 30
0.0
 11
291.8295234026392
 21
401.9351721449742
 31
0.0
  0
LINE
  5
5AC
330
A
100
AcDbEntity
  8
0
  6
Continuous
 62
     7
100
AcDbLine
 10
288.9795234026392
 20
394.6751721449743
 30
0.0
 11
288.9795234026392
 21
401.9351721449742
 31
0.0
  0
LINE
  5
5AD
330
A
100
AcDbEntity
  8
0
  6
Continuous
 62
     7
100
AcDbLine
 10
287.9795234026391
 20
394.7051721449743
 30
0.0
 11
287.9795234026391
 21
401.9351721449742
 31
0.0
  0
LINE
  5
5AE
330
A
100
AcDbEntity
  8
0
  6
Continuous
 62
     7
100
AcDbLine
 10
285.1295234026391
 20
394.7351721449743
 30
0.0
 11
285.1295234026391
 21
401.9351721449742
 31
0.0
  0
LINE
  5
5AF
330
A
100
AcDbEntity
  8
0
  6
Continuous
 62
     7
100
AcDbLine
 10
284.1295234026392
 20
394.7751721449742
 30
0.0
 11
284.1295234026392
 21
401.9351721449742
 31
0.0
  0
LINE
  5
5B0
330
A
100
AcDbEntity
  8
0
  6
Continuous
 62
     7
100
AcDbLine
 10
281.2795234026392
 20
394.8051721449743
 30
0.0
 11
281.2795234026392
 21
401.9351721449742
 31
0.0
  0
LINE
  5
5B1
330
A
100
AcDbEntity
  8
0
  6
Continuous
 62
     7
100
AcDbLine
 10
280.2795234026391
 20
394.8451721449742
 30
0.0
 11
280.2795234026391
 21
401.9351721449742
 31
0.0
  0
LINE
  5
5B2
330
A
100
AcDbEntity
  8
0
  6
Continuous
 62
     7
100
AcDbLine
 10
276.4295234026392
 20
394.9051721449743
 30
0.0
 11
276.4295234026392
 21
401.9351721449742
 31
0.0
  0
LINE
  5
5B3
330
A
100
AcDbEntity
  8
0
  6
Continuous
 62
     7
100
AcDbLine
 10
273.5795234026392
 20
394.9351721449743
 30
0.0
 11
273.5795234026392
 21
401.9351721449742
 31
0.0
  0
LINE
  5
5B4
330
A
100
AcDbEntity
  8
0
  6
Continuous
 62
     7
100
AcDbLine
 10
277.9295234026391
 20
398.9351721449743
 30
0.0
 11
279.7795234026391
 21
398.9351721449743
 31
0.0
  0
LINE
  5
5B5
330
A
100
AcDbEntity
  8
0
  6
Continuous
 62
     7
100
AcDbLine
 10
275.9195234026391
 20
394.4051721449742
 30
0.0
 11
274.0695234026391
 21
394.4351721449743
 31
0.0
  0
LINE
  5
5B6
330
A
100
AcDbEntity
  8
0
  6
Continuous
 62
     7
100
AcDbLine
 10
277.4295234026391
 20
394.8951721449743
 30
0.0
 11
277.4295234026391
 21
401.9351721449742
 31
0.0
  0
LINE
  5
5B7
330
A
100
AcDbEntity
  8
0
  6
Continuous
 62
     7
100
AcDbLine
 10
262.3795234026391
 20
398.6151721449743
 30
0.0
 11
262.3795234026391
 21
391.9351721449743
 31
0.0
  0
CIRCLE
  5
5B8
330
A
100
AcDbEntity
  8
0
  6
Continuous
 62
     7
100
AcDbCircle
 10
199.7128653791039
 20
391.9366751349743
 30
0.0
 40
9.999996189999999
  0
CIRCLE
  5
5B9
330
A
100
AcDbEntity
  8
0
  6
Continuous
 62
     7
100
AcDbCircle
 10
199.7128653791039
 20
391.9351721449743
 30
0.0
 40
6.23937798
  0
CIRCLE
  5
5BA
330
A
100
AcDbEntity
  8
0
  6
Continuous
 62
     7
100
AcDbCircle
 10
199.7128653791039
 20
391.9366713249743
 30
0.0
 40
6.23937798
  0
CIRCLE
  5
5BB
330
A
100
AcDbEntity
  8
0
  6
Continuous
 62
     2
100
AcDbCircle
 10
199.7128653791039
 20
391.9366751349743
 30
0.0
 40
5.186922069999996
  0
ARC
  5
5BC
330
A
100
AcDbEntity
  8
0
  6
Continuous
 62
     7
100
AcDbCircle
 10
304.8809098926391
 20
389.4639133949743
 30
0.0
 40
0.5013880600000002
100
AcDbArc
 50
91.30129462999793
 51
179.8561564999987
  0
ARC
  5
5BD
330
A
100
AcDbEntity
  8
0
  6
Continuous
 62
     7
100
AcDbCircle
 10
310.3761156526391
 20
389.5617962449743
 30
0.0
 40
0.50341907
100
AcDbArc
 50
0.3842254199995686
 51
90.75030739999958
  0
ARC
  5
5BE
330
A
100
AcDbEntity
  8
0
  6
Continuous
 62
     7
100
AcDbCircle
 10
308.5340805826391
 20
389.5308061149743
 30
0.0
 40
0.5045760700000002
100
AcDbArc
 50
91.65323039999977
 51
179.5042207299989
  0
ARC
  5
5BF
330
A
100
AcDbEntity
  8
0
  6
Continuous
 62
     7
100
AcDbCircle
 10
306.5275272326392
 20
389.4932360549743
 30
0.0
 40
0.50199991
100
AcDbArc
 50
0.2209770500012854
 51
90.91355576999907
  0
ARC
  5
5C0
330
A
100
AcDbEntity
  8
0
  6
Continuous
 62
     7
100
AcDbCircle
 10
315.8820065526392
 20
382.9326889949743
 30
0.0
 40
0.9975199399999999
100
AcDbArc
 50
269.8573719099976
 51
0.1426280899991969
  0
ARC
  5
5C1
330
A
100
AcDbEntity
  8
0
  6
Continuous
 62
     7
100
AcDbCircle
 10
302.8756600226391
 20
389.4313315049743
 30
0.0
 40
0.5038780200000002
100
AcDbArc
 50
0.4367225800016125
 51
90.69781023000123
  0
ARC
  5
5C2
330
A
100
AcDbEntity
  8
0
  6
Continuous
 62
     7
100
AcDbCircle
 10
301.0295125226392
 20
389.3952828149743
 30
0.0
 40
0.49998913
100
AcDbArc
 50
91.14476948999977
 51
180.0126816400014
  0
ARC
  5
5C3
330
A
100
AcDbEntity
  8
0
  6
Continuous
 62
     7
100
AcDbCircle
 10
299.0270653726391
 20
389.3627649549742
 30
0.0
 40
0.5024638000000003
100
AcDbArc
 50
0.2744924300011888
 51
90.86004038999986
  0
ARC
  5
5C4
330
A
100
AcDbEntity
  8
0
  6
Continuous
 62
     7
100
AcDbCircle
 10
297.1831297926391
 20
389.3317378949743
 30
0.0
 40
0.50361809
100
AcDbArc
 50
91.54816383000003
 51
179.6092872999992
  0
ARC
  5
5C5
330
A
100
AcDbEntity
  8
0
  6
Continuous
 62
     7
100
AcDbCircle
 10
295.1784667526391
 20
389.2941943649743
 30
0.0
 40
0.5010576100000002
100
AcDbArc
 50
0.1118093799992637
 51
91.02272343999919
  0
ARC
  5
5C6
330
A
100
AcDbEntity
  8
0
  6
Continuous
 62
     7
100
AcDbCircle
 10
293.3317183826391
 20
389.2631210749743
 30
0.0
 40
0.50219917
100
AcDbArc
 50
91.39145890999859
 51
179.7659922200014
  0
ARC
  5
5C7
330
A
100
AcDbEntity
  8
0
  6
Continuous
 62
     7
100
AcDbCircle
 10
291.3248449326391
 20
389.2305001049743
 30
0.0
 40
0.5047001
100
AcDbArc
 50
0.5303987000005547
 51
90.60413412000043
  0
ARC
  5
5C8
330
A
100
AcDbEntity
  8
0
  6
Continuous
 62
     7
100
AcDbCircle
 10
289.4803188026391
 20
389.1944926549743
 30
0.0
 40
0.5007958600000002
100
AcDbArc
 50
91.23519182999805
 51
179.9222592999995
  0
ARC
  5
5C9
330
A
100
AcDbEntity
  8
0
  6
Continuous
 62
     7
100
AcDbCircle
 10
287.4762598726391
 20
389.1619433549743
 30
0.0
 40
0.50327388
100
AcDbArc
 50
0.3675885999986837
 51
90.7669442199997
  0
ARC
  5
5CA
330
A
100
AcDbEntity
  8
0
  6
Continuous
 62
     7
100
AcDbCircle
 10
285.6339371926391
 20
389.1309466449742
 30
0.0
 40
0.5044314800000002
100
AcDbArc
 50
91.63741049999854
 51
179.5200406300008
  0
ARC
  5
5CB
330
A
100
AcDbEntity
  8
0
  6
Continuous
 62
     7
100
AcDbCircle
 10
283.6276664226391
 20
389.0933780349742
 30
0.0
 40
0.50186018
100
AcDbArc
 50
0.2048291200008141
 51
90.92970370000013
  0
ARC
  5
5CC
330
A
100
AcDbEntity
  8
0
  6
Continuous
 62
     7
100
AcDbCircle
 10
281.7825340426391
 20
389.0623217249743
 30
0.0
 40
0.50301871
100
AcDbArc
 50
91.48212709999985
 51
179.6753240299991
  0
ARC
  5
5CD
330
A
100
AcDbEntity
  8
0
  6
Continuous
 62
     7
100
AcDbCircle
 10
279.7790692026391
 20
389.0248088649743
 30
0.0
 40
0.50045433
100
AcDbArc
 50
0.0415911799988825
 51
91.09294164000015
  0
ARC
  5
5CE
330
A
100
AcDbEntity
  8
0
  6
Continuous
 62
     7
100
AcDbCircle
 10
277.9311277526391
 20
388.9936998849742
 30
0.0
 40
0.5016065100000004
100
AcDbArc
 50
91.32561992999795
 51
179.8318312000003
  0
ARC
  5
5CF
330
A
100
AcDbEntity
  8
0
  6
Continuous
 62
     7
100
AcDbCircle
 10
274.0797253026391
 20
388.9250742849743
 30
0.0
 40
0.50020191
100
AcDbArc
 50
91.16866079999985
 51
179.9887903299997
  0
ARC
  5
5D0
330
A
100
AcDbEntity
  8
0
  6
Continuous
 62
     7
100
AcDbCircle
 10
275.9254470826391
 20
388.9611143049743
 30
0.0
 40
0.5040926500000003
100
AcDbArc
 50
0.4612247500007644
 51
90.67330807000136
  0
ARC
  5
5D1
330
A
100
AcDbEntity
  8
0
  6
Continuous
 62
     7
100
AcDbCircle
 10
287.4820065126391
 20
385.4326890449743
 30
0.0
 40
0.49752309
100
AcDbArc
 50
269.7140390999996
 51
0.2859609000004041
  0
ARC
  5
5D2
330
A
100
AcDbEntity
  8
0
  6
Continuous
 62
     7
100
AcDbCircle
 10
285.6270370426391
 20
385.4326857849742
 30
0.0
 40
0.49751985
100
AcDbArc
 50
179.7136619500015
 51
270.2863380500017
  0
ARC
  5
5D3
330
A
100
AcDbEntity
  8
0
  6
Continuous
 62
     7
100
AcDbCircle
 10
283.6320063226391
 20
385.4326892349742
 30
0.0
 40
0.4975232800000002
100
AcDbArc
 50
269.7140612799989
 51
0.2859387200010198
  0
ARC
  5
5D4
330
A
100
AcDbEntity
  8
0
  6
Continuous
 62
     7
100
AcDbCircle
 10
281.7770368426391
 20
385.4326855949743
 30
0.0
 40
0.49751966
100
AcDbArc
 50
179.7136397700014
 51
270.2863602299986
  0
ARC
  5
5D5
330
A
100
AcDbEntity
  8
0
  6
Continuous
 62
     7
100
AcDbCircle
 10
279.7820061326391
 20
385.4326894249743
 30
0.0
 40
0.4975234700000001
100
AcDbArc
 50
269.7140834700003
 51
0.285916529999654
  0
ARC
  5
5D6
330
A
100
AcDbEntity
  8
0
  6
Continuous
 62
     7
100
AcDbCircle
 10
277.9270371326392
 20
385.4326858849743
 30
0.0
 40
0.4975199400000001
100
AcDbArc
 50
179.7136730499988
 51
270.2863269499979
  0
ARC
  5
5D7
330
A
100
AcDbEntity
  8
0
  6
Continuous
 62
     7
100
AcDbCircle
 10
275.9320064126391
 20
385.4326891349743
 30
0.0
 40
0.4975231800000002
100
AcDbArc
 50
269.7140501900009
 51
0.2859498099990754
  0
ARC
  5
5D8
330
A
100
AcDbEntity
  8
0
  6
Continuous
 62
     7
100
AcDbCircle
 10
274.077037182639
 20
385.4326859249743
 30
0.0
 40
0.49751999
100
AcDbArc
 50
179.7136785899986
 51
270.2863214099981
  0
ARC
  5
5D9
330
A
100
AcDbEntity
  8
0
  6
Continuous
 62
     7
100
AcDbCircle
 10
289.4770372326391
 20
385.4326859749743
 30
0.0
 40
0.4975200400000002
100
AcDbArc
 50
179.7136841400004
 51
270.2863158599996
  0
ARC
  5
5DA
330
A
100
AcDbEntity
  8
0
  6
Continuous
 62
     7
100
AcDbCircle
 10
291.3320019126392
 20
385.4326936449743
 30
0.0
 40
0.4975276700000001
100
AcDbArc
 50
269.7145715300018
 51
0.2854284700014897
  0
ARC
  5
5DB
330
A
100
AcDbEntity
  8
0
  6
Continuous
 62
     7
100
AcDbCircle
 10
293.3270326326391
 20
385.4326813749743
 30
0.0
 40
0.49751546
100
AcDbArc
 50
179.7131517000007
 51
270.2868482999993
  0
ARC
  5
5DC
330
A
100
AcDbEntity
  8
0
  6
Continuous
 62
     7
100
AcDbCircle
 10
295.1820049826391
 20
385.4326905749743
 30
0.0
 40
0.49752462
100
AcDbArc
 50
269.7142165800016
 51
0.2857834199984354
  0
ARC
  5
5DD
330
A
100
AcDbEntity
  8
0
  6
Continuous
 62
     7
100
AcDbCircle
 10
297.1770356926391
 20
385.4326844449742
 30
0.0
 40
0.49751851
100
AcDbArc
 50
179.71350666
 51
270.2864933399999
  0
ARC
  5
5DE
330
A
100
AcDbEntity
  8
0
  6
Continuous
 62
     7
100
AcDbCircle
 10
299.0320003726391
 20
385.4326951749742
 30
0.0
 40
0.4975291900000001
100
AcDbArc
 50
269.714749010002
 51
0.2852509900012301
  0
ARC
  5
5DF
330
A
100
AcDbEntity
  8
0
  6
Continuous
 62
     7
100
AcDbCircle
 10
301.0270310926391
 20
385.4326798449743
 30
0.0
 40
0.4975139300000003
100
AcDbArc
 50
179.7129742199985
 51
270.2870257800015
  0
ARC
  5
5E0
330
A
100
AcDbEntity
  8
0
  6
Continuous
 62
     7
100
AcDbCircle
 10
302.8820034426392
 20
385.4326921049743
 30
0.0
 40
0.49752614
100
AcDbArc
 50
269.7143940499988
 51
0.2856059500012343
  0
ARC
  5
5E1
330
A
100
AcDbEntity
  8
0
  6
Continuous
 62
     7
100
AcDbCircle
 10
304.8770341626391
 20
385.4326829049743
 30
0.0
 40
0.49751699
100
AcDbArc
 50
179.71332918
 51
270.2866708199999
  0
ARC
  5
5E2
330
A
100
AcDbEntity
  8
0
  6
Continuous
 62
     7
100
AcDbCircle
 10
306.5320080426391
 20
385.4326875049742
 30
0.0
 40
0.49752156
100
AcDbArc
 50
269.7138616199981
 51
0.2861383799985981
  0
ARC
  5
5E3
330
A
100
AcDbEntity
  8
0
  6
Continuous
 62
     7
100
AcDbCircle
 10
308.5270387626391
 20
385.4326875049742
 30
0.0
 40
0.49752156
100
AcDbArc
 50
179.7138616200014
 51
270.2861383799986
  0
ARC
  5
5E4
330
A
100
AcDbEntity
  8
0
  6
Continuous
 62
     7
100
AcDbCircle
 10
310.3820034426391
 20
385.4326921049743
 30
0.0
 40
0.49752614
100
AcDbArc
 50
269.7143940499988
 51
0.2856059500012343
  0
ARC
  5
5E5
330
A
100
AcDbEntity
  8
0
  6
Continuous
 62
     7
100
AcDbCircle
 10
308.5320242826391
 20
398.4326712649743
 30
0.0
 40
0.50250711
100
AcDbArc
 50
90.28515139999807
 51
179.7148485999986
  0
ARC
  5
5E6
330
A
100
AcDbEntity
  8
0
  6
Continuous
 62
     7
100
AcDbCircle
 10
310.3770179626391
 20
398.4326667149743
 30
0.0
 40
0.5025116800000001
100
AcDbArc
 50
0.2856681400015677
 51
89.71433185999842
  0
ARC
  5
5E7
330
A
100
AcDbEntity
  8
0
  6
Continuous
 62
     7
100
AcDbCircle
 10
306.5270225226391
 20
398.4326712649743
 30
0.0
 40
0.50250711
100
AcDbArc
 50
0.2851514000013601
 51
89.71484859999867
  0
ARC
  5
5E8
330
A
100
AcDbEntity
  8
0
  6
Continuous
 62
     7
100
AcDbCircle
 10
304.8759396426391
 20
394.4015600649743
 30
0.0
 40
0.49642938
100
AcDbArc
 50
179.5831049099988
 51
269.2594439599991
  0
ARC
  5
5E9
330
A
100
AcDbEntity
  8
0
  6
Continuous
 62
     7
100
AcDbCircle
 10
310.3811116126391
 20
394.3034521749743
 30
0.0
 40
0.49841476
100
AcDbArc
 50
268.6677453099996
 51
0.1977218699995821
  0
ARC
  5
5EA
330
A
100
AcDbEntity
  8
0
  6
Continuous
 62
     7
100
AcDbCircle
 10
308.5290739426391
 20
394.3346316749743
 30
0.0
 40
0.49955083
100
AcDbArc
 50
179.9380107700006
 51
268.9045380999991
  0
ARC
  5
5EB
330
A
100
AcDbEntity
  8
0
  6
Continuous
 62
     7
100
AcDbCircle
 10
306.5325079226391
 20
394.3720279449743
 30
0.0
 40
0.49702543
100
AcDbArc
 50
268.5030090300013
 51
0.3624581500003901
  0
ARC
  5
5EC
330
A
100
AcDbEntity
  8
0
  6
Continuous
 62
     7
100
AcDbCircle
 10
315.8770210626391
 20
400.9326698149742
 30
0.0
 40
1.00250546
100
AcDbArc
 50
0.1430152000006831
 51
89.85698480000255
  0
ARC
  5
5ED
330
A
100
AcDbEntity
  8
0
  6
Continuous
 62
     7
100
AcDbCircle
 10
302.8806555626391
 20
394.4339173449742
 30
0.0
 40
0.4988694200000002
100
AcDbArc
 50
268.7213511699996
 51
0.1441160099986409
  0
ARC
  5
5EE
330
A
100
AcDbEntity
  8
0
  6
Continuous
 62
     7
100
AcDbCircle
 10
301.0295232026391
 20
394.4650719449743
 30
0.0
 40
0.49999981
100
AcDbArc
 50
179.9885178999998
 51
268.8540309699994
  0
ARC
  5
5EF
330
A
100
AcDbEntity
  8
0
  6
Continuous
 62
     7
100
AcDbCircle
 10
299.0320465226391
 20
394.5024985649742
 30
0.0
 40
0.4974840600000002
100
AcDbArc
 50
268.5575460799979
 51
0.307921099998629
  0
ARC
  5
5F0
330
A
100
AcDbEntity
  8
0
  6
Continuous
 62
     7
100
AcDbCircle
 10
297.1781319226391
 20
394.5337084949742
 30
0.0
 40
0.49861066
100
AcDbArc
 50
179.8318099599998
 51
269.0107389100019
  0
ARC
  5
5F1
330
A
100
AcDbEntity
  8
0
  6
Continuous
 62
     7
100
AcDbCircle
 10
295.1834403026392
 20
394.5710769149743
 30
0.0
 40
0.4961000000000002
100
AcDbArc
 50
268.3924930500026
 51
0.4729741399996179
  0
ARC
  5
5F2
330
A
100
AcDbEntity
  8
0
  6
Continuous
 62
     7
100
AcDbCircle
 10
293.3267359626391
 20
394.6023404549742
 30
0.0
 40
0.4972206200000004
100
AcDbArc
 50
179.6736961599987
 51
269.1688527100017
  0
ARC
  5
5F3
330
A
100
AcDbEntity
  8
0
  6
Continuous
 62
     7
100
AcDbCircle
 10
291.3298519926391
 20
394.6347369849743
 30
0.0
 40
0.4996716
100
AcDbArc
 50
268.8155684899976
 51
0.0498986999991967
  0
ARC
  5
5F4
330
A
100
AcDbEntity
  8
0
  6
Continuous
 62
     7
100
AcDbCircle
 10
289.4753528526391
 20
394.6709850149742
 30
0.0
 40
0.4958471300000002
100
AcDbArc
 50
179.5161649899987
 51
269.3263838800005
  0
ARC
  5
5F5
330
A
100
AcDbEntity
  8
0
  6
Continuous
 62
     7
100
AcDbCircle
 10
287.4812516726391
 20
394.7033093249743
 30
0.0
 40
0.4982752200000001
100
AcDbArc
 50
268.65126321
 51
0.2142039699986886
  0
ARC
  5
5F6
330
A
100
AcDbEntity
  8
0
  6
Continuous
 62
     7
100
AcDbCircle
 10
285.6289348426391
 20
394.7344953649743
 30
0.0
 40
0.4994119000000001
100
AcDbArc
 50
179.9223546000007
 51
268.920194269998
  0
ARC
  5
5F7
330
A
100
AcDbEntity
  8
0
  6
Continuous
 62
     7
100
AcDbCircle
 10
283.6326429126391
 20
394.7718902549743
 30
0.0
 40
0.4968913300000001
100
AcDbArc
 50
268.4870339599998
 51
0.3784332199987388
  0
ARC
  5
5F8
330
A
100
AcDbEntity
  8
0
  6
Continuous
 62
     7
100
AcDbCircle
 10
281.7775404326391
 20
394.8031288449742
 30
0.0
 40
0.49802122
100
AcDbArc
 50
179.7649230899993
 51
269.0776257799992
  0
ARC
  5
5F9
330
A
100
AcDbEntity
  8
0
  6
Continuous
 62
     7
100
AcDbCircle
 10
279.7840313426391
 20
394.8404740549743
 30
0.0
 40
0.49551433
100
AcDbArc
 50
268.3222229300004
 51
0.5432442500003331
  0
ARC
  5
5FA
330
A
100
AcDbEntity
  8
0
  6
Continuous
 62
     7
100
AcDbCircle
 10
277.9261505826391
 20
394.8717667849743
 30
0.0
 40
0.4966388600000001
100
AcDbArc
 50
179.6071301199986
 51
269.2354187500023
  0
ARC
  5
5FB
330
A
100
AcDbEntity
  8
0
  6
Continuous
 62
     7
100
AcDbCircle
 10
274.0797388526392
 20
394.9352832849743
 30
0.0
 40
0.5002154599999999
100
AcDbArc
 50
180.0127298499992
 51
268.8298190199976
  0
ARC
  5
5FC
330
A
100
AcDbEntity
  8
0
  6
Continuous
 62
     7
100
AcDbCircle
 10
275.9304494626391
 20
394.9041275749743
 30
0.0
 40
0.4990750400000001
100
AcDbArc
 50
268.7455452799978
 51
0.1199218999995677
  0
ARC
  5
5FD
330
A
100
AcDbEntity
  8
0
  6
Continuous
 62
     7
100
AcDbCircle
 10
287.4770210026391
 20
398.4326697449743
 30
0.0
 40
0.50250863
100
AcDbArc
 50
0.2853236499984384
 51
89.71467635000157
  0
ARC
  5
5FE
330
A
100
AcDbEntity
  8
0
  6
Continuous
 62
     7
100
AcDbCircle
 10
285.6320225826392
 20
398.4326729749743
 30
0.0
 40
0.5025053900000001
100
AcDbArc
 50
90.28495762000108
 51
179.7150423799989
  0
ARC
  5
5FF
330
A
100
AcDbEntity
  8
0
  6
Continuous
 62
     7
100
AcDbCircle
 10
283.6270208126391
 20
398.4326695549743
 30
0.0
 40
0.50250882
100
AcDbArc
 50
0.285345179998411
 51
89.7146548200016
  0
ARC
  5
600
330
A
100
AcDbEntity
  8
0
  6
Continuous
 62
     7
100
AcDbCircle
 10
281.7820223926391
 20
398.4326731649743
 30
0.0
 40
0.5025052
100
AcDbArc
 50
90.28493608999857
 51
179.7150639100014
  0
ARC
  5
601
330
A
100
AcDbEntity
  8
0
  6
Continuous
 62
     7
100
AcDbCircle
 10
279.7770206226392
 20
398.4326693649743
 30
0.0
 40
0.50250901
100
AcDbArc
 50
0.2853667099984241
 51
89.71463329000158
  0
ARC
  5
602
330
A
100
AcDbEntity
  8
0
  6
Continuous
 62
     7
100
AcDbCircle
 10
277.9320226726391
 20
398.4326728849742
 30
0.0
 40
0.50250548
100
AcDbArc
 50
90.28496838999846
 51
179.7150316100015
  0
ARC
  5
603
330
A
100
AcDbEntity
  8
0
  6
Continuous
 62
     7
100
AcDbCircle
 10
275.9270209126391
 20
398.4326696549743
 30
0.0
 40
0.50250873
100
AcDbArc
 50
0.2853344100006623
 51
89.7146655900026
  0
ARC
  5
604
330
A
100
AcDbEntity
  8
0
  6
Continuous
 62
     7
100
AcDbCircle
 10
274.0820227226391
 20
398.4326728349742
 30
0.0
 40
0.50250553
100
AcDbArc
 50
90.28497377000102
 51
179.715026229999
  0
ARC
  5
605
330
A
100
AcDbEntity
  8
0
  6
Continuous
 62
     7
100
AcDbCircle
 10
289.4820227726391
 20
398.4326727849743
 30
0.0
 40
0.5025055800000004
100
AcDbArc
 50
90.28497915000034
 51
179.7150208499996
  0
ARC
  5
606
330
A
100
AcDbEntity
  8
0
  6
Continuous
 62
     7
100
AcDbCircle
 10
291.3270164526391
 20
398.4326651949743
 30
0.0
 40
0.5025132100000002
100
AcDbArc
 50
0.2858403899998733
 51
89.71415961000014
  0
ARC
  5
607
330
A
100
AcDbEntity
  8
0
  6
Continuous
 62
     7
100
AcDbCircle
 10
293.3320182126391
 20
398.4326773449743
 30
0.0
 40
0.502501
100
AcDbArc
 50
90.2844623999997
 51
179.7155376000003
  0
ARC
  5
608
330
A
100
AcDbEntity
  8
0
  6
Continuous
 62
     7
100
AcDbCircle
 10
295.1770194826391
 20
398.4326682349743
 30
0.0
 40
0.5025101600000001
100
AcDbArc
 50
0.2854959000013525
 51
89.71450410000191
  0
ARC
  5
609
330
A
100
AcDbEntity
  8
0
  6
Continuous
 62
     7
100
AcDbCircle
 10
297.1820212526391
 20
398.4326743049743
 30
0.0
 40
0.50250405
100
AcDbArc
 50
90.28480690000192
 51
179.7151931000013
  0
ARC
  5
60A
330
A
100
AcDbEntity
  8
0
  6
Continuous
 62
     7
100
AcDbCircle
 10
299.0270149326391
 20
398.4326636749742
 30
0.0
 40
0.5025147300000004
100
AcDbArc
 50
0.2860126400007624
 51
89.71398735999924
  0
ARC
  5
60B
330
A
100
AcDbEntity
  8
0
  6
Continuous
 62
     7
100
AcDbCircle
 10
301.0320166926391
 20
398.4326788549743
 30
0.0
 40
0.50249948
100
AcDbArc
 50
90.28429014999924
 51
179.7157098500006
  0
ARC
  5
60C
330
A
100
AcDbEntity
  8
0
  6
Continuous
 62
     7
100
AcDbCircle
 10
302.8770179626391
 20
398.4326667149743
 30
0.0
 40
0.5025116800000001
100
AcDbArc
 50
0.2856681400015677
 51
89.71433185999842
  0
ARC
  5
60D
330
A
100
AcDbEntity
  8
0
  6
Continuous
 62
     7
100
AcDbCircle
 10
304.8820197326392
 20
398.4326758249742
 30
0.0
 40
0.5025025300000002
100
AcDbArc
 50
90.28463464999951
 51
179.7153653500005
  0
CIRCLE
  5
60E
330
A
100
AcDbEntity
  8
0
  6
Continuous
 62
     7
100
AcDbCircle
 10
199.7128653791039
 20
391.9366751349743
 30
0.0
 40
4.0
  0
CIRCLE
  5
60F
330
A
100
AcDbEntity
  8
0
  6
Continuous
 62
     7
100
AcDbCircle
 10
199.7128592791039
 20
391.9416682649743
 30
0.0
 40
8.5
  0
LINE
  5
610
330
A
100
AcDbEntity
  8
0
  6
Continuous
 62
     7
100
AcDbLine
 10
208.2128592791039
 20
396.8491455349743
 30
0.0
 11
208.2128592791039
 21
387.0341909749743
 31
0.0
  0
LINE
  5
611
330
A
100
AcDbEntity
  8
0
  6
Continuous
 62
     7
100
AcDbLine
 10
191.2128592791039
 20
396.8491455949743
 30
0.0
 11
191.2128592791039
 21
387.0341909549743
 31
0.0
  0
LINE
  5
612
330
A
100
AcDbEntity
  8
0
  6
Continuous
 62
     7
100
AcDbLine
 10
208.2128593091038
 20
387.0341909849742
 30
0.0
 11
199.7128592491039
 21
382.1267136649743
 31
0.0
  0
LINE
  5
613
330
A
100
AcDbEntity
  8
0
  6
Continuous
 62
     7
100
AcDbLine
 10
199.7128593091039
 20
401.7566228549743
 30
0.0
 11
191.2128591891039
 21
396.8491455049743
 31
0.0
  0
LINE
  5
614
330
A
100
AcDbEntity
  8
0
  6
Continuous
 62
     7
100
AcDbLine
 10
199.7128592491039
 20
382.1267136949743
 30
0.0
 11
191.2128592791039
 21
387.0341909649743
 31
0.0
  0
LINE
  5
615
330
A
100
AcDbEntity
  8
0
  6
Continuous
 62
     7
100
AcDbLine
 10
208.2128593091038
 20
396.8491455349743
 30
0.0
 11
199.7128592491039
 21
401.7566228549743
 31
0.0
  0
LINE
  5
616
330
A
100
AcDbEntity
  8
0
  6
Continuous
 62
     7
100
AcDbLine
 10
272.3795234326391
 20
382.1202175749743
 30
0.0
 11
264.3795234326391
 21
382.1202175749743
 31
0.0
  0
LINE
  5
617
330
A
100
AcDbEntity
  8
0
  6
Continuous
 62
     7
100
AcDbLine
 10
272.3795234326391
 20
401.7501267349742
 30
0.0
 11
264.3795234026391
 21
401.7501267349742
 31
0.0
  0
LINE
  5
618
330
A
100
AcDbEntity
  8
0
  6
Continuous
 62
     7
100
AcDbLine
 10
272.3795234326391
 20
387.0276948649743
 30
0.0
 11
264.3795234326391
 21
387.0276948649743
 31
0.0
  0
LINE
  5
619
330
A
100
AcDbEntity
  8
0
  6
Continuous
 62
     7
100
AcDbLine
 10
272.3795234326391
 20
396.8426494149743
 30
0.0
 11
264.3795234326391
 21
396.8426494149743
 31
0.0
  0
CIRCLE
  5
61A
330
A
100
AcDbEntity
  8
0
 62
     2
100
AcDbCircle
 10
-169.6204704973609
 20
513.9286760249742
 30
0.0
 40
1.25
  0
CIRCLE
  5
61B
330
A
100
AcDbEntity
  8
0
100
AcDbCircle
 10
-169.6204704973609
 20
513.9286760249742
 30
0.0
 40
1.5
  0
CIRCLE
  5
61C
330
A
100
AcDbEntity
  8
0
 62
     2
100
AcDbCircle
 10
15.04619362617427
 20
513.9286760249742
 30
0.0
 40
2.1
  0
CIRCLE
  5
61D
330
A
100
AcDbEntity
  8
0
100
AcDbCircle
 10
15.04619362617427
 20
513.9286760249742
 30
0.0
 40
2.5
  0
CIRCLE
  5
61E
330
A
100
AcDbEntity
  8
0
  6
Continuous
 62
     7
100
AcDbCircle
 10
199.7128653791039
 20
513.9286760249742
 30
0.0
 40
4.863999999999998
  0
CIRCLE
  5
61F
330
A
100
AcDbEntity
  8
0
  6
Continuous
 62
     2
100
AcDbCircle
 10
199.7128653791039
 20
513.9286760249742
 30
0.0
 40
4.283
  0
CIRCLE
  5
620
330
A
100
AcDbEntity
  8
0
  6
Continuous
 62
     7
100
AcDbCircle
 10
199.7128653791039
 20
513.9286760249742
 30
0.0
 40
3.0
  0
POINT
  5
621
330
A
100
AcDbEntity
  8
0
100
AcDbPoint
 10
199.7128653791039
 20
513.9286760249742
 30
0.0
  0
CIRCLE
  5
622
330
A
100
AcDbEntity
  8
0
  6
Continuous
 62
     7
100
AcDbCircle
 10
-169.9538163738256
 20
391.9286760249743
 30
0.0
 40
4.863999999999998
  0
CIRCLE
  5
623
330
A
100
AcDbEntity
  8
0
  6
Continuous
 62
     2
100
AcDbCircle
 10
-169.9538163738256
 20
391.9286760249743
 30
0.0
 40
4.283
  0
CIRCLE
  5
624
330
A
100
AcDbEntity
  8
0
  6
Continuous
 62
     7
100
AcDbCircle
 10
-169.9538163738256
 20
391.9286760249743
 30
0.0
 40
3.0
  0
POINT
  5
625
330
A
100
AcDbEntity
  8
0
100
AcDbPoint
 10
-169.9538163738256
 20
391.9286760249743
 30
0.0
  0
LINE
  5
626
330
A
100
AcDbEntity
  8
0
 62
     7
100
AcDbLine
 10
-91.62047049736088
 20
516.9286760249742
 30
0.0
 11
-91.62047049736088
 21
510.9286760249743
 31
0.0
  0
POINT
  5
627
330
A
100
AcDbEntity
  8
0
  6
Continuous
 62
     7
100
AcDbPoint
 10
-169.9538154646392
 20
400.0115860249739
 30
0.0
 50
90.0
  0
POINT
  5
628
330
A
100
AcDbEntity
  8
0
  6
Continuous
 62
     7
100
AcDbPoint
 10
-169.9538154646392
 20
391.9286760249743
 30
0.0
 50
90.0
  0
LINE
  5
629
330
A
100
AcDbEntity
  8
0
  6
Continuous
 62
     7
100
AcDbLine
 10
-162.9538144646392
 20
395.9701260249742
 30
0.0
 11
-162.9538174646392
 21
387.8872260249742
 31
0.0
  0
LINE
  5
62A
330
A
100
AcDbEntity
  8
0
  6
Continuous
 62
     7
100
AcDbLine
 10
-169.9538104646393
 20
400.0115860249739
 30
0.0
 11
-162.9538144646392
 21
395.9701260249742
 31
0.0
  0
LINE
  5
62B
330
A
100
AcDbEntity
  8
0
  6
Continuous
 62
     7
100
AcDbLine
 10
-162.9538204646393
 20
387.8872260249742
 30
0.0
 11
-169.9538194646392
 21
383.8457760249742
 31
0.0
  0
LINE
  5
62C
330
A
100
AcDbEntity
  8
0
  6
Continuous
 62
     7
100
AcDbLine
 10
-169.9538204646392
 20
383.8457760249742
 30
0.0
 11
-176.9538164646392
 21
387.8872260249742
 31
0.0
  0
LINE
  5
62D
330
A
100
AcDbEntity
  8
0
  6
Continuous
 62
     7
100
AcDbLine
 10
-169.9538164646393
 20
400.0115860249739
 30
0.0
 11
-176.9538154646393
 21
395.9701360249742
 31
0.0
  0
LINE
  5
62E
330
A
100
AcDbEntity
  8
0
  6
Continuous
 62
     7
100
AcDbLine
 10
-176.9538144646393
 20
395.9701360249742
 30
0.0
 11
-176.9538174646392
 21
387.8872360249742
 31
0.0
  0
POINT
  5
62F
330
A
100
AcDbEntity
  8
0
  6
Continuous
 62
     7
100
AcDbPoint
 10
14.85927155617429
 20
391.9286798349743
 30
0.0
  0
POINT
  5
630
330
A
100
AcDbEntity
  8
0
  6
Continuous
 62
     7
100
AcDbPoint
 10
22.85926155617432
 20
391.9286798349743
 30
0.0
  0
LINE
  5
631
330
A
100
AcDbEntity
  8
0
  6
CENTER
 62
     2
100
AcDbLine
 10
4.859271556174262
 20
391.9286798349743
 30
0.0
 11
24.85926155617432
 21
391.9286798349743
 31
0.0
  0
LINE
  5
632
330
A
100
AcDbEntity
  8
0
  6
CENTER
 62
     2
100
AcDbLine
 10
14.85927155617429
 20
401.9286798349742
 30
0.0
 11
14.85927155617429
 21
381.9286798349743
 31
0.0
  0
ARC
  5
633
330
A
100
AcDbEntity
  8
0
  6
Continuous
 62
     7
100
AcDbCircle
 10
14.85927155617429
 20
391.9286798349743
 30
0.0
 40
8.0
100
AcDbArc
 50
151.0449483092511
 51
208.9550091596435
  0
ARC
  5
634
330
A
100
AcDbEntity
  8
0
  6
Continuous
 62
     7
100
AcDbCircle
 10
14.85927155617429
 20
391.9286798349743
 30
0.0
 40
8.0
100
AcDbArc
 50
211.0449522719063
 51
268.9550425091805
  0
ARC
  5
635
330
A
100
AcDbEntity
  8
0
  6
Continuous
 62
     7
100
AcDbCircle
 10
14.85927155617429
 20
391.9286798349743
 30
0.0
 40
8.0
100
AcDbArc
 50
271.0449048319406
 51
328.9550791214248
  0
ARC
  5
636
330
A
100
AcDbEntity
  8
0
  6
Continuous
 62
     7
100
AcDbCircle
 10
14.85927155617429
 20
391.9286798349743
 30
0.0
 40
8.0
100
AcDbArc
 50
331.0449604159664
 51
28.9549970529278
  0
ARC
  5
637
330
A
100
AcDbEntity
  8
0
  6
Continuous
 62
     7
100
AcDbCircle
 10
14.85927155617429
 20
391.9286798349743
 30
0.0
 40
8.0
100
AcDbArc
 50
31.04496839245543
 51
88.95490361197007
  0
ARC
  5
638
330
A
100
AcDbEntity
  8
0
  6
Continuous
 62
     7
100
AcDbCircle
 10
14.85927155617429
 20
391.9286798349743
 30
0.0
 40
8.0
100
AcDbArc
 50
91.04505648328949
 51
148.9549274700748
  0
POINT
  5
639
330
A
100
AcDbEntity
  8
0
100
AcDbPoint
 10
14.85927155617426
 20
391.9286798349743
 30
0.0
  0
POINT
  5
63A
330
A
100
AcDbEntity
  8
0
  6
Continuous
 62
     7
100
AcDbPoint
 10
14.85927246536076
 20
400.0115898349741
 30
0.0
 50
90.0
  0
POINT
  5
63B
330
A
100
AcDbEntity
  8
0
  6
Continuous
 62
     7
100
AcDbPoint
 10
14.85927246536076
 20
391.9286798349743
 30
0.0
 50
90.0
  0
LINE
  5
63C
330
A
100
AcDbEntity
  8
0
  6
Continuous
 62
     7
100
AcDbLine
 10
21.85927346536079
 20
395.9701298349742
 30
0.0
 11
21.85927046536079
 21
387.8872298349742
 31
0.0
  0
LINE
  5
63D
330
A
100
AcDbEntity
  8
0
  6
Continuous
 62
     7
100
AcDbLine
 10
14.85927746536077
 20
400.0115898349741
 30
0.0
 11
21.85927346536079
 21
395.9701298349742
 31
0.0
  0
LINE
  5
63E
330
A
100
AcDbEntity
  8
0
  6
Continuous
 62
     7
100
AcDbLine
 10
21.8592674653608
 20
387.8872298349742
 30
0.0
 11
14.85926846536077
 21
383.8457798349742
 31
0.0
  0
LINE
  5
63F
330
A
100
AcDbEntity
  8
0
  6
Continuous
 62
     7
100
AcDbLine
 10
14.8592674653608
 20
383.8457798349742
 30
0.0
 11
7.859271465360762
 21
387.8872298349742
 31
0.0
  0
LINE
  5
640
330
A
100
AcDbEntity
  8
0
  6
Continuous
 62
     7
100
AcDbLine
 10
14.85927146536076
 20
400.0115898349741
 30
0.0
 11
7.859272465360759
 21
395.9701398349742
 31
0.0
  0
LINE
  5
641
330
A
100
AcDbEntity
  8
0
  6
Continuous
 62
     7
100
AcDbLine
 10
7.859273465360785
 20
395.9701398349742
 30
0.0
 11
7.859270465360764
 21
387.8872398349742
 31
0.0
  0
CIRCLE
  5
642
330
A
100
AcDbEntity
  8
0
  6
Continuous
 62
     7
100
AcDbCircle
 10
14.85927155617426
 20
391.9286760249743
 30
0.0
 40
6.23937798
  0
CIRCLE
  5
643
330
A
100
AcDbEntity
  8
0
  6
Continuous
 62
     2
100
AcDbCircle
 10
14.85927155617426
 20
391.9286798349743
 30
0.0
 40
5.186922069999996
  0
CIRCLE
  5
644
330
A
100
AcDbEntity
  8
0
  6
Continuous
 62
     7
100
AcDbCircle
 10
14.85927155617426
 20
391.9286798349743
 30
0.0
 40
4.0
  0
CIRCLE
  5
645
330
A
100
AcDbEntity
  8
0
  6
Continuous
 62
     2
100
AcDbCircle
 10
-169.6204704973609
 20
269.9286760249743
 30
0.0
 40
7.474999999999997
  0
CIRCLE
  5
646
330
A
100
AcDbEntity
  8
0
  6
Continuous
 62
     7
100
AcDbCircle
 10
-169.6204704973609
 20
269.9286760249743
 30
0.0
 40
8.330999999999999
  0
CIRCLE
  5
647
330
A
100
AcDbEntity
  8
0
  6
Continuous
 62
     7
100
AcDbCircle
 10
-169.6204704973609
 20
269.9286760249743
 30
0.0
 40
5.25
  0
POINT
  5
648
330
A
100
AcDbEntity
  8
0
  6
Continuous
 62
     7
100
AcDbPoint
 10
-169.6204704973609
 20
269.9286760249743
 30
0.0
 50
90.0
  0
POINT
  5
649
330
A
100
AcDbEntity
  8
0
  6
Continuous
 62
     7
100
AcDbPoint
 10
-169.6204704973609
 20
283.7850860249742
 30
0.0
 50
90.0
  0
LINE
  5
64A
330
A
100
AcDbEntity
  8
0
  6
Continuous
 62
     7
100
AcDbLine
 10
-167.950590247622
 20
282.8209799289137
 30
0.0
 11
-159.2903418190967
 21
277.8209786984977
 31
0.0
  0
LINE
  5
64B
330
A
100
AcDbEntity
  8
0
  6
Continuous
 62
     7
100
AcDbLine
 10
-171.2903498407823
 20
282.8209800463048
 30
0.0
 11
-179.950594421692
 21
277.8209849208528
 31
0.0
  0
LINE
  5
64C
330
A
100
AcDbEntity
  8
0
  6
Continuous
 62
     7
100
AcDbLine
 10
-181.6204704973609
 20
274.9286760249744
 30
0.0
 11
-181.6204704973609
 21
264.9286760249743
 31
0.0
  0
LINE
  5
64D
330
A
100
AcDbEntity
  8
0
  6
Continuous
 62
     7
100
AcDbLine
 10
-171.2903468794055
 20
257.0363716200709
 30
0.0
 11
-179.9506015433171
 21
262.0363764504921
 31
0.0
  0
LINE
  5
64E
330
A
100
AcDbEntity
  8
0
  6
Continuous
 62
     7
100
AcDbLine
 10
-157.6204704973609
 20
274.9286760249743
 30
0.0
 11
-157.6204704973609
 21
264.9286760249744
 31
0.0
  0
LINE
  5
64F
330
A
100
AcDbEntity
  8
0
  6
Continuous
 62
     7
100
AcDbLine
 10
-159.2903398964059
 20
262.0363758680355
 30
0.0
 11
-167.9506029908175
 21
257.0363704704742
 31
0.0
  0
POINT
  5
650
330
A
100
AcDbEntity
  8
0
100
AcDbPoint
 10
133.0461936261742
 20
269.9286690249743
 30
0.0
  0
POINT
  5
651
330
A
100
AcDbEntity
  8
0
100
AcDbPoint
 10
70.20619762617427
 20
269.9286690249743
 30
0.0
  0
LINE
  5
652
330
A
100
AcDbEntity
  8
0
100
AcDbLine
 10
77.04619762617426
 20
283.9286760249743
 30
0.0
 11
77.04619762617426
 21
255.9286730249743
 31
0.0
  0
LINE
  5
653
330
A
100
AcDbEntity
  8
0
100
AcDbLine
 10
77.04619762617426
 20
283.9286760249743
 30
0.0
 11
132.0461936261742
 21
283.9286760249743
 31
0.0
  0
LINE
  5
654
330
A
100
AcDbEntity
  8
0
100
AcDbLine
 10
77.04619762617426
 20
255.9286730249743
 30
0.0
 11
132.0461936261742
 21
255.9286730249743
 31
0.0
  0
LINE
  5
655
330
A
100
AcDbEntity
  8
0
100
AcDbLine
 10
133.0461936261742
 20
282.9286760249743
 30
0.0
 11
133.0461936261742
 21
256.9286730249743
 31
0.0
  0
LINE
  5
656
330
A
100
AcDbEntity
  8
0
100
AcDbLine
 10
88.0462016261743
 20
283.9286760249743
 30
0.0
 11
88.0462016261743
 21
255.9286730249743
 31
0.0
  0
LINE
  5
657
330
A
100
AcDbEntity
  8
0
100
AcDbLine
 10
130.0461936261742
 20
283.9286760249743
 30
0.0
 11
130.0461936261742
 21
255.9286730249743
 31
0.0
  0
LINE
  5
658
330
A
100
AcDbEntity
  8
0
100
AcDbLine
 10
90.14620062617428
 20
282.4313810249743
 30
0.0
 11
90.14620062617428
 21
272.9259680249743
 31
0.0
  0
LINE
  5
659
330
A
100
AcDbEntity
  8
0
100
AcDbLine
 10
90.14620062617428
 20
272.9259680249743
 30
0.0
 11
93.84619662617428
 21
272.8259700249743
 31
0.0
  0
LINE
  5
65A
330
A
100
AcDbEntity
  8
0
100
AcDbLine
 10
126.7462136261742
 20
283.4205740249743
 30
0.0
 11
123.0462166261742
 21
283.3205720249743
 31
0.0
  0
LINE
  5
65B
330
A
100
AcDbEntity
  8
0
100
AcDbLine
 10
93.84620462617432
 20
282.5313830249744
 30
0.0
 11
90.14620062617428
 21
282.4313850249743
 31
0.0
  0
LINE
  5
65C
330
A
100
AcDbEntity
  8
0
100
AcDbLine
 10
98.54620162617433
 20
282.6584090249743
 30
0.0
 11
94.84620462617426
 21
282.5584100249743
 31
0.0
  0
LINE
  5
65D
330
A
100
AcDbEntity
  8
0
100
AcDbLine
 10
103.2462066261743
 20
282.7854380249743
 30
0.0
 11
99.54620962617427
 21
282.6854400249743
 31
0.0
  0
LINE
  5
65E
330
A
100
AcDbEntity
  8
0
100
AcDbLine
 10
107.9462036261743
 20
282.9124640249743
 30
0.0
 11
104.2462066261742
 21
282.8124660249743
 31
0.0
  0
LINE
  5
65F
330
A
100
AcDbEntity
  8
0
100
AcDbLine
 10
112.6462076261742
 20
283.0394930249743
 30
0.0
 11
108.9462036261743
 21
282.9394910249743
 31
0.0
  0
LINE
  5
660
330
A
100
AcDbEntity
  8
0
100
AcDbLine
 10
117.3462126261743
 20
283.1665190249743
 30
0.0
 11
113.6462156261743
 21
283.0665210249744
 31
0.0
  0
LINE
  5
661
330
A
100
AcDbEntity
  8
0
100
AcDbLine
 10
122.0462166261742
 20
283.2935480249743
 30
0.0
 11
118.3462126261743
 21
283.1935460249744
 31
0.0
  0
LINE
  5
662
330
A
100
AcDbEntity
  8
0
100
AcDbLine
 10
123.0462096261743
 20
272.0367770249743
 30
0.0
 11
126.7462066261743
 21
271.9367790249743
 31
0.0
  0
LINE
  5
663
330
A
100
AcDbEntity
  8
0
100
AcDbLine
 10
118.3462126261743
 20
272.1638070249743
 30
0.0
 11
122.0462096261743
 21
272.0638040249743
 31
0.0
  0
LINE
  5
664
330
A
100
AcDbEntity
  8
0
100
AcDbLine
 10
113.6462076261742
 20
272.2908320249743
 30
0.0
 11
117.3462126261743
 21
272.1908340249743
 31
0.0
  0
LINE
  5
665
330
A
100
AcDbEntity
  8
0
100
AcDbLine
 10
108.9462036261743
 20
272.4178620249743
 30
0.0
 11
112.6462006261742
 21
272.3178590249743
 31
0.0
  0
LINE
  5
666
330
A
100
AcDbEntity
  8
0
100
AcDbLine
 10
104.2462066261742
 20
272.5448870249743
 30
0.0
 11
107.9462036261743
 21
272.4448850249743
 31
0.0
  0
LINE
  5
667
330
A
100
AcDbEntity
  8
0
100
AcDbLine
 10
99.54620162617423
 20
272.6719130249743
 30
0.0
 11
103.2462066261743
 21
272.5719150249744
 31
0.0
  0
LINE
  5
668
330
A
100
AcDbEntity
  8
0
100
AcDbLine
 10
94.84619662617427
 20
272.7989420249744
 30
0.0
 11
98.54620162617433
 21
272.6989400249743
 31
0.0
  0
LINE
  5
669
330
A
100
AcDbEntity
  8
0
100
AcDbLine
 10
126.7462066261743
 20
283.4205700249743
 30
0.0
 11
126.7462066261743
 21
271.9367750249743
 31
0.0
  0
LINE
  5
66A
330
A
100
AcDbEntity
  8
0
100
AcDbLine
 10
93.84619662617428
 20
282.5313800249743
 30
0.0
 11
93.84619662617428
 21
272.8259660249743
 31
0.0
  0
LINE
  5
66B
330
A
100
AcDbEntity
  8
0
100
AcDbLine
 10
94.84619662617427
 20
282.5584070249743
 30
0.0
 11
94.84619662617427
 21
272.7989390249744
 31
0.0
  0
LINE
  5
66C
330
A
100
AcDbEntity
  8
0
100
AcDbLine
 10
98.54620162617433
 20
282.6584090249743
 30
0.0
 11
98.54620162617433
 21
272.6989400249743
 31
0.0
  0
LINE
  5
66D
330
A
100
AcDbEntity
  8
0
100
AcDbLine
 10
99.54620162617423
 20
282.6854360249743
 30
0.0
 11
99.54620162617423
 21
272.6719130249743
 31
0.0
  0
LINE
  5
66E
330
A
100
AcDbEntity
  8
0
100
AcDbLine
 10
103.2462066261743
 20
282.7854350249743
 30
0.0
 11
103.2462066261743
 21
272.5719150249744
 31
0.0
  0
LINE
  5
66F
330
A
100
AcDbEntity
  8
0
100
AcDbLine
 10
104.2462066261742
 20
282.8124620249743
 30
0.0
 11
104.2462066261742
 21
272.5448840249744
 31
0.0
  0
LINE
  5
670
330
A
100
AcDbEntity
  8
0
100
AcDbLine
 10
107.9462036261743
 20
282.9124600249743
 30
0.0
 11
107.9462036261743
 21
272.4448850249743
 31
0.0
  0
LINE
  5
671
330
A
100
AcDbEntity
  8
0
100
AcDbLine
 10
108.9462036261743
 20
282.9394870249743
 30
0.0
 11
108.9462036261743
 21
272.4178580249744
 31
0.0
  0
LINE
  5
672
330
A
100
AcDbEntity
  8
0
100
AcDbLine
 10
112.6462006261742
 20
283.0394900249743
 30
0.0
 11
112.6462006261742
 21
272.3178590249743
 31
0.0
  0
LINE
  5
673
330
A
100
AcDbEntity
  8
0
100
AcDbLine
 10
113.6462006261742
 20
283.0665170249743
 30
0.0
 11
113.6462006261742
 21
272.2908320249743
 31
0.0
  0
LINE
  5
674
330
A
100
AcDbEntity
  8
0
100
AcDbLine
 10
117.3462126261743
 20
283.1665150249743
 30
0.0
 11
117.3462126261743
 21
272.1908300249743
 31
0.0
  0
LINE
  5
675
330
A
100
AcDbEntity
  8
0
100
AcDbLine
 10
118.3462126261743
 20
283.1935420249743
 30
0.0
 11
118.3462126261743
 21
272.1638030249744
 31
0.0
  0
LINE
  5
676
330
A
100
AcDbEntity
  8
0
100
AcDbLine
 10
122.0462096261743
 20
283.2935410249742
 30
0.0
 11
122.0462096261743
 21
272.0638040249743
 31
0.0
  0
LINE
  5
677
330
A
100
AcDbEntity
  8
0
100
AcDbLine
 10
123.0462096261743
 20
283.3205680249743
 30
0.0
 11
123.0462096261743
 21
272.0367770249743
 31
0.0
  0
LINE
  5
678
330
A
100
AcDbEntity
  8
0
100
AcDbLine
 10
90.14620062617428
 20
257.4259570249743
 30
0.0
 11
90.14620062617428
 21
266.9313700249743
 31
0.0
  0
LINE
  5
679
330
A
100
AcDbEntity
  8
0
100
AcDbLine
 10
90.14620062617428
 20
266.9313700249743
 30
0.0
 11
93.84619662617428
 21
267.0313720249744
 31
0.0
  0
LINE
  5
67A
330
A
100
AcDbEntity
  8
0
100
AcDbLine
 10
126.7462066261743
 20
256.4367600249744
 30
0.0
 11
123.0462096261743
 21
256.5367660249743
 31
0.0
  0
LINE
  5
67B
330
A
100
AcDbEntity
  8
0
100
AcDbLine
 10
93.84619662617428
 20
257.3259500249744
 30
0.0
 11
90.14620062617428
 21
257.4259490249743
 31
0.0
  0
LINE
  5
67C
330
A
100
AcDbEntity
  8
0
100
AcDbLine
 10
98.54620162617433
 20
257.1989290249744
 30
0.0
 11
94.84619662617427
 21
257.2989270249744
 31
0.0
  0
LINE
  5
67D
330
A
100
AcDbEntity
  8
0
100
AcDbLine
 10
103.2462066261743
 20
257.0718990249744
 30
0.0
 11
99.54620162617423
 21
257.1718980249743
 31
0.0
  0
LINE
  5
67E
330
A
100
AcDbEntity
  8
0
100
AcDbLine
 10
107.9462036261743
 20
256.9448770249743
 30
0.0
 11
104.2461986261742
 21
257.0448760249744
 31
0.0
  0
LINE
  5
67F
330
A
100
AcDbEntity
  8
0
100
AcDbLine
 10
112.6462006261742
 20
256.8178400249744
 30
0.0
 11
108.9462036261743
 21
256.9178470249744
 31
0.0
  0
LINE
  5
680
330
A
100
AcDbEntity
  8
0
100
AcDbLine
 10
117.3462126261743
 20
256.6908190249744
 30
0.0
 11
113.6462076261742
 21
256.7908170249743
 31
0.0
  0
LINE
  5
681
330
A
100
AcDbEntity
  8
0
100
AcDbLine
 10
122.0462096261743
 20
256.5637890249744
 30
0.0
 11
118.3462126261743
 21
256.6637880249743
 31
0.0
  0
LINE
  5
682
330
A
100
AcDbEntity
  8
0
100
AcDbLine
 10
123.0462166261742
 20
267.8205600249743
 30
0.0
 11
126.7462136261742
 21
267.9205590249743
 31
0.0
  0
LINE
  5
683
330
A
100
AcDbEntity
  8
0
100
AcDbLine
 10
118.3462126261743
 20
267.6935350249743
 30
0.0
 11
122.0462096261743
 21
267.7935330249744
 31
0.0
  0
LINE
  5
684
330
A
100
AcDbEntity
  8
0
100
AcDbLine
 10
113.6462076261742
 20
267.5665050249743
 30
0.0
 11
117.3462126261743
 21
267.6665040249744
 31
0.0
  0
LINE
  5
685
330
A
100
AcDbEntity
  8
0
100
AcDbLine
 10
108.9462036261743
 20
267.4394800249743
 30
0.0
 11
112.6462076261742
 21
267.5394780249744
 31
0.0
  0
LINE
  5
686
330
A
100
AcDbEntity
  8
0
100
AcDbLine
 10
104.2462066261742
 20
267.3124500249743
 30
0.0
 11
107.9462036261743
 21
267.4124530249744
 31
0.0
  0
LINE
  5
687
330
A
100
AcDbEntity
  8
0
100
AcDbLine
 10
99.54620162617423
 20
267.1854250249743
 30
0.0
 11
103.2462066261743
 21
267.2854270249743
 31
0.0
  0
LINE
  5
688
330
A
100
AcDbEntity
  8
0
100
AcDbLine
 10
94.84619662617427
 20
267.0583990249743
 30
0.0
 11
98.54620162617433
 21
267.1583980249744
 31
0.0
  0
LINE
  5
689
330
A
100
AcDbEntity
  8
0
100
AcDbLine
 10
126.7462066261743
 20
256.4367670249743
 30
0.0
 11
126.7462066261743
 21
267.9205630249744
 31
0.0
  0
LINE
  5
68A
330
A
100
AcDbEntity
  8
0
100
AcDbLine
 10
93.84619662617428
 20
257.3259580249743
 30
0.0
 11
93.84619662617428
 21
267.0313720249744
 31
0.0
  0
LINE
  5
68B
330
A
100
AcDbEntity
  8
0
100
AcDbLine
 10
94.84619662617427
 20
257.2989270249744
 30
0.0
 11
94.84619662617427
 21
267.0583990249743
 31
0.0
  0
LINE
  5
68C
330
A
100
AcDbEntity
  8
0
100
AcDbLine
 10
98.54620162617433
 20
257.1989290249744
 30
0.0
 11
98.54620162617433
 21
267.1583980249744
 31
0.0
  0
LINE
  5
68D
330
A
100
AcDbEntity
  8
0
100
AcDbLine
 10
99.54620162617423
 20
257.1719050249744
 30
0.0
 11
99.54620162617423
 21
267.1854250249743
 31
0.0
  0
LINE
  5
68E
330
A
100
AcDbEntity
  8
0
100
AcDbLine
 10
103.2462066261743
 20
257.0719070249743
 30
0.0
 11
103.2462066261743
 21
267.2854230249744
 31
0.0
  0
LINE
  5
68F
330
A
100
AcDbEntity
  8
0
100
AcDbLine
 10
104.2462066261742
 20
257.0448760249744
 30
0.0
 11
104.2462066261742
 21
267.3124540249743
 31
0.0
  0
LINE
  5
690
330
A
100
AcDbEntity
  8
0
100
AcDbLine
 10
107.9462036261743
 20
256.9448770249743
 30
0.0
 11
107.9462036261743
 21
267.4124530249744
 31
0.0
  0
LINE
  5
691
330
A
100
AcDbEntity
  8
0
100
AcDbLine
 10
108.9462036261743
 20
256.9178470249744
 30
0.0
 11
108.9462036261743
 21
267.4394800249743
 31
0.0
  0
LINE
  5
692
330
A
100
AcDbEntity
  8
0
100
AcDbLine
 10
112.6462006261742
 20
256.8178480249744
 30
0.0
 11
112.6462006261742
 21
267.5394780249744
 31
0.0
  0
LINE
  5
693
330
A
100
AcDbEntity
  8
0
100
AcDbLine
 10
113.6462006261742
 20
256.7908250249744
 30
0.0
 11
113.6462006261742
 21
267.5665050249743
 31
0.0
  0
LINE
  5
694
330
A
100
AcDbEntity
  8
0
100
AcDbLine
 10
117.3462126261743
 20
256.6908190249744
 30
0.0
 11
117.3462126261743
 21
267.6665080249744
 31
0.0
  0
LINE
  5
695
330
A
100
AcDbEntity
  8
0
100
AcDbLine
 10
118.3462126261743
 20
256.6637950249744
 30
0.0
 11
118.3462126261743
 21
267.6935350249743
 31
0.0
  0
LINE
  5
696
330
A
100
AcDbEntity
  8
0
100
AcDbLine
 10
122.0462096261743
 20
256.5637970249743
 30
0.0
 11
122.0462096261743
 21
267.7935330249744
 31
0.0
  0
LINE
  5
697
330
A
100
AcDbEntity
  8
0
100
AcDbLine
 10
123.0462096261743
 20
256.5367660249743
 30
0.0
 11
123.0462096261743
 21
267.8205600249743
 31
0.0
  0
LINE
  5
698
330
A
100
AcDbEntity
  8
0
100
AcDbLine
 10
93.84619662617428
 20
280.5306510249743
 30
0.0
 11
90.14620062617428
 21
280.4306520249743
 31
0.0
  0
LINE
  5
699
330
A
100
AcDbEntity
  8
0
100
AcDbLine
 10
98.54620162617433
 20
280.6576770249743
 30
0.0
 11
94.84619662617427
 21
280.5576780249743
 31
0.0
  0
LINE
  5
69A
330
A
100
AcDbEntity
  8
0
100
AcDbLine
 10
103.2462066261743
 20
280.7847060249743
 30
0.0
 11
99.54620162617423
 21
280.6847070249743
 31
0.0
  0
LINE
  5
69B
330
A
100
AcDbEntity
  8
0
100
AcDbLine
 10
107.9462036261743
 20
280.9117320249743
 30
0.0
 11
104.2462066261742
 21
280.8117330249743
 31
0.0
  0
LINE
  5
69C
330
A
100
AcDbEntity
  8
0
100
AcDbLine
 10
112.6462006261742
 20
281.0387610249744
 30
0.0
 11
108.9462036261743
 21
280.9387590249743
 31
0.0
  0
LINE
  5
69D
330
A
100
AcDbEntity
  8
0
100
AcDbLine
 10
117.3462126261743
 20
281.1657870249744
 30
0.0
 11
113.6462076261742
 21
281.0657880249743
 31
0.0
  0
LINE
  5
69E
330
A
100
AcDbEntity
  8
0
100
AcDbLine
 10
122.0462096261743
 20
281.2928160249743
 30
0.0
 11
118.3462126261743
 21
281.1928140249743
 31
0.0
  0
LINE
  5
69F
330
A
100
AcDbEntity
  8
0
100
AcDbLine
 10
126.7462136261742
 20
281.4198420249744
 30
0.0
 11
123.0462096261743
 21
281.3198390249743
 31
0.0
  0
LINE
  5
6A0
330
A
100
AcDbEntity
  8
0
100
AcDbLine
 10
93.84619662617428
 20
259.3266910249744
 30
0.0
 11
90.14620062617428
 21
259.4266890249743
 31
0.0
  0
LINE
  5
6A1
330
A
100
AcDbEntity
  8
0
100
AcDbLine
 10
98.54619362617434
 20
259.1996610249743
 30
0.0
 11
94.84619662617427
 21
259.2996600249743
 31
0.0
  0
LINE
  5
6A2
330
A
100
AcDbEntity
  8
0
100
AcDbLine
 10
103.2462066261743
 20
259.0726320249743
 30
0.0
 11
99.54620162617423
 21
259.1726380249743
 31
0.0
  0
LINE
  5
6A3
330
A
100
AcDbEntity
  8
0
100
AcDbLine
 10
107.9462036261743
 20
258.9456100249742
 30
0.0
 11
104.2462066261742
 21
259.0456080249743
 31
0.0
  0
LINE
  5
6A4
330
A
100
AcDbEntity
  8
0
100
AcDbLine
 10
112.6462006261742
 20
258.8185800249743
 30
0.0
 11
108.9462036261743
 21
258.9185790249743
 31
0.0
  0
LINE
  5
6A5
330
A
100
AcDbEntity
  8
0
100
AcDbLine
 10
117.3462126261743
 20
258.6915510249743
 30
0.0
 11
113.6462076261742
 21
258.7915500249744
 31
0.0
  0
LINE
  5
6A6
330
A
100
AcDbEntity
  8
0
100
AcDbLine
 10
122.0462096261743
 20
258.5645220249743
 30
0.0
 11
118.3462126261743
 21
258.6645280249744
 31
0.0
  0
LINE
  5
6A7
330
A
100
AcDbEntity
  8
0
100
AcDbLine
 10
126.7462066261743
 20
258.4375000249742
 30
0.0
 11
123.0462096261743
 21
258.5374980249743
 31
0.0
  0
LINE
  5
6A8
330
A
100
AcDbEntity
  8
0
100
AcDbLine
 10
77.04619762617426
 20
259.2374110249743
 30
0.0
 11
62.04619762617426
 21
259.7061618285177
 31
0.0
  0
LINE
  5
6A9
330
A
100
AcDbEntity
  8
0
 62
     2
100
AcDbLine
 10
76.04619762617426
 20
279.4266810249744
 30
0.0
 11
62.04619762617426
 21
278.9891810249744
 31
0.0
  0
LINE
  5
6AA
330
A
100
AcDbEntity
  8
0
100
AcDbLine
 10
77.04619762617426
 20
280.6199150249743
 30
0.0
 11
62.04619762617426
 21
280.1511652928221
 31
0.0
  0
LINE
  5
6AB
330
A
100
AcDbEntity
  8
0
100
AcDbLine
 10
77.04619762617426
 20
280.5433540249743
 30
0.0
 11
77.04619762617426
 21
259.3139800249744
 31
0.0
  0
LINE
  5
6AC
330
A
100
AcDbEntity
  8
0
100
AcDbLine
 10
76.04619762617426
 20
280.5886650249743
 30
0.0
 11
76.04619762617426
 21
259.2686610249743
 31
0.0
  0
LINE
  5
6AD
330
A
100
AcDbEntity
  8
0
 62
     2
100
AcDbLine
 10
76.04619762617426
 20
279.4266810249744
 30
0.0
 11
76.72939462617427
 21
280.6100160249743
 31
0.0
  0
LINE
  5
6AE
330
A
100
AcDbEntity
  8
0
 62
     2
100
AcDbLine
 10
76.04619762617426
 20
260.4306640249744
 30
0.0
 11
62.04619762617426
 21
260.8681640249744
 31
0.0
  0
LINE
  5
6AF
330
A
100
AcDbEntity
  8
0
100
AcDbLine
 10
62.04619762617426
 20
280.1511652928221
 30
0.0
 11
62.04619762617426
 21
259.7061618285177
 31
0.0
  0
LINE
  5
6B0
330
A
100
AcDbEntity
  8
0
100
AcDbLine
 10
88.0462016261743
 20
276.8568720249743
 30
0.0
 11
77.04619762617426
 21
276.8568720249743
 31
0.0
  0
LINE
  5
6B1
330
A
100
AcDbEntity
  8
0
100
AcDbLine
 10
88.0462016261743
 20
263.0004650249742
 30
0.0
 11
77.04619762617426
 21
263.0004650249742
 31
0.0
  0
ARC
  5
6B2
330
A
100
AcDbEntity
  8
0
100
AcDbCircle
 10
132.0461936261742
 20
282.9286760249743
 30
0.0
 40
1.0
100
AcDbArc
 50
0.0
 51
90.0
  0
ARC
  5
6B3
330
A
100
AcDbEntity
  8
0
100
AcDbCircle
 10
132.0461936261742
 20
256.9286730249743
 30
0.0
 40
1.0
100
AcDbArc
 50
270.0
 51
0.0
  0
LINE
  5
6B4
330
A
100
AcDbEntity
  8
0
  6
CENTER
 62
     2
100
AcDbLine
 10
-0.9538063738256994
 20
269.9286760249743
 30
0.0
 11
31.04619362617427
 21
269.9286760249743
 31
0.0
  0
LINE
  5
6B5
330
A
100
AcDbEntity
  8
0
  6
CENTER
 62
     2
100
AcDbLine
 10
15.04619362617427
 20
285.9286760249743
 30
0.0
 11
15.04619362617427
 21
253.9286760249743
 31
0.0
  0
POINT
  5
6B6
330
A
100
AcDbEntity
  8
0
  6
Continuous
 62
     7
100
AcDbPoint
 10
15.04619362617427
 20
269.9286760249743
 30
0.0
 50
90.0
  0
LINE
  5
6B7
330
A
100
AcDbEntity
  8
0
  6
Continuous
 62
     7
100
AcDbLine
 10
15.0461946261743
 20
283.7850860249742
 30
0.0
 11
27.04619362617427
 21
276.8568771796757
 31
0.0
  0
LINE
  5
6B8
330
A
100
AcDbEntity
  8
0
  6
Continuous
 62
     7
100
AcDbLine
 10
15.0461946261743
 20
283.7850860249742
 30
0.0
 11
3.046193626174299
 21
276.8568814061715
 31
0.0
  0
LINE
  5
6B9
330
A
100
AcDbEntity
  8
0
  6
Continuous
 62
     7
100
AcDbLine
 10
3.046193626174299
 20
276.8568814061715
 30
0.0
 11
3.046193626174271
 21
263.0004766023251
 31
0.0
  0
LINE
  5
6BA
330
A
100
AcDbEntity
  8
0
  6
Continuous
 62
     7
100
AcDbLine
 10
15.04618946592325
 20
256.0722695816
 30
0.0
 11
3.046193626174271
 21
263.0004766023251
 31
0.0
  0
LINE
  5
6BB
330
A
100
AcDbEntity
  8
0
  6
Continuous
 62
     7
100
AcDbLine
 10
27.04619362617427
 20
276.8568771796757
 30
0.0
 11
27.0461936261743
 21
263.0004754476241
 31
0.0
  0
LINE
  5
6BC
330
A
100
AcDbEntity
  8
0
  6
Continuous
 62
     7
100
AcDbLine
 10
27.0461936261743
 20
263.0004754476241
 30
0.0
 11
15.04618946592325
 21
256.0722695816
 31
0.0
  0
CIRCLE
  5
6BD
330
A
100
AcDbEntity
  8
0
100
AcDbCircle
 10
15.04619362617427
 20
269.9286760249743
 30
0.0
 40
14.0
  0
CIRCLE
  5
6BE
330
A
100
AcDbEntity
  8
0
  6
Continuous
 62
     2
100
AcDbCircle
 10
15.04619362617427
 20
269.9286760249743
 30
0.0
 40
9.3155
  0
CIRCLE
  5
6BF
330
A
100
AcDbEntity
  8
0
  6
Continuous
 62
     7
100
AcDbCircle
 10
15.04619362617427
 20
269.9286760249743
 30
0.0
 40
10.4775
  0
CIRCLE
  5
6C0
330
A
100
AcDbEntity
  8
0
  6
Continuous
 62
     7
100
AcDbCircle
 10
15.04619362617427
 20
269.9286760249743
 30
0.0
 40
6.75
  0
POINT
  5
6C1
330
A
100
AcDbEntity
  8
0
100
AcDbPoint
 10
15.04619362617427
 20
269.9286760249743
 30
0.0
  0
POINT
  5
6C2
330
A
100
AcDbEntity
  8
0
  6
Continuous
 62
     7
100
AcDbPoint
 10
199.7128592791039
 20
391.9286798349743
 30
0.0
  0
POINT
  5
6C3
330
A
100
AcDbEntity
  8
0
100
AcDbPoint
 10
199.7128592791039
 20
391.9286798349743
 30
0.0
  0
POINT
  5
6C4
330
A
100
AcDbEntity
  8
0
  6
Continuous
 62
     7
100
AcDbPoint
 10
199.7128601882904
 20
391.9286798349743
 30
0.0
 50
90.0
  0
POINT
  5
6C5
330
A
100
AcDbEntity
  8
0
  6
Continuous
 62
     7
100
AcDbPoint
 10
15.04619362617427
 20
513.9286760249742
 30
0.0
  0
POINT
  5
6C6
330
A
100
AcDbEntity
  8
0
100
AcDbPoint
 10
15.04619362617424
 20
513.9286760249742
 30
0.0
  0
POINT
  5
6C7
330
A
100
AcDbEntity
  8
0
  6
Continuous
 62
     7
100
AcDbPoint
 10
15.04619453536074
 20
513.9286760249742
 30
0.0
 50
90.0
  0
POINT
  5
6C8
330
A
100
AcDbEntity
  8
0
  6
Continuous
 62
     7
100
AcDbPoint
 10
-169.6204704973609
 20
513.9286760249742
 30
0.0
  0
POINT
  5
6C9
330
A
100
AcDbEntity
  8
0
100
AcDbPoint
 10
-169.6204704973609
 20
513.9286760249742
 30
0.0
  0
POINT
  5
6CA
330
A
100
AcDbEntity
  8
0
  6
Continuous
 62
     7
100
AcDbPoint
 10
-169.6204695881743
 20
513.9286760249742
 30
0.0
 50
90.0
  0
POINT
  5
6CB
330
A
100
AcDbEntity
  8
0
100
AcDbPoint
 10
-111.2704724973611
 20
269.9286690249743
 30
0.0
  0
LINE
  5
6CC
330
A
100
AcDbEntity
  8
0
  6
Continuous
 62
     2
100
AcDbLine
 10
-102.6204804973609
 20
387.7706660249743
 30
0.0
 11
-96.62047049736088
 21
387.5831660249743
 31
0.0
  0
POINT
  5
6CD
330
A
100
AcDbEntity
  8
0
100
AcDbPoint
 10
83.04619362617428
 20
391.9286760249743
 30
0.0
  0
POINT
  5
6CE
330
A
100
AcDbEntity
  8
0
100
AcDbPoint
 10
258.3795234026391
 20
391.9286760249743
 30
0.0
  0
POINT
  5
6CF
330
A
100
AcDbEntity
  8
0
100
AcDbPoint
 10
258.3795234026391
 20
391.9286760249743
 30
0.0
  0
POINT
  5
6D0
330
A
100
AcDbEntity
  8
0
100
AcDbPoint
 10
277.6828853791039
 20
513.9286760249742
 30
0.0
 50
180.0
  0
POINT
  5
6D1
330
A
100
AcDbEntity
  8
0
100
AcDbPoint
 10
-98.650470497361
 20
391.9286760249743
 30
0.0
 50
180.0
  0
LINE
  5
6D2
330
A
100
AcDbEntity
  8
0
  6
CENTER
 62
     2
100
AcDbLine
 10
55.90972776610692
 20
269.9286760249745
 30
0.0
 11
140.4849083991996
 21
269.9286760249743
 31
0.0
  0
VIEWPORT
  5
6E8
102
{ACAD_XDICTIONARY
360
718
102
}
330
6E0
100
AcDbEntity
 67
     1
  8
0
  6
Continuous
100
AcDbViewport
 10
5.655416053111157
 20
3.94208322359821
 30
0.0
 40
16.72985656365981
 41
8.746133096049151
 68
     1
 69
     1
 12
5.655416053111157
 22
3.94208322359821
 13
0.0
 23
0.0
 14
10.0
 24
10.0
 15
10.0
 25
10.0
 16
0.0
 26
0.0
 36
1.0
 17
0.0
 27
0.0
 37
0.0
 42
50.0
 43
0.0
 44
0.0
 45
8.746133096049151
 50
0.0
 51
0.0
 72
   100
 90
    32800
  1

281
     0
 71
     1
 74
     0
110
0.0
120
0.0
130
0.0
111
1.0
121
0.0
131
0.0
112
0.0
122
1.0
132
0.0
 79
     0
146
0.0
  0
VIEWPORT
  5
6EA
102
{ACAD_XDICTIONARY
360
71A
102
}
330
6E0
100
AcDbEntity
 67
     1
  8
0
  6
Continuous
100
AcDbViewport
 10
5.653750051663616
 20
3.940416621410939
 30
0.0
 40
9.046000082661784
 41
6.304666594257504
 68
     2
 69
     2
 12
62.37952950263911
 22
379.4286760249743
 13
0.0
 23
0.0
 14
1.0
 24
1.0
 15
0.0
 25
0.0
 16
0.0
 26
0.0
 36
1.0
 17
0.0
 27
0.0
 37
0.0
 42
50.0
 43
0.0
 44
0.0
 45
389.8027659875258
 50
0.0
 51
0.0
 72
   100
 90
    32800
  1

281
     0
 71
     1
 74
     0
110
0.0
120
0.0
130
0.0
111
1.0
121
0.0
131
0.0
112
0.0
122
1.0
132
0.0
 79
     0
146
0.0
  0
ENDSEC
  0
SECTION
  2
OBJECTS
  0
DICTIONARY
  5
19
330
0
100
AcDbDictionary
281
     1
  3
ACAD_COLOR
350
11F
  3
ACAD_GROUP
350
1A
  3
ACAD_LAYOUT
350
122
  3
ACAD_MATERIAL
350
11E
  3
ACAD_MLINESTYLE
350
1B
  3
ACAD_PLOTSETTINGS
350
123
  3
ACAD_PLOTSTYLENAME
350
11C
  3
ACAD_TABLESTYLE
350
120
  3
ACDBHEADERROUNDTRIPXREC
350
714
  3
AcDbVariableDictionary
350
6F2
  0
DICTIONARY
  5
12B
330
2
100
AcDbDictionary
280
     1
281
     1
  3
ACAD_LAYERSTATES
360
12C
  0
DICTIONARY
  5
718
330
6E8
100
AcDbDictionary
280
     1
281
     1
  3
ACAD_XREC_ROUNDTRIP
360
719
  0
DICTIONARY
  5
71A
330
6EA
100
AcDbDictionary
280
     1
281
     1
  3
ACAD_XREC_ROUNDTRIP
360
71B
  0
DICTIONARY
  5
11F
102
{ACAD_REACTORS
330
19
102
}
330
19
100
AcDbDictionary
281
     1
  0
DICTIONARY
  5
1A
102
{ACAD_REACTORS
330
19
102
}
330
19
100
AcDbDictionary
281
     1
  0
DICTIONARY
  5
122
102
{ACAD_REACTORS
330
19
102
}
330
19
100
AcDbDictionary
281
     1
  3
Model
350
124
  3
レイアウト1
350
6E1
  0
DICTIONARY
  5
11E
102
{ACAD_REACTORS
330
19
102
}
330
19
100
AcDbDictionary
281
     1
  0
DICTIONARY
  5
1B
102
{ACAD_REACTORS
330
19
102
}
330
19
100
AcDbDictionary
281
     1
  3
STANDARD
350
1C
  0
DICTIONARY
  5
123
102
{ACAD_REACTORS
330
19
102
}
330
19
100
AcDbDictionary
281
     1
  0
ACDBDICTIONARYWDFLT
  5
11C
102
{ACAD_REACTORS
330
19
102
}
330
19
100
AcDbDictionary
281
     1
  3
Normal
350
11D
100
AcDbDictionaryWithDefault
340
11D
  0
DICTIONARY
  5
120
102
{ACAD_REACTORS
330
19
102
}
330
19
100
AcDbDictionary
281
     1
  3
Standard
350
121
  0
DICTIONARY
  5
714
102
{ACAD_REACTORS
330
19
102
}
330
19
100
AcDbDictionary
281
     1
  0
DICTIONARY
  5
6F2
102
{ACAD_REACTORS
330
19
102
}
330
19
100
AcDbDictionary
281
     1
  3
CTABLESTYLE
350
6F3
  3
DIMASSOC
350
6F4
  3
PROJECTNAME
350
6F5
  0
DICTIONARY
  5
12C
102
{ACAD_REACTORS
330
12B
102
}
330
12B
100
AcDbDictionary
281
     1
  0
XRECORD
  5
719
102
{ACAD_REACTORS
330
718
102
}
330
718
100
AcDbXrecord
280
     1
102
SHADEPLOT
 70
     0
  0
XRECORD
  5
71B
102
{ACAD_REACTORS
330
71A
102
}
330
71A
100
AcDbXrecord
280
     1
102
SHADEPLOT
 70
     0
  0
LAYOUT
  5
124
102
{ACAD_XDICTIONARY
360
715
102
}
102
{ACAD_REACTORS
330
122
102
}
330
122
100
AcDbPlotSettings
  1

  2
DocuCentre Color f450
  4

  6

 40
0.0
 41
0.0
 42
0.0
 43
0.0
 44
0.0
 45
0.0
 46
0.0
 47
0.0
 48
0.0
 49
0.0
140
0.0
141
0.0
142
1.0
143
1.0
 70
  1712
 72
     0
 73
     0
 74
     0
  7

 75
     0
147
1.0
148
0.0
149
0.0
100
AcDbLayout
  1
Model
 70
     1
 71
     0
 10
0.0
 20
0.0
 11
12.0
 21
9.0
 12
0.0
 22
0.0
 32
0.0
 14
0.0
 24
0.0
 34
0.0
 15
0.0
 25
0.0
 35
0.0
146
0.0
 13
0.0
 23
0.0
 33
0.0
 16
1.0
 26
0.0
 36
0.0
 17
0.0
 27
1.0
 37
0.0
 76
     0
330
A
  0
LAYOUT
  5
6E1
102
{ACAD_XDICTIONARY
360
6EF
102
}
102
{ACAD_REACTORS
330
122
102
}
330
122
100
AcDbPlotSettings
  1

  2
DocuCentre Color f450
  4
A4
  6

 40
4.857749938964842
 41
4.942390441894531
 42
4.942413330078125
 43
4.857757568359375
 44
209.9733276367186
 45
297.0106506347656
 46
0.0
 47
0.0
 48
0.0
 49
0.0
140
0.0
141
0.0
142
1.0
143
1.0
 70
   688
 72
     0
 73
     1
 74
     5
  7

 75
    16
147
1.0
148
0.0
149
0.0
100
AcDbLayout
  1
レイアウト1
 70
     1
 71
     1
 10
-0.1912502979669045
 20
-0.1912499975970411
 11
11.50208240418922
 21
8.075416444793459
 12
0.0
 22
0.0
 32
0.0
 14
1.130750010332723
 24
0.7880833242821881
 34
0.0
 15
10.17675009299451
 25
7.092749918539691
 35
0.0
146
0.0
 13
0.0
 23
0.0
 33
0.0
 16
1.0
 26
0.0
 36
0.0
 17
0.0
 27
1.0
 37
0.0
 76
     0
330
6E0
331
6E8
1001
ACAD_PSEXT
1000
DocuCentre Color f450
1000
FX DocuCentre Color f450
1000
192.168.41.214
1000

1070
     0
  0
MLINESTYLE
  5
1C
102
{ACAD_REACTORS
330
1B
102
}
330
1B
100
AcDbMlineStyle
  2
STANDARD
 70
     0
  3

 62
     0
 51
90.0
 52
90.0
 71
     2
 49
0.5
 62
   256
  6
BYLAYER
 49
-0.5
 62
   256
  6
BYLAYER
  0
ACDBPLACEHOLDER
  5
11D
102
{ACAD_REACTORS
330
11C
102
}
330
11C
  0
TABLESTYLE
  5
121
102
{ACAD_REACTORS
330
120
102
}
330
120
100
AcDbTableStyle
  3
Standard
 70
     0
 71
     0
 40
0.06
 41
0.06
280
     0
281
     0
  7
MX_NOTE_STANDARD
140
0.18
170
     2
 62
     0
 63
     7
283
     0
274
    -2
284
     1
 64
     0
275
    -2
285
     1
 65
     0
276
    -2
286
     1
 66
     0
277
    -2
287
     1
 67
     0
278
    -2
288
     1
 68
     0
279
    -2
289
     1
 69
     0
  7
MX_NOTE_STANDARD
140
0.25
170
     5
 62
     0
 63
     7
283
     0
274
    -2
284
     1
 64
     0
275
    -2
285
     1
 65
     0
276
    -2
286
     1
 66
     0
277
    -2
287
     1
 67
     0
278
    -2
288
     1
 68
     0
279
    -2
289
     1
 69
     0
  7
MX_NOTE_STANDARD
140
0.18
170
     5
 62
     0
 63
     7
283
     0
274
    -2
284
     1
 64
     0
275
    -2
285
     1
 65
     0
276
    -2
286
     1
 66
     0
277
    -2
287
     1
 67
     0
278
    -2
288
     1
 68
     0
279
    -2
289
     1
 69
     0
  0
DICTIONARYVAR
  5
6F3
102
{ACAD_REACTORS
330
6F2
102
}
330
6F2
100
DictionaryVariables
280
     0
  1
STANDARD
  0
DICTIONARYVAR
  5
6F4
102
{ACAD_REACTORS
330
6F2
102
}
330
6F2
100
DictionaryVariables
280
     0
  1
1
  0
DICTIONARYVAR
  5
6F5
102
{ACAD_REACTORS
330
6F2
102
}
330
6F2
100
DictionaryVariables
280
     0
  1

  0
DICTIONARY
  5
715
330
124
100
AcDbDictionary
280
     1
281
     1
  3
ACAD_XREC_ROUNDTRIP
360
716
  0
DICTIONARY
  5
6EF
330
6E1
100
AcDbDictionary
280
     1
281
     1
  3
ACAD_XREC_ROUNDTRIP
360
717
  3
ADSK_XREC_LAYOUTTHUMBNAIL
360
6F0
  0
XRECORD
  5
716
102
{ACAD_REACTORS
330
715
102
}
330
715
100
AcDbXrecord
280
     1
102
SHADEPLOT
 70
     0
102
SHADEPLOTRESLEVEL
 70
     2
102
SHADEPLOTCUSTOMDPI
 70
   300
  0
XRECORD
  5
717
102
{ACAD_REACTORS
330
6EF
102
}
330
6EF
100
AcDbXrecord
280
     1
102
SHADEPLOT
 70
     0
102
SHADEPLOTRESLEVEL
 70
     2
102
SHADEPLOTCUSTOMDPI
 70
   300
  0
XRECORD
  5
6F0
102
{ACAD_REACTORS
330
6EF
102
}
330
6EF
100
AcDbXrecord
280
     1
310
28000000B40000007F00000001000800000000004C590000000000000000000000010000000000000000000000000000FFFFFF000000000000000000000000000000000000000000000000000000000000000000330000006600000099000000CC000000FF00000000330000333300006633000099330000CC330000FF3300
310
0000660000336600006666000099660000CC660000FF66000000990000339900006699000099990000CC990000FF99000000CC000033CC000066CC000099CC0000CCCC0000FFCC000000FF000033FF000066FF000099FF0000CCFF0000FFFF000000003300330033006600330099003300CC003300FF003300003333003333
310
33006633330099333300CC333300FF33330000663300336633006666330099663300CC663300FF66330000993300339933006699330099993300CC993300FF99330000CC330033CC330066CC330099CC3300CCCC3300FFCC330000FF330033FF330066FF330099FF3300CCFF3300FFFF330000006600330066006600660099
310
006600CC006600FF00660000336600333366006633660099336600CC336600FF33660000666600336666006666660099666600CC666600FF66660000996600339966006699660099996600CC996600FF99660000CC660033CC660066CC660099CC6600CCCC6600FFCC660000FF660033FF660066FF660099FF6600CCFF6600
310
FFFF660000009900330099006600990099009900CC009900FF00990000339900333399006633990099339900CC339900FF33990000669900336699006666990099669900CC669900FF66990000999900339999006699990099999900CC999900FF99990000CC990033CC990066CC990099CC9900CCCC9900FFCC990000FF99
310
0033FF990066FF990099FF9900CCFF9900FFFF99000000CC003300CC006600CC009900CC00CC00CC00FF00CC000033CC003333CC006633CC009933CC00CC33CC00FF33CC000066CC003366CC006666CC009966CC00CC66CC00FF66CC000099CC003399CC006699CC009999CC00CC99CC00FF99CC0000CCCC0033CCCC0066CC
310
CC0099CCCC00CCCCCC00FFCCCC0000FFCC0033FFCC0066FFCC0099FFCC00CCFFCC00FFFFCC000000FF003300FF006600FF009900FF00CC00FF00FF00FF000033FF003333FF006633FF009933FF00CC33FF00FF33FF000066FF003366FF006666FF009966FF00CC66FF00FF66FF000099FF003399FF006699FF009999FF00CC
310
99FF00FF99FF0000CCFF0033CCFF0066CCFF0099CCFF00CCCCFF00FFCCFF0000FFFF0033FFFF0066FFFF0099FFFF00CCFFFF00FFFFFF00000000000D0D0D001A1A1A00282828003535350043434300505050005D5D5D006B6B6B00787878008686860093939300A1A1A100AEAEAE00BBBBBB00C9C9C900D6D6D600E4E4E400
310
F1F1F100FFFFFF0000000000000000000000000000000000000000000000000000000000000000000000000000000000F5F5F5F5F5F5F5F5F5F5F5F5F5F5F5F5F5F5F5F5F5F5F5F5F5F5F5F5F5F5F5F5F5F5F5F5F5F5F5F5F5F5F5F5F5F5F5F5F5F5F5F5F5F5F5F5F5F5F5F5F5F5F5F5F5F5F5F5F5F5F5F5F5F5F5F5F5F5F5
310
F5F5F5F5F5F5F5F5F5F5F5F5F5F5F5F5F5F5F5F5F5F5F5F5F5F5F5F5F5F5F5F5F5F5F5F5F5F5F5F5F5F5F5F5F5F5F5F5F5F5F5F5F5F5F5F5F5F5F5F5F5F5F5F5F5F5F5F5F5F5F5F5F5F5F5F5F5F5F5F5F5F5F5F5F5F5F5F5F5F5F5F5F5F5F5F5F5F5F5F5F5F5E2E2E2E2E2E2E2E2E2E2E2E2E2E2E2E2E2E2E2E2E2E2E2E2E2
310
E2E2E2E2E2E2E2E2E2E2E2E2E2E2E2E2E2E2E2E2E2E2E2E2E2E2E2E2E2E2E2E2E2E2E2E2E2E2E2E2E2E2E2E2E2E2E2E2E2E2E2E2E2E2E2E2E2E2E2E2E2E2E2E2E2E2E2E2E2E2E2E2E2E2E2E2E2E2E2E2E2E2E2E2E2E2E2E2E2E2E2E2E2E2E2E2E2E2E2E2E2E2E2E2E2E2E2E2E2E2E2E2E2E2E2E2E2E2E2E2E2E2E2E2E2E2E2
310
E2E2E2E2E2E2E2E2E2E2E2E2E2E2E2E2E2E2E2E2E2E2E2E2E2E2F5F5E2E2E2E2E2E2E2E2E2E2E2E2E2E2E2E2E2E2E2E2E2E2E2E2E2E2E2E2E2E2E2E2E2E2E2E2E2E2E2E2E2E2E2E2E2E2E2E2E2E2E2E2E2E2E2E2E2E2E2E2E2E2E2E2E2E2E2E2E2E2E2E2E2E2E2E2E2E2E2E2E2E2E2E2E2E2E2E2E2E2E2E2E2E2E2E2E2E2E2
310
E2E2E2E2E2E2E2E2E2E2E2E2E2E2E2E2E2E2E2E2E2E2E2E2E2E2E2E2E2E2E2E2E2E2E2E2E2E2E2E2E2E2E2E2E2E2E2E2E2E2E2E2E2E2E2E2E2E2E2E2E2E2E2E2E2E2E2E2E2E2E2E2E2E2E2E2E2E2E2F5F5E2E2F5F5F5F5F5F5F5F5E2E2E2E2E2E2E2E2E2F5F5F5F5F5F5F5F5F5F5F5F5F5F5F5F5E2E2E2E2E2E2E2E2E2F5F5
310
F5F5F5F5F5F5F5F5F5F5F5F5F5F5E2E2E2E2E2E2E2E2E2F5F5F5F5F5F5F5F5F5F5F5F5F5F5F5F5E2E2E2E2E2E2E2E2F5F5F5F5F5F5F5F5F5F5F5F5F5F5F5F5E2E2E2E2E2E2E2E2E2F5F5F5F5F5F5F5F5F5F5F5F5F5F5F5F5E2E2E2E2E2E2E2E2E2F5F5F5F5F5F5F5F5F5F5F5F5F5F5F5F5E2E2E2E2E2E2E2E2E2F5F5F5F5F5
310
F5F5F5E2E2F5F5E2E2F5E2E2E2E2E2E2E2E2E2E2E2E2E2E2E2E2E2E2E2E2E2E2E2E2E2E2E2E2E2E2E2E2E2E2E2E2E2E2E2E2E2E2E2E2E2E2E2E2E2E2E2E2E2E2E2E2E2E2E2E2E2E2E2E2E2E2E2E2E2E2E2E2E2E2E2E2E2E2E2E2E2E2E2E2E2E2E2E2E2E2E2E2E2E2E2E2E2E2E2E2E2E2E2E2E2E2E2E2E2E2E2E2E2E2E2E2E2
310
E2E2E2E2E2E2E2E2E2E2E2E2E2E2E2E2E2E2E2E2E2E2E2E2E2E2E2E2E2E2E2E2E2E2E2E2E2E2E2E2E2E2E2E2E2E2E2E2E2E2E2E2E2E2E2F5E2E2F5F5E2E2F5E2E2E2E2E2E2E2E2E2E2E2E2E2E2E2E2E2E2E2E2E2E2E2E2E2E2E2E2E2E2E2E2E2E2E2E2E2E2E2E2E2E2E2E2E2E2E2E2E2E2E2E2E2E2E2E2E2E2E2E2E2E2E2E2
310
E2E2E2E2E2E2E2E2E2E2E2E2E2E2E2E2E2E2E2E2E2E2E2E2E2E2E2E2E2E2E2E2E2E2E2E2E2E2E2E2E2E2E2E2E2E2E2E2E2E2E2E2E2E2E2E2E2E2E2E2E2E2E2E2E2E2E2E2E2E2E2E2E2E2E2E2E2E2E2E2E2E2E2E2E2E2E2E2E2E2E2E2E2E2E2E2E2E2E2E2E2E2E2E2E2E2E2E2F5E2E2F5F5E2E2F5E2E2E2E2E2E2E2E2E2E2E2
310
E2E2E2E2E2E2E2E2E2E2E2E2E2E2E2E2E2E2E2E2E2E2E2E2E2E2E2E2E2E2E2E2E2E2E2E2E2E2E2E2E2E2E2E2E2E2E2E2E2E2E2E2E2E2E2E2E2E2E2E2E2E2E2E2E2E2E2E2E2E2E2E2E2E2E2E2E2E2E2E2E2E2E2E2E2E2E2E2E2E2E2E2E2E2E2E2E2E2E2E2E2E2E2E2E2E2E2E2E2E2E2E2E2E2E2E2E2E2E2E2E2E2E2E2E2E2E2
310
E2E2E2E2E2E2E2E2E2E2E2E2E2E2E2E2E2E2E2E2E2E2E2E2E2E2E2E2E2E2E2E2E2E2F5E2E2F5F5E2E2F5E2E2E2E2E2E2E2E2E2E2E2E2E2E2E2E2E2E2E2E2E2E2E2E2E2E2E2E2E2E2E2E2E2E2E2E2E2E2E2E2E2E2E2E2E2E2E2E2E2E2E2E2E2E2E2E2E2E2E2E2E2E2E2E2E2E2E2E2E2E2E2E2E2E2E2E2E2E2E2E2E2E2E2E2E2
310
E2E2E2E2E2E2E2E2E2E2E2E2E2E2E2E2E2E2E2E2E2E2E2E2E2E2E2E2E2E2E2E2E2E2E2E2E2E2E2E2E2E2E2E2E2E2E2E2E2E2E2E2E2E2E2E2E2E2E2E2E2E2E2E2E2E2E2E2E2E2E2E2E2E2E2E2E2E2E2E2E2E2E2E2E2E2E2F5E2E2F5F5E2E2F5E2E2E2E2E2E2E2E2E2E2E2E2E2E2E2E2E2E2E2E2E2E2E2E2E2E2E2E2E2E2E2E2
310
E2E2E2E2E2E2E2E2E2E2E2E2E2E2E2E2E2E2E2E2E2E2E2E2E2E2E2E2E2E2E2E2E2E2E2E2E2E2E2E2E2E2E2E2E2E2E2E2E2E2E2E2E2E2E2E2E2E2E2E2E2E2E2E2E2E2E2E2E2E2E2E2E2E2E2E2E2E2E2E2E2E2E2E2E2E2E2E2E2E2E2E2E2E2E2E2E2E2E2E2E2E2E2E2E2E2E2E2E2E2E2E2E2E2E2E2E2E2E2E2E2E2E2E2E2E2E2
310
E2E2E2E2E2E2E2E2E2E2E2E2E2F5E2E2F5F5E2E2F5E2E2E2E2E2E2E2E2E2E2E2E2E2E2E2E2E2E2E2E2E2E2E2E2E2E2E2E2E2E2E2E2E2E2E2E2E2E2E2E2E2E2E2E2E2E2E2E2E2E2E2E2E2E2E2E2E2E2E2E2E2E2E2E2E2E2E2E2E2E2E2E2E2E2E2E2E2E2E2E2E2E2E2E2E2E2E2E2E2E2E2E2E2E2E2E2E2E2E2E2E2E2E2E2E2E2
310
E2E2E2E2E2E2E2E2E2E2E2E2E2E2E2E2E2E2E2E2E2E2E2E2E2E2E2E2E2E2E2E2E2E2E2E2E2E2E2E2E2E2E2E2E2E2E2E2E2E2E2E2E2E2E2E2E2E2E2E2E2E2E2E2E2E2F5E2E2F5F5E2E2F5E2E2E2E2E2E2E2E2E2E2E2E2E2E2E2E2E2E2E2E2E2E2E2E2E2E2E2E2E2E2E2E2E2E2E2E2E2E2E2E2E2E2E2E2E2E2E2E2E2E2E2E2E2
310
E2E2E2E2E2E2E2E2E2E2E2E2E2E2E2E2E2E2E2E2E2E2E2E2E2E2E2E2E2E2E2E2E2E2E2E2E2E2E2E2E2E2E2E2E2E2E2E2E2E2E2E2E2E2E2E2E2E2E2E2E2E2E2E2E2E2E2E2E2E2E2E2E2E2E2E2E2E2E2E2E2E2E2E2E2E2E2E2E2E2E2E2E2E2E2E2E2E2E2E2E2E2E2E2E2E2E2E2E2E2E2E2E2E2E2E2E2E2E2F5E2E2F5F5E2E2E2
310
E2E2E2E2E2E2E2E2E2E2E2E2E2E2E2E2E2E2E2E2E2E2E2E2E2E2E2E2E2E2E2E2E2E2E2E2E2E2E2E2E2E2E2E2E2E2E2E2E2E2E2E2E2E2E2E2E2E2E2E2E2E2E2E2E2E2E2E2E2E2E2E2E2E2E2E2E2E2E2E2E2E2E2E2E2E2E2E2E2E2E2E2E2E2E2E2E2E2E2E2E2E2E2E2E2E2E2E2E2E2E2E2E2E2E2E2E2E2E2E2E2E2E2E2E2E2E2
310
E2E2E2E2E2E2E2E2E2E2E2E2E2E2E2E2E2E2E2E2E2E2E2E2E2E2E2E2E2E2E2E2E2E2E2E2E2E2E2E2E2E2E2E2E2E2E2E2F5F5E2E2E2E2E2E2E2E2E2E2E2E2E2E2E2E2E2E2E2E2E2E2E2E2E2E2E2E2E2E2E2E2E2E2E2E2E2E2E2E2E2E2E2E2E2E2E2E2E2E2E2E2E2E2E2E2E2E2E2E2E2E2E2E2E2E2E2E2E2E2E2E2E2E2E2E2E2
310
E2E2E2E2E2E2E2E2E2E2E2E2E2E2E2E2E2E2E2E2E2E2E2E2E2E2E2E2E2E2E2E2E2E2E2E2E2E2E2E2E2E2E2E2E2E2E2E2E2E2E2E2E2E2E2E2E2E2E2E2E2E2E2E2E2E2E2E2E2E2E2E2E2E2E2E2E2E2E2E2E2E2E2E2E2E2E2E2E2E2E2E2E2E2E2E2E2E2E2E2E2F5F5E2E2E2E2E2E2E2E2E2E2E2E2E2E2E2E2E2E2E2E2E2E2E2E2
310
E2E2E2E2E2E2E2E2E2E2E2E2E2E2E2E2E2E2E2E2E2E2E2E2E2E2E2E2E2E2E2E2E2E2E2E2E2E2E2E2E2E2E2E2E2E2E2E2E2E2E2E2E2E2E2E2E2E2E2E2E2E2E2E2E2E2E2E2E2E2E2E2E2E2E2E2E2E2E2E2E2E2E2E2E2E2E2E2E2E2E2E2E2E2E2E2E2E2E2E2E2E2E2E2E2E2E2E2E2E2E2E2E2E2E2E2E2E2E2E2E2E2E2E2E2E2E2
310
E2E2E2E2E2E2E2E2E2E2E2E2E2E2E2E2E2E2E2E2E2E2E2E2E2E2E2F5F5E2E2E2E2E2E2E2E2E2E2E2E2E2E2E2E2E2E2E2E2E2E2E2E2E2E2E2E2E2E2E2E2E2E2E2E2E2E2E2E2E2E2E2E2E2E2E2E2E2E2E2E2E2E2E2E2E2E2E2E2E2E2E2E2E2E2E2E2E2E2E2E2E2E2E2E2E2E2E2E2E2E2E2E2E2E2E2E2E2E2E2E2E2E2E2E2E2E2
310
E2E2E2E2E2E2E2E2E2E2E2E2E2E2E2E2E2E2E2E2E2E2E2E2E2E2E2E2E2E2E2E2E2E2E2E2E2E2E2E2E2E2E2E2E2E2E2E2E2E2E2E2E2E2E2E2E2E2E2E2E2E2E2E2E2E2E2E2E2E2E2E2E2E2E2E2E2E2E2E2F5F5E2E2E2E2E2E2E2E2E2E2E2E2E2E2E2E2E2E2E2E2F5F5F5F5F5F5F5F5F5F5F5F5F5F5F5F5F5F5F5F5F5F5F5F5F5
310
F5F5F5F5F5F5F5F5F5F5F5F5F5F5F5F5F5F5F5F5F5F5F5F5F5F5F5F5F5F5F5F5F5F5F5F5F5F5F5F5F5F5F5F5F5F5F5F5F5F5F5F5F5F5F5F5F5F5F5F5F5F5F5F5F5F5F5F5F5F5F5F5F5F5F5F5F5F5F5F5F5F5F5F5F5F5F5F5F5F5F5F5F5F5F5F5F5F5F5F5F5F5F5F5F5F5F5F5F5F5F5F5F5E2E2E2E2E2E2E2E2E2E2E2E2E2E2
310
E2E2E2E2E2E2F5F5E2E2E2E2E2E2E2E2E2E2E2E2E2E2E2E2E2E2E2E2F5F5F5F5F5F5F5F5F5F5F5F5F5F5F5F5F5F5F5F5F5F5F5F5F5F5F5F5F5F5F5F5F5F5F5F5F5F5F5F5F5F5F5F5F5F5F5F5F5F5F5F5F5F5F5F5F5F5F5F5F5F5F5F5F5F5F5F5F5F5F5F5F5F5F5F5F5F5F5F5F5F5F5F5F5F5F5F5F5F5F5F5F5F5F5F5F5F5F5
310
F5F5F5F5F5F5F5F5F5F5F5F5F5F5F5F5F5F5F5F5F5F5F5F5F5F5F5F5F5F5F5F5F5F5F5F5F5F5F5E2E2E2E2E2E2E2E2E2E2E2E2E2E2E2E2E2E2E2E2F5F5E2E2E2E2E2E2E2E2E2E2E2E2E2E2E2E2E2E2E2E2F5E2E2E2E2E2E2E2E2E2E2E2E2E2E2E2E2E2E2E2E2E2E2E2E2E2E2E2E2E2E2E2E2E2E2E2E2E2E2E2E2E2E2E2E2E2
310
E2E2E2E2E2E2E2E2E2E2E2E2E2E2E2E2E2E2E2E2E2E2E2E2E2E2E2E2E2E2E2E2E2E2E2E2E2E2E2E2E2E2E2E2E2E2E2E2E2E2E2E2E2E2E2E2E2E2E2E2E2E2E2E2E2E2E2E2E2E2E2E2E2E2E2E2E2F5E2E2F5F5F5F5F5F5F5F5F5F5F5F5E2E2E2E2E2E2E2E2E2E2E2E2E2E2E2E2E2E2E2E2F5F5E2E2E2E2E2E2E2E2E2E2E2E2E2
310
E2E2E2E2E2E2E2F5E2E2E2E2E2E2E2E2E2E2E2E2E2E2E2E2E2E2E2E2E2E2E2E2E2E2E2E2E2E2E2E2E2E2E2E2E2E2E2E2E2E2E2E2E2E2E2E2E2E2E2E2E2E2E2E2E2E2E2E2E2E2E2E2E2E2E2E2E2E2E2E2E2E2E2E2E2F5F5F5F5F5F5F5F5F5F5F5F5F5F5F5F5F5F5F5F5F5F5F5F5F5F5F5F5F5F5F5F5F5F5F5F5F5F5F5F5F5F5
310
F5F5F5F5F5F5F5F5F5F5F5F5F5F5F5F5F5F5E2E2E2E2E2E2E2E2E2E2E2E2E2E2E2E2E2E2E2E2F5F5E2E2E2E2E2E2E2E2E2E2E2E2E2E2E2E2E2E2E2E2F5E2E2E2E2E2E2E2E2E2E2E2E2E2E2E2E2E2E2E2E2E2E2E2E2E2E2E2E2E2E2E2E2E2E2E2E2E2E2E2E2E2E2E2E2E2E2E2E2E2E2E2E2E2E2E2E2E2E2E2E2E2E2E2E2E2E2
310
E2E2E2E2E2E2E2E2E2E2E2F5F5F5F5F5F5F5F5E2E2E2E2E2E2E2E2E2E2E2E2E2E2E2E2E2E2E2E2E2E2E2F5E2E2E2E2F5F5F5E2E2E2E2E2E2F5E2E2E2F5F5F5E2F5F5E2E2E2E2F5E2E2E2E2E2E2E2E2E2E2E2E2E2E2E2E2E2E2E2E2F5F5E2E2F5E2E2E2E2E2E2E2E2E2E2E2E2E2E2E2E2E2F5F5F5F5F5F5F5F5F5F5F5F5F5F5
310
F5F5F5F5F5F5F5F5F5F5F5F5F5F5F5F5F5F5F5F5F5F5F5F5F5F5F5F5F5F5F5F5F5F5F5F5F5F5F5F5F5F5F5F5F5F5F5F5F5F5F5F5F5F5F5F5F5F5F5F5F5F5F5F5F5F5F5F5F5F5F5F5F5F5F5F5F5F5F5F5F5F5F5F5F5F5F5F5F5F5F5F5F5F5F5F5F5F5F5F5F5F5F5F5F5F5F5F5F5F5F5F5F5F5F5F5F5F5F5F5F5F5F5F5E2E2E2
310
E2E2E2E2E2E2E2E2E2E2E2E2E2E2F5E2E2F5F5E2E2F5E2E2E2E2E2E2E2E2E2E2E2E2E2E2E2E2E2F5F5F5F5F5F5E2E2E2E2E2E2E2E2E2E2E2E2E2E2E2E2E2E2F5F5F5F5E2E2E2E2E2E2E2E2E2E2E2E2E2E2E2E2E2E2F5F5F5F5E2F5E2E2E2E2E2E2E2E2E2E2E2E2E2E2E2E2E2F5F5F5F5E2E2E2E2E2E2E2E2E2E2E2E2E2E2E2
310
E2E2E2F5E2E2E2E2E2E2E2E2E2E2E2E2E2E2E2E2E2E2E2E2E2E2E2E2E2E2E2E2E2E2E2E2E2E2E2E2E2E2E2E2E2E2E2E2E2F5E2E2E2E2E2E2E2E2E2E2E2E2E2E2E2E2E2F5E2E2F5F5E2E2F5E2E2E2E2E2E2E2E2E2E2E2E2E2E2E2E2E2F5F5F5F5F5F5F5F5F5F5F5F5F5F5F5F5F5F5F5F5F5F5F5F5F5F5F5F5F5F5F5F5F5F5F5
310
F5F5F5F5F5F5F5F5F5F5F5F5F5F5F5F5F5F5F5F5F5F5F5F5F5F5F5F5F5F5F5F5F5F5F5F5F5F5F5F5F5F5F5F5F5F5F5F5F5F5F5F5F5F5F5F5F5F5F5F5F5F5F5F5F5F5F5F5F5F5F5F5F5F5F5F5F5F5F5F5F5F5F5F5F5F5F5F5F5F5F5F5F5F5F5F5F5F5F5F5F5F5F5E2E2E2E2E2E2E2E2E2E2E2E2E2E2E2E2E2F5E2E2F5F5E2E2
310
F5E2E2E2E2E2E2E2E2E2E2E2E2E2E2E2E2E2F5E2E2E2E2E2E2E2E2E2E2E2E2E2E2E2E2E2E2E2E2E2E2E2E2E2E2E2E2E2E2E2E2E2E2E2E2E2E2E2E2E2E2E2E2E2F5E2E2E2E2E2E2E2E2E2E2E2E2E2E2E2E2E2E2E2E2E2E2E2E2E2E2E2E2E2E2E2E2E2E2E2E2E2E2E2E2E2E2E2E2F5E2E2E2E2E2E2E2E2E2E2E2E2E2E2E2E2E2
310
E2E2E2E2E2E2E2E2E2E2E2E2E2E2E2E2E2E2E2E2E2E2E2E2E2E2E2E2F5E2E2E2E2E2E2E2E2E2E2E2E2E2E2E2E2E2F5E2E2F5F5E2E2F5E2E2E2E2E2E2E2E2E2E2E2E2E2E2E2E2E2F5E2E2E2E2E2E2E2E2E2E2E2E2E2E2E2E2E2E2E2E2E2E2E2E2E2E2E2E2E2E2E2E2E2E2E2E2E2E2E2E2E2E2E2E2E2F5E2E2E2E2E2E2E2E2E2
310
E2E2E2E2E2E2E2E2E2E2E2E2E2E2E2E2E2E2E2E2E2E2E2E2E2E2E2E2E2E2E2E2E2E2E2F5E2E2E2E2E2E2E2E2E2E2E2E2E2E2E2E2E2E2E2E2E2E2E2E2E2E2E2E2E2E2E2E2E2E2E2E2E2E2E2E2E2E2E2E2E2F5E2E2E2E2E2E2E2E2E2E2E2E2E2E2E2E2E2F5E2E2F5F5E2E2F5E2E2E2E2E2E2E2E2E2E2E2E2E2E2E2E2E2F5E2E2
310
E2E2E2E2E2E2E2E2E2E2E2E2E2E2E2E2E2E2E2E2E2E2E2E2E2E2E2E2E2E2E2E2E2E2E2E2E2E2E2E2E2E2E2F5E2E2E2E2E2E2E2E2E2E2E2E2E2E2E2E2E2E2E2E2E2E2E2E2E2E2E2E2E2E2E2E2E2E2E2E2E2E2E2E2E2E2E2E2F5E2E2E2E2E2E2E2E2E2E2E2E2E2E2E2E2E2E2E2E2E2E2E2E2E2E2E2E2E2E2E2E2E2E2E2E2E2E2
310
E2E2E2E2E2E2E2F5E2E2E2E2E2E2E2E2E2E2E2E2E2E2E2E2E2F5E2E2F5F5E2E2F5E2E2E2E2E2E2E2E2E2E2E2E2E2E2E2E2E2F5E2E2E2E2E2E2E2E2E2E2E2E2E2E2E2E2E2E2E2E2E2E2E2E2E2E2E2E2E2E2E2E2E2E2E2E2E2E2E2E2E2E2E2E2E2F5E2E2E2E2E2E2E2E2E2E2E2E2E2E2E2E2E2E2E2E2E2E2E2E2E2E2E2E2E2E2
310
E2E2E2E2E2E2E2E2E2E2E2E2E2E2F5E2E2E2E2E2E2E2E2E2E2E2E2E2E2E2E2E2E2E2E2E2E2E2E2E2E2E2E2E2E2E2E2E2E2E2E2E2E2E2E2E2E2E2E2E2F5E2E2E2E2E2E2E2E2E2E2E2E2E2E2E2E2E2F5E2E2F5F5E2E2F5E2E2E2E2E2E2E2E2E2E2E2E2E2E2E2E2E2F5E2E2E2E2E2E2E2E2E2E2E2E2E2E2E2E2E2E2E2E2E2E2E2
310
E2E2E2E2E2E2E2E2E2E2E2E2E2E2E2E2E2E2E2E2E2E2F5E2E2E2E2E2E2E2E2E2E2E2E2E2E2E2E2E2E2E2E2E2E2E2E2E2E2E2E2E2E2E2E2E2E2E2E2E2E2E2E2E2E2E2E2F5E2E2E2E2E2E2E2E2E2E2E2E2E2E2E2E2E2E2E2E2E2E2E2E2E2E2E2E2E2E2E2E2E2E2E2E2E2E2E2E2E2E2E2E2E2F5E2E2E2E2E2E2E2E2E2E2E2E2E2
310
E2E2E2E2F5E2E2F5F5E2E2F5E2E2E2E2E2E2E2E2E2E2E2E2E2E2E2E2E2F5E2E2E2E2E2E2E2E2E2E2E2E2E2E2E2E2E2E2E2E2E2E2E2E2E2E2E2E2E2E2E2E2E2E2E2E2E2E2E2E2E2E2E2E2E2F5E2E2E2E2E2E2E2E2E2E2E2E2E2E2E2E2E2E2E2E2E2E2E2E2E2E2E2E2E2E2E2E2E2E2E2E2E2E2E2E2E2E2E2E2F5E2E2E2E2E2E2
310
E2E2E2E2E2E2E2E2E2E2E2E2E2E2E2E2E2E2E2E2E2E2E2E2E2E2E2E2E2E2E2E2E2E2E2E2E2E2E2F5E2E2E2E2E2E2E2E2E2E2E2E2E2E2E2E2E2F5E2E2F5F5E2E2F5E2E2E2E2E2E2E2E2E2E2E2E2E2E2E2E2E2F5E2E2E2E2E2E2E2E2E2E2E2E2E2E2E2E2E2E2E2E2E2E2E2E2E2E2E2E2E2E2E2E2E2E2E2E2E2E2E2E2E2E2E2E2
310
E2F5E2E2E2E2E2E2E2E2E2E2E2E2E2E2E2E2E2E2E2E2E2E2E2E2E2E2E2E2E2E2E2E2E2E2E2E2E2E2E2E2E2E2E2E2F5E2E2E2E2E2E2E2E2E2E2E2E2E2E2E2E2E2E2E2E2E2E2E2E2E2E2E2E2E2E2E2E2E2E2E2E2E2E2E2E2E2E2E2E2E2F5E2E2E2E2E2E2E2E2E2E2E2E2E2E2E2E2E2F5E2E2F5F5E2E2F5E2E2E2E2E2E2E2E2E2
310
E2E2E2E2E2E2E2E2F5E2E2E2E2E2E2E2E2E2E2E2E2E2E2E2E2E2E2E2E2E2E2E2E2E2E2E2E2E2E2E2E2E2E2E2E2E2E2E2E2E2E2E2E2E2F5E2E2E2E2E2E2E2E2E2E2E2E2E2E2E2E2E2E2E2E2E2E2E2E2E2E2E2E2E2E2E2E2E2E2E2E2E2E2E2E2E2E2E2E2F5E2E2E2E2E2E2E2E2E2E2E2E2E2E2E2E2E2E2E2E2E2E2E2E2E2E2E2
310
E2E2E2E2E2E2E2E2E2E2E2E2E2E2E2E2E2E2F5E2E2E2E2E2E2E2E2E2E2E2E2E2E2E2E2E2F5E2E2F5F5E2E2F5E2E2E2E2E2E2E2E2E2E2E2E2E2E2E2E2E2F5E2E2E2E2E2E2E2E2E2E2E2E2E2E2E2E2E2E2E2E2E2E2E2E2E2E2E2E2E2E2E2E2E2E2E2E2E2E2E2E2E2E2E2E2E2F5E2E2E2E2E2E2E2E2E2E2E2E2E2E2E2E2E2E2E2
310
E2E2E2E2E2E2E2E2E2E2E2E2E2E2E2E2E2E2E2E2E2E2E2E2E2F5E2E2E2E2E2E2E2E2E2E2E2E2E2E2E2E2E2E2E2E2E2E2E2E2E2E2E2E2E2E2E2E2E2E2E2E2E2E2E2E2E2E2E2E2E2F5E2E2E2E2E2E2E2E2E2E2E2E2E2E2E2E2E2F5E2E2F5F5E2E2F5E2E2E2E2E2E2E2E2E2E2E2E2E2E2E2E2E2F5E2E2E2E2E2E2E2E2E2E2DCE2
310
E2E2E2E2E2E2E2E2E2E2E2E2E2E2E2E2E2E2E2E2E2E2E2E2E2E2E2E2E2E2E2E2E2F5E2E2E2E2E2E2E2E2E2E2F5E2E2E2E2E2E2E2E2E2E2E2E2E2E2F5F5F5F5F5F5F5F5F5F5F5F5F5F5F5E2E2E2E2F5E2E2E2E2E2E2E2E2E2E2E2E2E2E2E2E2E2E2E2E2E2E2E2E2E2E2E2E2E2E2E2E2E2E2E2E2E2E2E2E2E2E2E2E2E2F5E2E2
310
E2E2E2E2E2E2E2E2E2E2E2E2E2E2E2F5E2E2F5F5E2E2F5E2E2E2E2E2E2E2E2E2E2E2E2E2E2E2E2E2F5E2E2E2E2E2E2E2E2E2F5F5F5F5E2E2E2E2E2E2E2E2E2E2E2E2E2F5F5F5F5F5F5F5F5F5F5F5F5F5F5F5E2E2E2E2F5E2E2E2E2E2E2E2E2F5F5F5F5F5E2E2E2E2E2E2E2E2F5F5F5F5F5E2E2F5F5F5F5F5F5F5F5F5F5F5F5
310
E2E2E2E2F5E2E2E2E2E2E2E2E2E2E2E2E2E2E2E2E2E2E2E2E2E2E2E2E2E2E2E2E2E2E2E2E2E2E2E2E2E2E2E2E2E2E2E2E2E2F5E2E2E2E2E2E2E2E2E2E2E2E2E2E2E2E2E2F5E2E2F5F5E2E2F5E2E2E2E2E2E2E2E2E2E2E2E2E2E2E2E2E2F5E2E2E2E2E2E2E2E2F5F5F5F5F5F5E2E2E2E2E2E2E2E2E2DCDCDCF5F5F5F5F5F5F5
310
F5F5F5F5F5F5F5F5E2E2E2E2F5E2E2E2E2E2E2E2F5E2F5F5F5E2F5E2E2E2E2E2E2E2F5DCDCDCF5F5F5F5F5F5F5F5F5F5F5F5F5F5F5E2E2E2E2F5E2E2E2E2E2E2E2E2E2E2E2E2E2E2E2E2E2E2E2E2E2E2E2E2E2E2E2E2E2E2E2E2E2E2E2E2E2E2E2E2E2E2E2E2E2F5E2E2E2E2E2E2E2E2E2E2E2E2E2E2E2E2E2F5E2E2F5F5E2
310
E2E2E2E2E2E2E2E2E2E2E2E2E2E2E2E2E2E2E2F5E2E2E2E2E2E2E2E2F5F5F5F5F5F5F5E2E2E2E2E2E2E2E2F5E2E2F5F5F5F5F5F5F5F5F5F5F5F5F5F5F5E2E2E2E2F5E2E2E2E2E2E2E2F5F5F5DCF5F5F5E2E2E2E2E2E2E2F5E2E2E2F5E2E2F5F5F5F5F5F5F5F5F5F5F5F5E2E2E2E2F5E2E2E2E2E2E2E2E2E2E2E2E2E2E2E2E2
310
E2E2E2E2E2E2E2E2E2E2E2E2E2E2E2E2E2E2E2E2E2E2E2E2E2E2E2E2E2F5E2E2E2E2E2E2E2E2E2E2E2E2E2E2E2E2E2E2E2E2F5F5E2E2E2E2E2E2E2E2E2E2E2E2E2E2E2E2E2E2E2E2F5E2E2E2E2E2E2E2F5F5F5F5DCF5F5F5E2E2E2E2E2E2E2DCDCDCF5DCDCDCDCDCDCDCDCDCDCDCDCDCDCDCDCDCE2E2F5E2E2E2E2E2E2F5F5
310
F5DCF5DCF5F5DCE2E2E2E2E2DCDCDCDCDCDCDCDCDCDCDCDCDCDCDCDCDCDCDCDCDCDCE2E2F5E2E2E2E2E2E2E2E2E2E2E2E2E2E2E2E2E2E2E2E2E2E2E2E2E2E2E2E2E2E2E2E2E2E2E2E2E2E2E2E2E2E2E2E2E2F5E2E2E2E2E2E2E2E2E2E2E2E2E2E2E2E2E2E2E2E2F5F5E2E2E2E2E2E2E2E2E2E2E2E2E2E2E2E2E2E2E2E2F5E2
310
E2E2E2E2E2E2E2F5F5F5F5F5F5F5E2E2E2E2E2E2E2E2F5E2E2F5F5F5F5F5F5F5F5F5F5F5F5F5F5F5E2E2E2E2F5E2E2E2E2E2E2E2F5F5F5DCF5F5F5E2E2E2E2E2E2E2F5E2E2E2F5E2E2F5F5F5F5F5F5F5F5F5F5F5F5E2E2E2E2F5E2E2E2E2E2E2E2E2E2E2E2E2E2E2E2E2E2E2E2E2E2E2E2E2E2E2E2E2E2E2E2E2E2E2E2E2E2
310
E2E2E2E2E2E2E2E2F5E2E2E2E2E2E2E2E2E2E2E2E2E2E2E2E2E2E2E2E2F5F5E2E2E2E2E2E2E2E2E2E2E2E2E2E2E2E2E2E2E2E2F5E2E2E2E2E2E2E2E2F5F5F5F5F5F5E2E2E2E2E2E2E2E2E2F5F5F5F5F5F5F5F5F5F5F5F5F5F5F5F5F5F5E2E2E2E2F5E2E2E2E2E2E2E2F5F5F5F5F5F5F5E2E2E2E2E2E2E2F5F5DCDCF5F5F5F5
310
F5F5F5F5F5F5F5F5F5F5F5E2E2E2E2F5E2E2E2E2E2E2E2E2E2E2E2E2E2E2E2E2E2E2E2E2E2E2E2E2E2E2E2E2E2E2E2E2E2E2E2E2E2E2E2E2E2E2E2E2E2F5E2E2E2E2E2E2E2E2E2E2E2E2E2E2E2E2E2E2E2E2F5F5E2E2E2E2E2E2E2E2E2E2E2E2E2E2E2E2E2E2E2E2F5E2E2E2E2E2E2E2E2E2F5F5F5F5E2E2E2E2E2E2E2E2E2
310
E2E2E2E2F5F5F5F5F5F5F5F5F5F5F5F5F5F5F5E2E2E2E2F5E2E2E2E2E2E2E2E2F5F5F5F5F5E2E2E2E2E2E2E2E2E2E2F5F5DCF5F5F5F5F5F5F5F5F5F5F5F5F5F5E2E2E2E2F5E2E2E2E2E2E2E2E2E2E2E2E2E2E2E2E2E2E2E2E2E2E2E2E2E2E2E2E2E2E2E2E2E2E2E2E2E2E2E2E2E2E2E2E2E2F5E2E2E2E2E2E2E2E2E2E2E2E2
310
E2E2E2E2E2E2E2E2F5F5E2E2E2E2E2E2E2E2E2E2E2E2E2E2E2E2E2E2E2E2F5E2E2E2E2E2E2E2E2E2E2DCE2E2E2E2E2E2E2E2E2E2E2E2E2E2E2E2E2E2E2E2E2E2E2E2E2E2E2E2E2E2E2E2E2E2F5E2E2E2E2E2E2E2E2E2E2DCE2E2E2E2E2E2E2E2E2E2E2E2E2E2E2E2E2E2E2E2E2E2E2E2E2E2E2E2E2E2E2E2E2F5E2E2E2E2E2
310
E2E2E2E2E2E2E2E2E2E2E2E2E2E2E2E2E2E2E2E2E2E2E2E2E2E2E2E2E2E2E2E2E2E2E2E2E2E2E2E2F5E2E2E2E2E2E2E2E2E2E2E2E2E2E2E2E2E2E2E2E2F5F5E2E2E2E2E2E2E2E2E2E2E2E2E2E2E2E2E2E2E2E2F5E2E2E2E2E2E2E2E2E2E2E2E2E2E2E2E2E2E2E2E2E2E2E2E2E2E2E2E2E2E2E2E2E2E2E2E2E2E2E2E2E2E2E2
310
E2E2F5E2E2E2E2E2E2E2E2E2E2E2E2E2E2E2E2E2E2E2E2E2E2E2E2E2E2E2E2E2E2E2E2E2E2E2E2E2E2E2E2E2E2E2E2F5E2E2E2E2E2E2E2E2E2E2E2E2E2E2E2E2E2E2E2E2E2E2E2E2E2E2E2E2E2E2E2E2E2E2E2E2E2E2E2E2E2E2E2E2E2F5E2E2E2E2E2E2E2E2E2E2E2E2E2E2E2E2E2E2E2E2F5F5E2E2E2E2E2E2E2E2E2E2E2
310
E2E2E2E2E2E2E2E2E2F5E2E2E2E2E2E2E2E2E2E2E2E2E2E2E2E2E2E2E2E2E2E2E2E2E2E2E2E2E2E2E2E2E2E2E2E2E2E2E2E2E2E2E2E2E2F5E2E2E2E2E2E2E2E2E2E2E2E2E2E2E2E2E2E2E2E2E2E2E2E2E2E2E2E2E2E2E2E2E2E2E2E2E2E2E2E2E2E2E2E2F5E2E2E2E2E2E2E2E2E2E2E2E2E2E2E2E2E2E2E2E2E2E2E2E2E2E2
310
E2E2E2E2E2E2E2E2E2E2E2E2E2E2E2E2E2E2E2F5E2E2E2E2E2E2E2E2E2E2E2E2E2E2E2E2E2E2E2E2F5F5E2E2E2E2E2E2E2E2E2E2E2E2E2E2E2E2E2E2E2E2F5E2E2E2E2E2E2E2E2E2E2E2E2E2E2E2E2E2E2E2E2E2E2E2E2E2E2E2E2E2E2E2E2E2E2E2E2E2E2E2E2E2E2E2E2E2F5E2E2E2E2E2E2E2E2E2E2E2E2E2E2E2E2E2E2
310
E2E2E2E2E2E2E2E2E2E2E2E2E2E2E2E2E2E2E2E2E2E2E2E2E2E2F5E2E2E2E2E2E2E2E2E2E2E2E2E2E2E2E2E2E2E2E2E2E2E2E2E2E2E2E2E2E2E2E2E2E2E2E2E2E2E2E2E2E2E2E2E2F5E2E2E2E2E2E2E2E2E2E2E2E2E2E2E2E2E2E2E2E2F5F5E2E2F5E2E2E2E2E2E2E2E2E2E2E2E2E2E2E2E2E2F5E2E2E2E2E2E2E2E2E2E2E2
310
E2E2E2E2E2E2E2E2E2E2E2E2E2E2E2E2E2E2E2E2E2E2E2E2E2E2E2E2E2E2E2E2E2E2F5E2E2E2E2E2E2E2E2E2E2E2E2E2E2E2E2E2E2E2E2E2E2E2E2E2E2E2E2E2E2E2E2E2E2E2E2E2E2E2E2E2E2E2E2F5E2E2E2E2E2E2E2E2E2E2E2E2E2E2E2E2E2E2E2E2E2E2E2E2E2E2E2E2E2E2E2E2E2E2E2E2E2E2E2E2E2E2E2E2E2F5E2
310
E2E2E2E2E2E2E2E2E2E2E2E2E2E2E2E2F5E2E2F5F5E2E2F5E2E2E2E2E2E2E2E2E2E2E2E2E2E2E2E2E2F5E2E2E2E2E2E2E2E2E2E2E2E2E2E2E2E2E2E2E2E2E2E2E2E2E2E2E2E2E2E2E2E2E2E2E2E2E2E2E2E2E2E2E2E2E2F5E2E2E2E2E2E2E2E2E2E2E2E2E2E2E2E2E2E2E2E2E2E2E2E2E2E2E2E2E2E2E2E2E2E2E2E2E2E2E2
310
E2E2E2E2E2F5E2E2E2E2E2E2E2E2E2E2E2E2E2E2E2E2E2E2E2E2E2E2E2E2E2E2E2E2E2E2E2E2E2E2E2E2E2E2E2E2E2E2E2E2E2F5E2E2E2E2E2E2E2E2E2E2E2E2E2E2E2E2E2F5E2E2F5F5E2E2F5E2E2E2E2E2E2E2E2E2E2E2E2E2E2E2E2E2F5E2E2E2E2E2E2E2E2E2E2E2E2E2E2E2E2E2E2E2E2E2E2E2E2E2E2E2E2E2E2E2E2
310
E2E2E2E2E2E2E2E2E2E2E2E2E2F5E2E2E2E2E2E2E2E2E2E2E2E2E2E2E2E2E2E2E2E2E2E2E2E2E2E2E2E2E2E2E2E2E2E2E2E2E2E2E2E2E2E2E2E2F5E2E2E2E2E2E2E2E2E2E2E2E2E2E2E2E2E2E2E2E2E2E2E2E2E2E2E2E2E2E2E2E2E2E2E2E2E2E2E2E2E2E2E2E2E2F5E2E2E2E2E2E2E2E2E2E2E2E2E2E2E2E2E2F5E2E2F5F5
310
E2E2F5E2E2E2E2E2E2E2E2E2E2E2E2E2E2E2E2E2F5E2E2E2E2E2E2E2E2E2E2E2E2E2E2E2E2E2E2E2E2E2E2E2E2E2E2E2E2E2E2E2E2E2E2E2E2E2E2E2E2E2E2E2E2E2F5E2E2E2E2E2E2E2E2E2E2E2E2E2E2E2E2E2E2E2E2E2E2E2E2E2E2E2E2E2E2E2E2E2E2E2E2E2E2E2E2E2E2E2E2F5E2E2E2E2E2E2E2E2E2E2E2E2E2E2E2
310
E2E2E2E2E2E2E2E2E2E2E2E2E2E2E2E2E2E2E2E2E2E2E2E2E2E2E2E2E2E2F5E2E2E2E2E2E2E2E2E2E2E2E2E2E2E2E2E2F5E2E2F5F5E2E2F5E2E2E2E2E2E2E2E2E2E2E2E2E2E2E2E2E2F5E2E2E2E2E2E2E2E2E2E2E2E2E2E2E2E2E2E2E2E2E2E2E2E2E2E2E2E2E2E2E2E2E2E2E2E2E2E2E2E2E2E2E2E2E2F5E2E2E2E2E2E2E2
310
E2E2E2E2E2E2E2E2E2E2E2E2E2E2E2E2E2E2E2E2E2E2E2E2E2E2E2E2E2E2E2E2E2E2E2E2E2F5E2E2E2E2E2E2E2E2E2E2E2E2E2E2E2E2E2E2E2E2E2E2E2E2E2E2E2E2E2E2E2E2E2E2E2E2E2E2E2E2E2E2E2E2E2F5E2E2E2E2E2E2E2E2E2E2E2E2E2E2E2E2E2F5E2E2F5F5E2E2F5E2E2E2E2E2E2E2E2E2E2E2E2E2E2E2E2E2F5
310
E2E2E2E2E2E2E2E2E2E2E2E2E2E2E2E2E2E2E2E2E2E2E2E2E2E2E2E2E2E2E2E2E2E2E2E2E2E2E2E2E2E2E2E2E2F5E2E2E2E2E2E2E2E2E2E2E2E2E2E2E2E2E2E2E2E2E2E2E2E2E2E2E2E2E2E2E2E2E2E2E2E2E2E2E2E2E2E2E2E2F5E2E2E2E2E2E2E2E2E2E2E2E2E2E2E2E2E2E2E2E2E2E2E2E2E2E2E2E2E2E2E2E2E2E2E2E2
310
E2E2E2E2E2E2E2E2E2F5E2E2E2E2E2E2E2E2E2E2E2E2E2E2E2E2E2F5E2E2F5F5E2E2F5E2E2E2E2E2E2E2E2E2E2E2E2E2E2E2E2E2F5F5F5F5F5F5F5F5F5F5F5F5F5F5F5F5F5F5F5F5F5F5F5F5F5F5F5F5F5F5F5F5F5F5F5F5F5F5F5F5F5F5F5F5F5F5F5F5F5F5F5F5F5F5F5F5F5F5F5F5F5F5F5F5F5F5F5F5F5F5F5F5F5F5F5
310
F5F5F5F5F5F5F5F5F5F5F5F5F5F5F5F5F5F5F5F5F5F5F5F5F5F5F5F5F5F5F5F5F5F5F5F5F5F5F5F5F5F5F5F5F5F5F5F5F5F5F5F5F5F5F5F5F5F5F5F5F5F5F5E2E2E2E2E2E2E2E2E2E2E2E2E2E2E2E2E2F5E2E2F5F5E2E2F5E2E2E2E2E2E2E2E2E2E2E2E2E2E2E2E2E2F5F5F5F5F5F5E2E2E2E2E2E2E2E2E2E2E2E2E2E2E2E2
310
E2E2F5F5F5F5E2E2E2E2E2E2E2E2E2E2E2E2E2E2E2E2E2E2F5F5F5F5F5F5E2E2E2E2E2E2E2E2E2E2E2E2E2E2E2E2E2F5F5F5F5F5E2E2E2E2E2E2E2E2E2E2E2E2E2E2E2E2E2F5F5F5F5F5F5E2E2E2E2E2E2E2E2E2E2E2E2E2E2E2E2E2E2F5F5F5F5E2E2E2E2E2E2E2E2E2E2E2E2E2E2E2E2E2E2F5E2E2E2E2E2E2E2E2E2E2E2
310
E2E2E2E2E2E2F5E2E2F5F5E2E2F5E2E2E2E2E2E2E2E2E2E2E2E2E2E2E2E2E2F5F5F5F5F5F5F5F5F5F5F5F5F5F5F5F5F5F5F5F5F5F5F5F5F5F5F5F5F5F5F5F5F5F5F5F5F5F5F5F5F5F5F5F5F5F5F5F5F5F5F5F5F5F5F5F5F5F5F5F5F5F5F5F5F5F5F5F5F5F5F5F5F5F5F5F5F5F5F5F5F5F5F5F5F5F5F5F5F5F5F5F5F5F5F5F5
310
F5F5F5F5F5F5F5F5F5F5F5F5F5F5F5F5F5F5F5F5F5F5F5F5F5F5F5F5F5F5F5F5F5F5F5F5F5F5F5F5F5F5E2E2E2E2E2E2E2E2E2E2E2E2E2E2E2E2E2F5E2E2F5F5E2E2F5E2E2E2E2E2E2E2E2E2E2E2E2E2E2E2E2E2F5E2E2E2E2E2E2E2E2E2E2E2E2E2E2E2E2E2E2E2E2E2E2E2E2E2E2E2E2E2E2E2E2E2E2E2E2E2E2E2E2E2E2
310
E2E2E2F5E2E2E2E2E2E2E2E2E2E2E2E2E2E2E2E2E2E2E2E2E2E2E2E2E2E2E2E2E2E2E2E2E2E2E2E2E2E2E2E2E2E2E2E2F5E2E2E2E2E2E2E2E2E2E2E2E2E2E2E2E2E2E2E2E2E2E2E2E2E2E2E2E2E2E2E2E2E2E2E2E2E2E2E2E2E2E2E2E2E2F5E2E2E2E2E2E2E2E2E2E2E2E2E2E2E2E2E2F5E2E2F5F5E2E2F5E2E2E2E2E2E2E2
310
E2E2E2E2E2E2E2E2E2E2F5E2E2E2E2E2E2E2E2E2E2E2E2E2E2E2E2E2E2E2E2E2E2E2E2E2E2E2E2E2E2E2E2E2E2E2E2E2E2E2E2E2E2E2E2E2F5E2E2E2E2E2E2E2E2E2E2E2E2E2E2E2E2E2E2E2E2E2E2E2E2E2E2E2E2E2E2E2E2E2E2E2E2E2E2E2E2E2E2E2E2F5E2E2E2E2E2E2E2E2E2E2E2E2E2E2E2E2E2E2E2E2E2E2E2E2E2
310
E2E2E2E2E2E2E2E2E2E2E2E2E2E2E2E2E2E2E2E2F5E2E2E2E2E2E2E2E2E2E2E2E2E2E2E2E2E2F5E2E2F5F5E2E2F5E2E2E2E2E2E2E2E2E2E2E2E2E2E2E2E2E2F5E2E2E2E2E2E2E2E2E2E2E2E2E2E2E2E2E2E2E2E2E2E2E2E2E2E2E2E2E2E2E2E2E2E2E2E2E2E2E2E2E2E2E2E2E2F5E2E2E2E2E2E2E2E2E2E2E2E2E2E2E2E2E2
310
E2E2E2E2E2E2E2E2E2E2E2E2E2E2E2E2E2E2E2E2E2E2E2E2E2E2E2F5E2E2E2E2E2E2E2E2E2E2E2E2E2E2E2E2E2E2E2E2E2E2E2E2E2E2E2E2E2E2E2E2E2E2E2E2E2E2E2E2E2E2E2E2E2F5E2E2E2E2E2E2E2E2E2E2E2E2E2E2E2E2E2F5E2E2F5F5E2E2F5E2E2E2E2E2E2E2E2E2E2E2E2E2E2E2E2E2F5E2E2E2E2E2E2E2E2E2E2
310
E2E2E2E2E2E2E2E2E2E2E2E2E2E2E2E2E2E2E2E2E2E2E2E2E2E2E2E2E2E2E2E2E2E2E2F5E2E2E2E2E2E2E2E2E2E2E2E2E2E2E2E2E2E2E2E2E2E2E2E2E2E2E2E2E2E2E2E2E2E2E2E2E2E2E2E2E2E2E2E2F5E2E2E2E2E2E2E2E2E2E2E2E2E2E2E2E2E2E2E2E2E2E2E2E2E2E2E2E2E2E2E2E2E2E2E2E2E2E2E2E2E2E2E2E2E2F5
310
E2E2E2E2E2E2E2E2E2E2E2E2E2E2E2E2E2F5E2E2F5F5E2E2F5E2E2E2E2E2E2E2E2E2E2E2E2E2E2E2E2E2F5E2E2E2E2E2E2E2E2E2E2E2E2E2E2E2E2E2E2E2E2E2E2E2E2E2E2E2E2E2E2E2E2E2E2E2E2E2E2E2E2E2E2E2E2E2F5E2E2E2E2E2E2E2E2E2E2E2E2E2E2E2E2E2E2E2E2E2E2E2E2E2E2E2E2E2E2E2E2E2E2E2E2E2E2
310
E2E2E2E2E2E2F5E2E2E2E2E2E2E2E2E2E2E2E2E2E2E2E2E2E2E2E2E2E2E2E2E2E2E2E2E2E2E2E2E2E2E2E2E2E2E2E2E2E2E2E2E2F5E2E2E2E2E2E2E2E2E2E2E2E2E2E2E2E2E2F5E2E2F5F5E2E2F5E2E2E2E2E2E2E2E2E2E2E2E2E2E2E2E2E2F5E2E2E2E2E2E2E2E2E2E2E2E2E2E2E2E2E2E2E2E2E2E2E2E2E2E2E2E2E2E2E2
310
E2E2E2E2E2E2E2E2E2E2E2E2E2E2F5E2E2E2E2E2E2E2E2E2E2E2E2E2E2E2E2E2E2E2E2E2E2E2E2E2E2E2E2E2E2E2E2E2E2E2E2E2E2E2E2E2E2E2E2F5E2E2E2E2E2E2E2E2E2E2E2E2E2E2E2E2E2E2E2E2E2E2E2E2E2E2E2E2E2E2E2E2E2E2E2E2E2E2E2E2E2E2E2E2E2F5E2E2E2E2E2E2E2E2E2E2E2E2E2E2E2E2E2F5E2E2F5
310
F5E2E2E2E2E2E2E2E2E2E2E2E2E2E2E2E2E2E2E2E2F5E2E2E2E2E2E2E2E2E2E2E2E2E2E2E2E2E2E2E2E2E2E2E2E2E2E2E2E2E2E2E2E2E2E2E2E2E2E2E2E2E2E2E2E2E2F5E2E2E2E2E2E2E2E2E2E2E2E2E2E2E2E2E2E2E2E2E2E2E2E2E2E2E2E2E2E2E2E2E2E2E2E2E2E2E2E2E2E2E2E2F5E2E2E2E2E2E2E2E2E2E2E2E2E2E2
310
E2E2E2E2E2E2E2E2E2E2E2E2E2E2E2E2E2E2E2E2E2E2E2E2E2E2E2E2E2E2E2F5E2E2E2E2E2E2E2E2E2E2E2E2E2E2E2E2E2E2E2E2F5F5E2E2E2E2E2E2E2E2E2E2E2E2E2E2E2E2E2E2E2E2F5E2E2E2E2E2E2E2E2E2E2E2E2E2E2E2E2E2E2E2E2E2E2E2E2E2E2E2E2E2E2E2E2E2E2E2E2E2E2E2E2E2E2E2E2E2F5E2E2E2E2E2E2
310
E2E2E2E2E2E2E2E2E2E2E2E2E2E2E2E2E2E2E2E2E2E2E2E2E2E2E2E2E2E2E2E2E2E2E2E2E2E2F5E2E2E2E2E2E2E2E2E2E2E2E2E2E2E2E2E2E2E2E2E2E2E2E2E2E2E2E2E2E2E2E2E2E2E2E2E2E2E2E2E2E2E2E2E2F5E2E2E2E2E2E2E2E2E2E2E2E2E2E2E2E2E2E2E2E2F5F5E2E2E2E2E2E2E2E2E2E2E2E2E2E2E2E2E2E2E2E2
310
F5E2E2E2E2E2E2E2E2E2E2E2E2E2E2E2E2E2E2E2E2E2E2E2E2E2E2E2E2E2E2E2E2E2E2E2E2E2E2E2E2E2E2E2E2E2F5E2E2E2E2E2E2E2E2E2E2E2E2E2E2E2E2E2E2E2E2E2E2E2E2E2E2E2E2E2E2E2E2E2E2E2E2E2E2E2E2E2E2E2E2F5E2E2E2E2E2E2E2E2E2E2E2E2E2E2E2E2E2E2E2E2E2E2E2E2E2E2E2E2E2E2E2E2E2E2E2
310
E2E2E2E2E2E2E2E2E2E2F5E2E2E2E2E2E2E2E2E2E2E2E2E2E2E2E2E2E2E2E2F5F5E2E2E2E2E2E2E2E2E2E2E2E2E2E2E2E2E2E2E2E2F5E2E2E2E2E2E2E2E2E2E2E2E2E2E2E2E2E2E2E2E2E2E2E2E2E2E2E2E2E2E2E2E2E2E2E2E2E2E2E2E2E2E2E2E2E2F5E2E2E2E2E2E2E2E2E2E2E2E2E2E2E2E2E2E2E2E2E2E2E2E2E2E2E2
310
E2E2E2E2E2E2E2E2E2E2E2E2E2E2E2E2E2F5E2E2E2E2E2E2E2E2E2E2E2E2E2E2E2E2E2E2E2E2E2E2E2E2E2E2E2E2E2E2E2E2E2E2E2E2E2E2E2E2E2E2E2E2E2F5E2E2E2E2E2E2E2E2E2E2E2E2E2E2E2E2E2E2E2E2F5F5E2E2E2E2E2E2E2E2E2E2E2E2E2E2E2E2E2E2E2E2F5E2E2E2E2E2E2E2E2E2E2E2E2E2E2E2E2E2E2E2E2
310
E2E2E2E2E2E2E2E2E2E2E2E2E2E2E2E2E2E2E2E2E2E2E2E2E2F5E2E2E2E2E2E2E2E2E2E2E2E2E2E2E2E2E2E2E2E2E2E2E2E2E2E2E2E2E2E2E2E2E2E2E2E2E2E2E2E2E2E2E2E2F5E2E2E2E2E2E2E2E2E2E2DCE2E2E2E2E2E2E2E2E2E2E2E2E2E2E2E2E2E2E2E2E2E2E2E2E2E2E2E2E2E2E2E2E2E2F5E2E2E2E2E2E2E2E2E2E2
310
E2E2E2E2E2E2E2E2E2E2F5F5E2E2E2E2E2E2E2E2E2E2E2E2E2E2E2E2E2E2E2E2F5E2E2E2E2E2E2E2E2E2F5F5F5E2E2E2E2E2E2E2E2E2E2E2E2E2E2E2E2F5F5F5F5F5F5F5F5E2E2E2E2E2E2E2E2E2F5E2E2E2E2E2E2E2E2E2F5F5F5E2E2E2E2E2E2E2E2E2E2E2E2E2E2F5F5F5F5F5F5F5F5F5E2E2E2E2E2E2E2E2E2F5E2E2E2
310
E2E2E2E2E2E2F5F5F5E2E2E2E2E2E2E2E2E2E2E2E2E2E2F5F5F5F5F5F5F5F5F5F5F5F5F5F5E2E2E2E2E2F5E2E2E2E2E2E2E2E2E2E2E2E2E2E2E2E2E2E2E2E2F5F5E2E2E2E2E2E2E2E2E2E2E2E2E2E2E2E2E2E2E2E2F5E2E2E2E2E2E2E2E2E2F5F5F5F5E2E2E2E2E2E2E2E2E2E2E2E2E2E2DCDCF5F5F5F5F5F5F5E2E2E2E2E2
310
E2E2E2E2F5E2E2E2E2E2E2E2E2F5F5F5F5F5E2E2E2E2E2E2E2E2E2E2E2E2E2F5DCDCF5F5F5F5F5F5E2E2E2E2E2E2E2E2E2F5E2E2E2E2E2E2E2E2F5F5F5F5F5E2E2E2E2E2E2E2E2E2E2E2F5F5F5F5F5F5F5F5F5F5F5F5F5F5F5F5E2E2E2E2E2F5E2E2E2E2E2E2E2E2E2E2E2E2E2E2E2E2E2E2E2E2F5F5E2E2E2E2E2E2E2E2E2
310
E2E2E2E2E2E2E2E2E2E2E2F5E2E2E2E2E2E2E2E2F5F5F5F5F5DCE2E2E2E2E2E2E2E2E2E2E2E2DCF5F5DCF5F5F5F5F5F5DCE2E2E2E2E2E2E2E2F5E2E2E2E2E2E2E2DCF5F5F5F5F5E2E2E2E2E2E2E2E2E2E2E2E2DCDCF5DCDCDCDCDCDCDCE2E2E2E2E2E2E2E2E2F5E2E2E2E2E2E2E2E2F5F5F5F5F5F5E2E2E2E2E2E2E2E2E2DC
310
DCF5F5DCF5DCF5F5F5F5F5F5F5F5F5F5DCE2E2E2E2F5E2E2E2E2E2E2E2E2E2E2E2E2E2E2E2E2E2E2E2E2F5F5E2E2E2E2E2E2E2E2E2E2E2E2E2E2E2E2E2E2E2E2F5E2E2E2E2E2E2E2E2E2F5F5F5F5E2E2E2E2E2E2E2E2E2E2E2E2E2E2DCDCF5F5F5F5F5F5F5E2E2E2E2E2E2E2E2E2F5E2E2E2E2E2E2E2E2F5F5F5F5F5E2E2E2
310
E2E2E2E2E2E2E2E2E2E2F5E2F5F5F5F5F5F5F5E2E2E2E2E2E2E2E2E2F5E2E2E2E2E2E2E2E2F5DCF5F5F5E2E2E2E2E2E2E2E2E2E2E2DCE2F5F5F5F5F5F5F5F5F5F5F5F5F5F5E2E2E2E2E2F5E2E2E2E2E2E2E2E2E2E2E2E2E2E2E2E2E2E2E2E2F5F5E2E2F5E2E2E2E2E2E2E2E2E2E2E2E2E2E2E2E2E2F5E2E2E2E2E2E2E2E2E2
310
F5F5F5E2E2E2E2E2E2E2E2E2E2E2E2E2E2E2E2F5F5F5F5F5F5F5F5E2E2E2E2E2E2E2E2E2F5E2E2E2E2E2E2E2E2E2F5F5F5E2E2E2E2E2E2E2E2E2E2E2E2E2E2F5DCDCF5F5F5F5F5F5E2E2E2E2E2E2E2E2E2F5E2E2E2E2E2E2E2E2E2F5F5F5E2E2E2E2E2E2E2E2E2E2E2E2F5F5F5E2F5F5F5F5F5F5F5F5F5F5F5F5E2E2E2E2E2
310
F5E2E2E2E2E2E2E2E2E2E2E2E2E2E2E2E2E2F5E2E2F5F5E2E2F5E2E2E2E2E2E2E2E2E2E2E2E2E2E2E2E2E2F5E2E2E2E2E2E2E2E2E2E2DCE2E2E2E2E2E2E2E2E2E2E2E2E2E2E2E2E2E2E2E2E2E2E2E2E2E2E2E2E2E2E2E2E2E2F5E2E2E2E2E2E2E2E2E2E2DCE2E2E2E2E2E2E2E2E2E2E2E2E2E2E2E2E2E2E2E2E2E2E2E2E2E2
310
E2E2E2E2E2E2E2F5E2E2E2E2E2E2E2E2E2E2F5E2E2E2E2E2E2E2E2E2E2E2E2E2E2E2F5F5F5F5F5F5F5F5F5F5F5F5F5F5E2E2E2E2E2F5E2E2E2E2E2E2E2E2E2E2E2E2E2E2E2E2E2F5E2E2F5F5E2E2F5E2E2E2E2E2E2E2E2E2E2E2E2E2E2E2E2E2F5E2E2E2E2E2E2E2E2E2E2E2E2E2E2E2E2E2E2E2E2E2E2E2E2E2E2E2E2E2E2
310
E2E2E2E2E2E2E2E2E2E2E2E2E2E2E2F5E2E2E2E2E2E2E2E2E2E2E2E2E2E2E2E2E2E2E2E2E2E2E2E2E2E2E2E2E2E2E2E2E2E2E2E2E2E2E2E2E2E2E2E2F5E2E2E2E2E2E2E2E2E2E2E2E2E2E2E2E2E2E2E2E2E2E2E2E2E2E2E2E2E2E2E2E2E2E2E2E2E2E2E2E2E2E2E2E2E2F5E2E2E2E2E2E2E2E2E2E2E2E2E2E2E2E2E2F5E2E2
310
F5F5E2E2F5E2E2E2E2E2E2E2E2E2E2E2E2E2E2E2E2E2F5E2E2E2E2E2E2E2E2E2E2E2E2E2E2E2E2E2E2E2E2E2E2E2E2E2E2E2E2E2E2E2E2E2E2E2E2E2E2E2E2E2E2E2E2E2F5E2E2E2E2E2E2E2E2E2E2E2E2E2E2E2E2E2E2E2E2E2E2E2E2E2E2E2E2E2E2E2E2E2E2E2E2E2E2E2E2E2E2E2E2F5E2E2E2E2E2E2E2E2E2E2E2E2E2
310
E2E2E2E2E2E2E2E2E2E2E2E2E2E2E2E2E2E2E2E2E2E2E2E2E2E2E2E2E2E2E2E2F5E2E2E2E2E2E2E2E2E2E2E2E2E2E2E2E2E2F5E2E2F5F5E2E2F5E2E2E2E2E2E2E2E2E2E2E2E2E2E2E2E2E2F5E2E2E2E2E2E2E2E2E2E2E2E2E2E2E2E2E2E2E2E2E2E2E2E2E2E2E2E2E2E2E2E2E2E2E2E2E2E2E2E2E2E2E2E2E2F5E2E2E2E2E2
310
E2E2E2E2E2E2E2E2E2E2E2E2E2E2E2E2E2E2E2E2E2E2E2E2E2E2E2E2E2E2E2E2E2E2E2E2E2E2E2F5E2E2E2E2E2E2E2E2E2E2E2E2E2E2E2E2E2E2E2E2E2E2E2E2E2E2E2E2E2E2E2E2E2E2E2E2E2E2E2E2E2E2E2E2E2F5E2E2E2E2E2E2E2E2E2E2E2E2E2E2E2E2E2F5E2E2F5F5E2E2F5E2E2E2E2E2E2E2E2E2E2E2E2E2E2E2E2
310
E2F5E2E2E2E2E2E2E2E2E2E2E2E2E2E2E2E2E2E2E2E2E2E2E2E2E2E2E2E2E2E2E2E2E2E2E2E2E2E2E2E2E2E2E2E2E2F5E2E2E2E2E2E2E2E2E2E2E2E2E2E2E2E2E2E2E2E2E2E2E2E2E2E2E2E2E2E2E2E2E2E2E2E2E2E2E2E2E2E2E2E2F5E2E2E2E2E2E2E2E2E2E2E2E2E2E2E2E2E2E2E2E2E2E2E2E2E2E2E2E2E2E2E2E2E2E2
310
E2E2E2E2E2E2E2E2E2E2E2F5E2E2E2E2E2E2E2E2E2E2E2E2E2E2E2E2E2F5E2E2F5F5E2E2F5E2E2E2E2E2E2E2E2E2E2E2E2E2E2E2E2E2F5E2E2E2E2E2E2E2E2E2E2E2E2E2E2E2E2E2E2E2E2E2E2E2E2E2E2E2E2E2E2E2E2E2E2E2E2E2E2E2E2E2E2E2E2E2F5E2E2E2E2E2E2E2E2E2E2E2E2E2E2E2E2E2E2E2E2E2E2E2E2E2E2
310
E2E2E2E2E2E2E2E2E2E2E2E2E2E2E2E2E2E2F5E2E2E2E2E2E2E2E2E2E2E2E2E2E2E2E2E2E2E2E2E2E2E2E2E2E2E2E2E2E2E2E2E2E2E2E2E2E2E2E2E2E2E2E2E2F5E2E2E2E2E2E2E2E2E2E2E2E2E2E2E2E2E2F5E2E2F5F5E2E2F5E2E2E2E2E2E2E2E2E2E2E2E2E2E2E2E2E2F5E2E2E2E2E2E2E2E2E2E2E2E2E2E2E2E2E2E2E2
310
E2E2E2E2E2E2E2E2E2E2E2E2E2E2E2E2E2E2E2E2E2E2E2E2E2E2F5E2E2E2E2E2E2E2E2E2E2E2E2E2E2E2E2E2E2E2E2E2E2E2E2E2E2E2E2E2E2E2E2E2E2E2E2E2E2E2E2E2E2E2E2F5E2E2E2E2E2E2E2E2E2E2E2E2E2E2E2E2E2E2E2E2E2E2E2E2E2E2E2E2E2E2E2E2E2E2E2E2E2E2E2E2E2E2E2E2E2F5E2E2E2E2E2E2E2E2E2
310
E2E2E2E2E2E2E2E2F5E2E2F5F5E2E2F5E2E2E2E2E2E2E2E2E2E2E2E2E2E2E2E2E2F5E2E2E2E2E2E2E2E2E2E2E2E2E2E2E2E2E2E2E2E2E2E2E2E2E2E2E2E2E2E2E2E2E2E2E2E2E2E2E2E2E2E2E2E2E2F5E2E2E2E2E2E2E2E2E2E2E2E2E2E2E2E2E2E2E2E2E2E2E2E2E2E2E2E2E2E2E2E2E2E2E2E2E2E2E2E2E2E2E2E2F5E2E2
310
E2E2E2E2E2E2E2E2E2E2E2E2E2E2E2E2E2E2E2E2E2E2E2E2E2E2E2E2E2E2E2E2E2E2E2E2E2E2E2E2E2E2E2F5E2E2E2E2E2E2E2E2E2E2E2E2E2E2E2E2E2F5E2E2F5F5E2E2F5E2E2E2E2E2E2E2E2E2E2E2E2E2E2E2E2E2F5E2E2E2E2E2E2E2E2E2E2E2E2E2E2E2E2E2E2E2E2E2E2E2E2E2E2E2E2E2E2E2E2E2E2E2E2E2E2E2E2
310
E2E2E2E2E2F5E2E2E2E2E2E2E2E2E2E2E2E2E2E2E2E2E2E2E2E2E2E2E2E2E2E2E2E2E2E2E2E2E2E2E2E2E2E2E2E2E2E2E2E2F5E2E2E2E2E2E2E2E2E2E2E2E2E2E2E2E2E2E2E2E2E2E2E2E2E2E2E2E2E2E2E2E2E2E2E2E2E2E2E2E2E2E2E2E2E2F5E2E2E2E2E2E2E2E2E2E2E2E2E2E2E2E2E2F5E2E2F5F5E2E2F5E2E2E2E2E2
310
E2E2E2E2E2E2E2E2E2E2E2E2F5E2E2E2E2E2E2E2E2E2E2E2E2E2E2E2E2E2E2E2E2E2E2E2E2E2E2E2E2E2E2E2E2E2E2E2E2E2E2E2E2E2E2E2E2E2F5E2E2E2E2E2E2E2E2E2E2E2E2E2E2E2E2E2E2E2E2E2E2E2E2E2E2E2E2E2E2E2E2E2E2E2E2E2E2E2E2E2E2E2E2F5E2E2E2E2E2E2E2E2E2E2E2E2E2E2E2E2E2E2E2E2E2E2E2
310
E2E2E2E2E2E2E2E2E2E2E2E2E2E2E2E2E2E2E2E2E2E2F5E2E2E2E2E2E2E2E2E2E2E2E2E2E2E2E2E2F5E2E2F5F5E2E2F5E2E2E2E2E2E2E2E2E2E2E2E2E2E2E2E2E2F5E2E2E2E2E2E2E2E2E2E2E2E2E2E2E2E2E2E2E2E2E2E2E2E2E2E2E2E2E2E2E2E2E2E2E2E2E2E2E2E2E2E2E2E2E2F5E2E2E2E2E2E2E2E2E2E2E2E2E2E2E2
310
E2E2E2E2E2E2E2E2E2E2E2E2E2E2E2E2E2E2E2E2E2E2E2E2E2E2E2E2E2F5E2E2E2E2E2E2E2E2E2E2E2E2E2E2E2E2E2E2E2E2E2E2E2E2E2E2E2E2E2E2E2E2E2E2E2E2E2E2E2E2E2E2E2E2E2F5E2E2E2E2E2E2E2E2E2E2E2E2E2E2E2E2E2F5E2E2F5F5E2E2F5E2E2E2E2E2E2E2E2E2E2E2E2E2E2E2E2E2F5F5F5F5F5F5F5F5F5
310
F5F5F5F5F5F5F5F5F5F5F5F5F5F5F5F5F5F5F5F5F5F5F5F5F5F5F5F5F5F5F5F5F5F5F5F5F5F5F5F5F5F5F5F5F5F5F5F5F5F5F5F5F5F5F5F5F5F5F5F5F5F5F5F5F5F5F5F5F5F5F5F5F5F5F5F5F5F5F5F5F5F5F5F5F5F5F5F5F5F5F5F5F5F5F5F5F5F5F5F5F5F5F5F5F5F5F5F5F5F5F5F5F5F5F5F5F5F5F5F5F5F5F5F5F5F5F5
310
F5F5E2E2E2E2E2E2E2E2E2E2E2E2E2E2E2E2E2F5E2E2F5F5E2E2F5E2E2E2E2E2E2E2E2E2E2E2E2E2E2E2E2E2F5F5F5F5F5F5E2E2E2E2E2E2E2E2E2E2E2E2E2E2E2E2E2E2F5F5F5F5E2E2E2E2E2E2E2E2E2E2E2E2E2E2E2E2E2E2F5F5F5F5F5F5E2E2E2E2E2E2E2E2E2E2E2E2E2E2E2E2E2F5F5F5F5E2E2E2E2E2E2E2E2E2E2
310
E2E2E2E2E2E2E2E2F5F5F5F5F5F5E2E2E2E2E2E2E2E2E2E2E2E2E2E2E2E2E2E2F5F5F5F5E2E2E2E2E2E2E2E2E2E2E2E2E2E2E2E2E2E2F5E2E2E2E2E2E2E2E2E2E2E2E2E2E2E2E2E2F5E2E2F5F5E2E2F5E2E2E2E2E2E2E2E2E2E2E2E2E2E2E2E2E2F5F5F5F5F5F5F5F5F5F5F5F5F5F5F5F5F5F5F5F5F5F5F5F5F5F5F5F5F5F5
310
F5F5F5F5F5F5F5F5F5F5F5F5F5F5F5F5F5F5F5F5F5F5F5F5F5F5F5F5F5F5F5F5F5F5F5F5F5F5F5F5F5F5F5F5F5F5F5F5F5F5F5F5F5F5F5F5F5F5F5F5F5F5F5F5F5F5F5F5F5F5F5F5F5F5F5F5F5F5F5F5F5F5F5F5F5F5F5F5F5F5F5F5F5F5F5F5F5F5F5F5F5F5F5F5F5F5F5F5E2E2E2E2E2E2E2E2E2E2E2E2E2E2E2E2E2F5E2
310
E2F5F5E2E2E2E2E2E2E2E2E2E2E2E2E2E2E2E2E2E2E2E2F5E2E2E2E2E2E2E2E2E2E2E2E2E2E2E2E2E2E2E2E2E2E2E2E2E2E2E2E2E2E2E2E2E2E2E2E2E2E2E2E2E2E2E2E2E2F5E2E2E2E2E2E2E2E2E2E2E2E2E2E2E2E2E2E2E2E2E2E2E2E2E2E2E2E2E2E2E2E2E2E2E2E2E2E2E2E2E2E2E2E2F5E2E2E2E2E2E2E2E2E2E2E2E2
310
E2E2E2E2E2E2E2E2E2E2E2E2E2E2E2E2E2E2E2E2E2E2E2E2E2E2E2E2E2E2E2E2E2F5E2E2E2E2E2E2E2E2E2E2E2E2E2E2E2E2E2E2E2E2F5F5E2E2E2E2E2E2E2E2E2E2E2E2E2E2E2E2E2E2E2E2F5E2E2E2E2E2E2E2E2E2E2E2E2E2E2E2E2E2E2E2E2E2E2E2E2E2E2E2E2E2E2E2E2E2E2E2E2E2E2E2E2E2E2E2E2E2F5E2E2E2E2
310
E2E2E2E2E2E2E2E2E2E2E2E2E2E2E2E2E2E2E2E2E2E2E2E2E2E2E2E2E2E2E2E2E2E2E2E2E2E2E2E2F5E2E2E2E2E2E2E2E2E2E2E2E2E2E2E2E2E2E2E2E2E2E2E2E2E2E2E2E2E2E2E2E2E2E2E2E2E2E2E2E2E2E2E2E2E2F5E2E2E2E2E2E2E2E2E2E2E2E2E2E2E2E2E2E2E2E2F5F5E2E2E2E2E2E2E2E2E2E2E2E2E2E2E2E2E2E2
310
E2E2F5E2E2E2E2E2E2E2E2E2E2E2E2E2E2E2E2E2E2E2E2E2E2E2E2E2E2E2E2E2E2E2E2E2E2E2E2E2E2E2E2E2E2E2E2E2F5E2E2E2E2E2E2E2E2E2E2E2E2E2E2E2E2E2E2E2E2E2E2E2E2E2E2E2E2E2E2E2E2E2E2E2E2E2E2E2E2E2E2E2E2F5E2E2E2E2E2E2E2E2E2E2E2E2E2E2E2E2E2E2E2E2E2E2E2E2E2E2E2E2E2E2E2E2E2
310
E2E2E2E2E2E2E2E2E2E2E2E2F5E2E2E2E2E2E2E2E2E2E2E2E2E2E2E2E2E2E2E2E2F5F5E2E2E2E2E2E2E2E2E2E2E2E2E2E2E2E2E2E2E2E2F5E2E2E2E2E2E2E2E2E2E2E2E2E2E2E2E2E2E2E2E2E2E2E2E2E2E2E2E2E2E2E2E2E2E2E2E2E2E2E2E2E2E2E2E2E2F5E2E2E2E2E2E2E2E2E2E2E2E2E2E2E2E2E2E2E2E2E2E2E2E2E2
310
E2E2E2E2E2E2E2E2E2E2E2E2E2E2E2E2E2E2E2F5E2E2E2E2E2E2E2E2E2E2E2E2E2E2E2E2E2E2E2E2E2E2E2E2E2E2E2E2E2E2E2E2E2E2E2E2E2E2E2E2E2E2E2E2E2F5E2E2E2E2E2E2E2E2E2E2E2E2E2E2E2E2E2E2E2E2F5F5E2E2E2E2E2E2E2E2E2E2E2E2E2E2E2E2E2E2E2E2F5E2E2E2E2E2E2E2E2E2E2E2E2E2E2E2E2E2E2
310
E2E2E2E2E2E2E2E2E2E2E2E2E2E2E2E2E2E2E2E2E2E2E2E2E2E2E2F5E2E2E2E2E2E2E2E2E2E2E2E2E2E2E2E2E2E2E2E2E2E2E2E2E2E2E2E2E2E2E2E2E2E2E2E2E2E2E2E2E2E2E2E2F5E2E2E2E2E2E2E2E2E2E2E2E2E2E2E2E2E2E2E2E2E2E2E2E2E2E2E2E2E2E2E2E2E2E2E2E2E2E2E2E2E2E2E2E2E2F5E2E2E2E2E2E2E2E2
310
E2E2E2E2E2E2E2E2E2E2E2E2F5F5E2E2E2E2E2E2E2E2E2E2E2E2E2E2E2E2E2E2E2E2F5E2E2E2E2E2E2E2E2E2E2E2E2E2E2E2E2E2E2E2E2E2E2E2E2E2E2E2E2E2E2E2E2E2E2E2E2E2E2E2E2E2E2E2E2E2F5E2E2E2E2E2E2E2E2E2E2E2E2E2E2E2E2E2E2E2E2E2E2E2E2E2E2E2E2E2E2E2E2E2E2E2E2E2E2E2E2E2E2E2E2F5E2
310
E2E2E2E2E2E2E2E2E2E2E2E2E2E2E2E2E2E2E2E2E2E2E2E2E2E2E2E2E2E2E2E2E2E2E2E2E2E2E2E2E2E2E2E2F5E2E2E2E2E2E2E2E2E2E2E2E2E2E2E2E2E2E2E2E2F5F5E2E2E2E2E2E2E2E2E2E2E2E2E2E2E2E2E2E2E2E2F5E2E2E2E2E2E2E2E2E2E2E2E2E2E2E2E2E2E2E2E2E2E2E2E2E2E2E2E2E2E2E2E2E2E2E2E2E2E2E2
310
E2E2E2E2E2E2F5E2E2E2E2E2E2E2E2E2E2E2E2E2E2E2E2E2E2E2E2E2E2E2E2E2E2E2E2E2E2E2E2E2E2E2E2E2E2E2E2E2E2E2E2F5E2E2E2E2E2E2E2E2E2E2E2E2E2E2E2E2E2E2E2E2E2E2E2E2E2E2E2E2E2E2E2E2E2E2E2E2E2E2E2E2E2E2E2E2E2F5E2E2E2E2E2E2E2E2E2E2E2E2E2E2E2E2E2E2E2E2F5F5E2E2E2E2E2E2E2
310
E2E2E2E2E2E2E2E2E2E2E2E2E2F5E2E2E2E2E2E2E2E2E2E2E2E2E2E2E2E2E2E2E2E2E2E2E2E2E2E2E2E2E2E2E2E2E2E2E2E2E2E2E2E2E2E2E2E2E2F5E2E2E2E2E2E2E2E2E2E2E2E2E2E2E2E2E2E2E2E2E2E2E2E2E2E2E2E2E2E2E2E2E2E2E2E2E2E2E2E2E2E2E2E2F5E2E2E2E2E2E2E2E2E2E2E2E2E2E2E2E2E2E2E2E2E2E2
310
E2E2E2E2E2E2E2E2E2E2E2E2E2E2E2E2E2E2E2E2E2E2E2F5E2E2E2E2E2E2E2E2E2E2E2E2E2E2E2E2E2E2E2E2F5F5E2E2E2E2E2E2E2E2E2E2E2E2E2E2E2E2E2E2E2E2F5E2E2E2E2E2E2E2E2E2E2E2E2E2E2E2E2E2E2E2E2E2E2E2E2E2E2E2E2E2E2E2E2E2E2E2E2E2E2E2E2E2E2E2E2E2F5E2E2E2E2E2E2E2E2E2E2E2E2E2E2
310
E2E2E2E2E2E2E2E2E2E2E2E2E2E2E2E2E2E2E2E2E2E2E2E2E2E2E2E2E2E2F5E2E2E2E2E2E2E2E2E2E2E2E2E2E2E2E2E2E2E2E2E2E2E2E2E2E2E2E2E2E2E2E2E2E2E2E2E2E2E2E2E2E2E2E2E2F5E2E2E2E2E2E2E2E2E2E2E2E2E2E2E2E2E2E2E2E2F5F5E2E2F5E2E2E2E2E2E2E2E2E2E2E2E2E2E2E2E2E2F5E2E2E2E2E2E2E2
310
E2E2E2E2E2E2E2E2E2E2E2E2E2E2E2E2E2E2E2E2E2E2E2E2E2E2E2E2E2E2E2E2E2E2E2E2E2E2F5E2E2E2E2E2E2E2E2E2E2E2E2E2E2E2E2E2E2E2E2E2E2E2E2E2E2E2E2E2E2E2E2E2E2E2E2E2E2E2E2E2E2E2E2F5E2E2E2E2E2E2E2E2E2E2E2E2E2E2E2E2E2E2E2E2E2E2E2E2E2E2E2E2E2E2E2E2E2E2E2E2E2E2E2E2E2E2E2
310
E2E2F5E2E2E2E2E2E2E2E2E2E2E2E2E2E2E2E2E2F5E2E2F5F5E2E2F5E2E2E2E2E2E2E2E2E2E2E2E2E2E2E2E2E2F5E2E2E2E2E2E2E2E2E2E2E2E2E2E2E2E2E2E2E2E2E2E2E2E2E2E2E2E2E2E2E2E2E2E2E2E2E2E2E2E2E2E2E2E2E2F5E2E2E2E2E2E2E2E2E2E2E2E2E2E2E2E2E2E2E2E2E2E2E2E2E2E2E2E2E2E2E2E2E2E2E2
310
E2E2E2E2E2E2E2E2E2F5E2E2E2E2E2E2E2E2E2E2E2E2E2E2E2E2E2E2E2E2E2E2E2E2E2E2E2E2E2E2E2E2E2E2E2E2E2E2E2E2E2E2E2E2E2F5E2E2E2E2E2E2E2E2E2E2E2E2E2E2E2E2E2F5E2E2F5F5E2E2F5E2E2E2E2E2E2E2E2E2E2E2E2E2E2E2E2E2F5E2E2E2E2E2E2E2E2E2E2E2E2E2E2E2E2E2E2E2E2E2E2E2E2E2E2E2E2
310
E2E2E2E2E2E2E2E2E2E2E2E2E2E2E2E2E2F5E2E2E2E2E2E2E2E2E2E2E2E2E2E2E2E2E2E2E2E2E2E2E2E2E2E2E2E2E2E2E2E2E2E2E2E2E2E2E2E2E2E2E2E2F5E2E2E2E2E2E2E2E2E2E2E2E2E2E2E2E2E2E2E2E2E2E2E2E2E2E2E2E2E2E2E2E2E2E2E2E2E2E2E2E2E2E2E2E2E2F5E2E2E2E2E2E2E2E2E2E2E2E2E2E2E2E2E2F5
310
E2E2F5F5E2E2F5E2E2E2E2E2E2E2E2E2E2E2E2E2E2E2E2E2F5E2E2E2E2E2E2E2E2E2E2DCE2E2E2E2E2E2E2E2E2E2E2E2E2E2E2E2E2E2E2E2E2E2E2E2E2E2E2E2E2E2E2E2E2E2F5E2E2E2E2E2E2E2E2E2E2F5E2E2E2E2E2E2E2E2E2E2E2E2E2E2E2E2E2E2F5F5F5F5E2E2E2E2E2E2E2E2E2E2E2F5E2E2E2E2E2E2E2E2E2F5DC
310
F5E2E2E2E2E2E2E2E2E2E2E2E2E2E2E2E2F5F5F5F5F5E2E2E2E2E2E2E2E2E2E2E2E2F5E2E2E2E2E2E2E2E2E2E2E2E2E2E2E2E2E2F5E2E2F5F5E2E2F5E2E2E2E2E2E2E2E2E2E2E2E2E2E2E2E2E2F5E2E2E2E2E2E2E2E2E2E2F5F5E2E2E2E2E2E2E2E2E2E2E2E2E2E2E2E2E2F5F5DCF5F5E2E2E2E2E2E2E2E2E2E2E2F5E2E2E2
310
E2E2E2E2E2DCF5F5F5E2E2E2E2E2E2E2E2E2E2E2E2E2E2E2DCDCDCDCF5F5E2E2E2E2E2E2E2E2E2E2E2F5E2E2E2E2E2E2E2E2E2DCF5F5DCE2E2E2E2E2E2E2E2E2E2E2E2E2E2E2DCF5F5F5F5DCE2E2E2E2E2E2E2E2E2E2E2F5E2E2E2E2E2E2E2E2E2E2E2E2E2E2E2E2E2F5E2E2F5F5E2E2F5E2E2E2E2E2E2E2E2E2E2E2E2E2E2
310
E2E2E2F5E2E2E2E2E2E2E2E2E2E2F5F5E2E2E2E2E2E2E2E2E2E2E2E2E2E2E2E2E2F5F5F5F5F5E2E2E2E2E2E2E2E2E2E2E2F5E2E2E2E2E2E2E2E2E2F5F5F5E2E2E2E2E2E2E2E2E2E2E2E2E2E2E2E2DCDCF5F5F5E2E2E2E2E2E2E2E2E2E2E2F5E2E2E2E2E2E2E2E2E2F5F5F5E2E2E2E2E2E2E2E2E2E2E2E2E2E2E2E2DCDCF5F5
310
F5E2E2E2E2E2E2E2E2E2E2E2E2F5E2E2E2E2E2E2E2E2E2E2E2E2E2E2E2E2E2F5E2E2F5F5E2E2F5E2E2E2E2E2E2E2E2E2E2E2E2E2E2E2E2E2F5E2E2E2E2E2E2E2E2E2E2E2E2E2E2E2E2E2E2E2E2E2E2E2E2E2E2E2E2E2E2E2E2E2E2E2E2E2E2E2E2E2E2E2E2E2F5E2E2E2E2E2E2E2E2E2E2DCE2E2E2E2E2E2E2E2E2E2E2E2E2
310
E2E2E2E2E2E2E2E2E2E2E2E2E2E2E2E2E2E2E2E2F5E2E2E2E2E2E2E2E2E2E2DCE2E2E2E2E2E2E2E2E2E2E2E2E2E2E2E2E2E2F5F5F5F5E2E2E2E2E2E2E2E2E2E2E2E2F5E2E2E2E2E2E2E2E2E2E2E2E2E2E2E2E2E2F5E2E2F5F5E2E2F5E2E2E2E2E2E2E2E2E2E2E2E2E2E2E2E2E2F5E2E2E2E2E2E2E2E2E2E2E2E2E2E2E2E2E2
310
E2E2E2E2E2E2E2E2E2E2E2E2E2E2E2E2E2E2E2E2E2E2E2E2E2E2E2E2F5E2E2E2E2E2E2E2E2E2E2E2E2E2E2E2E2E2E2E2E2E2E2E2E2E2E2E2E2E2E2E2E2E2E2E2E2E2E2E2E2E2E2E2E2F5E2E2E2E2E2E2E2E2E2E2E2E2E2E2E2E2E2E2E2E2E2E2E2E2E2E2E2E2E2E2E2E2E2E2E2E2E2E2E2E2E2E2E2E2E2F5E2E2E2E2E2E2E2
310
E2E2E2E2E2E2E2E2E2E2F5E2E2F5F5E2E2F5E2E2E2E2E2E2E2E2E2E2E2E2E2E2E2E2E2F5E2E2E2E2E2E2E2E2E2E2E2E2E2E2E2E2E2E2E2E2E2E2E2E2E2E2E2E2E2E2E2E2E2E2E2E2E2E2E2E2E2E2E2E2E2F5E2E2E2E2E2E2E2E2E2E2E2E2E2E2E2E2E2E2E2E2E2E2E2E2E2E2E2E2E2E2E2E2E2E2E2E2E2E2E2E2E2E2E2E2F5
310
E2E2E2E2E2E2E2E2E2E2E2E2E2E2E2E2E2E2E2E2E2E2E2E2E2E2E2E2E2E2E2E2E2E2E2E2E2E2E2E2E2E2E2E2E2F5E2E2E2E2E2E2E2E2E2E2E2E2E2E2E2E2E2F5E2E2F5F5E2E2F5E2E2E2E2E2E2E2E2E2E2E2E2E2E2E2E2E2F5E2E2E2E2E2E2E2E2E2E2E2E2E2E2E2E2E2E2E2E2E2E2E2E2E2E2E2E2E2E2E2E2E2E2E2E2E2E2
310
E2E2E2E2E2E2E2F5E2E2E2E2E2E2E2E2E2E2E2E2E2E2E2E2E2E2E2E2E2E2E2E2E2E2E2E2E2E2E2E2E2E2E2E2E2E2E2E2E2E2E2E2F5E2E2E2E2E2E2E2E2E2E2E2E2E2E2E2E2E2E2E2E2E2E2E2E2E2E2E2E2E2E2E2E2E2E2E2E2E2E2E2E2E2E2E2E2E2F5E2E2E2E2E2E2E2E2E2E2E2E2E2E2E2E2E2F5E2E2F5F5E2E2F5E2E2E2
310
E2E2E2E2E2E2E2E2E2E2E2E2E2E2F5E2E2E2E2E2E2E2E2E2E2E2E2E2E2E2E2E2E2E2E2E2E2E2E2E2E2E2E2E2E2E2E2E2E2E2E2E2E2E2E2E2E2E2E2E2F5E2E2E2E2E2E2E2E2E2E2E2E2E2E2E2E2E2E2E2E2E2E2E2E2E2E2E2E2E2E2E2E2E2E2E2E2E2E2E2E2E2E2E2E2F5E2E2E2E2E2E2E2E2E2E2E2E2E2E2E2E2E2E2E2E2E2
310
E2E2E2E2E2E2E2E2E2E2E2E2E2E2E2E2E2E2E2E2E2E2E2E2F5E2E2E2E2E2E2E2E2E2E2E2E2E2E2E2E2E2F5E2E2F5F5E2E2F5E2E2E2E2E2E2E2E2E2E2E2E2E2E2E2E2E2F5E2E2E2E2E2E2E2E2E2E2E2E2E2E2E2E2E2E2E2E2E2E2E2E2E2E2E2E2E2E2E2E2E2E2E2E2E2E2E2E2E2E2E2E2E2F5E2E2E2E2E2E2E2E2E2E2E2E2E2
310
E2E2E2E2E2E2E2E2E2E2E2E2E2E2E2E2E2E2E2E2E2E2E2E2E2E2E2E2E2E2E2F5E2E2E2E2E2E2E2E2E2E2E2E2E2E2E2E2E2E2E2E2E2E2E2E2E2E2E2E2E2E2E2E2E2E2E2E2E2E2E2E2E2E2E2E2E2F5E2E2E2E2E2E2E2E2E2E2E2E2E2E2E2E2E2F5E2E2F5F5E2E2F5E2E2E2E2E2E2E2E2E2E2E2E2E2E2E2E2E2F5E2E2E2E2E2E2
310
E2E2E2E2E2E2E2E2E2E2E2E2E2E2E2E2E2E2E2E2E2E2E2E2E2E2E2E2E2E2E2E2E2E2E2E2E2E2E2F5E2E2E2E2E2E2E2E2E2E2E2E2E2E2E2E2E2E2E2E2E2E2E2E2E2E2E2E2E2E2E2E2E2E2E2E2E2E2E2E2E2E2E2E2F5E2E2E2E2E2E2E2E2E2E2E2E2E2E2E2E2E2E2E2E2E2E2E2E2E2E2E2E2E2E2E2E2E2E2E2E2E2E2E2E2E2E2
310
E2E2E2F5E2E2E2E2E2E2E2E2E2E2E2E2E2E2E2E2E2F5E2E2F5F5E2E2F5E2E2E2E2E2E2E2E2E2E2E2E2E2E2E2E2E2F5E2E2E2E2E2E2E2E2E2E2E2E2E2E2E2E2E2E2E2E2E2E2E2E2E2E2E2E2E2E2E2E2E2E2E2E2E2E2E2E2E2E2E2E2E2F5E2E2E2E2E2E2E2E2E2E2E2E2E2E2E2E2E2E2E2E2E2E2E2E2E2E2E2E2E2E2E2E2E2E2
310
E2E2E2E2E2E2E2E2E2E2F5E2E2E2E2E2E2E2E2E2E2E2E2E2E2E2E2E2E2E2E2E2E2E2E2E2E2E2E2E2E2E2E2E2E2E2E2E2E2E2E2E2E2E2E2E2F5E2E2E2E2E2E2E2E2E2E2E2E2E2E2E2E2E2F5E2E2F5F5E2E2F5E2E2E2E2E2E2E2E2E2E2E2E2E2E2E2E2E2F5E2E2E2E2E2E2E2E2E2E2E2E2E2E2E2E2E2E2E2E2E2E2E2E2E2E2E2
310
E2E2E2E2E2E2E2E2E2E2E2E2E2E2E2E2E2E2F5E2E2E2E2E2E2E2E2E2E2E2E2E2E2E2E2E2E2E2E2E2E2E2E2E2E2E2E2E2E2E2E2E2E2E2E2E2E2E2E2E2E2E2E2F5E2E2E2E2E2E2E2E2E2E2E2E2E2E2E2E2E2E2E2E2E2E2E2E2E2E2E2E2E2E2E2E2E2E2E2E2E2E2E2E2E2E2E2E2E2F5E2E2E2E2E2E2E2E2E2E2E2E2E2E2E2E2E2
310
F5E2E2F5F5E2E2E2E2E2E2E2E2E2E2E2E2E2E2E2E2E2E2E2E2F5E2E2E2E2E2E2E2E2E2E2E2E2E2E2E2E2E2E2E2E2E2E2E2E2E2E2E2E2E2E2E2E2E2E2E2E2E2E2E2E2E2E2E2E2E2F5E2E2E2E2E2E2E2E2E2E2E2E2E2E2E2E2E2E2E2E2E2E2E2E2E2E2E2E2E2E2E2E2E2E2E2E2E2E2E2E2E2E2E2E2F5E2E2E2E2E2E2E2E2E2E2
310
E2E2E2E2E2E2E2E2E2E2E2E2E2E2E2E2E2E2E2E2E2E2E2E2E2E2E2E2E2E2E2E2E2E2E2F5E2E2E2E2E2E2E2E2E2E2E2E2E2E2E2E2E2E2E2E2F5F5E2E2E2E2E2E2E2E2E2E2E2E2E2E2E2E2E2E2E2E2F5E2E2E2E2E2E2E2E2E2E2E2E2E2E2E2E2E2E2E2E2E2E2E2E2E2E2E2E2E2E2E2E2E2E2E2E2E2E2E2E2E2E2E2E2E2F5E2E2
310
E2E2E2E2E2E2E2E2E2E2E2E2E2E2E2E2E2E2E2E2E2E2E2E2E2E2E2E2E2E2E2E2E2E2E2E2E2E2E2E2E2E2F5E2E2E2E2E2E2E2E2E2E2E2E2E2E2E2E2E2E2E2E2E2E2E2E2E2E2E2E2E2E2E2E2E2E2E2E2E2E2E2E2E2E2E2E2E2F5E2E2E2E2E2E2E2E2E2E2E2E2E2E2E2E2E2E2E2E2F5F5E2E2E2E2E2E2E2E2E2E2E2E2E2E2E2E2
310
E2E2E2E2F5E2E2E2E2E2E2E2E2E2E2E2E2E2E2E2E2E2E2E2E2E2E2E2E2E2E2E2E2E2E2E2E2E2E2E2E2E2E2E2E2E2E2E2E2E2F5E2E2E2E2E2E2E2E2E2E2E2E2E2E2E2E2E2E2E2E2E2E2E2E2E2E2E2E2E2E2E2E2E2E2E2E2E2E2E2E2E2E2E2E2F5E2E2E2E2E2E2E2E2E2E2E2E2E2E2E2E2E2E2E2E2E2E2E2E2E2E2E2E2E2E2E2
310
E2E2E2E2E2E2E2E2E2E2E2E2E2E2F5E2E2E2E2E2E2E2E2E2E2E2E2E2E2E2E2E2E2E2E2F5F5E2E2E2E2E2E2E2E2E2E2E2E2E2E2E2E2E2E2E2E2F5F5F5F5F5F5F5F5F5F5F5F5F5F5F5F5F5F5F5F5F5F5F5F5F5F5F5F5F5F5F5F5F5F5F5F5F5F5F5F5F5F5F5F5F5F5F5F5F5F5F5F5F5F5F5F5F5F5F5F5F5F5F5F5F5F5F5F5F5F5
310
F5F5F5F5F5F5F5F5F5F5F5F5F5F5F5F5F5F5F5F5F5F5F5F5F5F5F5F5F5F5F5F5F5F5F5F5F5F5F5F5F5F5F5F5F5F5F5F5F5F5F5F5F5F5F5F5F5F5F5F5F5F5F5F5F5F5F5F5E2E2E2E2E2E2E2E2E2E2E2E2E2E2E2E2E2E2E2E2F5F5E2E2E2E2E2E2E2E2E2E2E2E2E2E2E2E2E2E2E2E2F5F5F5F5F5F5F5F5F5F5F5F5F5F5F5F5F5
310
F5F5F5F5F5F5F5F5F5F5F5F5F5F5F5F5F5F5F5F5F5F5F5F5F5F5F5F5F5F5F5F5F5F5F5F5F5F5F5F5F5F5F5F5F5F5F5F5F5F5F5F5F5F5F5F5F5F5F5F5F5F5F5F5F5F5F5F5F5F5F5F5F5F5F5F5F5F5F5F5F5F5F5F5F5F5F5F5F5F5F5F5F5F5F5F5F5F5F5F5F5F5F5F5F5F5F5F5F5F5F5F5F5F5F5F5F5F5F5F5F5E2E2E2E2E2E2
310
E2E2E2E2E2E2E2E2E2E2E2E2E2E2F5F5E2E2E2E2E2E2E2E2E2E2E2E2E2E2E2E2E2E2E2E2E2E2E2E2E2E2E2E2E2E2E2E2E2E2E2E2E2E2E2E2E2E2E2E2E2E2E2E2E2E2E2E2E2E2E2E2E2E2E2E2E2E2E2E2E2E2E2E2E2E2E2E2E2E2E2E2E2E2E2E2E2E2E2E2E2E2E2E2E2E2E2E2E2E2E2E2E2E2E2E2E2E2E2E2E2E2E2E2E2E2E2
310
E2E2E2E2E2E2E2E2E2E2E2E2E2E2E2E2E2E2E2E2E2E2E2E2E2E2E2E2E2E2E2E2E2E2E2E2E2E2E2E2E2E2E2E2E2E2E2E2E2E2E2E2E2E2E2E2E2E2E2E2E2E2E2E2E2E2E2F5F5E2E2E2E2E2E2E2E2E2E2E2E2E2E2E2E2E2E2E2E2E2E2E2E2E2E2E2E2E2E2E2E2E2E2E2E2E2E2E2E2E2E2E2E2E2E2E2E2E2E2E2E2E2E2E2E2E2E2
310
E2E2E2E2E2E2E2E2E2E2E2E2E2E2E2E2E2E2E2E2E2E2E2E2E2E2E2E2E2E2E2E2E2E2E2E2E2E2E2E2E2E2E2E2E2E2E2E2E2E2E2E2E2E2E2E2E2E2E2E2E2E2E2E2E2E2E2E2E2E2E2E2E2E2E2E2E2E2E2E2E2E2E2E2E2E2E2E2E2E2E2E2E2E2E2E2E2E2E2E2E2E2E2E2E2E2E2E2E2E2E2E2E2E2E2E2E2E2E2E2F5F5E2E2E2E2E2
310
E2E2E2E2E2E2E2E2E2E2E2E2E2E2E2E2E2E2E2E2E2E2E2E2E2E2E2E2E2E2E2E2E2E2E2E2E2E2E2E2E2E2E2E2E2E2E2E2E2E2E2E2E2E2E2E2E2E2E2E2E2E2E2E2E2E2E2E2E2E2E2E2E2E2E2E2E2E2E2E2E2E2E2E2E2E2E2E2E2E2E2E2E2E2E2E2E2E2E2E2E2E2E2E2E2E2E2E2E2E2E2E2E2E2E2E2E2E2E2E2E2E2E2E2E2E2E2
310
E2E2E2E2E2E2E2E2E2E2E2E2E2E2E2E2E2E2E2E2E2E2E2E2E2E2E2E2E2E2E2E2E2E2E2E2E2E2E2E2E2E2E2E2E2E2F5F5E2E2E2E2E2E2E2E2E2E2E2E2E2E2E2E2E2E2E2E2E2E2E2E2E2E2E2E2E2E2E2E2E2E2E2E2E2E2E2E2E2E2E2E2E2E2E2E2E2E2E2E2E2E2E2E2E2E2E2E2E2E2E2E2E2E2E2E2E2E2E2E2E2E2E2E2E2E2E2
310
E2E2E2E2E2E2E2E2E2E2E2E2E2E2E2E2E2E2E2E2E2E2E2E2E2E2E2E2E2E2E2E2E2E2E2E2E2E2E2E2E2E2E2E2E2E2E2E2E2E2E2E2E2E2E2E2E2E2E2E2E2E2E2E2E2E2E2E2E2E2E2E2E2E2E2E2E2E2E2E2E2E2E2E2E2E2E2E2E2E2E2E2E2E2E2E2E2E2E2F5F5E2E2F5E2E2E2E2E2E2E2E2E2E2E2E2E2E2E2E2E2E2E2E2E2E2E2
310
E2E2E2E2E2E2E2E2E2E2E2E2E2E2E2E2E2E2E2E2E2E2E2E2E2E2E2E2E2E2E2E2E2E2E2E2E2E2E2E2E2E2E2E2E2E2E2E2E2E2E2E2E2E2E2E2E2E2E2E2E2E2E2E2E2E2E2E2E2E2E2E2E2E2E2E2E2E2E2E2E2E2E2E2E2E2E2E2E2E2E2E2E2E2E2E2E2E2E2E2E2E2E2E2E2E2E2E2E2E2E2E2E2E2E2E2E2E2E2E2E2E2E2E2E2E2E2
310
E2E2E2E2E2E2E2E2E2E2E2E2E2E2E2E2E2E2E2E2E2E2F5E2E2F5F5E2E2F5E2E2E2E2E2E2E2E2E2E2E2E2E2E2E2E2E2E2E2E2E2E2E2E2E2E2E2E2E2E2E2E2E2E2E2E2E2E2E2E2E2E2E2E2E2E2E2E2E2E2E2E2E2E2E2E2E2E2E2E2E2E2E2E2E2E2E2E2E2E2E2E2E2E2E2E2E2E2E2E2E2E2E2E2E2E2E2E2E2E2E2E2E2E2E2E2E2
310
E2E2E2E2E2E2E2E2E2E2E2E2E2E2E2E2E2E2E2E2E2E2E2E2E2E2E2E2E2E2E2E2E2E2E2E2E2E2E2E2E2E2E2E2E2E2E2E2E2E2E2E2E2E2E2E2E2E2E2E2E2E2E2E2E2E2E2E2E2E2E2E2E2E2E2F5E2E2F5F5E2E2F5E2E2E2E2E2E2E2E2E2E2E2E2E2E2E2E2E2E2E2E2E2E2E2E2E2E2E2E2E2E2E2E2E2E2E2E2E2E2E2E2E2E2E2E2
310
E2E2E2E2E2E2E2E2E2E2E2E2E2E2E2E2E2E2E2E2E2E2E2E2E2E2E2E2E2E2E2E2E2E2E2E2E2E2E2E2E2E2E2E2E2E2E2E2E2E2E2E2E2E2E2E2E2E2E2E2E2E2E2E2E2E2E2E2E2E2E2E2E2E2E2E2E2E2E2E2E2E2E2E2E2E2E2E2E2E2E2E2E2E2E2E2E2E2E2E2E2E2E2E2E2E2E2E2E2E2E2E2E2E2E2E2E2E2E2E2E2E2E2E2E2E2E2
310
E2F5E2E2F5F5E2E2F5E2E2E2E2E2E2E2E2E2E2E2E2E2E2E2E2E2E2E2E2E2E2E2E2E2E2E2E2E2E2E2E2E2E2E2E2E2E2E2E2E2E2E2E2E2E2E2E2E2E2E2E2E2E2E2E2E2E2E2E2E2E2E2E2E2E2E2E2E2E2E2E2E2E2E2E2E2E2E2E2E2E2E2E2E2E2E2E2E2E2E2E2E2E2E2E2E2E2E2E2E2E2E2E2E2E2E2E2E2E2E2E2E2E2E2E2E2E2
310
E2E2E2E2E2E2E2E2E2E2E2E2E2E2E2E2E2E2E2E2E2E2E2E2E2E2E2E2E2E2E2E2E2E2E2E2E2E2E2E2E2E2E2E2E2E2E2E2E2E2E2E2E2E2F5E2E2F5F5E2E2F5E2E2E2E2E2E2E2E2E2E2E2E2E2E2E2E2E2E2E2E2E2E2E2E2E2E2E2E2E2E2E2E2E2E2E2E2E2E2E2E2E2E2E2E2E2E2E2E2E2E2E2E2E2E2E2E2E2E2E2E2E2E2E2E2E2
310
E2E2E2E2E2E2E2E2E2E2E2E2E2E2E2E2E2E2E2E2E2E2E2E2E2E2E2E2E2E2E2E2E2E2E2E2E2E2E2E2E2E2E2E2E2E2E2E2E2E2E2E2E2E2E2E2E2E2E2E2E2E2E2E2E2E2E2E2E2E2E2E2E2E2E2E2E2E2E2E2E2E2E2E2E2E2E2E2E2E2E2E2E2E2E2E2E2E2E2E2E2E2E2E2E2E2E2F5E2E2F5F5E2E2F5E2E2E2E2E2E2E2E2E2E2E2E2
310
E2E2E2E2E2E2E2E2E2E2E2E2E2E2E2E2E2E2E2E2E2E2E2E2E2E2E2E2E2E2E2E2E2E2E2E2E2E2E2E2E2E2E2E2E2E2E2E2E2E2E2E2E2E2E2E2E2E2E2E2E2E2E2E2E2E2E2E2E2E2E2E2E2E2E2E2E2E2E2E2E2E2E2E2E2E2E2E2E2E2E2E2E2E2E2E2E2E2E2E2E2E2E2E2E2E2E2E2E2E2E2E2E2E2E2E2E2E2E2E2E2E2E2E2E2E2E2
310
E2E2E2E2E2E2E2E2E2E2E2E2E2E2E2E2E2E2E2E2E2E2E2E2E2E2E2E2E2E2E2E2E2F5E2E2F5F5E2E2F5E2E2E2E2E2E2E2E2E2E2E2E2E2E2E2E2E2E2E2E2E2E2E2E2E2E2E2E2E2E2E2E2E2E2E2E2E2E2E2E2E2E2E2E2E2E2E2E2E2E2E2E2E2E2E2E2E2E2E2E2E2E2E2E2E2E2E2E2E2E2E2E2E2E2E2E2E2E2E2E2E2E2E2E2E2E2
310
E2E2E2E2E2E2E2E2E2E2E2E2E2E2E2E2E2E2E2E2E2E2E2E2E2E2E2E2E2E2E2E2E2E2E2E2E2E2E2E2E2E2E2E2E2E2E2E2E2E2E2E2E2E2E2E2E2E2E2E2E2E2E2E2E2E2E2E2E2E2E2E2E2E2E2E2E2E2E2E2E2E2E2E2E2E2F5E2E2F5F5E2E2F5F5F5F5F5F5F5F5E2E2E2E2E2E2E2E2E2F5F5F5F5F5F5F5F5F5F5F5F5F5F5F5F5E2
310
E2E2E2E2E2E2E2E2F5F5F5F5F5F5F5F5F5F5F5F5F5F5F5F5E2E2E2E2E2E2E2E2E2F5F5F5F5F5F5F5F5F5F5F5F5F5F5F5F5E2E2E2E2E2E2E2E2F5F5F5F5F5F5F5F5F5F5F5F5F5F5F5F5E2E2E2E2E2E2E2E2E2F5F5F5F5F5F5F5F5F5F5F5F5F5F5F5F5E2E2E2E2E2E2E2E2E2F5F5F5F5F5F5F5F5F5F5F5F5F5F5F5F5E2E2E2E2
310
E2E2E2E2E2F5F5F5F5F5F5F5F5E2E2F5F5E2E2E2E2E2E2E2E2E2E2E2E2E2E2E2E2E2E2E2E2E2E2E2E2E2E2E2E2E2E2E2E2E2E2E2E2E2E2E2E2E2E2E2E2E2E2E2E2E2E2E2E2E2E2E2E2E2E2E2E2E2E2E2E2E2E2E2E2E2E2E2E2E2E2E2E2E2E2E2E2E2E2E2E2E2E2E2E2E2E2E2E2E2E2E2E2E2E2E2E2E2E2E2E2E2E2E2E2E2E2
310
E2E2E2E2E2E2E2E2E2E2E2E2E2E2E2E2E2E2E2E2E2E2E2E2E2E2E2E2E2E2E2E2E2E2E2E2E2E2E2E2E2E2E2E2E2E2E2E2E2E2E2E2E2E2E2E2E2E2E2E2E2E2E2E2E2E2E2E2F5F5E2E2E2E2E2E2E2E2E2E2E2E2E2E2E2E2E2E2E2E2E2E2E2E2E2E2E2E2E2E2E2E2E2E2E2E2E2E2E2E2E2E2E2E2E2E2E2E2E2E2E2E2E2E2E2E2E2
310
E2E2E2E2E2E2E2E2E2E2E2E2E2E2E2E2E2E2E2E2E2E2E2E2E2E2E2E2E2E2E2E2E2E2E2E2E2E2E2E2E2E2E2E2E2E2E2E2E2E2E2E2E2E2E2E2E2E2E2E2E2E2E2E2E2E2E2E2E2E2E2E2E2E2E2E2E2E2E2E2E2E2E2E2E2E2E2E2E2E2E2E2E2E2E2E2E2E2E2E2E2E2E2E2E2E2E2E2E2E2E2E2E2E2E2E2E2E2E2E2E2F5F5F5F5F5F5
310
F5F5F5F5F5F5F5F5F5F5F5F5F5F5F5F5F5F5F5F5F5F5F5F5F5F5F5F5F5F5F5F5F5F5F5F5F5F5F5F5F5F5F5F5F5F5F5F5F5F5F5F5F5F5F5F5F5F5F5F5F5F5F5F5F5F5F5F5F5F5F5F5F5F5F5F5F5F5F5F5F5F5F5F5F5F5F5F5F5F5F5F5F5F5F5F5F5F5F5F5F5F5F5F5F5F5F5F5F5F5F5F5F5F5F5F5F5F5F5F5F5F5F5F5F5F5F5
310
F5F5F5F5F5F5F5F5F5F5F5F5F5F5F5F5F5F5F5F5F5F5F5F5F5F5F5F5F5F5F5F5F5F5F5F5F5F5F5F5F5F5F5F5F5F5F5F5
  0
ENDSEC
  0
EOF
