  0
SECTION
  2
HEADER
  9
$ACADVER
  1
AC1015
  9
$ACADMAINTVER
 70
    20
  9
$DWGCODEPAGE
  3
ANSI_932
  9
$INSBASE
 10
0.0
 20
0.0
 30
0.0
  9
$EXTMIN
 10
-281.25
 20
-195.0
 30
0.0
  9
$EXTMAX
 10
282.099854
 20
195.5
 30
0.0
  9
$LIMMIN
 10
0.0
 20
0.0
  9
$LIMMAX
 10
12.0
 20
9.0
  9
$ORTHOMODE
 70
     0
  9
$REGENMODE
 70
     1
  9
$FILLMODE
 70
     1
  9
$QTEXTMODE
 70
     0
  9
$MIRRTEXT
 70
     0
  9
$LTSCALE
 40
1.0
  9
$ATTMODE
 70
     1
  9
$TEXTSIZE
 40
0.2
  9
$TRACEWID
 40
0.05
  9
$TEXTSTYLE
  7
STANDARD
  9
$CLAYER
  8
0
  9
$CELTYPE
  6
CONTINUOUS
  9
$CECOLOR
 62
   256
  9
$CELTSCALE
 40
1.0
  9
$DISPSILH
 70
     0
  9
$DIMSCALE
 40
1.0
  9
$DIMASZ
 40
0.18
  9
$DIMEXO
 40
0.0625
  9
$DIMDLI
 40
0.38
  9
$DIMRND
 40
0.0
  9
$DIMDLE
 40
0.0
  9
$DIMEXE
 40
0.18
  9
$DIMTP
 40
0.0
  9
$DIMTM
 40
0.0
  9
$DIMTXT
 40
0.18
  9
$DIMCEN
 40
0.09
  9
$DIMTSZ
 40
0.0
  9
$DIMTOL
 70
     0
  9
$DIMLIM
 70
     0
  9
$DIMTIH
 70
     1
  9
$DIMTOH
 70
     1
  9
$DIMSE1
 70
     0
  9
$DIMSE2
 70
     0
  9
$DIMTAD
 70
     0
  9
$DIMZIN
 70
     0
  9
$DIMBLK
  1

  9
$DIMASO
 70
     1
  9
$DIMSHO
 70
     1
  9
$DIMPOST
  1

  9
$DIMAPOST
  1

  9
$DIMALT
 70
     0
  9
$DIMALTD
 70
     2
  9
$DIMALTF
 40
25.4
  9
$DIMLFAC
 40
1.0
  9
$DIMTOFL
 70
     0
  9
$DIMTVP
 40
0.0
  9
$DIMTIX
 70
     0
  9
$DIMSOXD
 70
     0
  9
$DIMSAH
 70
     0
  9
$DIMBLK1
  1

  9
$DIMBLK2
  1

  9
$DIMSTYLE
  2
STANDARD
  9
$DIMCLRD
 70
     0
  9
$DIMCLRE
 70
     0
  9
$DIMCLRT
 70
     0
  9
$DIMTFAC
 40
1.0
  9
$DIMGAP
 40
0.09
  9
$DIMJUST
 70
     0
  9
$DIMSD1
 70
     0
  9
$DIMSD2
 70
     0
  9
$DIMTOLJ
 70
     1
  9
$DIMTZIN
 70
     0
  9
$DIMALTZ
 70
     0
  9
$DIMALTTZ
 70
     0
  9
$DIMUPT
 70
     0
  9
$DIMDEC
 70
     4
  9
$DIMTDEC
 70
     4
  9
$DIMALTU
 70
     2
  9
$DIMALTTD
 70
     2
  9
$DIMTXSTY
  7
STANDARD
  9
$DIMAUNIT
 70
     0
  9
$DIMADEC
 70
     0
  9
$DIMALTRND
 40
0.0
  9
$DIMAZIN
 70
     0
  9
$DIMDSEP
 70
    46
  9
$DIMATFIT
 70
     3
  9
$DIMFRAC
 70
     0
  9
$DIMLDRBLK
  1

  9
$DIMLUNIT
 70
     2
  9
$DIMLWD
 70
    -2
  9
$DIMLWE
 70
    -2
  9
$DIMTMOVE
 70
     0
  9
$LUNITS
 70
     2
  9
$LUPREC
 70
     4
  9
$SKETCHINC
 40
0.1
  9
$FILLETRAD
 40
1.0
  9
$AUNITS
 70
     0
  9
$AUPREC
 70
     0
  9
$MENU
  1
.
  9
$ELEVATION
 40
0.0
  9
$PELEVATION
 40
0.0
  9
$THICKNESS
 40
0.0
  9
$LIMCHECK
 70
     0
  9
$CHAMFERA
 40
0.0
  9
$CHAMFERB
 40
0.0
  9
$CHAMFERC
 40
0.0
  9
$CHAMFERD
 40
0.0
  9
$SKPOLY
 70
     0
  9
$TDCREATE
 40
2454202.474148959
  9
$TDUCREATE
 40
2454202.099148958
  9
$TDUPDATE
 40
2454202.482058866
  9
$TDUUPDATE
 40
2454202.107058866
  9
$TDINDWG
 40
0.0067668171
  9
$TDUSRTIMER
 40
0.0067668171
  9
$USRTIMER
 70
     1
  9
$ANGBASE
 50
0.0
  9
$ANGDIR
 70
     0
  9
$PDMODE
 70
     0
  9
$PDSIZE
 40
0.0
  9
$PLINEWID
 40
0.0
  9
$SPLFRAME
 70
     0
  9
$SPLINETYPE
 70
     6
  9
$SPLINESEGS
 70
     8
  9
$HANDSEED
  5
309
  9
$SURFTAB1
 70
     6
  9
$SURFTAB2
 70
     6
  9
$SURFTYPE
 70
     6
  9
$SURFU
 70
     6
  9
$SURFV
 70
     6
  9
$UCSBASE
  2

  9
$UCSNAME
  2

  9
$UCSORG
 10
0.0
 20
0.0
 30
0.0
  9
$UCSXDIR
 10
1.0
 20
0.0
 30
0.0
  9
$UCSYDIR
 10
0.0
 20
1.0
 30
0.0
  9
$UCSORTHOREF
  2

  9
$UCSORTHOVIEW
 70
     0
  9
$UCSORGTOP
 10
0.0
 20
0.0
 30
0.0
  9
$UCSORGBOTTOM
 10
0.0
 20
0.0
 30
0.0
  9
$UCSORGLEFT
 10
0.0
 20
0.0
 30
0.0
  9
$UCSORGRIGHT
 10
0.0
 20
0.0
 30
0.0
  9
$UCSORGFRONT
 10
0.0
 20
0.0
 30
0.0
  9
$UCSORGBACK
 10
0.0
 20
0.0
 30
0.0
  9
$PUCSBASE
  2

  9
$PUCSNAME
  2

  9
$PUCSORG
 10
0.0
 20
0.0
 30
0.0
  9
$PUCSXDIR
 10
1.0
 20
0.0
 30
0.0
  9
$PUCSYDIR
 10
0.0
 20
1.0
 30
0.0
  9
$PUCSORTHOREF
  2

  9
$PUCSORTHOVIEW
 70
     0
  9
$PUCSORGTOP
 10
0.0
 20
0.0
 30
0.0
  9
$PUCSORGBOTTOM
 10
0.0
 20
0.0
 30
0.0
  9
$PUCSORGLEFT
 10
0.0
 20
0.0
 30
0.0
  9
$PUCSORGRIGHT
 10
0.0
 20
0.0
 30
0.0
  9
$PUCSORGFRONT
 10
0.0
 20
0.0
 30
0.0
  9
$PUCSORGBACK
 10
0.0
 20
0.0
 30
0.0
  9
$USERI1
 70
     0
  9
$USERI2
 70
     0
  9
$USERI3
 70
     0
  9
$USERI4
 70
     0
  9
$USERI5
 70
     0
  9
$USERR1
 40
0.0
  9
$USERR2
 40
0.0
  9
$USERR3
 40
0.0
  9
$USERR4
 40
0.0
  9
$USERR5
 40
0.0
  9
$WORLDVIEW
 70
     1
  9
$SHADEDGE
 70
     3
  9
$SHADEDIF
 70
    70
  9
$TILEMODE
 70
     1
  9
$MAXACTVP
 70
    64
  9
$PINSBASE
 10
0.0
 20
0.0
 30
0.0
  9
$PLIMCHECK
 70
     0
  9
$PEXTMIN
 10
1.130750010332723
 20
0.7880833242821881
 30
0.0
  9
$PEXTMAX
 10
10.17675009299451
 20
7.092749918539692
 30
0.0
  9
$PLIMMIN
 10
-0.1912502979669045
 20
-0.1912499975970411
  9
$PLIMMAX
 10
11.50208240418922
 20
8.075416444793461
  9
$UNITMODE
 70
     0
  9
$VISRETAIN
 70
     1
  9
$PLINEGEN
 70
     0
  9
$PSLTSCALE
 70
     1
  9
$TREEDEPTH
 70
  3020
  9
$CMLSTYLE
  2
Standard
  9
$CMLJUST
 70
     0
  9
$CMLSCALE
 40
1.0
  9
$PROXYGRAPHICS
 70
     1
  9
$MEASUREMENT
 70
     0
  9
$CELWEIGHT
370
    -1
  9
$ENDCAPS
280
     0
  9
$JOINSTYLE
280
     0
  9
$LWDISPLAY
290
     0
  9
$INSUNITS
 70
     0
  9
$HYPERLINKBASE
  1

  9
$STYLESHEET
  1

  9
$XEDIT
290
     1
  9
$CEPSNTYPE
380
     0
  9
$PSTYLEMODE
290
     1
  9
$FINGERPRINTGUID
  2
{2913C0C3-E7FC-4F1A-81E8-54F64ABB2739}
  9
$VERSIONGUID
  2
{1E4F548A-7379-4A6D-BA15-A4A0BEE5D555}
  9
$EXTNAMES
290
     1
  9
$PSVPSCALE
 40
0.0
  9
$OLESTARTUP
290
     0
  0
ENDSEC
  0
SECTION
  2
CLASSES
  0
CLASS
  1
ACDBDICTIONARYWDFLT
  2
AcDbDictionaryWithDefault
  3
ObjectDBX Classes
 90
        0
280
     0
281
     0
  0
CLASS
  1
TABLESTYLE
  2
AcDbTableStyle
  3
ObjectDBX Classes
 90
     2047
280
     0
281
     0
  0
CLASS
  1
DICTIONARYVAR
  2
AcDbDictionaryVar
  3
ObjectDBX Classes
 90
        0
280
     0
281
     0
  0
CLASS
  1
ACDBPLACEHOLDER
  2
AcDbPlaceHolder
  3
ObjectDBX Classes
 90
        0
280
     0
281
     0
  0
CLASS
  1
LAYOUT
  2
AcDbLayout
  3
ObjectDBX Classes
 90
        0
280
     0
281
     0
  0
ENDSEC
  0
SECTION
  2
TABLES
  0
TABLE
  2
VPORT
  5
2AB
330
0
100
AcDbSymbolTable
 70
     2
  0
VPORT
  5
2FF
330
2AB
100
AcDbSymbolTableRecord
100
AcDbViewportTableRecord
  2
*Active
 70
     0
 10
0.0
 20
0.0
 11
1.0
 21
1.0
 12
20.29299291528707
 22
-14.44035394710908
 13
0.0
 23
0.0
 14
1.0
 24
1.0
 15
0.0
 25
0.0
 16
0.0
 26
0.0
 36
1.0
 17
0.0
 27
0.0
 37
0.0
 40
446.3999212067023
 41
1.611764705882352
 42
50.0
 43
0.0
 44
0.0
 50
0.0
 51
0.0
 71
     0
 72
   100
 73
     1
 74
     1
 75
     0
 76
     0
 77
     0
 78
     0
281
     0
 65
     1
110
0.0
120
0.0
130
0.0
111
1.0
121
0.0
131
0.0
112
0.0
122
1.0
132
0.0
 79
     0
146
0.0
  0
ENDTAB
  0
TABLE
  2
LTYPE
  5
2A8
330
0
100
AcDbSymbolTable
 70
    22
  0
LTYPE
  5
2B6
330
2A8
100
AcDbSymbolTableRecord
100
AcDbLinetypeTableRecord
  2
ByBlock
 70
     0
  3

 72
    65
 73
     0
 40
0.0
  0
LTYPE
  5
2B7
330
2A8
100
AcDbSymbolTableRecord
100
AcDbLinetypeTableRecord
  2
ByLayer
 70
     0
  3

 72
    65
 73
     0
 40
0.0
  0
LTYPE
  5
2B8
330
2A8
100
AcDbSymbolTableRecord
100
AcDbLinetypeTableRecord
  2
CONTINUOUS
 70
     0
  3
Solid line
 72
    65
 73
     0
 40
0.0
  0
LTYPE
  5
2CA
330
2A8
100
AcDbSymbolTableRecord
100
AcDbLinetypeTableRecord
  2
DASHED
 70
     0
  3
__ __ __ __ __ __ __ __ __ __ __ __ __ __ __
 72
    65
 73
     2
 40
3.5
 49
2.0
 74
     0
 49
-1.5
 74
     0
  0
LTYPE
  5
2CB
330
2A8
100
AcDbSymbolTableRecord
100
AcDbLinetypeTableRecord
  2
CENTER
 70
     0
  3
____ _ ____ _ ____ _ ____ _ ____ _ ____ _ ____
 72
    65
 73
     4
 40
17.5
 49
13.0
 74
     0
 49
-1.5
 74
     0
 49
1.5
 74
     0
 49
-1.5
 74
     0
  0
LTYPE
  5
2CC
330
2A8
100
AcDbSymbolTableRecord
100
AcDbLinetypeTableRecord
  2
PHANTOM
 70
     0
  3
_____ _ _ _____ _ _ _____ _ _ _____ _ _ ____  
 72
    65
 73
     6
 40
15.5
 49
8.0
 74
     0
 49
-1.5
 74
     0
 49
1.5
 74
     0
 49
-1.5
 74
     0
 49
1.5
 74
     0
 49
-1.5
 74
     0
  0
LTYPE
  5
2CD
330
2A8
100
AcDbSymbolTableRecord
100
AcDbLinetypeTableRecord
  2
DASHED1
 70
     0
  3
__ __ __ __ __ __ __ __ __ __ __ __ __ __ __
 72
    65
 73
     2
 40
1.5
 49
1.0
 74
     0
 49
-0.5
 74
     0
  0
LTYPE
  5
2CE
330
2A8
100
AcDbSymbolTableRecord
100
AcDbLinetypeTableRecord
  2
DASHED2
 70
     0
  3
__ __ __ __ __ __ __ __ __ __ __ __ __ __ __
 72
    65
 73
     2
 40
3.5
 49
2.5
 74
     0
 49
-1.0
 74
     0
  0
LTYPE
  5
2CF
330
2A8
100
AcDbSymbolTableRecord
100
AcDbLinetypeTableRecord
  2
DASHED3
 70
     0
  3
__ __ __ __ __ __ __ __ __ __ __ __ __ __ __
 72
    65
 73
     2
 40
6.0
 49
4.0
 74
     0
 49
-2.0
 74
     0
  0
LTYPE
  5
2D0
330
2A8
100
AcDbSymbolTableRecord
100
AcDbLinetypeTableRecord
  2
DASHED4
 70
     0
  3
__ __ __ __ __ __ __ __ __ __ __ __ __ __ __
 72
    65
 73
     2
 40
12.0
 49
10.0
 74
     0
 49
-2.0
 74
     0
  0
LTYPE
  5
2D1
330
2A8
100
AcDbSymbolTableRecord
100
AcDbLinetypeTableRecord
  2
DASHED5
 70
     0
  3
__ __ __ __ __ __ __ __ __ __ __ __ __ __ __
 72
    65
 73
     2
 40
17.0
 49
15.0
 74
     0
 49
-2.0
 74
     0
  0
LTYPE
  5
2D2
330
2A8
100
AcDbSymbolTableRecord
100
AcDbLinetypeTableRecord
  2
DASHED6
 70
     0
  3
__ __ __ __ __ __ __ __ __ __ __ __ __ __ __
 72
    65
 73
     2
 40
29.0
 49
27.0
 74
     0
 49
-2.0
 74
     0
  0
LTYPE
  5
2D3
330
2A8
100
AcDbSymbolTableRecord
100
AcDbLinetypeTableRecord
  2
PHANTOM1
 70
     0
  3
_____ _ _ _____ _ _ _____ _ _ _____ _ _ ____  
 72
    65
 73
     6
 40
31.0
 49
25.0
 74
     0
 49
-1.5
 74
     0
 49
1.0
 74
     0
 49
-1.0
 74
     0
 49
1.0
 74
     0
 49
-1.5
 74
     0
  0
LTYPE
  5
2D4
330
2A8
100
AcDbSymbolTableRecord
100
AcDbLinetypeTableRecord
  2
PHANTOM2
 70
     0
  3
_____ _ _ _____ _ _ _____ _ _ _____ _ _ ____  
 72
    65
 73
     6
 40
36.0
 49
27.0
 74
     0
 49
-1.5
 74
     0
 49
2.5
 74
     0
 49
-1.0
 74
     0
 49
2.5
 74
     0
 49
-1.5
 74
     0
  0
LTYPE
  5
2D5
330
2A8
100
AcDbSymbolTableRecord
100
AcDbLinetypeTableRecord
  2
PHANTOM3
 70
     0
  3
_____ _ _ _____ _ _ _____ _ _ _____ _ _ ____  
 72
    65
 73
     6
 40
78.0
 49
64.0
 74
     0
 49
-2.0
 74
     0
 49
4.0
 74
     0
 49
-2.0
 74
     0
 49
4.0
 74
     0
 49
-2.0
 74
     0
  0
LTYPE
  5
2D6
330
2A8
100
AcDbSymbolTableRecord
100
AcDbLinetypeTableRecord
  2
CENTER1
 70
     0
  3
____ _ ____ _ ____ _ ____ _ ____ _ ____ _ ____
 72
    65
 73
     4
 40
19.0
 49
14.0
 74
     0
 49
-1.0
 74
     0
 49
3.0
 74
     0
 49
-1.0
 74
     0
  0
LTYPE
  5
2D7
330
2A8
100
AcDbSymbolTableRecord
100
AcDbLinetypeTableRecord
  2
CENTER2
 70
     0
  3
____ _ ____ _ ____ _ ____ _ ____ _ ____ _ ____
 72
    65
 73
     4
 40
28.5
 49
25.0
 74
     0
 49
-1.0
 74
     0
 49
1.5
 74
     0
 49
-1.0
 74
     0
  0
LTYPE
  5
2D8
330
2A8
100
AcDbSymbolTableRecord
100
AcDbLinetypeTableRecord
  2
CENTER3
 70
     0
  3
____ _ ____ _ ____ _ ____ _ ____ _ ____ _ ____
 72
    65
 73
     4
 40
31.5
 49
27.0
 74
     0
 49
-1.0
 74
     0
 49
2.5
 74
     0
 49
-1.0
 74
     0
  0
LTYPE
  5
2D9
330
2A8
100
AcDbSymbolTableRecord
100
AcDbLinetypeTableRecord
  2
CENTER4
 70
     0
  3
____ _ ____ _ ____ _ ____ _ ____ _ ____ _ ____
 72
    65
 73
     4
 40
50.0
 49
45.0
 74
     0
 49
-1.0
 74
     0
 49
3.0
 74
     0
 49
-1.0
 74
     0
  0
LTYPE
  5
2DA
330
2A8
100
AcDbSymbolTableRecord
100
AcDbLinetypeTableRecord
  2
CENTER5
 70
     0
  3
____ _ ____ _ ____ _ ____ _ ____ _ ____ _ ____
 72
    65
 73
     4
 40
100.0
 49
92.0
 74
     0
 49
-2.0
 74
     0
 49
4.0
 74
     0
 49
-2.0
 74
     0
  0
LTYPE
  5
2DB
330
2A8
100
AcDbSymbolTableRecord
100
AcDbLinetypeTableRecord
  2
SBK1
 70
     0
  3
______ _ _ _ ______ _ _ _ ______ _ _ _ _____  
 72
    65
 73
     8
 40
60.5
 49
45.0
 74
     0
 49
-2.0
 74
     0
 49
2.5
 74
     0
 49
-2.0
 74
     0
 49
2.5
 74
     0
 49
-2.0
 74
     0
 49
2.5
 74
     0
 49
-2.0
 74
     0
  0
LTYPE
  5
2DC
330
2A8
100
AcDbSymbolTableRecord
100
AcDbLinetypeTableRecord
  2
SBK2
 70
     0
  3
______ _ _ _ ______ _ _ _ ______ _ _ _ _____  
 72
    65
 73
     8
 40
84.0
 49
64.0
 74
     0
 49
-2.0
 74
     0
 49
4.0
 74
     0
 49
-2.0
 74
     0
 49
4.0
 74
     0
 49
-2.0
 74
     0
 49
4.0
 74
     0
 49
-2.0
 74
     0
  0
LTYPE
  5
2DD
330
2A8
100
AcDbSymbolTableRecord
100
AcDbLinetypeTableRecord
  2
STCH
 70
     0
  3
__ __ __ __ __ __ __ __ __ __ __ __ __ __ __
 72
    65
 73
     2
 40
3.0
 49
1.0
 74
     0
 49
-2.0
 74
     0
  0
LTYPE
  5
2DE
330
2A8
100
AcDbSymbolTableRecord
100
AcDbLinetypeTableRecord
  2
MTCH
 70
     0
  3
_____ _ _ _____ _ _ _____ _ _ _____ _ _ ____  
 72
    65
 73
     6
 40
80.0
 49
66.0
 74
     0
 49
-2.0
 74
     0
 49
4.0
 74
     0
 49
-2.0
 74
     0
 49
4.0
 74
     0
 49
-2.0
 74
     0
  0
ENDTAB
  0
TABLE
  2
LAYER
  5
2A5
102
{ACAD_XDICTIONARY
360
2EB
102
}
330
0
100
AcDbSymbolTable
 70
     1
  0
LAYER
  5
2B3
330
2A5
100
AcDbSymbolTableRecord
100
AcDbLayerTableRecord
  2
0
 70
     0
 62
     7
  6
CONTINUOUS
370
    -3
390
2B2
  0
ENDTAB
  0
TABLE
  2
STYLE
  5
2A6
330
0
100
AcDbSymbolTable
 70
     1
  0
STYLE
  5
2B4
330
2A6
100
AcDbSymbolTableRecord
100
AcDbTextStyleTableRecord
  2
STANDARD
 70
     0
 40
0.0
 41
1.0
 50
0.0
 71
     0
 42
0.2
  3
txt
  4
BIGFONT
  0
ENDTAB
  0
TABLE
  2
VIEW
  5
2A9
330
0
100
AcDbSymbolTable
 70
     0
  0
ENDTAB
  0
TABLE
  2
UCS
  5
2AA
330
0
100
AcDbSymbolTable
 70
     0
  0
ENDTAB
  0
TABLE
  2
APPID
  5
2AC
330
0
100
AcDbSymbolTable
 70
     2
  0
APPID
  5
2B5
330
2AC
100
AcDbSymbolTableRecord
100
AcDbRegAppTableRecord
  2
ACAD
 70
     0
  0
APPID
  5
2DF
330
2AC
100
AcDbSymbolTableRecord
100
AcDbRegAppTableRecord
  2
ACAD_PSEXT
 70
     0
  0
ENDTAB
  0
TABLE
  2
DIMSTYLE
  5
2AD
330
0
100
AcDbSymbolTable
 70
     1
100
AcDbDimStyleTable
 71
     0
  0
DIMSTYLE
105
2E0
330
2AD
100
AcDbSymbolTableRecord
100
AcDbDimStyleTableRecord
  2
STANDARD
 70
     0
279
     2
340
2B4
  0
ENDTAB
  0
TABLE
  2
BLOCK_RECORD
  5
2A4
330
0
100
AcDbSymbolTable
 70
     3
  0
BLOCK_RECORD
  5
2C5
330
2A4
100
AcDbSymbolTableRecord
100
AcDbBlockTableRecord
  2
*Model_Space
340
2C8
  0
BLOCK_RECORD
  5
2C1
330
2A4
100
AcDbSymbolTableRecord
100
AcDbBlockTableRecord
  2
*Paper_Space
340
2C4
  0
BLOCK_RECORD
  5
2E3
330
2A4
100
AcDbSymbolTableRecord
100
AcDbBlockTableRecord
  2
$MODEL_SPACE
340
0
  0
BLOCK_RECORD
  5
2E5
330
2A4
100
AcDbSymbolTableRecord
100
AcDbBlockTableRecord
  2
$PAPER_SPACE
340
0
  0
ENDTAB
  0
ENDSEC
  0
SECTION
  2
BLOCKS
  0
BLOCK
  5
2C6
330
2C5
100
AcDbEntity
  8
0
100
AcDbBlockBegin
  2
*Model_Space
 70
     0
 10
0.0
 20
0.0
 30
0.0
  3
*Model_Space
  1

  0
ENDBLK
  5
2C7
330
2C5
100
AcDbEntity
  8
0
100
AcDbBlockEnd
  0
BLOCK
  5
2C2
330
2C1
100
AcDbEntity
 67
     1
  8
0
100
AcDbBlockBegin
  2
*Paper_Space
 70
     0
 10
0.0
 20
0.0
 30
0.0
  3
*Paper_Space
  1

  0
ENDBLK
  5
2C3
330
2C1
100
AcDbEntity
 67
     1
  8
0
100
AcDbBlockEnd
  0
BLOCK
  5
2E4
330
2E3
100
AcDbEntity
  8
0
100
AcDbBlockBegin
  2
$MODEL_SPACE
 70
     0
 10
0.0
 20
0.0
 30
0.0
  3
$MODEL_SPACE
  1

  0
ENDBLK
  5
24
330
2E3
100
AcDbEntity
  8
0
100
AcDbBlockEnd
  0
BLOCK
  5
2E6
330
2E5
100
AcDbEntity
  8
0
100
AcDbBlockBegin
  2
$PAPER_SPACE
 70
     0
 10
0.0
 20
0.0
 30
0.0
  3
$PAPER_SPACE
  1

  0
ENDBLK
  5
20
330
2E5
100
AcDbEntity
  8
0
100
AcDbBlockEnd
  0
ENDSEC
  0
SECTION
  2
ENTITIES
  0
LINE
  5
3E
330
2C5
100
AcDbEntity
  8
0
  6
CENTER
 62
     2
100
AcDbLine
 10
-42.888474
 20
179.591873
 30
0.0
 11
-42.888474
 21
94.59187300000001
 31
0.0
  0
LINE
  5
3F
330
2C5
100
AcDbEntity
  8
0
100
AcDbLine
 10
-82.88847399999999
 20
156.091873
 30
0.0
 11
-82.88847399999999
 21
118.091873
 31
0.0
  0
LINE
  5
40
330
2C5
100
AcDbEntity
  8
0
100
AcDbLine
 10
-2.888474
 20
156.091873
 30
0.0
 11
-2.888474
 21
118.091873
 31
0.0
  0
LINE
  5
41
330
2C5
100
AcDbEntity
  8
0
100
AcDbLine
 10
-82.88847399999999
 20
118.091866
 30
0.0
 11
-81.88846599999999
 21
117.091866
 31
0.0
  0
LINE
  5
42
330
2C5
100
AcDbEntity
  8
0
100
AcDbLine
 10
-2.888488999999998
 20
118.091873
 30
0.0
 11
-3.888478
 21
117.091881
 31
0.0
  0
LINE
  5
43
330
2C5
100
AcDbEntity
  8
0
100
AcDbLine
 10
-3.888475
 20
157.091873
 30
0.0
 11
-2.888481999999998
 21
156.091888
 31
0.0
  0
LINE
  5
44
330
2C5
100
AcDbEntity
  8
0
100
AcDbLine
 10
-81.88846599999999
 20
157.091873
 30
0.0
 11
-82.88847399999999
 21
156.091873
 31
0.0
  0
LINE
  5
45
330
2C5
100
AcDbEntity
  8
0
100
AcDbLine
 10
-81.888474
 20
157.091873
 30
0.0
 11
-81.888474
 21
117.091873
 31
0.0
  0
LINE
  5
46
330
2C5
100
AcDbEntity
  8
0
100
AcDbLine
 10
-3.888474
 20
157.091873
 30
0.0
 11
-3.888474
 21
117.091873
 31
0.0
  0
LINE
  5
47
330
2C5
100
AcDbEntity
  8
0
100
AcDbLine
 10
-81.888474
 20
157.091873
 30
0.0
 11
-3.888474
 21
157.091873
 31
0.0
  0
LINE
  5
48
330
2C5
100
AcDbEntity
  8
0
100
AcDbLine
 10
-81.888474
 20
117.091873
 30
0.0
 11
-2.888474
 21
117.091873
 31
0.0
  0
LINE
  5
49
330
2C5
100
AcDbEntity
  8
0
100
AcDbLine
 10
-82.88847399999999
 20
156.091873
 30
0.0
 11
-2.888474
 21
156.091873
 31
0.0
  0
LINE
  5
4A
330
2C5
100
AcDbEntity
  8
0
100
AcDbLine
 10
-82.88847399999999
 20
118.091873
 30
0.0
 11
-2.888474
 21
118.091873
 31
0.0
  0
LINE
  5
4B
330
2C5
100
AcDbEntity
  8
0
  6
CENTER
 62
     2
100
AcDbLine
 10
-87.688477
 20
137.091873
 30
0.0
 11
0.731522
 21
137.091873
 31
0.0
  0
LINE
  5
4D
330
2C5
100
AcDbEntity
  8
0
100
AcDbLine
 10
153.531464
 20
-156.662949
 30
0.0
 11
116.701477
 21
-156.662949
 31
0.0
  0
LINE
  5
A2
330
2C5
100
AcDbEntity
  8
0
100
AcDbLine
 10
96.61145799999999
 20
-57.472954
 30
0.0
 11
95.611473
 21
-56.472965
 31
0.0
  0
LINE
  5
A3
330
2C5
100
AcDbEntity
  8
0
100
AcDbLine
 10
174.6114649999999
 20
-56.472961
 30
0.0
 11
173.611481
 21
-57.47295
 31
0.0
  0
LINE
  5
A4
330
2C5
100
AcDbEntity
  8
0
100
AcDbLine
 10
173.61145
 20
6.027047999999999
 30
0.0
 11
174.6114649999999
 21
5.027047999999999
 31
0.0
  0
LINE
  5
A5
330
2C5
100
AcDbEntity
  8
0
100
AcDbLine
 10
95.61148100000002
 20
5.027041999999998
 30
0.0
 11
96.611481
 21
6.027044
 31
0.0
  0
LINE
  5
A6
330
2C5
100
AcDbEntity
  8
0
100
AcDbLine
 10
95.61146499999999
 20
-56.472961
 30
0.0
 11
174.6114649999999
 21
-56.472961
 31
0.0
  0
LINE
  5
A7
330
2C5
100
AcDbEntity
  8
0
100
AcDbLine
 10
95.61146499999999
 20
5.027039
 30
0.0
 11
174.6114649999999
 21
5.027039
 31
0.0
  0
LINE
  5
A8
330
2C5
100
AcDbEntity
  8
0
100
AcDbLine
 10
174.6114649999999
 20
5.027039
 30
0.0
 11
174.6114649999999
 21
-56.472961
 31
0.0
  0
LINE
  5
A9
330
2C5
100
AcDbEntity
  8
0
100
AcDbLine
 10
95.61146499999999
 20
5.027039
 30
0.0
 11
95.61146499999999
 21
-56.472961
 31
0.0
  0
LINE
  5
AA
330
2C5
100
AcDbEntity
  8
0
100
AcDbLine
 10
96.611465
 20
-57.47296099999999
 30
0.0
 11
173.611465
 21
-57.47296099999999
 31
0.0
  0
LINE
  5
AB
330
2C5
100
AcDbEntity
  8
0
100
AcDbLine
 10
155.111465
 20
57.027039
 30
0.0
 11
155.111465
 21
26.027039
 31
0.0
  0
LINE
  5
AC
330
2C5
100
AcDbEntity
  8
0
100
AcDbLine
 10
115.111465
 20
57.027039
 30
0.0
 11
115.111465
 21
26.027039
 31
0.0
  0
LINE
  5
AD
330
2C5
100
AcDbEntity
  8
0
100
AcDbLine
 10
162.611465
 20
55.027039
 30
0.0
 11
163.611465
 21
54.027039
 31
0.0
  0
LINE
  5
AE
330
2C5
100
AcDbEntity
  8
0
100
AcDbLine
 10
106.611473
 20
54.027035
 30
0.0
 11
107.611473
 21
55.02703499999999
 31
0.0
  0
LINE
  5
AF
330
2C5
100
AcDbEntity
  8
0
100
AcDbLine
 10
156.111465
 20
54.027039
 30
0.0
 11
163.611465
 21
54.027039
 31
0.0
  0
LINE
  5
B0
330
2C5
100
AcDbEntity
  8
0
100
AcDbLine
 10
106.611465
 20
54.027039
 30
0.0
 11
114.111465
 21
54.027039
 31
0.0
  0
LINE
  5
B1
330
2C5
100
AcDbEntity
  8
0
100
AcDbLine
 10
157.111465
 20
55.027039
 30
0.0
 11
162.611465
 21
55.027039
 31
0.0
  0
LINE
  5
B2
330
2C5
100
AcDbEntity
  8
0
  6
CENTER
 62
     2
100
AcDbLine
 10
103.201477
 20
42.027039
 30
0.0
 11
167.741455
 21
42.027039
 31
0.0
  0
LINE
  5
B3
330
2C5
100
AcDbEntity
  8
0
100
AcDbLine
 10
154.111465
 20
58.02703499999999
 30
0.0
 11
155.111465
 21
57.027039
 31
0.0
  0
LINE
  5
B4
330
2C5
100
AcDbEntity
  8
0
100
AcDbLine
 10
116.111465
 20
58.02703499999999
 30
0.0
 11
115.111465
 21
57.027031
 31
0.0
  0
LINE
  5
B5
330
2C5
100
AcDbEntity
  8
0
100
AcDbLine
 10
115.111465
 20
57.027039
 30
0.0
 11
155.111465
 21
57.027039
 31
0.0
  0
LINE
  5
B6
330
2C5
100
AcDbEntity
  8
0
100
AcDbLine
 10
116.111465
 20
58.027039
 30
0.0
 11
116.111465
 21
26.027039
 31
0.0
  0
LINE
  5
B7
330
2C5
100
AcDbEntity
  8
0
100
AcDbLine
 10
154.111465
 20
58.027039
 30
0.0
 11
154.111465
 21
26.027039
 31
0.0
  0
LINE
  5
B8
330
2C5
100
AcDbEntity
  8
0
100
AcDbLine
 10
116.111465
 20
58.027039
 30
0.0
 11
154.111465
 21
58.027039
 31
0.0
  0
LINE
  5
B9
330
2C5
100
AcDbEntity
  8
0
100
AcDbLine
 10
107.611465
 20
55.027039
 30
0.0
 11
113.111465
 21
55.027039
 31
0.0
  0
LINE
  5
BA
330
2C5
100
AcDbEntity
  8
0
100
AcDbLine
 10
163.611465
 20
54.027039
 30
0.0
 11
163.611465
 21
28.527039
 31
0.0
  0
LINE
  5
BB
330
2C5
100
AcDbEntity
  8
0
100
AcDbLine
 10
106.611465
 20
54.027039
 30
0.0
 11
106.611465
 21
28.527039
 31
0.0
  0
LINE
  5
BC
330
2C5
100
AcDbEntity
  8
0
100
AcDbLine
 10
96.611465
 20
6.027039
 30
0.0
 11
173.611465
 21
6.027039
 31
0.0
  0
LINE
  5
BD
330
2C5
100
AcDbEntity
  8
0
100
AcDbLine
 10
157.111465
 20
27.027039
 30
0.0
 11
173.611465
 21
27.027039
 31
0.0
  0
LINE
  5
BE
330
2C5
100
AcDbEntity
  8
0
100
AcDbLine
 10
95.61146499999999
 20
26.027039
 30
0.0
 11
174.6114649999999
 21
26.027039
 31
0.0
  0
LINE
  5
BF
330
2C5
100
AcDbEntity
  8
0
100
AcDbLine
 10
174.61145
 20
26.027044
 30
0.0
 11
173.611465
 21
27.02704000000001
 31
0.0
  0
LINE
  5
C0
330
2C5
100
AcDbEntity
  8
0
100
AcDbLine
 10
95.611473
 20
26.02704
 30
0.0
 11
96.611481
 21
27.027044
 31
0.0
  0
LINE
  5
C1
330
2C5
100
AcDbEntity
  8
0
100
AcDbLine
 10
95.61146499999999
 20
7.027039
 30
0.0
 11
174.6114649999999
 21
7.027039
 31
0.0
  0
LINE
  5
C2
330
2C5
100
AcDbEntity
  8
0
100
AcDbLine
 10
174.61145
 20
7.027039999999999
 30
0.0
 11
173.61145
 21
6.027044
 31
0.0
  0
LINE
  5
C3
330
2C5
100
AcDbEntity
  8
0
100
AcDbLine
 10
95.611473
 20
7.027048999999999
 30
0.0
 11
96.61147300000001
 21
6.027047999999999
 31
0.0
  0
LINE
  5
C4
330
2C5
100
AcDbEntity
  8
0
100
AcDbLine
 10
96.611465
 20
27.027039
 30
0.0
 11
113.111465
 21
27.027039
 31
0.0
  0
LINE
  5
C5
330
2C5
100
AcDbEntity
  8
0
100
AcDbLine
 10
174.6114649999999
 20
26.027039
 30
0.0
 11
174.6114649999999
 21
7.027039
 31
0.0
  0
LINE
  5
C6
330
2C5
100
AcDbEntity
  8
0
100
AcDbLine
 10
95.61146499999999
 20
26.027039
 30
0.0
 11
95.61146499999999
 21
7.027039
 31
0.0
  0
LINE
  5
C7
330
2C5
100
AcDbEntity
  8
0
100
AcDbLine
 10
101.701469
 20
-141.792953
 30
0.0
 11
100.961472
 21
-57.47295799999999
 31
0.0
  0
LINE
  5
C8
330
2C5
100
AcDbEntity
  8
0
100
AcDbLine
 10
168.531448
 20
-141.792953
 30
0.0
 11
169.271454
 21
-57.472954
 31
0.0
  0
LINE
  5
C9
330
2C5
100
AcDbEntity
  8
0
100
AcDbLine
 10
106.401474
 20
-63.172958
 30
0.0
 11
106.401474
 21
-139.162949
 31
0.0
  0
LINE
  5
CA
330
2C5
100
AcDbEntity
  8
0
100
AcDbLine
 10
106.99147
 20
-63.67295799999999
 30
0.0
 11
106.99147
 21
-138.662949
 31
0.0
  0
LINE
  5
CB
330
2C5
100
AcDbEntity
  8
0
100
AcDbLine
 10
107.25148
 20
-64.17295799999999
 30
0.0
 11
107.25148
 21
-96.172958
 31
0.0
  0
LINE
  5
CC
330
2C5
100
AcDbEntity
  8
0
100
AcDbLine
 10
109.091476
 20
-64.67295799999999
 30
0.0
 11
109.091476
 21
-95.672958
 31
0.0
  0
LINE
  5
CD
330
2C5
100
AcDbEntity
  8
0
100
AcDbLine
 10
116.161469
 20
-64.17295799999999
 30
0.0
 11
116.161469
 21
-96.172958
 31
0.0
  0
LINE
  5
CE
330
2C5
100
AcDbEntity
  8
0
100
AcDbLine
 10
116.541473
 20
-63.172958
 30
0.0
 11
116.541473
 21
-139.162949
 31
0.0
  0
LINE
  5
CF
330
2C5
100
AcDbEntity
  8
0
100
AcDbLine
 10
107.401474
 20
-62.17295799999998
 30
0.0
 11
115.541473
 21
-62.17295799999998
 31
0.0
  0
LINE
  5
D0
330
2C5
100
AcDbEntity
  8
0
100
AcDbLine
 10
107.99147
 20
-62.67295799999999
 30
0.0
 11
115.541473
 21
-62.67295799999999
 31
0.0
  0
LINE
  5
D1
330
2C5
100
AcDbEntity
  8
0
100
AcDbLine
 10
115.541473
 20
-140.162949
 30
0.0
 11
107.401474
 21
-140.162949
 31
0.0
  0
LINE
  5
D2
330
2C5
100
AcDbEntity
  8
0
100
AcDbLine
 10
115.541473
 20
-139.662949
 30
0.0
 11
107.99147
 21
-139.662949
 31
0.0
  0
LINE
  5
D3
330
2C5
100
AcDbEntity
  8
0
100
AcDbLine
 10
116.161469
 20
-104.172958
 30
0.0
 11
116.161469
 21
-138.162949
 31
0.0
  0
LINE
  5
D4
330
2C5
100
AcDbEntity
  8
0
100
AcDbLine
 10
109.091476
 20
-104.672958
 30
0.0
 11
109.091476
 21
-137.662949
 31
0.0
  0
LINE
  5
D5
330
2C5
100
AcDbEntity
  8
0
100
AcDbLine
 10
107.25148
 20
-104.172958
 30
0.0
 11
107.25148
 21
-138.162949
 31
0.0
  0
LINE
  5
D6
330
2C5
100
AcDbEntity
  8
0
100
AcDbLine
 10
115.161469
 20
-138.662949
 30
0.0
 11
110.091476
 21
-138.662949
 31
0.0
  0
LINE
  5
D7
330
2C5
100
AcDbEntity
  8
0
100
AcDbLine
 10
115.161469
 20
-96.67295799999999
 30
0.0
 11
110.091476
 21
-96.67295799999999
 31
0.0
  0
LINE
  5
D8
330
2C5
100
AcDbEntity
  8
0
100
AcDbLine
 10
115.161469
 20
-103.672958
 30
0.0
 11
110.091476
 21
-103.672958
 31
0.0
  0
LINE
  5
D9
330
2C5
100
AcDbEntity
  8
0
100
AcDbLine
 10
110.091476
 20
-63.67295799999999
 30
0.0
 11
115.161469
 21
-63.67295799999999
 31
0.0
  0
LINE
  5
DA
330
2C5
100
AcDbEntity
  8
0
100
AcDbLine
 10
108.25148
 20
-63.172958
 30
0.0
 11
115.161469
 21
-63.172958
 31
0.0
  0
LINE
  5
DB
330
2C5
100
AcDbEntity
  8
0
100
AcDbLine
 10
115.161469
 20
-97.172958
 30
0.0
 11
108.25148
 21
-97.172958
 31
0.0
  0
LINE
  5
DC
330
2C5
100
AcDbEntity
  8
0
100
AcDbLine
 10
115.161469
 20
-103.172958
 30
0.0
 11
108.25148
 21
-103.172958
 31
0.0
  0
LINE
  5
DD
330
2C5
100
AcDbEntity
  8
0
100
AcDbLine
 10
115.161469
 20
-139.162949
 30
0.0
 11
108.25148
 21
-139.162949
 31
0.0
  0
LINE
  5
DE
330
2C5
100
AcDbEntity
  8
0
100
AcDbLine
 10
163.831451
 20
-63.172958
 30
0.0
 11
163.831451
 21
-139.162949
 31
0.0
  0
LINE
  5
DF
330
2C5
100
AcDbEntity
  8
0
100
AcDbLine
 10
163.231461
 20
-63.67295799999999
 30
0.0
 11
163.231461
 21
-138.662949
 31
0.0
  0
LINE
  5
E0
330
2C5
100
AcDbEntity
  8
0
100
AcDbLine
 10
162.981461
 20
-64.17295799999999
 30
0.0
 11
162.981461
 21
-96.172958
 31
0.0
  0
LINE
  5
E1
330
2C5
100
AcDbEntity
  8
0
100
AcDbLine
 10
161.141464
 20
-64.67295799999999
 30
0.0
 11
161.141464
 21
-95.672958
 31
0.0
  0
LINE
  5
E2
330
2C5
100
AcDbEntity
  8
0
100
AcDbLine
 10
154.071457
 20
-64.17295799999999
 30
0.0
 11
154.071457
 21
-96.172958
 31
0.0
  0
LINE
  5
E3
330
2C5
100
AcDbEntity
  8
0
100
AcDbLine
 10
153.691452
 20
-63.172958
 30
0.0
 11
153.691452
 21
-139.162949
 31
0.0
  0
LINE
  5
E4
330
2C5
100
AcDbEntity
  8
0
100
AcDbLine
 10
162.831451
 20
-62.17295799999998
 30
0.0
 11
154.691452
 21
-62.17295799999998
 31
0.0
  0
LINE
  5
E5
330
2C5
100
AcDbEntity
  8
0
100
AcDbLine
 10
162.231461
 20
-62.67295799999999
 30
0.0
 11
154.691452
 21
-62.67295799999999
 31
0.0
  0
LINE
  5
E6
330
2C5
100
AcDbEntity
  8
0
100
AcDbLine
 10
154.691452
 20
-140.162949
 30
0.0
 11
162.831451
 21
-140.162949
 31
0.0
  0
LINE
  5
E7
330
2C5
100
AcDbEntity
  8
0
100
AcDbLine
 10
154.691452
 20
-139.662949
 30
0.0
 11
162.231461
 21
-139.662949
 31
0.0
  0
LINE
  5
E8
330
2C5
100
AcDbEntity
  8
0
100
AcDbLine
 10
154.071457
 20
-104.172958
 30
0.0
 11
154.071457
 21
-138.162949
 31
0.0
  0
LINE
  5
E9
330
2C5
100
AcDbEntity
  8
0
100
AcDbLine
 10
161.141464
 20
-104.672958
 30
0.0
 11
161.141464
 21
-137.662949
 31
0.0
  0
LINE
  5
EA
330
2C5
100
AcDbEntity
  8
0
100
AcDbLine
 10
162.981461
 20
-104.172958
 30
0.0
 11
162.981461
 21
-138.162949
 31
0.0
  0
LINE
  5
EB
330
2C5
100
AcDbEntity
  8
0
100
AcDbLine
 10
155.071457
 20
-138.662949
 30
0.0
 11
160.1414639999999
 21
-138.662949
 31
0.0
  0
LINE
  5
EC
330
2C5
100
AcDbEntity
  8
0
100
AcDbLine
 10
155.071457
 20
-96.67295799999999
 30
0.0
 11
160.1414639999999
 21
-96.67295799999999
 31
0.0
  0
LINE
  5
ED
330
2C5
100
AcDbEntity
  8
0
100
AcDbLine
 10
155.071457
 20
-103.672958
 30
0.0
 11
160.1414639999999
 21
-103.672958
 31
0.0
  0
LINE
  5
EE
330
2C5
100
AcDbEntity
  8
0
100
AcDbLine
 10
160.1414639999999
 20
-63.67295799999999
 30
0.0
 11
155.071457
 21
-63.67295799999999
 31
0.0
  0
LINE
  5
EF
330
2C5
100
AcDbEntity
  8
0
100
AcDbLine
 10
161.981461
 20
-63.172958
 30
0.0
 11
155.071457
 21
-63.172958
 31
0.0
  0
LINE
  5
F0
330
2C5
100
AcDbEntity
  8
0
100
AcDbLine
 10
155.071457
 20
-97.172958
 30
0.0
 11
161.981461
 21
-97.172958
 31
0.0
  0
LINE
  5
F1
330
2C5
100
AcDbEntity
  8
0
100
AcDbLine
 10
155.071457
 20
-103.172958
 30
0.0
 11
161.981461
 21
-103.172958
 31
0.0
  0
LINE
  5
F2
330
2C5
100
AcDbEntity
  8
0
100
AcDbLine
 10
155.071457
 20
-139.162949
 30
0.0
 11
161.981461
 21
-139.162949
 31
0.0
  0
LINE
  5
F3
330
2C5
100
AcDbEntity
  8
0
  6
CENTER
 62
     2
100
AcDbLine
 10
135.1114649999999
 20
60.427032
 30
0.0
 11
135.1114649999999
 21
-182.982956
 31
0.0
  0
LINE
  5
F5
330
2C5
100
AcDbEntity
  8
0
100
AcDbLine
 10
-81.38848900000001
 20
-57.47293899999999
 30
0.0
 11
-82.388481
 21
-56.47294999999999
 31
0.0
  0
LINE
  5
F6
330
2C5
100
AcDbEntity
  8
0
100
AcDbLine
 10
-3.388475
 20
-56.47294599999999
 30
0.0
 11
-4.388475999999998
 21
-57.472946
 31
0.0
  0
LINE
  5
F7
330
2C5
100
AcDbEntity
  8
0
100
AcDbLine
 10
-4.388486
 20
6.027058
 30
0.0
 11
-3.388484999999998
 21
5.027057
 31
0.0
  0
LINE
  5
F8
330
2C5
100
AcDbEntity
  8
0
100
AcDbLine
 10
-82.388474
 20
5.027065999999999
 30
0.0
 11
-81.38847400000001
 21
6.027067999999998
 31
0.0
  0
LINE
  5
F9
330
2C5
100
AcDbEntity
  8
0
100
AcDbLine
 10
-3.388473999999999
 20
5.027053999999998
 30
0.0
 11
-3.388473999999999
 21
-56.47294599999999
 31
0.0
  0
LINE
  5
FA
330
2C5
100
AcDbEntity
  8
0
100
AcDbLine
 10
-82.388474
 20
5.027053999999998
 30
0.0
 11
-82.388474
 21
-56.47294599999999
 31
0.0
  0
LINE
  5
FB
330
2C5
100
AcDbEntity
  8
0
100
AcDbLine
 10
-82.388474
 20
-56.47294599999999
 30
0.0
 11
-3.388473999999999
 21
-56.47294599999999
 31
0.0
  0
LINE
  5
FC
330
2C5
100
AcDbEntity
  8
0
100
AcDbLine
 10
-82.388474
 20
5.027053999999998
 30
0.0
 11
-3.388473999999999
 21
5.027053999999998
 31
0.0
  0
LINE
  5
FD
330
2C5
100
AcDbEntity
  8
0
100
AcDbLine
 10
-81.38847400000001
 20
-57.472946
 30
0.0
 11
-4.388473999999999
 21
-57.472946
 31
0.0
  0
LINE
  5
FE
330
2C5
100
AcDbEntity
  8
0
100
AcDbLine
 10
-67.888481
 20
32.027058
 30
0.0
 11
-68.59848000000001
 21
32.737057
 31
0.0
  0
LINE
  5
FF
330
2C5
100
AcDbEntity
  8
0
100
AcDbLine
 10
-77.888474
 20
32.027054
 30
0.0
 11
-77.18847700000001
 21
32.737053
 31
0.0
  0
LINE
  5
100
330
2C5
100
AcDbEntity
  8
0
100
AcDbLine
 10
-77.888481
 20
52.027058
 30
0.0
 11
-77.18847700000001
 21
51.31705499999998
 31
0.0
  0
LINE
  5
101
330
2C5
100
AcDbEntity
  8
0
100
AcDbLine
 10
-67.888481
 20
52.027046
 30
0.0
 11
-68.59848000000001
 21
51.317047
 31
0.0
  0
LINE
  5
102
330
2C5
100
AcDbEntity
  8
0
100
AcDbLine
 10
-68.598473
 20
32.737053
 30
0.0
 11
-77.18847700000001
 21
32.737053
 31
0.0
  0
LINE
  5
103
330
2C5
100
AcDbEntity
  8
0
100
AcDbLine
 10
-68.598473
 20
51.31705499999998
 30
0.0
 11
-68.598473
 21
32.737053
 31
0.0
  0
LINE
  5
104
330
2C5
100
AcDbEntity
  8
0
100
AcDbLine
 10
-68.598473
 20
51.31705499999998
 30
0.0
 11
-77.18847700000001
 21
51.31705499999998
 31
0.0
  0
LINE
  5
105
330
2C5
100
AcDbEntity
  8
0
100
AcDbLine
 10
-77.18847700000001
 20
51.31705499999998
 30
0.0
 11
-77.18847700000001
 21
32.737053
 31
0.0
  0
LINE
  5
106
330
2C5
100
AcDbEntity
  8
0
100
AcDbLine
 10
-67.888474
 20
32.027054
 30
0.0
 11
-77.888474
 21
32.027054
 31
0.0
  0
LINE
  5
107
330
2C5
100
AcDbEntity
  8
0
100
AcDbLine
 10
-67.888474
 20
52.027054
 30
0.0
 11
-77.888474
 21
52.027054
 31
0.0
  0
LINE
  5
108
330
2C5
100
AcDbEntity
  8
0
100
AcDbLine
 10
-67.888474
 20
52.027054
 30
0.0
 11
-67.888474
 21
32.027054
 31
0.0
  0
LINE
  5
109
330
2C5
100
AcDbEntity
  8
0
100
AcDbLine
 10
-77.888474
 20
52.027054
 30
0.0
 11
-77.888474
 21
32.027054
 31
0.0
  0
LINE
  5
10A
330
2C5
100
AcDbEntity
  8
0
100
AcDbLine
 10
-17.88848299999999
 20
32.027058
 30
0.0
 11
-17.188486
 21
32.737053
 31
0.0
  0
LINE
  5
10B
330
2C5
100
AcDbEntity
  8
0
100
AcDbLine
 10
-7.888489999999998
 20
32.027054
 30
0.0
 11
-8.598487999999997
 21
32.737053
 31
0.0
  0
LINE
  5
10C
330
2C5
100
AcDbEntity
  8
0
100
AcDbLine
 10
-7.888488999999998
 20
52.027054
 30
0.0
 11
-8.598486999999998
 21
51.31705499999998
 31
0.0
  0
LINE
  5
10D
330
2C5
100
AcDbEntity
  8
0
100
AcDbLine
 10
-17.888487
 20
52.02705
 30
0.0
 11
-17.18849
 21
51.31705499999998
 31
0.0
  0
LINE
  5
10E
330
2C5
100
AcDbEntity
  8
0
100
AcDbLine
 10
-17.188477
 20
32.737053
 30
0.0
 11
-8.59848
 21
32.737053
 31
0.0
  0
LINE
  5
10F
330
2C5
100
AcDbEntity
  8
0
100
AcDbLine
 10
-17.188477
 20
51.31705499999998
 30
0.0
 11
-17.188477
 21
32.737053
 31
0.0
  0
LINE
  5
110
330
2C5
100
AcDbEntity
  8
0
100
AcDbLine
 10
-17.188477
 20
51.31705499999998
 30
0.0
 11
-8.59848
 21
51.31705499999998
 31
0.0
  0
LINE
  5
111
330
2C5
100
AcDbEntity
  8
0
100
AcDbLine
 10
-8.59848
 20
51.31705499999998
 30
0.0
 11
-8.59848
 21
32.737053
 31
0.0
  0
LINE
  5
112
330
2C5
100
AcDbEntity
  8
0
100
AcDbLine
 10
-17.888474
 20
32.027054
 30
0.0
 11
-7.888474
 21
32.027054
 31
0.0
  0
LINE
  5
113
330
2C5
100
AcDbEntity
  8
0
100
AcDbLine
 10
-17.888474
 20
52.027054
 30
0.0
 11
-7.888474
 21
52.027054
 31
0.0
  0
LINE
  5
114
330
2C5
100
AcDbEntity
  8
0
100
AcDbLine
 10
-17.888474
 20
52.027054
 30
0.0
 11
-17.888474
 21
32.027054
 31
0.0
  0
LINE
  5
115
330
2C5
100
AcDbEntity
  8
0
100
AcDbLine
 10
-7.888474
 20
52.027054
 30
0.0
 11
-7.888474
 21
32.027054
 31
0.0
  0
LINE
  5
116
330
2C5
100
AcDbEntity
  8
0
100
AcDbLine
 10
-63.198483
 20
54.02704599999999
 30
0.0
 11
-62.19847900000001
 21
55.027046
 31
0.0
  0
LINE
  5
117
330
2C5
100
AcDbEntity
  8
0
100
AcDbLine
 10
-23.588491
 20
55.027058
 30
0.0
 11
-22.58849
 21
54.02705799999999
 31
0.0
  0
LINE
  5
118
330
2C5
100
AcDbEntity
  8
0
100
AcDbLine
 10
-63.198486
 20
54.02705400000001
 30
0.0
 11
-22.588486
 21
54.02705400000001
 31
0.0
  0
LINE
  5
119
330
2C5
100
AcDbEntity
  8
0
100
AcDbLine
 10
-3.888485999999998
 20
58.02706099999999
 30
0.0
 11
-2.888485999999998
 21
57.027058
 31
0.0
  0
LINE
  5
11A
330
2C5
100
AcDbEntity
  8
0
100
AcDbLine
 10
-81.888474
 20
58.027054
 30
0.0
 11
-82.88847399999999
 21
57.02705400000001
 31
0.0
  0
LINE
  5
11B
330
2C5
100
AcDbEntity
  8
0
100
AcDbLine
 10
-82.88847399999999
 20
57.02705400000001
 30
0.0
 11
-2.888474
 21
57.02705400000001
 31
0.0
  0
LINE
  5
11C
330
2C5
100
AcDbEntity
  8
0
100
AcDbLine
 10
-3.888474
 20
58.027054
 30
0.0
 11
-3.888474
 21
26.027054
 31
0.0
  0
LINE
  5
11D
330
2C5
100
AcDbEntity
  8
0
100
AcDbLine
 10
-81.888474
 20
58.027054
 30
0.0
 11
-81.888474
 21
26.027054
 31
0.0
  0
LINE
  5
11E
330
2C5
100
AcDbEntity
  8
0
100
AcDbLine
 10
-62.19848599999998
 20
55.027054
 30
0.0
 11
-23.588486
 21
55.027054
 31
0.0
  0
LINE
  5
11F
330
2C5
100
AcDbEntity
  8
0
100
AcDbLine
 10
-22.588486
 20
54.02705400000001
 30
0.0
 11
-22.588486
 21
27.027054
 31
0.0
  0
LINE
  5
120
330
2C5
100
AcDbEntity
  8
0
100
AcDbLine
 10
-63.198486
 20
54.02705400000001
 30
0.0
 11
-63.198486
 21
27.027054
 31
0.0
  0
LINE
  5
121
330
2C5
100
AcDbEntity
  8
0
100
AcDbLine
 10
-2.888474
 20
57.02705400000001
 30
0.0
 11
-2.888474
 21
26.027054
 31
0.0
  0
LINE
  5
122
330
2C5
100
AcDbEntity
  8
0
100
AcDbLine
 10
-82.88847399999999
 20
57.02705400000001
 30
0.0
 11
-82.88847399999999
 21
26.027054
 31
0.0
  0
LINE
  5
123
330
2C5
100
AcDbEntity
  8
0
100
AcDbLine
 10
-81.888474
 20
58.027054
 30
0.0
 11
-3.888474
 21
58.027054
 31
0.0
  0
LINE
  5
124
330
2C5
100
AcDbEntity
  8
0
100
AcDbLine
 10
-82.88847399999999
 20
26.027054
 30
0.0
 11
-2.888474
 21
26.027054
 31
0.0
  0
LINE
  5
125
330
2C5
100
AcDbEntity
  8
0
100
AcDbLine
 10
-8.828490999999997
 20
26.02706
 30
0.0
 11
-9.82848
 21
27.027048
 31
0.0
  0
LINE
  5
126
330
2C5
100
AcDbEntity
  8
0
100
AcDbLine
 10
-76.958466
 20
26.027052
 30
0.0
 11
-75.95847299999999
 21
27.027052
 31
0.0
  0
LINE
  5
127
330
2C5
100
AcDbEntity
  8
0
100
AcDbLine
 10
-75.95847299999999
 20
27.027054
 30
0.0
 11
-9.828476
 21
27.027054
 31
0.0
  0
LINE
  5
128
330
2C5
100
AcDbEntity
  8
0
100
AcDbLine
 10
-82.388474
 20
7.027053999999998
 30
0.0
 11
-3.388473999999999
 21
7.027053999999998
 31
0.0
  0
LINE
  5
129
330
2C5
100
AcDbEntity
  8
0
100
AcDbLine
 10
-3.388484999999998
 20
7.027058999999999
 30
0.0
 11
-4.388486
 21
6.027058
 31
0.0
  0
LINE
  5
12A
330
2C5
100
AcDbEntity
  8
0
100
AcDbLine
 10
-82.388474
 20
7.027069
 30
0.0
 11
-81.38847400000001
 21
6.027066999999998
 31
0.0
  0
LINE
  5
12B
330
2C5
100
AcDbEntity
  8
0
100
AcDbLine
 10
-3.388473999999999
 20
26.027054
 30
0.0
 11
-3.388473999999999
 21
7.027053999999998
 31
0.0
  0
LINE
  5
12C
330
2C5
100
AcDbEntity
  8
0
100
AcDbLine
 10
-82.388474
 20
26.027054
 30
0.0
 11
-82.388474
 21
7.027053999999998
 31
0.0
  0
LINE
  5
12D
330
2C5
100
AcDbEntity
  8
0
100
AcDbLine
 10
-81.38847400000001
 20
6.027053999999998
 30
0.0
 11
-4.388473999999999
 21
6.027053999999998
 31
0.0
  0
LINE
  5
12E
330
2C5
100
AcDbEntity
  8
0
100
AcDbLine
 10
-9.468477
 20
-141.792938
 30
0.0
 11
-8.738476999999997
 21
-57.472942
 31
0.0
  0
LINE
  5
12F
330
2C5
100
AcDbEntity
  8
0
100
AcDbLine
 10
-76.92847399999998
 20
-69.54293800000001
 30
0.0
 11
-77.03847500000001
 21
-57.472946
 31
0.0
  0
LINE
  5
130
330
2C5
100
AcDbEntity
  8
0
100
AcDbLine
 10
-79.348473
 20
-57.47293899999999
 30
0.0
 11
-79.30847199999998
 21
-59.46294399999999
 31
0.0
  0
LINE
  5
131
330
2C5
100
AcDbEntity
  8
0
100
AcDbLine
 10
-78.77847299999998
 20
-57.47293899999999
 30
0.0
 11
-78.728477
 21
-59.45294200000001
 31
0.0
  0
LINE
  5
181
330
2C5
100
AcDbEntity
  8
0
100
AcDbLine
 10
-34.808487
 20
-166.972933
 30
0.0
 11
-34.808487
 21
-156.662933
 31
0.0
  0
LINE
  5
182
330
2C5
100
AcDbEntity
  8
0
100
AcDbLine
 10
-50.958481
 20
-166.972933
 30
0.0
 11
-50.958481
 21
-156.662933
 31
0.0
  0
LINE
  5
184
330
2C5
100
AcDbEntity
  8
0
100
AcDbLine
 10
-79.80847199999998
 20
-59.47294599999999
 30
0.0
 11
-79.458473
 21
-73.50294499999998
 31
0.0
  0
LINE
  5
185
330
2C5
100
AcDbEntity
  8
0
100
AcDbLine
 10
-80.28847500000001
 20
-59.992931
 30
0.0
 11
-79.808464
 21
-59.472927
 31
0.0
  0
LINE
  5
186
330
2C5
100
AcDbEntity
  8
0
100
AcDbLine
 10
-79.748474
 20
-81.98293300000001
 30
0.0
 11
-79.62847099999997
 21
-82.10293599999998
 31
0.0
  0
LINE
  5
187
330
2C5
100
AcDbEntity
  8
0
100
AcDbLine
 10
-79.80847199999998
 20
-59.47294599999999
 30
0.0
 11
-78.728477
 21
-59.452946
 31
0.0
  0
LINE
  5
188
330
2C5
100
AcDbEntity
  8
0
100
AcDbLine
 10
-80.28847500000001
 20
-59.992939
 30
0.0
 11
-79.748474
 21
-81.98293300000001
 31
0.0
  0
LINE
  5
189
330
2C5
100
AcDbEntity
  8
0
100
AcDbLine
 10
-76.92847399999998
 20
-69.54293100000001
 30
0.0
 11
-79.69847099999999
 21
-73.87293199999998
 31
0.0
  0
LINE
  5
18A
330
2C5
100
AcDbEntity
  8
0
100
AcDbLine
 10
-79.61847699999998
 20
-83.22294599999997
 30
0.0
 11
-79.69847099999999
 21
-73.87294799999998
 31
0.0
  0
LINE
  5
18B
330
2C5
100
AcDbEntity
  8
0
100
AcDbLine
 10
-76.77846499999998
 20
-87.37294
 30
0.0
 11
-79.55847199999998
 21
-83.392937
 31
0.0
  0
LINE
  5
18C
330
2C5
100
AcDbEntity
  8
0
100
AcDbLine
 10
-14.168488
 20
-63.172943
 30
0.0
 11
-14.168488
 21
-139.162933
 31
0.0
  0
LINE
  5
18D
330
2C5
100
AcDbEntity
  8
0
100
AcDbLine
 10
-14.768478
 20
-63.67294300000001
 30
0.0
 11
-14.768478
 21
-138.662933
 31
0.0
  0
LINE
  5
18E
330
2C5
100
AcDbEntity
  8
0
100
AcDbLine
 10
-15.028488
 20
-64.172943
 30
0.0
 11
-15.028488
 21
-96.17294300000001
 31
0.0
  0
LINE
  5
18F
330
2C5
100
AcDbEntity
  8
0
100
AcDbLine
 10
-16.858475
 20
-64.672943
 30
0.0
 11
-16.858475
 21
-95.672943
 31
0.0
  0
LINE
  5
190
330
2C5
100
AcDbEntity
  8
0
100
AcDbLine
 10
-23.928482
 20
-64.172943
 30
0.0
 11
-23.928482
 21
-96.17294300000001
 31
0.0
  0
LINE
  5
191
330
2C5
100
AcDbEntity
  8
0
100
AcDbLine
 10
-24.318481
 20
-63.172943
 30
0.0
 11
-24.318481
 21
-139.162933
 31
0.0
  0
LINE
  5
192
330
2C5
100
AcDbEntity
  8
0
100
AcDbLine
 10
-15.168488
 20
-62.17294299999999
 30
0.0
 11
-23.318481
 21
-62.17294299999999
 31
0.0
  0
LINE
  5
193
330
2C5
100
AcDbEntity
  8
0
100
AcDbLine
 10
-15.768478
 20
-62.67294299999999
 30
0.0
 11
-23.318481
 21
-62.67294299999999
 31
0.0
  0
LINE
  5
194
330
2C5
100
AcDbEntity
  8
0
100
AcDbLine
 10
-23.318481
 20
-140.162933
 30
0.0
 11
-15.168488
 21
-140.162933
 31
0.0
  0
LINE
  5
195
330
2C5
100
AcDbEntity
  8
0
100
AcDbLine
 10
-23.318481
 20
-139.662933
 30
0.0
 11
-15.768478
 21
-139.662933
 31
0.0
  0
LINE
  5
196
330
2C5
100
AcDbEntity
  8
0
100
AcDbLine
 10
-23.928482
 20
-104.172943
 30
0.0
 11
-23.928482
 21
-138.162933
 31
0.0
  0
LINE
  5
197
330
2C5
100
AcDbEntity
  8
0
100
AcDbLine
 10
-16.858475
 20
-104.672943
 30
0.0
 11
-16.858475
 21
-137.662933
 31
0.0
  0
LINE
  5
198
330
2C5
100
AcDbEntity
  8
0
100
AcDbLine
 10
-15.028488
 20
-104.172943
 30
0.0
 11
-15.028488
 21
-138.162933
 31
0.0
  0
LINE
  5
199
330
2C5
100
AcDbEntity
  8
0
100
AcDbLine
 10
-22.928482
 20
-138.662933
 30
0.0
 11
-17.858475
 21
-138.662933
 31
0.0
  0
LINE
  5
19A
330
2C5
100
AcDbEntity
  8
0
100
AcDbLine
 10
-22.928482
 20
-96.67294300000001
 30
0.0
 11
-17.858475
 21
-96.67294300000001
 31
0.0
  0
LINE
  5
19B
330
2C5
100
AcDbEntity
  8
0
100
AcDbLine
 10
-22.928482
 20
-103.672943
 30
0.0
 11
-17.858475
 21
-103.672943
 31
0.0
  0
LINE
  5
19C
330
2C5
100
AcDbEntity
  8
0
100
AcDbLine
 10
-17.858475
 20
-63.67294300000001
 30
0.0
 11
-22.928482
 21
-63.67294300000001
 31
0.0
  0
LINE
  5
19D
330
2C5
100
AcDbEntity
  8
0
100
AcDbLine
 10
-16.028488
 20
-63.172943
 30
0.0
 11
-22.928482
 21
-63.172943
 31
0.0
  0
LINE
  5
19E
330
2C5
100
AcDbEntity
  8
0
100
AcDbLine
 10
-22.928482
 20
-97.172943
 30
0.0
 11
-16.028488
 21
-97.172943
 31
0.0
  0
LINE
  5
19F
330
2C5
100
AcDbEntity
  8
0
100
AcDbLine
 10
-22.928482
 20
-103.172943
 30
0.0
 11
-16.028488
 21
-103.172943
 31
0.0
  0
LINE
  5
1A0
330
2C5
100
AcDbEntity
  8
0
100
AcDbLine
 10
-22.928482
 20
-139.162933
 30
0.0
 11
-16.028488
 21
-139.162933
 31
0.0
  0
LINE
  5
1A1
330
2C5
100
AcDbEntity
  8
0
100
AcDbLine
 10
-71.608475
 20
-63.172943
 30
0.0
 11
-71.608475
 21
-139.162933
 31
0.0
  0
LINE
  5
1A2
330
2C5
100
AcDbEntity
  8
0
100
AcDbLine
 10
-71.008476
 20
-63.67294300000001
 30
0.0
 11
-71.008476
 21
-138.662933
 31
0.0
  0
LINE
  5
1A3
330
2C5
100
AcDbEntity
  8
0
100
AcDbLine
 10
-70.748474
 20
-64.172943
 30
0.0
 11
-70.748474
 21
-96.17294300000001
 31
0.0
  0
LINE
  5
1A4
330
2C5
100
AcDbEntity
  8
0
100
AcDbLine
 10
-68.91847199999999
 20
-64.672943
 30
0.0
 11
-68.91847199999999
 21
-95.672943
 31
0.0
  0
LINE
  5
1A5
330
2C5
100
AcDbEntity
  8
0
100
AcDbLine
 10
-61.84848
 20
-64.172943
 30
0.0
 11
-61.84848
 21
-96.17294300000001
 31
0.0
  0
LINE
  5
1A6
330
2C5
100
AcDbEntity
  8
0
100
AcDbLine
 10
-61.45848100000001
 20
-63.172943
 30
0.0
 11
-61.45848100000001
 21
-139.162933
 31
0.0
  0
LINE
  5
1A7
330
2C5
100
AcDbEntity
  8
0
100
AcDbLine
 10
-70.608475
 20
-62.17294299999999
 30
0.0
 11
-62.45848099999999
 21
-62.17294299999999
 31
0.0
  0
LINE
  5
1A8
330
2C5
100
AcDbEntity
  8
0
100
AcDbLine
 10
-70.008476
 20
-62.67294299999999
 30
0.0
 11
-62.45848099999999
 21
-62.67294299999999
 31
0.0
  0
LINE
  5
1A9
330
2C5
100
AcDbEntity
  8
0
100
AcDbLine
 10
-62.45848099999999
 20
-140.162933
 30
0.0
 11
-70.608475
 21
-140.162933
 31
0.0
  0
LINE
  5
1AA
330
2C5
100
AcDbEntity
  8
0
100
AcDbLine
 10
-62.45848099999999
 20
-139.662933
 30
0.0
 11
-70.008476
 21
-139.662933
 31
0.0
  0
LINE
  5
1AB
330
2C5
100
AcDbEntity
  8
0
100
AcDbLine
 10
-61.84848
 20
-104.172943
 30
0.0
 11
-61.84848
 21
-138.162933
 31
0.0
  0
LINE
  5
1AC
330
2C5
100
AcDbEntity
  8
0
100
AcDbLine
 10
-68.91847199999999
 20
-104.672943
 30
0.0
 11
-68.91847199999999
 21
-137.662933
 31
0.0
  0
LINE
  5
1AD
330
2C5
100
AcDbEntity
  8
0
100
AcDbLine
 10
-70.748474
 20
-104.172943
 30
0.0
 11
-70.748474
 21
-138.162933
 31
0.0
  0
LINE
  5
1AE
330
2C5
100
AcDbEntity
  8
0
100
AcDbLine
 10
-62.84848
 20
-138.662933
 30
0.0
 11
-67.91847199999999
 21
-138.662933
 31
0.0
  0
LINE
  5
1AF
330
2C5
100
AcDbEntity
  8
0
100
AcDbLine
 10
-62.84848
 20
-96.67294300000001
 30
0.0
 11
-67.91847199999999
 21
-96.67294300000001
 31
0.0
  0
LINE
  5
1B0
330
2C5
100
AcDbEntity
  8
0
100
AcDbLine
 10
-62.84848
 20
-103.672943
 30
0.0
 11
-67.91847199999999
 21
-103.672943
 31
0.0
  0
LINE
  5
1B1
330
2C5
100
AcDbEntity
  8
0
100
AcDbLine
 10
-67.91847199999999
 20
-63.67294300000001
 30
0.0
 11
-62.84848
 21
-63.67294300000001
 31
0.0
  0
LINE
  5
1B2
330
2C5
100
AcDbEntity
  8
0
100
AcDbLine
 10
-76.298477
 20
-141.792938
 30
0.0
 11
-76.77847299999998
 21
-87.37294
 31
0.0
  0
LINE
  5
1B3
330
2C5
100
AcDbEntity
  8
0
100
AcDbLine
 10
-69.748474
 20
-63.172943
 30
0.0
 11
-62.84848
 21
-63.172943
 31
0.0
  0
LINE
  5
1B4
330
2C5
100
AcDbEntity
  8
0
100
AcDbLine
 10
-62.84848
 20
-97.172943
 30
0.0
 11
-69.748474
 21
-97.172943
 31
0.0
  0
LINE
  5
1B5
330
2C5
100
AcDbEntity
  8
0
100
AcDbLine
 10
-62.84848
 20
-103.172943
 30
0.0
 11
-69.748474
 21
-103.172943
 31
0.0
  0
LINE
  5
1B6
330
2C5
100
AcDbEntity
  8
0
100
AcDbLine
 10
-62.84848
 20
-139.162933
 30
0.0
 11
-69.748474
 21
-139.162933
 31
0.0
  0
LINE
  5
1B7
330
2C5
100
AcDbEntity
  8
0
100
AcDbLine
 10
-61.298477
 20
-156.662933
 30
0.0
 11
-24.468475
 21
-156.662933
 31
0.0
  0
LINE
  5
1B8
330
2C5
100
AcDbEntity
  8
0
  6
CENTER
 62
     2
100
AcDbLine
 10
-93.55502300000001
 20
42.027054
 30
0.0
 11
8.171677
 21
42.027054
 31
0.0
  0
LINE
  5
1BB
330
2C5
100
AcDbEntity
  8
0
  6
CENTER
 62
     2
100
AcDbLine
 10
-42.888474
 20
63.027054
 30
0.0
 11
-42.888474
 21
-182.572937
 31
0.0
  0
LINE
  5
1BC
330
2C5
100
AcDbEntity
  8
0
100
AcDbLine
 10
-281.25
 20
195.5
 30
0.0
 11
282.099854
 21
195.5
 31
0.0
  0
LINE
  5
1BD
330
2C5
100
AcDbEntity
  8
0
100
AcDbLine
 10
-281.25
 20
195.5
 30
0.0
 11
-281.25
 21
-195.0
 31
0.0
  0
LINE
  5
1BE
330
2C5
100
AcDbEntity
  8
0
100
AcDbLine
 10
282.099854
 20
195.5
 30
0.0
 11
282.099854
 21
-195.0
 31
0.0
  0
LINE
  5
1BF
330
2C5
100
AcDbEntity
  8
0
100
AcDbLine
 10
-281.25
 20
-195.0
 30
0.0
 11
282.099854
 21
-195.0
 31
0.0
  0
LINE
  5
1C0
330
2C5
100
AcDbEntity
  8
0
100
AcDbLine
 10
162.099976
 20
-175.0
 30
0.0
 11
162.099976
 21
-195.0
 31
0.0
  0
LINE
  5
1C1
330
2C5
100
AcDbEntity
  8
0
100
AcDbLine
 10
162.099976
 20
-175.0
 30
0.0
 11
282.099854
 21
-175.0
 31
0.0
  0
LINE
  5
1C2
330
2C5
100
AcDbEntity
  8
0
100
AcDbLine
 10
162.099976
 20
175.5
 30
0.0
 11
282.099854
 21
175.5
 31
0.0
  0
LINE
  5
1C3
330
2C5
100
AcDbEntity
  8
0
100
AcDbLine
 10
-281.25
 20
175.5
 30
0.0
 11
-161.25
 21
175.5
 31
0.0
  0
LINE
  5
1C4
330
2C5
100
AcDbEntity
  8
0
100
AcDbLine
 10
162.099976
 20
195.5
 30
0.0
 11
162.099976
 21
175.5
 31
0.0
  0
LINE
  5
1C5
330
2C5
100
AcDbEntity
  8
0
100
AcDbLine
 10
-161.25
 20
195.5
 30
0.0
 11
-161.25
 21
175.5
 31
0.0
  0
ARC
  5
1C6
330
2C5
100
AcDbEntity
  8
0
100
AcDbCircle
 10
-42.893478
 20
137.091873
 30
0.0
 40
28.500748
100
AcDbArc
 50
224.566467
 51
315.433563
  0
ARC
  5
1C7
330
2C5
100
AcDbEntity
  8
0
100
AcDbCircle
 10
-42.893478
 20
137.091873
 30
0.0
 40
27.797167
100
AcDbArc
 50
226.013062
 51
313.987
  0
ARC
  5
1C8
330
2C5
100
AcDbEntity
  8
0
100
AcDbCircle
 10
-42.893478
 20
137.091873
 30
0.0
 40
28.500751
100
AcDbArc
 50
44.566441
 51
135.433517
  0
ARC
  5
1C9
330
2C5
100
AcDbEntity
  8
0
100
AcDbCircle
 10
-42.893478
 20
137.091873
 30
0.0
 40
27.797161
100
AcDbArc
 50
46.013
 51
133.986954
  0
ARC
  5
1CA
330
2C5
100
AcDbEntity
  8
0
100
AcDbCircle
 10
-42.893478
 20
137.091873
 30
0.0
 40
39.502197
100
AcDbArc
 50
210.417755
 51
329.582275
  0
ARC
  5
1CB
330
2C5
100
AcDbEntity
  8
0
100
AcDbCircle
 10
-42.893478
 20
137.091873
 30
0.0
 40
38.497807
100
AcDbArc
 50
211.299408
 51
328.700592
  0
ARC
  5
1CC
330
2C5
100
AcDbEntity
  8
0
100
AcDbCircle
 10
-42.893478
 20
137.091873
 30
0.0
 40
38.49780300000001
100
AcDbArc
 50
31.2994
 51
148.700592
  0
ARC
  5
1CD
330
2C5
100
AcDbEntity
  8
0
100
AcDbCircle
 10
-42.893478
 20
137.091873
 30
0.0
 40
39.502201
100
AcDbArc
 50
30.417747
 51
149.58223
  0
ARC
  5
1CE
330
2C5
100
AcDbEntity
  8
0
100
AcDbCircle
 10
113.111359
 20
57.02714499999999
 30
0.0
 40
2.000106999999998
100
AcDbArc
 50
270.003052
 51
359.996948
  0
CIRCLE
  5
1CF
330
2C5
100
AcDbEntity
  8
0
100
AcDbCircle
 10
135.1114649999999
 20
42.02725199999999
 30
0.0
 40
13.5
  0
ARC
  5
1D0
330
2C5
100
AcDbEntity
  8
0
100
AcDbCircle
 10
105.111374
 20
28.527142
 30
0.0
 40
1.500103
100
AcDbArc
 50
270.004089
 51
359.996063
  0
ARC
  5
1D3
330
2C5
100
AcDbEntity
  8
0
100
AcDbCircle
 10
156.098587
 20
56.030628
 30
0.0
 40
2.003633999999999
100
AcDbArc
 50
240.483566
 51
270.367828
  0
ARC
  5
1D4
330
2C5
100
AcDbEntity
  8
0
100
AcDbCircle
 10
113.111374
 20
29.02713
 30
0.0
 40
2.000091999999999
100
AcDbArc
 50
270.002625
 51
359.997375
  0
ARC
  5
1D5
330
2C5
100
AcDbEntity
  8
0
100
AcDbCircle
 10
157.111557
 20
29.02713400000001
 30
0.0
 40
2.000091999999999
100
AcDbArc
 50
180.002792
 51
269.997375
  0
ARC
  5
1D6
330
2C5
100
AcDbEntity
  8
0
100
AcDbCircle
 10
165.111572
 20
28.527149
 30
0.0
 40
1.500107
100
AcDbArc
 50
180.0042269999999
 51
269.995911
  0
ARC
  5
1D7
330
2C5
100
AcDbEntity
  8
0
100
AcDbCircle
 10
157.111572
 20
57.02714499999999
 30
0.0
 40
2.000106999999998
100
AcDbArc
 50
180.003067
 51
269.996948
  0
ARC
  5
1D8
330
2C5
100
AcDbEntity
  8
0
100
AcDbCircle
 10
114.124344
 20
56.03063999999999
 30
0.0
 40
2.003641999999998
100
AcDbArc
 50
269.632172
 51
299.516266
  0
ARC
  5
1D9
330
2C5
100
AcDbEntity
  8
0
100
AcDbCircle
 10
108.258789
 20
-96.165634
 30
0.0
 40
1.007343
100
AcDbArc
 50
180.416153
 51
269.58429
  0
ARC
  5
1DA
330
2C5
100
AcDbEntity
  8
0
100
AcDbCircle
 10
110.095932
 20
-95.668503
 30
0.0
 40
1.004458
100
AcDbArc
 50
180.25415
 51
269.746277
  0
ARC
  5
1DB
330
2C5
100
AcDbEntity
  8
0
100
AcDbCircle
 10
115.157516
 20
-96.16899100000001
 30
0.0
 40
1.003967999999999
100
AcDbArc
 50
270.225983
 51
359.7740170000001
  0
ARC
  5
1DC
330
2C5
100
AcDbEntity
  8
0
100
AcDbCircle
 10
115.157516
 20
-95.668991
 30
0.0
 40
1.003967999999999
100
AcDbArc
 50
270.225983
 51
359.7740170000001
  0
ARC
  5
1DD
330
2C5
100
AcDbEntity
  8
0
100
AcDbCircle
 10
107.397659
 20
-63.16914399999999
 30
0.0
 40
0.996189
100
AcDbArc
 50
89.780159
 51
180.21962
  0
ARC
  5
1DE
330
2C5
100
AcDbEntity
  8
0
100
AcDbCircle
 10
107.991348
 20
-63.672821
 30
0.0
 40
0.999866
100
AcDbArc
 50
89.99256899999997
 51
180.007645
  0
ARC
  5
1DF
330
2C5
100
AcDbEntity
  8
0
100
AcDbCircle
 10
108.249878
 20
-64.17137099999999
 30
0.0
 40
0.998414
100
AcDbArc
 50
89.90893599999997
 51
180.091064
  0
ARC
  5
1E0
330
2C5
100
AcDbEntity
  8
0
100
AcDbCircle
 10
110.08699
 20
-64.668472
 30
0.0
 40
0.9955349999999999
100
AcDbArc
 50
89.74224900000001
 51
180.257751
  0
ARC
  5
1E1
330
2C5
100
AcDbEntity
  8
0
100
AcDbCircle
 10
115.548203
 20
-63.166229
 30
0.0
 40
0.9933009999999999
100
AcDbArc
 50
359.612274
 51
90.38771099999999
  0
ARC
  5
1E2
330
2C5
100
AcDbEntity
  8
0
100
AcDbCircle
 10
115.548203
 20
-63.666229
 30
0.0
 40
0.9933009999999999
100
AcDbArc
 50
359.612274
 51
90.38771099999999
  0
ARC
  5
1E3
330
2C5
100
AcDbEntity
  8
0
100
AcDbCircle
 10
115.166443
 20
-64.16798399999999
 30
0.0
 40
0.9950459999999999
100
AcDbArc
 50
359.7140200000001
 51
90.28598799999999
  0
ARC
  5
1E4
330
2C5
100
AcDbEntity
  8
0
100
AcDbCircle
 10
115.166443
 20
-64.66798399999999
 30
0.0
 40
0.9950459999999999
100
AcDbArc
 50
359.7140200000001
 51
90.28598799999999
  0
ARC
  5
1E5
330
2C5
100
AcDbEntity
  8
0
100
AcDbCircle
 10
107.401581
 20
-139.162857
 30
0.0
 40
1.000099
100
AcDbArc
 50
180.006119
 51
269.994324
  0
ARC
  5
1E6
330
2C5
100
AcDbEntity
  8
0
100
AcDbCircle
 10
107.995239
 20
-138.65918
 30
0.0
 40
1.003776
100
AcDbArc
 50
180.215134
 51
269.784882
  0
ARC
  5
1E7
330
2C5
100
AcDbEntity
  8
0
100
AcDbCircle
 10
108.253799
 20
-138.160629
 30
0.0
 40
1.002321999999999
100
AcDbArc
 50
180.132584
 51
269.867432
  0
ARC
  5
1E8
330
2C5
100
AcDbEntity
  8
0
100
AcDbCircle
 10
108.249878
 20
-104.171356
 30
0.0
 40
0.998407
100
AcDbArc
 50
89.908493
 51
180.091064
  0
ARC
  5
1E9
330
2C5
100
AcDbEntity
  8
0
100
AcDbCircle
 10
110.090912
 20
-137.663513
 30
0.0
 40
0.9994429999999999
100
AcDbArc
 50
179.968506
 51
270.031494
  0
ARC
  5
1EA
330
2C5
100
AcDbEntity
  8
0
100
AcDbCircle
 10
115.544266
 20
-139.165741
 30
0.0
 40
0.997212
100
AcDbArc
 50
269.839569
 51
0.160438
  0
ARC
  5
1EB
330
2C5
100
AcDbEntity
  8
0
100
AcDbCircle
 10
115.544266
 20
-138.665741
 30
0.0
 40
0.997212
100
AcDbArc
 50
269.839569
 51
0.160438
  0
ARC
  5
1EC
330
2C5
100
AcDbEntity
  8
0
100
AcDbCircle
 10
115.162521
 20
-138.164001
 30
0.0
 40
0.998963
100
AcDbArc
 50
269.940063
 51
0.059512
  0
ARC
  5
1ED
330
2C5
100
AcDbEntity
  8
0
100
AcDbCircle
 10
115.162521
 20
-137.664001
 30
0.0
 40
0.998963
100
AcDbArc
 50
269.940063
 51
0.059512
  0
ARC
  5
1EE
330
2C5
100
AcDbEntity
  8
0
100
AcDbCircle
 10
115.166443
 20
-104.167984
 30
0.0
 40
0.9950379999999999
100
AcDbArc
 50
359.7135620000001
 51
90.28643000000002
  0
ARC
  5
1EF
330
2C5
100
AcDbEntity
  8
0
100
AcDbCircle
 10
115.166443
 20
-104.667984
 30
0.0
 40
0.9950379999999999
100
AcDbArc
 50
359.7135620000001
 51
90.28643000000002
  0
ARC
  5
1F0
330
2C5
100
AcDbEntity
  8
0
100
AcDbCircle
 10
110.08699
 20
-104.668472
 30
0.0
 40
0.995532
100
AcDbArc
 50
89.74224900000001
 51
180.257751
  0
ARC
  5
1F1
330
2C5
100
AcDbEntity
  8
0
100
AcDbCircle
 10
161.97731
 20
-96.16880800000002
 30
0.0
 40
1.004159
100
AcDbArc
 50
270.236816
 51
359.763184
  0
ARC
  5
1F2
330
2C5
100
AcDbEntity
  8
0
100
AcDbCircle
 10
160.14006
 20
-95.671555
 30
0.0
 40
1.001404999999998
100
AcDbArc
 50
270.080322
 51
359.919678
  0
ARC
  5
1F3
330
2C5
100
AcDbEntity
  8
0
100
AcDbCircle
 10
155.078491
 20
-96.16592400000001
 30
0.0
 40
1.007058999999999
100
AcDbArc
 50
180.400208
 51
269.599792
  0
ARC
  5
1F4
330
2C5
100
AcDbEntity
  8
0
100
AcDbCircle
 10
155.078491
 20
-95.66592400000001
 30
0.0
 40
1.007058999999999
100
AcDbArc
 50
180.400208
 51
269.599792
  0
ARC
  5
1F5
330
2C5
100
AcDbEntity
  8
0
100
AcDbCircle
 10
162.838364
 20
-63.16604599999998
 30
0.0
 40
0.9931119999999999
100
AcDbArc
 50
359.601196
 51
90.39878800000002
  0
ARC
  5
1F6
330
2C5
100
AcDbEntity
  8
0
100
AcDbCircle
 10
162.239792
 20
-63.664627
 30
0.0
 40
0.991704
100
AcDbArc
 50
359.51886
 51
90.481346
  0
ARC
  5
1F7
330
2C5
100
AcDbEntity
  8
0
100
AcDbCircle
 10
161.986237
 20
-64.16816700000001
 30
0.0
 40
0.995236
100
AcDbArc
 50
359.724609
 51
90.27495599999999
  0
ARC
  5
1F8
330
2C5
100
AcDbEntity
  8
0
100
AcDbCircle
 10
160.149002
 20
-64.665405
 30
0.0
 40
0.992476
100
AcDbArc
 50
359.563965
 51
90.436043
  0
ARC
  5
1F9
330
2C5
100
AcDbEntity
  8
0
100
AcDbCircle
 10
154.687805
 20
-63.16929599999999
 30
0.0
 40
0.9963560000000001
100
AcDbArc
 50
89.79028300000001
 51
180.20993
  0
ARC
  5
1FA
330
2C5
100
AcDbEntity
  8
0
100
AcDbCircle
 10
154.687805
 20
-63.66929599999998
 30
0.0
 40
0.9963560000000001
100
AcDbArc
 50
89.79028300000001
 51
180.20993
  0
ARC
  5
1FB
330
2C5
100
AcDbEntity
  8
0
100
AcDbCircle
 10
155.069595
 20
-64.171082
 30
0.0
 40
0.9981329999999999
100
AcDbArc
 50
89.89226499999999
 51
180.1073
  0
ARC
  5
1FC
330
2C5
100
AcDbEntity
  8
0
100
AcDbCircle
 10
155.069595
 20
-64.671082
 30
0.0
 40
0.9981329999999999
100
AcDbArc
 50
89.89226499999999
 51
180.1073
  0
ARC
  5
1FD
330
2C5
100
AcDbEntity
  8
0
100
AcDbCircle
 10
162.834442
 20
-139.165939
 30
0.0
 40
0.997029
100
AcDbArc
 50
269.82901
 51
0.17099
  0
ARC
  5
1FE
330
2C5
100
AcDbEntity
  8
0
100
AcDbCircle
 10
162.235855
 20
-138.667343
 30
0.0
 40
0.995615
100
AcDbArc
 50
269.747101
 51
0.252898
  0
ARC
  5
1FF
330
2C5
100
AcDbEntity
  8
0
100
AcDbCircle
 10
161.982315
 20
-138.163818
 30
0.0
 40
0.9991459999999998
100
AcDbArc
 50
269.950989
 51
0.049001
  0
ARC
  5
200
330
2C5
100
AcDbEntity
  8
0
100
AcDbCircle
 10
161.986237
 20
-104.168167
 30
0.0
 40
0.995236
100
AcDbArc
 50
359.724609
 51
90.27495599999999
  0
ARC
  5
201
330
2C5
100
AcDbEntity
  8
0
100
AcDbCircle
 10
160.145081
 20
-137.666565
 30
0.0
 40
0.99639
100
AcDbArc
 50
269.792053
 51
0.207952
  0
ARC
  5
202
330
2C5
100
AcDbEntity
  8
0
100
AcDbCircle
 10
154.6917269999999
 20
-139.162689
 30
0.0
 40
1.000259
100
AcDbArc
 50
180.014862
 51
269.985138
  0
ARC
  5
203
330
2C5
100
AcDbEntity
  8
0
100
AcDbCircle
 10
154.6917269999999
 20
-138.662689
 30
0.0
 40
1.000259
100
AcDbArc
 50
180.014862
 51
269.985138
  0
ARC
  5
204
330
2C5
100
AcDbEntity
  8
0
100
AcDbCircle
 10
155.073502
 20
-138.160904
 30
0.0
 40
1.002046999999999
100
AcDbArc
 50
180.116913
 51
269.883087
  0
ARC
  5
205
330
2C5
100
AcDbEntity
  8
0
100
AcDbCircle
 10
155.073502
 20
-137.660904
 30
0.0
 40
1.002046999999999
100
AcDbArc
 50
180.116913
 51
269.883087
  0
ARC
  5
206
330
2C5
100
AcDbEntity
  8
0
100
AcDbCircle
 10
155.06958
 20
-104.171082
 30
0.0
 40
0.9981329999999999
100
AcDbArc
 50
89.89226499999999
 51
180.1073
  0
ARC
  5
207
330
2C5
100
AcDbEntity
  8
0
100
AcDbCircle
 10
155.06958
 20
-104.671082
 30
0.0
 40
0.9981329999999999
100
AcDbArc
 50
89.89226499999999
 51
180.1073
  0
ARC
  5
208
330
2C5
100
AcDbEntity
  8
0
100
AcDbCircle
 10
160.149017
 20
-104.665405
 30
0.0
 40
0.992476
100
AcDbArc
 50
359.563965
 51
90.436043
  0
ARC
  5
209
330
2C5
100
AcDbEntity
  8
0
100
AcDbCircle
 10
153.53421
 20
-141.665161
 30
0.0
 40
14.997787
100
AcDbArc
 50
269.989502
 51
359.51178
  0
ARC
  5
20A
330
2C5
100
AcDbEntity
  8
0
100
AcDbCircle
 10
116.701874
 20
-141.661987
 30
0.0
 40
15.000969
100
AcDbArc
 50
180.50029
 51
269.9985350000001
  0
ARC
  5
20B
330
2C5
100
AcDbEntity
  8
0
100
AcDbCircle
 10
-79.31132499999998
 20
-83.21011400000001
 30
0.0
 40
0.307419
100
AcDbArc
 50
182.389557
 51
216.48967
  0
ARC
  5
20C
330
2C5
100
AcDbEntity
  8
0
100
AcDbCircle
 10
-16.029251
 20
-96.17216500000001
 30
0.0
 40
1.000770999999998
100
AcDbArc
 50
270.044006
 51
359.955872
  0
ARC
  5
20D
330
2C5
100
AcDbEntity
  8
0
100
AcDbCircle
 10
-17.861359
 20
-95.67005899999999
 30
0.0
 40
1.002888
100
AcDbArc
 50
270.164764
 51
359.835236
  0
ARC
  5
20E
330
2C5
100
AcDbEntity
  8
0
100
AcDbCircle
 10
-22.922943
 20
-96.16740400000001
 30
0.0
 40
1.005547999999998
100
AcDbArc
 50
180.31517
 51
269.684723
  0
ARC
  5
20F
330
2C5
100
AcDbEntity
  8
0
100
AcDbCircle
 10
-22.922943
 20
-95.667404
 30
0.0
 40
1.005547999999998
100
AcDbArc
 50
180.31517
 51
269.684723
  0
ARC
  5
210
330
2C5
100
AcDbEntity
  8
0
100
AcDbCircle
 10
-15.163086
 20
-63.167542
 30
0.0
 40
0.994613
100
AcDbArc
 50
359.6888430000001
 51
90.31111099999998
  0
ARC
  5
211
330
2C5
100
AcDbEntity
  8
0
100
AcDbCircle
 10
-15.761734
 20
-63.66619899999999
 30
0.0
 40
0.9932779999999999
100
AcDbArc
 50
359.6109620000001
 51
90.389046
  0
ARC
  5
212
330
2C5
100
AcDbEntity
  8
0
100
AcDbCircle
 10
-16.020294
 20
-64.164749
 30
0.0
 40
0.9918419999999999
100
AcDbArc
 50
359.526642
 51
90.47312899999999
  0
ARC
  5
213
330
2C5
100
AcDbEntity
  8
0
100
AcDbCircle
 10
-17.852417
 20
-64.666885
 30
0.0
 40
0.993961
100
AcDbArc
 50
359.650818
 51
90.34919699999999
  0
ARC
  5
214
330
2C5
100
AcDbEntity
  8
0
100
AcDbCircle
 10
-23.318588
 20
-63.17282099999999
 30
0.0
 40
0.9998889999999999
100
AcDbArc
 50
89.99366
 51
180.0063319999999
  0
ARC
  5
215
330
2C5
100
AcDbEntity
  8
0
100
AcDbCircle
 10
-23.318588
 20
-63.672821
 30
0.0
 40
0.9998889999999999
100
AcDbArc
 50
89.99366
 51
180.0063319999999
  0
ARC
  5
216
330
2C5
100
AcDbEntity
  8
0
100
AcDbCircle
 10
-22.93187
 20
-64.169556
 30
0.0
 40
0.9966219999999999
100
AcDbArc
 50
89.80547299999997
 51
180.194305
  0
ARC
  5
217
330
2C5
100
AcDbEntity
  8
0
100
AcDbCircle
 10
-22.93187
 20
-64.669556
 30
0.0
 40
0.9966219999999999
100
AcDbArc
 50
89.80547299999997
 51
180.194305
  0
ARC
  5
218
330
2C5
100
AcDbEntity
  8
0
100
AcDbCircle
 10
-15.167007
 20
-139.164413
 30
0.0
 40
0.9985209999999998
100
AcDbArc
 50
269.915344
 51
0.084929
  0
ARC
  5
219
330
2C5
100
AcDbEntity
  8
0
100
AcDbCircle
 10
-15.765671
 20
-138.665756
 30
0.0
 40
0.9971959999999999
100
AcDbArc
 50
269.838348
 51
0.161318
  0
ARC
  5
21A
330
2C5
100
AcDbEntity
  8
0
100
AcDbCircle
 10
-16.024231
 20
-138.167191
 30
0.0
 40
0.995752
100
AcDbArc
 50
269.755157
 51
0.244961
  0
ARC
  5
21B
330
2C5
100
AcDbEntity
  8
0
100
AcDbCircle
 10
-16.020279
 20
-104.164749
 30
0.0
 40
0.9918389999999998
100
AcDbArc
 50
359.526642
 51
90.47335099999999
  0
ARC
  5
21C
330
2C5
100
AcDbEntity
  8
0
100
AcDbCircle
 10
-17.856354
 20
-137.66507
 30
0.0
 40
0.9978659999999999
100
AcDbArc
 50
269.877655
 51
0.122658
  0
ARC
  5
21D
330
2C5
100
AcDbEntity
  8
0
100
AcDbCircle
 10
-23.314682
 20
-139.159149
 30
0.0
 40
1.003800999999999
100
AcDbArc
 50
180.216873
 51
269.783447
  0
ARC
  5
21E
330
2C5
100
AcDbEntity
  8
0
100
AcDbCircle
 10
-23.314682
 20
-138.659149
 30
0.0
 40
1.003800999999999
100
AcDbArc
 50
180.216873
 51
269.783447
  0
ARC
  5
21F
330
2C5
100
AcDbEntity
  8
0
100
AcDbCircle
 10
-22.927948
 20
-138.162399
 30
0.0
 40
1.000531999999999
100
AcDbArc
 50
180.0305789999999
 51
269.969513
  0
ARC
  5
220
330
2C5
100
AcDbEntity
  8
0
100
AcDbCircle
 10
-22.927948
 20
-137.662399
 30
0.0
 40
1.000531999999999
100
AcDbArc
 50
180.0305789999999
 51
269.969513
  0
ARC
  5
221
330
2C5
100
AcDbEntity
  8
0
100
AcDbCircle
 10
-22.93187
 20
-104.169556
 30
0.0
 40
0.9966179999999999
100
AcDbArc
 50
89.80525199999998
 51
180.194748
  0
ARC
  5
222
330
2C5
100
AcDbEntity
  8
0
100
AcDbCircle
 10
-22.93187
 20
-104.669556
 30
0.0
 40
0.9966179999999999
100
AcDbArc
 50
89.80525199999998
 51
180.194748
  0
ARC
  5
223
330
2C5
100
AcDbEntity
  8
0
100
AcDbCircle
 10
-17.852417
 20
-104.66687
 30
0.0
 40
0.9939569999999999
100
AcDbArc
 50
359.6503600000001
 51
90.34941900000001
  0
ARC
  5
224
330
2C5
100
AcDbEntity
  8
0
100
AcDbCircle
 10
-69.74274399999997
 20
-96.167206
 30
0.0
 40
1.005745999999998
100
AcDbArc
 50
180.326416
 51
269.673584
  0
ARC
  5
225
330
2C5
100
AcDbEntity
  8
0
100
AcDbCircle
 10
-67.910622
 20
-95.66508500000001
 30
0.0
 40
1.007881
100
AcDbArc
 50
180.446289
 51
269.553711
  0
ARC
  5
226
330
2C5
100
AcDbEntity
  8
0
100
AcDbCircle
 10
-62.84905999999999
 20
-96.17236300000001
 30
0.0
 40
1.000572
100
AcDbArc
 50
270.03299
 51
359.967224
  0
ARC
  5
227
330
2C5
100
AcDbEntity
  8
0
100
AcDbCircle
 10
-62.84905999999999
 20
-95.67236300000001
 30
0.0
 40
1.000572
100
AcDbArc
 50
270.03299
 51
359.967224
  0
ARC
  5
228
330
2C5
100
AcDbEntity
  8
0
100
AcDbCircle
 10
-70.608856
 20
-63.172562
 30
0.0
 40
0.999615
100
AcDbArc
 50
89.97813399999998
 51
180.022079
  0
ARC
  5
229
330
2C5
100
AcDbEntity
  8
0
100
AcDbCircle
 10
-70.01020799999999
 20
-63.67120400000001
 30
0.0
 40
0.9982659999999999
100
AcDbArc
 50
89.90059699999997
 51
180.099625
  0
ARC
  5
22A
330
2C5
100
AcDbEntity
  8
0
100
AcDbCircle
 10
-69.75166299999999
 20
-64.169754
 30
0.0
 40
0.9968160000000001
100
AcDbArc
 50
89.81669599999998
 51
180.183304
  0
ARC
  5
22B
330
2C5
100
AcDbEntity
  8
0
100
AcDbCircle
 10
-67.91951800000001
 20
-64.67189000000001
 30
0.0
 40
0.9989550000000001
100
AcDbArc
 50
89.940048
 51
180.059952
  0
ARC
  5
22C
330
2C5
100
AcDbEntity
  8
0
100
AcDbCircle
 10
-62.453354
 20
-63.167816
 30
0.0
 40
0.9948820000000001
100
AcDbArc
 50
359.704529
 51
90.29526500000001
  0
ARC
  5
22D
330
2C5
100
AcDbEntity
  8
0
100
AcDbCircle
 10
-62.453354
 20
-63.667816
 30
0.0
 40
0.9948820000000001
100
AcDbArc
 50
359.704529
 51
90.29526500000001
  0
ARC
  5
22E
330
2C5
100
AcDbEntity
  8
0
100
AcDbCircle
 10
-62.840088
 20
-64.164551
 30
0.0
 40
0.991647
100
AcDbArc
 50
359.515533
 51
90.484459
  0
ARC
  5
22F
330
2C5
100
AcDbEntity
  8
0
100
AcDbCircle
 10
-62.840088
 20
-64.66455100000001
 30
0.0
 40
0.991647
100
AcDbArc
 50
359.515533
 51
90.484459
  0
ARC
  5
230
330
2C5
100
AcDbEntity
  8
0
100
AcDbCircle
 10
-70.60495
 20
-139.159424
 30
0.0
 40
1.003530999999999
100
AcDbArc
 50
180.201248
 51
269.798767
  0
ARC
  5
231
330
2C5
100
AcDbEntity
  8
0
100
AcDbCircle
 10
-70.006294
 20
-138.660767
 30
0.0
 40
1.002177
100
AcDbArc
 50
180.124756
 51
269.875702
  0
ARC
  5
232
330
2C5
100
AcDbEntity
  8
0
100
AcDbCircle
 10
-69.747742
 20
-138.162216
 30
0.0
 40
1.000725
100
AcDbArc
 50
180.041931
 51
269.958069
  0
ARC
  5
233
330
2C5
100
AcDbEntity
  8
0
100
AcDbCircle
 10
-69.75166299999999
 20
-104.169754
 30
0.0
 40
0.9968160000000001
100
AcDbArc
 50
89.81669599999998
 51
180.183304
  0
ARC
  5
234
330
2C5
100
AcDbEntity
  8
0
100
AcDbCircle
 10
-67.915611
 20
-137.66008
 30
0.0
 40
1.002864999999999
100
AcDbArc
 50
180.1638949999999
 51
269.836548
  0
ARC
  5
235
330
2C5
100
AcDbEntity
  8
0
100
AcDbCircle
 10
-62.457275
 20
-139.1641389999998
 30
0.0
 40
0.9987949999999999
100
AcDbArc
 50
269.930847
 51
0.06915
  0
ARC
  5
236
330
2C5
100
AcDbEntity
  8
0
100
AcDbCircle
 10
-62.457275
 20
-138.664139
 30
0.0
 40
0.9987949999999999
100
AcDbArc
 50
269.930847
 51
0.06915
  0
ARC
  5
237
330
2C5
100
AcDbEntity
  8
0
100
AcDbCircle
 10
-62.844025
 20
-138.167389
 30
0.0
 40
0.995554
100
AcDbArc
 50
269.744019
 51
0.256424
  0
ARC
  5
238
330
2C5
100
AcDbEntity
  8
0
100
AcDbCircle
 10
-62.844025
 20
-137.667389
 30
0.0
 40
0.995554
100
AcDbArc
 50
269.744019
 51
0.256424
  0
ARC
  5
239
330
2C5
100
AcDbEntity
  8
0
100
AcDbCircle
 10
-62.840088
 20
-104.164551
 30
0.0
 40
0.991647
100
AcDbArc
 50
359.515106
 51
90.48468000000003
  0
ARC
  5
23A
330
2C5
100
AcDbEntity
  8
0
100
AcDbCircle
 10
-62.840088
 20
-104.664551
 30
0.0
 40
0.991647
100
AcDbArc
 50
359.515106
 51
90.48468000000003
  0
ARC
  5
23B
330
2C5
100
AcDbEntity
  8
0
100
AcDbCircle
 10
-67.91952499999999
 20
-104.67189
 30
0.0
 40
0.9989550000000001
100
AcDbArc
 50
89.940048
 51
180.059952
  0
ARC
  5
23C
330
2C5
100
AcDbEntity
  8
0
100
AcDbCircle
 10
-24.467316
 20
-141.663544
 30
0.0
 40
14.99939
100
AcDbArc
 50
269.9956049999999
 51
359.505737
  0
ARC
  5
23D
330
2C5
100
AcDbEntity
  8
0
100
AcDbCircle
 10
-61.299667
 20
-141.663574
 30
0.0
 40
14.999368
100
AcDbArc
 50
180.494217
 51
270.004547
  0
LWPOLYLINE
  5
23E
330
2C5
100
AcDbEntity
  8
0
100
AcDbPolyline
 90
       20
 70
     0
 43
0.0
 10
-76.92847399999998
 20
-69.54293800000001
 10
-76.65753200000001
 20
-70.48344399999997
 10
-76.41584
 20
-71.411934
 10
-76.20355999999998
 20
-72.33988199999997
 10
-76.02084399999998
 20
-73.27875500000001
 10
-75.86782099999997
 20
-74.24002800000002
 10
-75.744652
 20
-75.235168
 10
-75.651489
 20
-76.27565
 10
-75.58847
 20
-77.37294
 10
-75.56369
 20
-78.292015
 10
-75.56693299999998
 20
-79.211754
 10
-75.59770999999997
 20
-80.131271
 10
-75.655556
 20
-81.04967499999998
 10
-75.739998
 20
-81.96608000000001
 10
-75.850555
 20
-82.87960799999998
 10
-75.986755
 20
-83.78936000000001
 10
-76.148117
 20
-84.69445799999999
 10
-76.334175
 20
-85.59401699999998
 10
-76.54445600000002
 20
-86.487137
 10
-76.77847299999998
 20
-87.37294
  0
TEXT
  5
254
330
2C5
100
AcDbEntity
  8
0
100
AcDbText
 10
199.400253
 20
180.830002
 30
0.0
 40
6.299999999999998
  1
Ｖｅｒ．1．０
 41
0.833333
100
AcDbText
  0
TEXT
  5
255
330
2C5
100
AcDbEntity
  8
0
100
AcDbText
 10
-240.799713
 20
180.830002
 30
0.0
 40
6.299999999999998
  1
MODEL:KAE-7
 41
1.052632
100
AcDbText
  0
TEXT
  5
25A
330
2C5
100
AcDbEntity
  8
0
100
AcDbText
 10
8.416667
 20
43.02702299999999
 30
0.0
 40
6.299999999999998
  1
OUT
 41
1.052632
100
AcDbText
  0
TEXT
  5
25B
330
2C5
100
AcDbEntity
  8
0
100
AcDbText
 10
-111.583328
 20
43.02706899999999
 30
0.0
 40
6.299999999999998
  1
IN
 41
1.052632
100
AcDbText
  0
TEXT
  5
25C
330
2C5
100
AcDbEntity
  8
0
100
AcDbText
 10
167.564667
 20
-192.100006
 30
0.0
 40
9.0
  1
KOGANEI CORP.
 41
1.052632
100
AcDbText
  0
LINE
  5
25D
330
2C5
100
AcDbEntity
  8
0
100
AcDbLine
 10
32.111465
 20
42.027023
 30
0.0
 11
7.111464999999999
 21
42.027023
 31
0.0
  0
LINE
  5
25E
330
2C5
100
AcDbEntity
  8
0
100
AcDbLine
 10
32.111465
 20
42.027023
 30
0.0
 11
29.213688
 21
42.803478
 31
0.0
  0
LINE
  5
25F
330
2C5
100
AcDbEntity
  8
0
100
AcDbLine
 10
32.111465
 20
42.027023
 30
0.0
 11
29.213688
 21
41.250565
 31
0.0
  0
LINE
  5
260
330
2C5
100
AcDbEntity
  8
0
100
AcDbLine
 10
-92.888519
 20
42.02706899999999
 30
0.0
 11
-117.888519
 21
42.027081
 31
0.0
  0
LINE
  5
261
330
2C5
100
AcDbEntity
  8
0
100
AcDbLine
 10
-92.888519
 20
42.02706899999999
 30
0.0
 11
-95.78629300000001
 21
42.803528
 31
0.0
  0
LINE
  5
262
330
2C5
100
AcDbEntity
  8
0
100
AcDbLine
 10
-92.888519
 20
42.02706899999999
 30
0.0
 11
-95.78630099999999
 21
41.25061399999998
 31
0.0
  0
LINE
  5
275
330
2C5
100
AcDbEntity
  8
0
100
AcDbLine
 10
-49.95848099999999
 20
-167.972933
 30
0.0
 11
-35.808487
 21
-167.972933
 31
0.0
  0
ARC
  5
276
330
2C5
100
AcDbEntity
  8
0
100
AcDbCircle
 10
-49.95848099999999
 20
-166.972933
 30
0.0
 40
1.0
100
AcDbArc
 50
180.0
 51
269.9999999999999
  0
ARC
  5
279
330
2C5
100
AcDbEntity
  8
0
100
AcDbCircle
 10
-35.808487
 20
-166.972933
 30
0.0
 40
1.0
100
AcDbArc
 50
270.0
 51
0.0
  0
LINE
  5
27B
330
2C5
100
AcDbEntity
  8
0
100
AcDbLine
 10
143.1914519999999
 20
-166.972949
 30
0.0
 11
143.1914519999999
 21
-156.662949
 31
0.0
  0
LINE
  5
27C
330
2C5
100
AcDbEntity
  8
0
100
AcDbLine
 10
127.0414579999999
 20
-166.972949
 30
0.0
 11
127.0414579999999
 21
-156.662949
 31
0.0
  0
LINE
  5
27D
330
2C5
100
AcDbEntity
  8
0
100
AcDbLine
 10
128.0414579999998
 20
-167.972949
 30
0.0
 11
142.1914519999999
 21
-167.972949
 31
0.0
  0
ARC
  5
27E
330
2C5
100
AcDbEntity
  8
0
100
AcDbCircle
 10
142.1914519999999
 20
-166.972949
 30
0.0
 40
1.0
100
AcDbArc
 50
270.0
 51
0.0
  0
ARC
  5
27F
330
2C5
100
AcDbEntity
  8
0
100
AcDbCircle
 10
128.0414579999998
 20
-166.972949
 30
0.0
 40
1.0
100
AcDbArc
 50
180.0
 51
270.0
  0
CIRCLE
  5
2F9
330
2C5
100
AcDbEntity
  8
0
 62
     7
100
AcDbCircle
 10
135.1114954999999
 20
42.02713099999994
 30
0.0
 40
9.25
  0
CIRCLE
  5
2FA
330
2C5
100
AcDbEntity
  8
0
 62
     2
100
AcDbCircle
 10
135.1114649999999
 20
42.02706899999998
 30
0.0
 40
10.4775009
  0
VIEWPORT
  5
268
102
{ACAD_XDICTIONARY
360
301
102
}
330
2C1
100
AcDbEntity
 67
     1
  8
0
  6
Continuous
100
AcDbViewport
 10
5.655416053111157
 20
3.94208322359821
 30
0.0
 40
14.09670863716157
 41
8.746133096049151
 68
     1
 69
     1
 12
5.655416053111157
 22
3.94208322359821
 13
0.0
 23
0.0
 14
10.0
 24
10.0
 15
10.0
 25
10.0
 16
0.0
 26
0.0
 36
1.0
 17
0.0
 27
0.0
 37
0.0
 42
50.0
 43
0.0
 44
0.0
 45
8.746133096049151
 50
0.0
 51
0.0
 72
   100
 90
    32800
  1

281
     0
 71
     0
 74
     0
110
0.0
120
0.0
130
0.0
111
0.0
121
0.0
131
0.0
112
0.0
122
0.0
132
0.0
 79
     0
146
0.0
  0
VIEWPORT
  5
26B
102
{ACAD_XDICTIONARY
360
303
102
}
330
2C1
100
AcDbEntity
 67
     1
  8
0
  6
Continuous
100
AcDbViewport
 10
5.653750051663616
 20
3.940416621410939
 30
0.0
 40
9.046000082661784
 41
6.304666594257504
 68
     2
 69
     2
 12
0.4249270000000253
 22
0.25
 13
0.0
 23
0.0
 14
1.0
 24
1.0
 15
0.0
 25
0.0
 16
0.0
 26
0.0
 36
1.0
 17
0.0
 27
0.0
 37
0.0
 42
50.0
 43
0.0
 44
0.0
 45
395.6122219847852
 50
0.0
 51
0.0
 72
   100
 90
    32800
  1

281
     0
 71
     0
 74
     0
110
0.0
120
0.0
130
0.0
111
0.0
121
0.0
131
0.0
112
0.0
122
0.0
132
0.0
 79
     0
146
0.0
  0
ENDSEC
  0
SECTION
  2
OBJECTS
  0
DICTIONARY
  5
2AF
330
0
100
AcDbDictionary
281
     1
  3
ACAD_COLOR
350
2BE
  3
ACAD_GROUP
350
2B0
  3
ACAD_LAYOUT
350
2BC
  3
ACAD_MATERIAL
350
2BD
  3
ACAD_MLINESTYLE
350
2B9
  3
ACAD_PLOTSETTINGS
350
2BB
  3
ACAD_PLOTSTYLENAME
350
2B1
  3
ACAD_TABLESTYLE
350
2BF
  3
ACDBHEADERROUNDTRIPXREC
350
300
  3
AcDbVariableDictionary
350
2FB
  0
DICTIONARY
  5
2EB
330
2A5
100
AcDbDictionary
280
     1
281
     1
  3
ACAD_LAYERSTATES
360
2EC
  0
DICTIONARY
  5
301
330
268
100
AcDbDictionary
280
     1
281
     1
  3
ACAD_XREC_ROUNDTRIP
360
302
  0
DICTIONARY
  5
303
330
26B
100
AcDbDictionary
280
     1
281
     1
  3
ACAD_XREC_ROUNDTRIP
360
304
  0
DICTIONARY
  5
2BE
102
{ACAD_REACTORS
330
2AF
102
}
330
2AF
100
AcDbDictionary
281
     1
  0
DICTIONARY
  5
2B0
102
{ACAD_REACTORS
330
2AF
102
}
330
2AF
100
AcDbDictionary
281
     1
  0
DICTIONARY
  5
2BC
102
{ACAD_REACTORS
330
2AF
102
}
330
2AF
100
AcDbDictionary
281
     1
  3
Model
350
2C8
  3
レイアウト1
350
2C4
  0
DICTIONARY
  5
2BD
102
{ACAD_REACTORS
330
2AF
102
}
330
2AF
100
AcDbDictionary
281
     1
  0
DICTIONARY
  5
2B9
102
{ACAD_REACTORS
330
2AF
102
}
330
2AF
100
AcDbDictionary
281
     1
  3
Standard
350
2BA
  0
DICTIONARY
  5
2BB
102
{ACAD_REACTORS
330
2AF
102
}
330
2AF
100
AcDbDictionary
281
     1
  0
ACDBDICTIONARYWDFLT
  5
2B1
102
{ACAD_REACTORS
330
2AF
102
}
330
2AF
100
AcDbDictionary
281
     1
  3
Normal
350
2B2
100
AcDbDictionaryWithDefault
340
2B2
  0
DICTIONARY
  5
2BF
102
{ACAD_REACTORS
330
2AF
102
}
330
2AF
100
AcDbDictionary
281
     1
  3
Standard
350
2C0
  0
DICTIONARY
  5
300
102
{ACAD_REACTORS
330
2AF
102
}
330
2AF
100
AcDbDictionary
281
     1
  0
DICTIONARY
  5
2FB
102
{ACAD_REACTORS
330
2AF
102
}
330
2AF
100
AcDbDictionary
281
     1
  3
CTABLESTYLE
350
2FC
  3
DIMASSOC
350
2FD
  3
PROJECTNAME
350
2FE
  0
DICTIONARY
  5
2EC
102
{ACAD_REACTORS
330
2EB
102
}
330
2EB
100
AcDbDictionary
281
     1
  0
XRECORD
  5
302
102
{ACAD_REACTORS
330
301
102
}
330
301
100
AcDbXrecord
280
     1
102
SHADEPLOT
 70
     0
  0
XRECORD
  5
304
102
{ACAD_REACTORS
330
303
102
}
330
303
100
AcDbXrecord
280
     1
102
SHADEPLOT
 70
     0
  0
LAYOUT
  5
2C8
102
{ACAD_XDICTIONARY
360
307
102
}
102
{ACAD_REACTORS
330
2BC
102
}
330
2BC
100
AcDbPlotSettings
  1

  2
DocuCentre Color f450
  4

  6

 40
0.0
 41
0.0
 42
0.0
 43
0.0
 44
0.0
 45
0.0
 46
0.0
 47
0.0
 48
0.0
 49
0.0
140
0.0
141
0.0
142
1.0
143
1.0
 70
  1712
 72
     0
 73
     0
 74
     0
  7

 75
     0
147
1.0
148
0.0
149
0.0
100
AcDbLayout
  1
Model
 70
     1
 71
     0
 10
0.0
 20
0.0
 11
12.0
 21
9.0
 12
0.0
 22
0.0
 32
0.0
 14
0.0
 24
0.0
 34
0.0
 15
0.0
 25
0.0
 35
0.0
146
0.0
 13
0.0
 23
0.0
 33
0.0
 16
1.0
 26
0.0
 36
0.0
 17
0.0
 27
1.0
 37
0.0
 76
     0
330
2C5
  0
LAYOUT
  5
2C4
102
{ACAD_XDICTIONARY
360
305
102
}
102
{ACAD_REACTORS
330
2BC
102
}
330
2BC
100
AcDbPlotSettings
  1

  2
DocuCentre Color f450
  4

  6

 40
0.0
 41
0.0
 42
0.0
 43
0.0
 44
0.0
 45
0.0
 46
0.0
 47
0.0
 48
0.0
 49
0.0
140
0.0
141
0.0
142
1.0
143
1.0
 70
   688
 72
     0
 73
     0
 74
     5
  7

 75
    16
147
1.0
148
0.0
149
0.0
100
AcDbLayout
  1
レイアウト1
 70
     1
 71
     1
 10
-0.1912502979669045
 20
-0.1912499975970411
 11
11.50208240418922
 21
8.075416444793461
 12
0.0
 22
0.0
 32
0.0
 14
1.130750010332723
 24
0.7880833242821881
 34
0.0
 15
10.17675009299451
 25
7.092749918539692
 35
0.0
146
0.0
 13
0.0
 23
0.0
 33
0.0
 16
1.0
 26
0.0
 36
0.0
 17
0.0
 27
1.0
 37
0.0
 76
     0
330
2C1
331
268
  0
MLINESTYLE
  5
2BA
102
{ACAD_REACTORS
330
2B9
102
}
330
2B9
100
AcDbMlineStyle
  2
STANDARD
 70
     0
  3

 62
   256
 51
90.0
 52
90.0
 71
     2
 49
0.5
 62
   256
  6
BYLAYER
 49
-0.5
 62
   256
  6
BYLAYER
  0
ACDBPLACEHOLDER
  5
2B2
102
{ACAD_REACTORS
330
2B1
102
}
330
2B1
  0
TABLESTYLE
  5
2C0
102
{ACAD_REACTORS
330
2BF
102
}
330
2BF
100
AcDbTableStyle
  3
Standard
 70
     0
 71
     0
 40
0.06
 41
0.06
280
     0
281
     0
  7
STANDARD
140
0.18
170
     2
 62
     0
 63
     7
283
     0
274
    -2
284
     1
 64
     0
275
    -2
285
     1
 65
     0
276
    -2
286
     1
 66
     0
277
    -2
287
     1
 67
     0
278
    -2
288
     1
 68
     0
279
    -2
289
     1
 69
     0
  7
STANDARD
140
0.25
170
     5
 62
     0
 63
     7
283
     0
274
    -2
284
     1
 64
     0
275
    -2
285
     1
 65
     0
276
    -2
286
     1
 66
     0
277
    -2
287
     1
 67
     0
278
    -2
288
     1
 68
     0
279
    -2
289
     1
 69
     0
  7
STANDARD
140
0.18
170
     5
 62
     0
 63
     7
283
     0
274
    -2
284
     1
 64
     0
275
    -2
285
     1
 65
     0
276
    -2
286
     1
 66
     0
277
    -2
287
     1
 67
     0
278
    -2
288
     1
 68
     0
279
    -2
289
     1
 69
     0
  0
DICTIONARYVAR
  5
2FC
102
{ACAD_REACTORS
330
2FB
102
}
330
2FB
100
DictionaryVariables
280
     0
  1
STANDARD
  0
DICTIONARYVAR
  5
2FD
102
{ACAD_REACTORS
330
2FB
102
}
330
2FB
100
DictionaryVariables
280
     0
  1
1
  0
DICTIONARYVAR
  5
2FE
102
{ACAD_REACTORS
330
2FB
102
}
330
2FB
100
DictionaryVariables
280
     0
  1

  0
DICTIONARY
  5
307
330
2C8
100
AcDbDictionary
280
     1
281
     1
  3
ACAD_XREC_ROUNDTRIP
360
308
  0
DICTIONARY
  5
305
330
2C4
100
AcDbDictionary
280
     1
281
     1
  3
ACAD_XREC_ROUNDTRIP
360
306
  0
XRECORD
  5
308
102
{ACAD_REACTORS
330
307
102
}
330
307
100
AcDbXrecord
280
     1
102
SHADEPLOT
 70
     0
102
SHADEPLOTRESLEVEL
 70
     2
102
SHADEPLOTCUSTOMDPI
 70
   300
  0
XRECORD
  5
306
102
{ACAD_REACTORS
330
305
102
}
330
305
100
AcDbXrecord
280
     1
102
SHADEPLOT
 70
     0
102
SHADEPLOTRESLEVEL
 70
     2
102
SHADEPLOTCUSTOMDPI
 70
   300
  0
ENDSEC
  0
EOF
