  0
SECTION
  2
HEADER
  9
$ACADVER
  1
AC1012
  9
$DWGCODEPAGE
  3
dos932
  9
$INSBASE
 10
0.0
 20
0.0
 30
0.0
  9
$EXTMIN
 10
-281.25
 20
-195.0
 30
0.0
  9
$EXTMAX
 10
285.6319057062413
 20
195.5
 30
0.0
  9
$LIMMIN
 10
-281.25
 20
-195.0
  9
$LIMMAX
 10
285.6319057062413
 20
195.5
  9
$ORTHOMODE
 70
               0
  9
$REGENMODE
 70
               1
  9
$FILLMODE
 70
               1
  9
$QTEXTMODE
 70
               0
  9
$MIRRTEXT
 70
               1
  9
$DRAGMODE
 70
               2
  9
$LTSCALE
 40
1.0
  9
$OSMODE
 70
               0
  9
$ATTMODE
 70
               1
  9
$TEXTSIZE
 40
3.2000000476837158
  9
$TRACEWID
 40
0.05
  9
$TEXTSTYLE
  7
MX_NOTE_STANDARD
  9
$CLAYER
  8
0
  9
$CELTYPE
  6
CONTINUOUS
  9
$CECOLOR
 62
             256
  9
$CELTSCALE
 40
1.0
  9
$DELOBJ
 70
               1
  9
$DISPSILH
 70
               0
  9
$DIMSCALE
 40
1.0
  9
$DIMASZ
 40
2.5
  9
$DIMEXO
 40
1.5
  9
$DIMDLI
 40
3.75
  9
$DIMRND
 40
0.0
  9
$DIMDLE
 40
0.0
  9
$DIMEXE
 40
1.5
  9
$DIMTP
 40
0.0
  9
$DIMTM
 40
0.0
  9
$DIMTXT
 40
3.2000000476837158
  9
$DIMCEN
 40
2.5
  9
$DIMTSZ
 40
0.0
  9
$DIMTOL
 70
               0
  9
$DIMLIM
 70
               0
  9
$DIMTIH
 70
               0
  9
$DIMTOH
 70
               0
  9
$DIMSE1
 70
               0
  9
$DIMSE2
 70
               0
  9
$DIMTAD
 70
               1
  9
$DIMZIN
 70
               8
  9
$DIMBLK
  1

  9
$DIMASO
 70
               1
  9
$DIMSHO
 70
               1
  9
$DIMPOST
  1

  9
$DIMAPOST
  1

  9
$DIMALT
 70
               0
  9
$DIMALTD
 70
               4
  9
$DIMALTF
 40
0.03937007874016
  9
$DIMLFAC
 40
1.0
  9
$DIMTOFL
 70
               1
  9
$DIMTVP
 40
0.0
  9
$DIMTIX
 70
               0
  9
$DIMSOXD
 70
               0
  9
$DIMSAH
 70
               0
  9
$DIMBLK1
  1

  9
$DIMBLK2
  1

  9
$DIMSTYLE
  2
MXDIMSTYLE
  9
$DIMCLRD
 70
               0
  9
$DIMCLRE
 70
               0
  9
$DIMCLRT
 70
               0
  9
$DIMTFAC
 40
1.0
  9
$DIMGAP
 40
1.0
  9
$DIMJUST
 70
               0
  9
$DIMSD1
 70
               0
  9
$DIMSD2
 70
               0
  9
$DIMTOLJ
 70
               1
  9
$DIMTZIN
 70
               0
  9
$DIMALTZ
 70
               0
  9
$DIMALTTZ
 70
               0
  9
$DIMFIT
 70
               3
  9
$DIMUPT
 70
               1
  9
$DIMUNIT
 70
               2
  9
$DIMDEC
 70
               4
  9
$DIMTDEC
 70
               4
  9
$DIMALTU
 70
               2
  9
$DIMALTTD
 70
               4
  9
$DIMTXSTY
  7
MX_NOTE_STANDARD
  9
$DIMAUNIT
 70
               0
  9
$LUNITS
 70
               2
  9
$LUPREC
 70
               4
  9
$SKETCHINC
 40
0.1
  9
$FILLETRAD
 40
0.0
  9
$AUNITS
 70
               0
  9
$AUPREC
 70
               0
  9
$MENU
  1
acad
  9
$ELEVATION
 40
0.0
  9
$PELEVATION
 40
0.0
  9
$THICKNESS
 40
0.0
  9
$LIMCHECK
 70
               0
  9
$BLIPMODE
 70
               1
  9
$CHAMFERA
 40
0.0
  9
$CHAMFERB
 40
0.0
  9
$CHAMFERC
 40
0.0
  9
$CHAMFERD
 40
0.0
  9
$SKPOLY
 70
               0
  9
$TDCREATE
 40
2453378.356620370
  9
$TDUPDATE
 40
2453378.356620370
  9
$TDINDWG
 40
0.0000000000
  9
$TDUSRTIMER
 40
0.0000000000
  9
$USRTIMER
 70
               1
  9
$ANGBASE
 50
0.0
  9
$ANGDIR
 70
               0
  9
$PDMODE
 70
               0
  9
$PDSIZE
 40
0.0
  9
$PLINEWID
 40
0.0
  9
$COORDS
 70
               1
  9
$SPLFRAME
 70
               0
  9
$SPLINETYPE
 70
               6
  9
$SPLINESEGS
 70
               8
  9
$ATTDIA
 70
               0
  9
$ATTREQ
 70
               1
  9
$HANDLING
 70
               1
  9
$HANDSEED
  5
586
  9
$SURFTAB1
 70
               6
  9
$SURFTAB2
 70
               6
  9
$SURFTYPE
 70
               6
  9
$SURFU
 70
               6
  9
$SURFV
 70
               6
  9
$UCSNAME
  2

  9
$UCSORG
 10
0.0
 20
0.0
 30
0.0
  9
$UCSXDIR
 10
1.0
 20
0.0
 30
0.0
  9
$UCSYDIR
 10
0.0
 20
1.0
 30
0.0
  9
$PUCSNAME
  2

  9
$PUCSORG
 10
0.0
 20
0.0
 30
0.0
  9
$PUCSXDIR
 10
1.0
 20
0.0
 30
0.0
  9
$PUCSYDIR
 10
0.0
 20
1.0
 30
0.0
  9
$USERI1
 70
               0
  9
$USERI2
 70
               0
  9
$USERI3
 70
               0
  9
$USERI4
 70
               0
  9
$USERI5
 70
               0
  9
$USERR1
 40
0.0
  9
$USERR2
 40
0.0
  9
$USERR3
 40
0.0
  9
$USERR4
 40
0.0
  9
$USERR5
 40
0.0
  9
$WORLDVIEW
 70
               1
  9
$SHADEDGE
 70
               3
  9
$SHADEDIF
 70
              70
  9
$TILEMODE
 70
               1
  9
$MAXACTVP
 70
              16
  9
$PINSBASE
 10
0.0
 20
0.0
 30
0.0
  9
$PLIMCHECK
 70
               0
  9
$PEXTMIN
 10
1.0000000000000000E+20
 20
1.0000000000000000E+20
 30
1.0000000000000000E+20
  9
$PEXTMAX
 10
-1.0000000000000000E+20
 20
-1.0000000000000000E+20
 30
-1.0000000000000000E+20
  9
$PLIMMIN
 10
0.0
 20
0.0
  9
$PLIMMAX
 10
12.0
 20
9.0
  9
$UNITMODE
 70
               0
  9
$VISRETAIN
 70
               0
  9
$PLINEGEN
 70
               1
  9
$PSLTSCALE
 70
               0
  9
$TREEDEPTH
 70
            3020
  9
$PICKSTYLE
 70
               1
  9
$CMLSTYLE
  2
Standard
  9
$CMLJUST
 70
               0
  9
$CMLSCALE
 40
1.0
  9
$SAVEIMAGES
 70
               0
  0
ENDSEC
  0
SECTION
  2
CLASSES
  0
CLASS
  1
LWPOLYLINE
  2
AcDbPolyline
  3
"AutoCAD"
 90
        0
280
               0
281
               1
  0
CLASS
  1
IMAGE
  2
AcDbRasterImage
  3
ISM
 90
      127
280
               0
281
               1
  0
CLASS
  1
OLE2FRAME
  2
AcDbOle2Frame
  3
""
 90
        0
280
               0
281
               1
  0
CLASS
  1
HATCH
  2
AcDbHatch
  3
"ACAD_SEDONA"
 90
        0
280
               0
281
               1
  0
CLASS
  1
DICTIONARYVAR
  2
AcDbDictionaryVar
  3
"AutoCAD"
 90
        0
280
               0
281
               0
  0
CLASS
  1
RASTERVARIABLES
  2
AcDbRasterVariables
  3
ISM
 90
        0
280
               0
281
               0
  0
CLASS
  1
IMAGEDEF
  2
AcDbRasterImageDef
  3
ISM
 90
        0
280
               0
281
               0
  0
CLASS
  1
IMAGEDEF_REACTOR
  2
AcDbRasterImageDefReactor
  3
ISM
 90
        1
280
               0
281
               0
  0
CLASS
  1
IDBUFFER
  2
AcDbIdBuffer
  3
"Acad"
 90
        0
280
               0
281
               0
  0
CLASS
  1
SPATIAL_FILTER
  2
AcDbSpatialFilter
  3
"Acad"
 90
        0
280
               0
281
               0
  0
CLASS
  1
XRECORD
  2
AcDbXrecord
  3
"<Built In>"
 90
        0
280
               0
281
               0
  0
CLASS
  1
SORTENTSTABLE
  2
AcDbSortentsTable
  3
"AutoCAD"
 90
        0
280
               0
281
               0
  0
CLASS
  1
LAYER_INDEX
  2
AcDbLayerIndex
  3
"Acad"
 90
        0
280
               0
281
               0
  0
CLASS
  1
SPATIAL_INDEX
  2
AcDbSpatialIndex
  3
"Acad"
 90
        0
280
               0
281
               0
  0
CLASS
  1
OBJECT_PTR
  2
CAseDLPNTableRecord
  3
"ASE-LPNTableRecord"
 90
        1
280
               0
281
               0
  0
CLASS
  1
LAYOUT
  2
AcDbLayout
  3
"AutoCAD 2000"
 90
        1
280
               0
281
               0
  0
CLASS
  1
PLOTSETTINGS
  2
AcDbPlotSettings
  3
"AutoCAD 2000"
 90
        1
280
               0
281
               0
  0
CLASS
  1
ACDBDICTIONARYWDFLT
  2
AcDbDictionaryWithDefault
  3
"AutoCAD 2000"
 90
        1
280
               0
281
               0
  0
CLASS
  1
ACDBPLACEHOLDER
  2
AcDbPlaceHolder
  3
"AutoCAD 2000"
 90
        1
280
               0
281
               0
  0
ENDSEC
  0
SECTION
  2
TABLES
  0
TABLE
  2
VPORT
  5
7
100
AcDbSymbolTable
 70
               1
  0
VPORT
  5
15
100
AcDbSymbolTableRecord
100
AcDbViewportTableRecord
  2
*ACTIVE
 70
               0
 10
0.0
 20
0.0
 11
1.0
 21
1.0
 12
2.1909528531206206
 22
0.25
 13
0.0
 23
0.0
 14
1.0
 24
1.0
 15
0.0
 25
0.0
 16
0.0
 26
0.0
 36
1.0
 17
0.0
 27
0.0
 37
0.0
 40
394.40500000000003
 41
1.7320508075688772
 42
50.0
 43
0.0
 44
0.0
 50
0.0
 51
0.0
 71
               0
 72
             100
 73
               1
 74
               1
 75
               0
 76
               0
 77
               0
 78
               0
  0
ENDTAB
  0
TABLE
  2
LTYPE
  5
4
100
AcDbSymbolTable
 70
               6
  0
LTYPE
  5
11
100
AcDbSymbolTableRecord
100
AcDbLinetypeTableRecord
  2
BYBLOCK
 70
              64
  3

 72
              65
 73
               0
 40
0.0
  0
LTYPE
  5
12
100
AcDbSymbolTableRecord
100
AcDbLinetypeTableRecord
  2
BYLAYER
 70
              64
  3

 72
              65
 73
               0
 40
0.0
  0
LTYPE
  5
13
100
AcDbSymbolTableRecord
100
AcDbLinetypeTableRecord
  2
CONTINUOUS
 70
              64
  3
Solid line
 72
              65
 73
               0
 40
0.0
  0
LTYPE
  5
36
100
AcDbSymbolTableRecord
100
AcDbLinetypeTableRecord
  2
CENTER
 70
              64
  3
Center ____ _ ____ _ ____ _ ____ _ ____ _ ____
 72
              65
 73
               4
 40
26.0
 49
20.0
 74
               0
 49
-2.0
 74
               0
 49
2.0
 74
               0
 49
-2.0
 74
               0
  0
LTYPE
  5
5C
100
AcDbSymbolTableRecord
100
AcDbLinetypeTableRecord
  2
PHANTOM
 70
              64
  3
Phantom ______  __  __  ______  __  __  ______
 72
              65
 73
               6
 40
30.0
 49
20.0
 74
               0
 49
-2.0
 74
               0
 49
2.0
 74
               0
 49
-2.0
 74
               0
 49
2.0
 74
               0
 49
-2.0
 74
               0
  0
LTYPE
  5
15D
100
AcDbSymbolTableRecord
100
AcDbLinetypeTableRecord
  2
DASHED
 70
              64
  3
Dashed __ __ __ __ __ __ __ __ __ __ __ __ __ _
 72
              65
 73
               2
 40
4.0
 49
2.0
 74
               0
 49
-2.0
 74
               0
  0
ENDTAB
  0
TABLE
  2
LAYER
  5
2
100
AcDbSymbolTable
 70
               2
  0
LAYER
  5
14
100
AcDbSymbolTableRecord
100
AcDbLayerTableRecord
  2
0
 70
               0
 62
               7
  6
CONTINUOUS
  0
LAYER
  5
1D
100
AcDbSymbolTableRecord
100
AcDbLayerTableRecord
  2
DEFPOINTS
 70
               0
 62
               7
  6
CONTINUOUS
  0
ENDTAB
  0
TABLE
  2
STYLE
  5
3
100
AcDbSymbolTable
 70
               1
  0
STYLE
  5
17
100
AcDbSymbolTableRecord
100
AcDbTextStyleTableRecord
  2
MX_NOTE_STANDARD
 70
               0
 40
0.0
 41
1.0
 50
0.0
 71
               0
 42
3.2000000476837158
  3
txt.shx
  4
extfont.shx
  0
ENDTAB
  0
TABLE
  2
VIEW
  5
5
100
AcDbSymbolTable
 70
               0
  0
ENDTAB
  0
TABLE
  2
UCS
  5
6
100
AcDbSymbolTable
 70
               0
  0
ENDTAB
  0
TABLE
  2
APPID
  5
8
100
AcDbSymbolTable
 70
               1
  0
APPID
  5
16
100
AcDbSymbolTableRecord
100
AcDbRegAppTableRecord
  2
ACAD
 70
               0
  0
ENDTAB
  0
TABLE
  2
DIMSTYLE
  5
9
100
AcDbSymbolTable
 70
               1
  0
DIMSTYLE
105
18
100
AcDbSymbolTableRecord
100
AcDbDimStyleTableRecord
  2
MXDIMSTYLE
 70
               0
  3

  4

  5

  6

  7

 40
1.0
 41
2.5
 42
1.5
 43
3.75
 44
1.5
 45
0.0
 46
0.0
 47
0.0
 48
0.0
 71
               0
 72
               0
 73
               0
 74
               0
 75
               0
 76
               0
 77
               1
 78
               8
140
3.2000000476837158
141
2.5
142
0.0
143
0.03937007874016
144
1.0
145
0.0
146
1.0
147
1.0
170
               0
171
               4
172
               1
173
               0
174
               0
175
               0
176
               0
177
               0
178
               0
270
               2
271
               4
272
               4
273
               2
274
               4
275
               0
280
               0
281
               0
282
               0
283
               1
284
               0
285
               0
286
               0
287
               3
288
               1
340
17
  0
ENDTAB
  0
TABLE
  2
BLOCK_RECORD
  5
1
100
AcDbSymbolTable
 70
               0
  0
BLOCK_RECORD
  5
A
100
AcDbSymbolTableRecord
100
AcDbBlockTableRecord
  2
*MODEL_SPACE
  0
BLOCK_RECORD
  5
B
100
AcDbSymbolTableRecord
100
AcDbBlockTableRecord
  2
*PAPER_SPACE
  0
ENDTAB
  0
ENDSEC
  0
SECTION
  2
BLOCKS
  0
BLOCK
  5
D
100
AcDbEntity
  8
0
100
AcDbBlockBegin
  2
*MODEL_SPACE
 70
               0
 10
0.0
 20
0.0
 30
0.0
  3
*MODEL_SPACE
  1

  0
ENDBLK
  5
E
100
AcDbEntity
  8
0
100
AcDbBlockEnd
  0
BLOCK
  5
F
100
AcDbEntity
 67
               1
  8
0
100
AcDbBlockBegin
  2
*PAPER_SPACE
 70
               0
 10
0.0
 20
0.0
 30
0.0
  3
*PAPER_SPACE
  1

  0
ENDBLK
  5
10
100
AcDbEntity
 67
               1
  8
0
100
AcDbBlockEnd
  0
ENDSEC
  0
SECTION
  2
ENTITIES
  0
LINE
  5
1E
100
AcDbEntity
  8
0
  6
CONTINUOUS
 62
               7
100
AcDbLine
 10
-281.25
 20
-195.0
 30
0.0
 11
282.099853515625
 21
-195.0
 31
0.0
  0
LINE
  5
1F
100
AcDbEntity
  8
0
  6
CONTINUOUS
 62
               7
100
AcDbLine
 10
-281.25
 20
195.5
 30
0.0
 11
-281.25
 21
-195.0
 31
0.0
  0
LINE
  5
20
100
AcDbEntity
  8
0
  6
CONTINUOUS
 62
               7
100
AcDbLine
 10
-281.25
 20
195.5
 30
0.0
 11
282.099853515625
 21
195.5
 31
0.0
  0
LINE
  5
21
100
AcDbEntity
  8
0
  6
CONTINUOUS
 62
               7
100
AcDbLine
 10
282.099853515625
 20
195.5
 30
0.0
 11
282.099853515625
 21
-195.0
 31
0.0
  0
LINE
  5
22
100
AcDbEntity
  8
0
  6
CONTINUOUS
 62
               7
100
AcDbLine
 10
162.0999755859375
 20
195.5
 30
0.0
 11
162.0999755859375
 21
175.5
 31
0.0
  0
LINE
  5
23
100
AcDbEntity
  8
0
  6
CONTINUOUS
 62
               7
100
AcDbLine
 10
162.0999755859375
 20
175.5
 30
0.0
 11
282.099853515625
 21
175.5
 31
0.0
  0
MTEXT
  5
24
100
AcDbEntity
  8
0
  6
CONTINUOUS
 62
               7
100
AcDbMText
 10
198.27702406779611
 20
185.5
 30
0.0
 40
6.3000001907348633
 41
0.0
 71
               4
 72
               1
  1
\W1.311;\A1;Ver. 1.0
  0
MTEXT
  5
25
100
AcDbEntity
  8
0
  6
CONTINUOUS
 62
               7
100
AcDbMText
 10
170.28099805280428
 20
-185.0
 30
0.0
 40
9.0
 41
0.0
 71
               4
 72
               1
  1
\W1.121;\A1;KOGANEI CORP.
  0
LINE
  5
26
100
AcDbEntity
  8
0
  6
CONTINUOUS
 62
               7
100
AcDbLine
 10
162.0999755859375
 20
-175.0
 30
0.0
 11
282.099853515625
 21
-175.0
 31
0.0
  0
LINE
  5
27
100
AcDbEntity
  8
0
  6
CONTINUOUS
 62
               7
100
AcDbLine
 10
162.0999755859375
 20
-175.0
 30
0.0
 11
162.0999755859375
 21
-195.0
 31
0.0
  0
MTEXT
  5
28
100
AcDbEntity
  8
0
  6
CONTINUOUS
 62
               7
100
AcDbMText
 10
-268.2882353765595
 20
-53.799999999999983
 30
0.0
 40
6.3000001907348633
 41
0.0
 71
               4
 72
               1
  1
\W1.059;\A1;MODEL:JE12F6-22-GL
  0
LINE
  5
29
100
AcDbEntity
  8
0
  6
CONTINUOUS
 62
               7
100
AcDbLine
 10
-281.25
 20
-38.799999999999983
 30
0.0
 11
282.099853515625
 21
-38.799999999999983
 31
0.0
  0
MTEXT
  5
2A
100
AcDbEntity
  8
0
  6
CONTINUOUS
 62
               7
100
AcDbMText
 10
13.386691381253012
 20
160.5
 30
0.0
 40
6.3000001907348633
 41
0.0
 71
               4
 72
               1
  1
\W1.059;\A1;MODEL:JE12F6-22-PS
  0
MTEXT
  5
2B
100
AcDbEntity
  8
0
  6
CONTINUOUS
 62
               7
100
AcDbMText
 10
51.152559329728497
 20
140.5
 30
0.0
 40
6.3000001907348633
 41
0.0
 71
               4
 72
               1
  1
\W1.026;\A1;JE12SF6-22-PS
  0
MTEXT
  5
2C
100
AcDbEntity
  8
0
  6
CONTINUOUS
 62
               7
100
AcDbMText
 10
51.152559329728497
 20
150.5
 30
0.0
 40
6.3000001907348633
 41
0.0
 71
               4
 72
               1
  1
\W1.026;\A1;JE12LF6-22-PS
  0
LINE
  5
2D
100
AcDbEntity
  8
0
  6
CONTINUOUS
 62
               7
100
AcDbLine
 10
0.4249267578125
 20
-38.799999999999983
 30
0.0
 11
0.4249267578125
 21
195.5
 31
0.0
  0
MTEXT
  5
2E
100
AcDbEntity
  8
0
  6
CONTINUOUS
 62
               7
100
AcDbMText
 10
-268.2882353765595
 20
160.5
 30
0.0
 40
6.3000001907348633
 41
0.0
 71
               4
 72
               1
  1
\W1.059;\A1;MODEL:JE12F6-22-PL
  0
MTEXT
  5
2F
100
AcDbEntity
  8
0
  6
CONTINUOUS
 62
               7
100
AcDbMText
 10
-230.52236742808401
 20
150.5
 30
0.0
 40
6.3000001907348633
 41
0.0
 71
               4
 72
               1
  1
\W1.026;\A1;JE12LF6-22-PL
  0
MTEXT
  5
30
100
AcDbEntity
  8
0
  6
CONTINUOUS
 62
               7
100
AcDbMText
 10
-230.52236742808401
 20
140.5
 30
0.0
 40
6.3000001907348633
 41
0.0
 71
               4
 72
               1
  1
\W1.026;\A1;JE12SF6-22-PL
  0
MTEXT
  5
31
100
AcDbEntity
  8
0
  6
CONTINUOUS
 62
               7
100
AcDbMText
 10
-257.88333446177035
 20
185.5
 30
0.0
 40
6.3000001907348633
 41
0.0
 71
               4
 72
               1
  1
\W1.111;\A1;JC･JE SERIES
  0
LINE
  5
32
100
AcDbEntity
  8
0
  6
CONTINUOUS
 62
               7
100
AcDbLine
 10
-161.25
 20
195.5
 30
0.0
 11
-161.25
 21
175.5
 31
0.0
  0
LINE
  5
33
100
AcDbEntity
  8
0
  6
CONTINUOUS
 62
               7
100
AcDbLine
 10
-281.25
 20
175.5
 30
0.0
 11
-161.25
 21
175.5
 31
0.0
  0
LINE
  5
34
100
AcDbEntity
  8
0
  6
CONTINUOUS
 62
               7
100
AcDbLine
 10
94.316569010416686
 20
-195.0
 30
0.0
 11
94.316569010416686
 21
-38.800000011920929
 31
0.0
  0
MTEXT
  5
35
100
AcDbEntity
  8
0
  6
CONTINUOUS
 62
               7
100
AcDbMText
 10
107.21656894683839
 20
-53.799999999999983
 30
0.0
 40
6.3000001907348633
 41
0.0
 71
               4
 72
               1
  1
\A1;-84
  0
LINE
  5
37
100
AcDbEntity
  8
0
  6
CENTER
 62
               2
100
AcDbLine
 10
140.65554777949077
 20
-76.073299737922014
 30
0.0
 11
140.65554777949077
 21
-133.20133035905843
 31
0.0
  0
LINE
  5
38
100
AcDbEntity
  8
0
  6
CONTINUOUS
 62
               7
100
AcDbLine
 10
218.10537251497766
 20
-101.20255047948893
 30
0.0
 11
228.20537251497763
 21
-101.20255047948893
 31
0.0
  0
LINE
  5
39
100
AcDbEntity
  8
0
  6
CONTINUOUS
 62
               7
100
AcDbLine
 10
228.20537251497763
 20
-100.90255047948898
 30
0.0
 11
228.40537251497764
 21
-100.70255047948893
 31
0.0
  0
LINE
  5
3A
100
AcDbEntity
  8
0
  6
CONTINUOUS
 62
               7
100
AcDbLine
 10
218.10537251497766
 20
-100.90255047948898
 30
0.0
 11
217.90537251497764
 21
-100.70255047948893
 31
0.0
  0
LINE
  5
3B
100
AcDbEntity
  8
0
  6
CONTINUOUS
 62
               7
100
AcDbLine
 10
218.10537251497766
 20
-100.90255047948898
 30
0.0
 11
218.10537251497766
 21
-101.20255047948893
 31
0.0
  0
LINE
  5
3C
100
AcDbEntity
  8
0
  6
CONTINUOUS
 62
               7
100
AcDbLine
 10
228.20537251497763
 20
-100.90255047948898
 30
0.0
 11
228.20537251497763
 21
-101.20255047948893
 31
0.0
  0
LINE
  5
3D
100
AcDbEntity
  8
0
  6
CONTINUOUS
 62
               7
100
AcDbLine
 10
228.85537251497763
 20
-100.70255047948893
 30
0.0
 11
229.15537251497764
 21
-101.00255047948895
 31
0.0
  0
LINE
  5
3E
100
AcDbEntity
  8
0
  6
CONTINUOUS
 62
               7
100
AcDbLine
 10
217.45537251497763
 20
-100.70255047948893
 30
0.0
 11
217.15537251497764
 21
-101.00255047948895
 31
0.0
  0
LINE
  5
3F
100
AcDbEntity
  8
0
  6
CONTINUOUS
 62
               7
100
AcDbLine
 10
217.45537251497763
 20
-100.70255047948893
 30
0.0
 11
217.90537251497764
 21
-100.70255047948893
 31
0.0
  0
LINE
  5
40
100
AcDbEntity
  8
0
  6
CONTINUOUS
 62
               7
100
AcDbLine
 10
228.40537251497764
 20
-100.70255047948893
 30
0.0
 11
228.85537251497763
 21
-100.70255047948893
 31
0.0
  0
LINE
  5
41
100
AcDbEntity
  8
0
  6
CONTINUOUS
 62
               7
100
AcDbLine
 10
217.25537251142558
 20
-114.70255047948893
 30
0.0
 11
217.15537251497761
 21
-114.80255047593687
 31
0.0
  0
LINE
  5
42
100
AcDbEntity
  8
0
  6
CONTINUOUS
 62
               7
100
AcDbLine
 10
229.15537251497764
 20
-114.80255047948896
 30
0.0
 11
229.05537251497762
 21
-114.70255047948893
 31
0.0
  0
LINE
  5
43
100
AcDbEntity
  8
0
  6
CONTINUOUS
 62
               7
100
AcDbLine
 10
217.15537251497767
 20
-114.70255047948893
 30
0.0
 11
229.15537251497767
 21
-114.70255047948893
 31
0.0
  0
LINE
  5
44
100
AcDbEntity
  8
0
  6
CONTINUOUS
 62
               7
100
AcDbLine
 10
217.15537251497764
 20
-123.07385105467796
 30
0.0
 11
217.15537251497767
 21
-101.00255047948895
 31
0.0
  0
LINE
  5
45
100
AcDbEntity
  8
0
  6
CONTINUOUS
 62
               7
100
AcDbLine
 10
229.15537251497767
 20
-119.85846074550449
 30
0.0
 11
229.15537251497767
 21
-101.00255047948895
 31
0.0
  0
ARC
  5
46
100
AcDbEntity
  8
0
  6
CONTINUOUS
 62
               4
100
AcDbCircle
 10
218.88537251497763
 20
-99.490266746734221
 30
0.0
 40
0.5
100
AcDbArc
 50
179.99999999999963
 51
269.99999999999937
  0
ARC
  5
47
100
AcDbEntity
  8
0
  6
CONTINUOUS
 62
               4
100
AcDbCircle
 10
227.42537251497765
 20
-99.490266746734221
 30
0.0
 40
0.5
100
AcDbArc
 50
269.99999999999937
 51
0.0
  0
LINE
  5
48
100
AcDbEntity
  8
0
  6
CONTINUOUS
 62
               4
100
AcDbLine
 10
218.38537251497763
 20
-98.95902020202135
 30
0.0
 11
218.38537251497763
 21
-99.490266746734221
 31
0.0
  0
LINE
  5
49
100
AcDbEntity
  8
0
  6
CONTINUOUS
 62
               4
100
AcDbLine
 10
227.92537251497765
 20
-96.402784906228419
 30
0.0
 11
227.92537251497765
 21
-99.490266746734221
 31
0.0
  0
LINE
  5
4A
100
AcDbEntity
  8
0
  6
CONTINUOUS
 62
               4
100
AcDbLine
 10
218.88537251497763
 20
-99.990266746734221
 30
0.0
 11
227.42537251497765
 21
-99.990266746734221
 31
0.0
  0
LINE
  5
4B
100
AcDbEntity
  8
0
  6
CONTINUOUS
 62
               4
100
AcDbLine
 10
228.15537251497764
 20
-96.341156591969309
 30
0.0
 11
228.15537251497764
 21
-101.20255047948893
 31
0.0
  0
ARC
  5
4C
100
AcDbEntity
  8
0
  6
CONTINUOUS
 62
               4
100
AcDbCircle
 10
227.65566936284185
 20
-100.70284732735314
 30
0.0
 40
0.4997032403068001
100
AcDbArc
 50
269.96596353714654
 51
0.0340364628527164
  0
LINE
  5
4D
100
AcDbEntity
  8
0
  6
CONTINUOUS
 62
               4
100
AcDbLine
 10
218.15537251497764
 20
-99.020648516280517
 30
0.0
 11
218.15537251497764
 21
-101.20255047948893
 31
0.0
  0
ARC
  5
4E
100
AcDbEntity
  8
0
  6
CONTINUOUS
 62
               4
100
AcDbCircle
 10
218.65566953918378
 20
-100.70225345528286
 30
0.0
 40
0.5002971123771115
100
AcDbArc
 50
180.03401625554557
 51
269.96598374445358
  0
LINE
  5
4F
100
AcDbEntity
  8
0
  6
CONTINUOUS
 62
               7
100
AcDbLine
 10
131.7555477794908
 20
-114.70255048375833
 30
0.0
 11
149.65554777949077
 21
-114.70255048375833
 31
0.0
  0
LINE
  5
50
100
AcDbEntity
  8
0
  6
CONTINUOUS
 62
               7
100
AcDbLine
 10
131.95554777949079
 20
-100.70255048375839
 30
0.0
 11
131.65554777949077
 21
-101.0025504837584
 31
0.0
  0
LINE
  5
51
100
AcDbEntity
  8
0
  6
CONTINUOUS
 62
               7
100
AcDbLine
 10
131.6555477794908
 20
-114.80255048375835
 30
0.0
 11
131.7555477794908
 21
-114.70255048375839
 31
0.0
  0
LINE
  5
52
100
AcDbEntity
  8
0
  6
CONTINUOUS
 62
               7
100
AcDbLine
 10
131.95554777949079
 20
-100.70255048375839
 30
0.0
 11
149.6555477794908
 21
-100.70255048375839
 31
0.0
  0
LINE
  5
53
100
AcDbEntity
  8
0
  6
CONTINUOUS
 62
               7
100
AcDbLine
 10
149.6555477794908
 20
-116.13426794123643
 30
0.0
 11
149.6555477794908
 21
-100.70255048375839
 31
0.0
  0
LINE
  5
54
100
AcDbEntity
  8
0
  6
CONTINUOUS
 62
               7
100
AcDbLine
 10
131.65554777949077
 20
-120.95735340499664
 30
0.0
 11
131.65554777949077
 21
-101.00255048375834
 31
0.0
  0
LINE
  5
55
100
AcDbEntity
  8
0
  6
CONTINUOUS
 62
               4
100
AcDbLine
 10
147.65554777949077
 20
-100.70255048375839
 30
0.0
 11
147.65554777949077
 21
-92.884912979062449
 31
0.0
  0
LINE
  5
56
100
AcDbEntity
  8
0
  6
CONTINUOUS
 62
               4
100
AcDbLine
 10
133.65554777949077
 20
-96.636201673098185
 30
0.0
 11
133.65554777949077
 21
-100.70255048375839
 31
0.0
  0
LINE
  5
57
100
AcDbEntity
  8
0
  6
CONTINUOUS
 62
               4
100
AcDbLine
 10
150.65555059601755
 20
-101.20255078893416
 30
0.0
 11
150.65555059601755
 21
-92.081064647082997
 31
0.0
  0
LINE
  5
58
100
AcDbEntity
  8
0
  6
CONTINUOUS
 62
               4
100
AcDbLine
 10
150.65555059601755
 20
-101.20255078893416
 30
0.0
 11
152.96755059601756
 21
-100.12455078893419
 31
0.0
  0
LINE
  5
59
100
AcDbEntity
  8
0
  6
CONTINUOUS
 62
               4
100
AcDbLine
 10
149.6555477794908
 20
-101.20255078893416
 30
0.0
 11
150.65555059601755
 21
-101.20255078893416
 31
0.0
  0
LINE
  5
5A
100
AcDbEntity
  8
0
  6
CONTINUOUS
 62
               4
100
AcDbLine
 10
153.25555059601757
 20
-91.384396746762093
 30
0.0
 11
153.25555059601757
 21
-99.670550788934179
 31
0.0
  0
ARC
  5
5B
100
AcDbEntity
  8
0
  6
CONTINUOUS
 62
               4
100
AcDbCircle
 10
152.75508615149957
 20
-99.671423564217889
 30
0.0
 40
0.5004652055472239
100
AcDbArc
 50
295.12116424320402
 51
0.0999197646782735
  0
LINE
  5
5D
100
AcDbEntity
  8
0
  6
PHANTOM
 62
               2
100
AcDbLine
 10
205.14270104813727
 20
-102.50738332719192
 30
0.0
 11
241.16804389840649
 21
-92.854421803407945
 31
0.0
  0
LINE
  5
5E
100
AcDbEntity
  8
0
  6
PHANTOM
 62
               2
100
AcDbLine
 10
117.15318741250189
 20
-101.05799580664024
 30
0.0
 11
166.10472187002293
 21
-87.941471680483176
 31
0.0
  0
LINE
  5
5F
100
AcDbEntity
  8
0
  6
PHANTOM
 62
               2
100
AcDbLine
 10
205.14270104813727
 20
-126.29263667315826
 30
0.0
 11
241.16804389840649
 21
-116.63967514937428
 31
0.0
  0
LINE
  5
60
100
AcDbEntity
  8
0
  6
PHANTOM
 62
               2
100
AcDbLine
 10
117.15318747210654
 20
-124.84324913770541
 30
0.0
 11
166.10472187002293
 21
-111.72672502751942
 31
0.0
  0
LINE
  5
61
100
AcDbEntity
  8
0
  6
CENTER
 62
             200
100
AcDbLine
 10
154.17061296756253
 20
-103.502550465902
 30
0.0
 11
148.45171886897498
 21
-103.502550465902
 31
0.0
  0
LINE
  5
62
100
AcDbEntity
  8
0
  6
CONTINUOUS
 62
               4
100
AcDbLine
 10
150.75554777949077
 20
-102.40255046590198
 30
0.0
 11
149.6555477794908
 21
-102.40255046590198
 31
0.0
  0
LINE
  5
63
100
AcDbEntity
  8
0
  6
CONTINUOUS
 62
               4
100
AcDbLine
 10
150.75554777949077
 20
-104.60255046590197
 30
0.0
 11
150.57553778359596
 21
-104.60255046590197
 31
0.0
  0
ARC
  5
64
100
AcDbEntity
  8
0
  6
CONTINUOUS
 62
               4
100
AcDbCircle
 10
152.75554777949077
 20
-107.87286986159677
 30
0.0
 40
0.5
100
AcDbArc
 50
270.00000000000023
 51
0.0
  0
ARC
  5
65
100
AcDbEntity
  8
0
  6
CONTINUOUS
 62
               4
100
AcDbCircle
 10
152.75554777949077
 20
-102.20255046590199
 30
0.0
 40
0.5
100
AcDbArc
 50
0.0
 51
89.999999999999815
  0
ARC
  5
66
100
AcDbEntity
  8
0
  6
CONTINUOUS
 62
               4
100
AcDbCircle
 10
150.85554777949079
 20
-101.80255046590196
 30
0.0
 40
0.1
100
AcDbArc
 50
89.999999999999815
 51
179.99999999999963
  0
ARC
  5
67
100
AcDbEntity
  8
0
  6
CONTINUOUS
 62
               4
100
AcDbCircle
 10
150.85554777949079
 20
-105.20255046590199
 30
0.0
 40
0.1
100
AcDbArc
 50
179.99999999999963
 51
269.99999999999937
  0
LINE
  5
68
100
AcDbEntity
  8
0
  6
CONTINUOUS
 62
               4
100
AcDbLine
 10
152.75554777949077
 20
-108.37286986159677
 30
0.0
 11
151.85554777949079
 21
-108.37286986159677
 31
0.0
  0
LINE
  5
69
100
AcDbEntity
  8
0
  6
CONTINUOUS
 62
               4
100
AcDbLine
 10
150.85554777949079
 20
-105.30255046590196
 30
0.0
 11
151.85554777949079
 21
-105.30255046590196
 31
0.0
  0
LINE
  5
6A
100
AcDbEntity
  8
0
  6
CONTINUOUS
 62
               4
100
AcDbLine
 10
153.25554777949077
 20
-107.87286986159677
 30
0.0
 11
153.25554777949077
 21
-102.20255046590199
 31
0.0
  0
LINE
  5
6B
100
AcDbEntity
  8
0
  6
CONTINUOUS
 62
               4
100
AcDbLine
 10
151.85554777949079
 20
-108.37286986159677
 30
0.0
 11
151.85554777949079
 21
-105.30255046590196
 31
0.0
  0
LINE
  5
6C
100
AcDbEntity
  8
0
  6
CONTINUOUS
 62
               4
100
AcDbLine
 10
150.85554777949079
 20
-101.70255046590199
 30
0.0
 11
152.75554777949077
 21
-101.70255046590199
 31
0.0
  0
LINE
  5
6D
100
AcDbEntity
  8
0
  6
CONTINUOUS
 62
               4
100
AcDbLine
 10
150.75554777949077
 20
-105.20255046590199
 30
0.0
 11
150.75554777949077
 21
-101.80255046590196
 31
0.0
  0
LINE
  5
6E
100
AcDbEntity
  8
0
  6
CONTINUOUS
 62
               4
100
AcDbLine
 10
153.25554780187531
 20
-107.58267747948071
 30
0.0
 11
152.65554777803345
 21
-107.58267747948071
 31
0.0
  0
LINE
  5
6F
100
AcDbEntity
  8
0
  6
CONTINUOUS
 62
               4
100
AcDbLine
 10
153.20939878644867
 20
-108.08267748208669
 30
0.0
 11
152.65554777803345
 21
-108.08267748208669
 31
0.0
  0
LINE
  5
70
100
AcDbEntity
  8
0
  6
CONTINUOUS
 62
               4
100
AcDbLine
 10
152.6555477794908
 20
-107.58267747948071
 30
0.0
 11
152.6555477794908
 21
-108.08267748208669
 31
0.0
  0
ARC
  5
71
100
AcDbEntity
  8
0
  6
CONTINUOUS
 62
               4
100
AcDbCircle
 10
150.27016589157307
 20
-104.5025504837584
 30
0.0
 40
0.3
100
AcDbArc
 50
2.8609771159547184
 51
89.999999999999815
  0
LINE
  5
72
100
AcDbEntity
  8
0
  6
CONTINUOUS
 62
               4
100
AcDbLine
 10
150.75554777949083
 20
-108.2045504837584
 30
0.0
 11
150.56979196655527
 21
-104.48757666691773
 31
0.0
  0
ARC
  5
73
100
AcDbEntity
  8
0
  6
CONTINUOUS
 62
               4
100
AcDbCircle
 10
150.32843289805169
 20
-113.94370473649064
 30
0.0
 40
0.1
100
AcDbArc
 50
269.99999999999937
 51
344.99999994881006
  0
ARC
  5
74
100
AcDbEntity
  8
0
  6
CONTINUOUS
 62
               4
100
AcDbCircle
 10
150.38202273672943
 20
-113.7437047364906
 30
0.0
 40
0.1
100
AcDbArc
 50
344.99999994881091
 51
89.999999999999801
  0
ARC
  5
75
100
AcDbEntity
  8
0
  6
CONTINUOUS
 62
               4
100
AcDbCircle
 10
150.4892024140849
 20
-113.34370473649062
 30
0.0
 40
0.1
100
AcDbArc
 50
269.99999999999937
 51
344.99999994880994
  0
ARC
  5
76
100
AcDbEntity
  8
0
  6
CONTINUOUS
 62
               4
100
AcDbCircle
 10
150.54279225276264
 20
-113.14370473649063
 30
0.0
 40
0.1
100
AcDbArc
 50
344.99999994881108
 51
89.999999999999801
  0
ARC
  5
77
100
AcDbEntity
  8
0
  6
CONTINUOUS
 62
               4
100
AcDbCircle
 10
150.64997193011811
 20
-112.7437047364906
 30
0.0
 40
0.1
100
AcDbArc
 50
269.99999999999937
 51
344.99999994881006
  0
ARC
  5
78
100
AcDbEntity
  8
0
  6
CONTINUOUS
 62
               4
100
AcDbCircle
 10
150.70356176879585
 20
-112.54370473649061
 30
0.0
 40
0.1
100
AcDbArc
 50
344.99999994881091
 51
89.999999999999801
  0
ARC
  5
79
100
AcDbEntity
  8
0
  6
CONTINUOUS
 62
               4
100
AcDbCircle
 10
150.81074144615133
 20
-112.14370473649063
 30
0.0
 40
0.1
100
AcDbArc
 50
269.99999999999937
 51
344.99999994880994
  0
ARC
  5
7A
100
AcDbEntity
  8
0
  6
CONTINUOUS
 62
               4
100
AcDbCircle
 10
150.86433128482906
 20
-111.94370473649064
 30
0.0
 40
0.1
100
AcDbArc
 50
344.99999994881108
 51
89.999999999999801
  0
ARC
  5
7B
100
AcDbEntity
  8
0
  6
CONTINUOUS
 62
               4
100
AcDbCircle
 10
150.97151096218454
 20
-111.54370473649061
 30
0.0
 40
0.1
100
AcDbArc
 50
269.99999999999937
 51
344.99999994881006
  0
ARC
  5
7C
100
AcDbEntity
  8
0
  6
CONTINUOUS
 62
               4
100
AcDbCircle
 10
151.02510080086228
 20
-111.34370473649062
 30
0.0
 40
0.1
100
AcDbArc
 50
344.99999994881091
 51
89.999999999999801
  0
LINE
  5
7D
100
AcDbEntity
  8
0
  6
CONTINUOUS
 62
               4
100
AcDbLine
 10
150.19811035916939
 20
-114.04370473649061
 30
0.0
 11
150.32843289897573
 21
-114.04370473649061
 31
0.0
  0
LINE
  5
7E
100
AcDbEntity
  8
0
  6
CONTINUOUS
 62
               4
100
AcDbLine
 10
150.30529003665578
 20
-113.64370473649063
 30
0.0
 11
150.38202273771896
 21
-113.64370473649063
 31
0.0
  0
LINE
  5
7F
100
AcDbEntity
  8
0
  6
CONTINUOUS
 62
               4
100
AcDbLine
 10
150.358879875399
 20
-113.44370473649064
 30
0.0
 11
150.4892024152054
 21
-113.44370473649064
 31
0.0
  0
LINE
  5
80
100
AcDbEntity
  8
0
  6
CONTINUOUS
 62
               4
100
AcDbLine
 10
150.46605955288544
 20
-113.04370473649061
 30
0.0
 11
150.54279225394856
 21
-113.04370473649061
 31
0.0
  0
LINE
  5
81
100
AcDbEntity
  8
0
  6
CONTINUOUS
 62
               4
100
AcDbLine
 10
150.51964939162866
 20
-112.84370473649062
 30
0.0
 11
150.649971931435
 21
-112.84370473649062
 31
0.0
  0
LINE
  5
82
100
AcDbEntity
  8
0
  6
CONTINUOUS
 62
               4
100
AcDbLine
 10
150.62682906911505
 20
-112.44370473649064
 30
0.0
 11
150.70356177017823
 21
-112.44370473649064
 31
0.0
  0
LINE
  5
83
100
AcDbEntity
  8
0
  6
CONTINUOUS
 62
               4
100
AcDbLine
 10
150.68041890785827
 20
-112.2437047364906
 30
0.0
 11
150.81074144766461
 21
-112.2437047364906
 31
0.0
  0
LINE
  5
84
100
AcDbEntity
  8
0
  6
CONTINUOUS
 62
               4
100
AcDbLine
 10
150.78759858534471
 20
-111.84370473649062
 30
0.0
 11
150.86433128640783
 21
-111.84370473649062
 31
0.0
  0
LINE
  5
85
100
AcDbEntity
  8
0
  6
CONTINUOUS
 62
               4
100
AcDbLine
 10
150.84118842408787
 20
-111.64370473649063
 30
0.0
 11
150.97151096389427
 21
-111.64370473649063
 31
0.0
  0
LINE
  5
86
100
AcDbEntity
  8
0
  6
CONTINUOUS
 62
               4
100
AcDbLine
 10
150.94836810157432
 20
-111.2437047364906
 30
0.0
 11
151.0251008026375
 21
-111.2437047364906
 31
0.0
  0
LINE
  5
87
100
AcDbEntity
  8
0
  6
CONTINUOUS
 62
               4
100
AcDbLine
 10
150.42502548065744
 20
-113.96958664108718
 30
0.0
 11
150.47861531933523
 21
-113.76958664108719
 31
0.0
  0
LINE
  5
88
100
AcDbEntity
  8
0
  6
CONTINUOUS
 62
               4
100
AcDbLine
 10
150.58579499669071
 20
-113.36958664108715
 30
0.0
 11
150.63938483536839
 21
-113.16958664108716
 31
0.0
  0
LINE
  5
89
100
AcDbEntity
  8
0
  6
CONTINUOUS
 62
               4
100
AcDbLine
 10
150.74656451272386
 20
-112.76958664108719
 30
0.0
 11
150.80015435140166
 21
-112.5695866410872
 31
0.0
  0
LINE
  5
8A
100
AcDbEntity
  8
0
  6
CONTINUOUS
 62
               4
100
AcDbLine
 10
150.90733402875713
 20
-112.16958664108716
 30
0.0
 11
150.96092386743481
 21
-111.96958664108718
 31
0.0
  0
LINE
  5
8B
100
AcDbEntity
  8
0
  6
CONTINUOUS
 62
               4
100
AcDbLine
 10
151.06810354479029
 20
-111.5695866410872
 30
0.0
 11
151.12169338346808
 21
-111.36958664108715
 31
0.0
  0
LINE
  5
8C
100
AcDbEntity
  8
0
  6
CONTINUOUS
 62
               4
100
AcDbLine
 10
150.21512744490786
 20
-113.98019611365953
 30
0.0
 11
151.04532550935431
 21
-110.88185476787248
 31
0.0
  0
ARC
  5
8D
100
AcDbEntity
  8
0
  6
CONTINUOUS
 62
               4
100
AcDbCircle
 10
150.75554777949083
 20
-110.80420898183615
 30
0.0
 40
0.3
100
AcDbArc
 50
344.99999159956064
 51
0.0
  0
ARC
  5
8E
100
AcDbEntity
  8
0
  6
CONTINUOUS
 62
               4
100
AcDbCircle
 10
149.9253496775795
 20
-113.90255048375838
 30
0.0
 40
0.3
100
AcDbArc
 50
269.99999999999937
 51
345.00001052269107
  0
LINE
  5
8F
100
AcDbEntity
  8
0
  6
CONTINUOUS
 62
               4
100
AcDbLine
 10
149.6555477794908
 20
-114.20255048375839
 30
0.0
 11
149.9253496775795
 21
-114.20255048375839
 31
0.0
  0
LINE
  5
90
100
AcDbEntity
  8
0
  6
CONTINUOUS
 62
               4
100
AcDbLine
 10
149.65554778192922
 20
-104.20255048375844
 30
0.0
 11
150.27016589157307
 21
-104.20255048375844
 31
0.0
  0
LINE
  5
91
100
AcDbEntity
  8
0
  6
CONTINUOUS
 62
               4
100
AcDbLine
 10
151.05554777949084
 20
-108.50455048375841
 30
0.0
 11
151.05554777949084
 21
-110.80420898183615
 31
0.0
  0
ARC
  5
92
100
AcDbEntity
  8
0
  6
CONTINUOUS
 62
               4
100
AcDbCircle
 10
150.75554777949083
 20
-108.50455048375841
 30
0.0
 40
0.3
100
AcDbArc
 50
0.0
 51
89.999999999999815
  0
LINE
  5
93
100
AcDbEntity
  8
0
  6
CONTINUOUS
 62
               4
100
AcDbLine
 10
217.85537251535538
 20
-114.20255048374273
 30
0.0
 11
228.45537251535541
 21
-114.20255048336853
 31
0.0
  0
LINE
  5
94
100
AcDbEntity
  8
0
  6
CONTINUOUS
 62
               4
100
AcDbLine
 10
226.34819283554319
 20
-107.43267747961971
 30
0.0
 11
224.96255219059123
 21
-108.23267748180152
 31
0.0
  0
LINE
  5
95
100
AcDbEntity
  8
0
  6
CONTINUOUS
 62
               4
100
AcDbLine
 10
226.34819283489779
 20
-107.43267747999232
 30
0.0
 11
224.26126062885166
 21
-103.81800486746319
 31
0.0
  0
ARC
  5
96
100
AcDbEntity
  8
0
  6
CONTINUOUS
 62
               4
100
AcDbCircle
 10
224.71255218985831
 20
-107.79966478033248
 30
0.0
 40
0.5
100
AcDbArc
 50
210.00000000202218
 51
300.00000008741563
  0
LINE
  5
97
100
AcDbEntity
  8
0
  6
CONTINUOUS
 62
               4
100
AcDbLine
 10
226.53120553676592
 20
-106.7496647780936
 30
0.0
 11
224.83854296006675
 21
-103.81788719541923
 31
0.0
  0
ARC
  5
98
100
AcDbEntity
  8
0
  6
CONTINUOUS
 62
               4
100
AcDbCircle
 10
223.15537251497764
 20
-103.50255046569924
 30
0.0
 40
1.6500000000000001
100
AcDbArc
 50
355.13616201929131
 51
244.86383791664005
  0
LINE
  5
99
100
AcDbEntity
  8
0
  6
CONTINUOUS
 62
               4
100
AcDbLine
 10
224.27953948797492
 20
-108.04966478034775
 30
0.0
 11
222.58687690913237
 21
-105.117887193961
 31
0.0
  0
LINE
  5
9A
100
AcDbEntity
  8
0
  6
CONTINUOUS
 62
               4
100
AcDbLine
 10
226.08838521539437
 20
-107.58267747957868
 30
0.0
 11
222.80217595823089
 21
-101.89079608233239
 31
0.0
  0
LINE
  5
9B
100
AcDbEntity
  8
0
  6
CONTINUOUS
 62
               4
100
AcDbLine
 10
225.22235980998374
 20
-108.08267748202299
 30
0.0
 11
221.93615055226496
 21
-102.39079608381492
 31
0.0
  0
ARC
  5
9C
100
AcDbEntity
  8
0
  6
CONTINUOUS
 62
               4
100
AcDbCircle
 10
222.32706928800235
 20
-105.26788719397015
 30
0.0
 40
0.3
100
AcDbArc
 50
30.000000002022531
 51
64.863837916640307
  0
ARC
  5
9D
100
AcDbEntity
  8
0
  6
CONTINUOUS
 62
               4
100
AcDbCircle
 10
225.09835058119677
 20
-103.66788719541002
 30
0.0
 40
0.3
100
AcDbArc
 50
175.13616201929182
 51
210.00000000202243
  0
LINE
  5
9E
100
AcDbEntity
  8
0
  6
CONTINUOUS
 62
               4
100
AcDbLine
 10
224.96255218939893
 20
-108.2326774797364
 30
0.0
 11
222.87561998335278
 21
-104.61800486720732
 31
0.0
  0
ARC
  5
9F
100
AcDbEntity
  8
0
  6
CONTINUOUS
 62
               4
100
AcDbCircle
 10
223.15537251454774
 20
-103.50255046594742
 30
0.0
 40
1.1500000000000001
100
AcDbArc
 50
145.77146180160696
 51
255.92079019249044
  0
ARC
  5
A0
100
AcDbEntity
  8
0
  6
CONTINUOUS
 62
               4
100
AcDbCircle
 10
226.0981928348825
 20
-106.99966477810888
 30
0.0
 40
0.5
100
AcDbArc
 50
300.00000008741654
 51
30.000000002022595
  0
ARC
  5
A1
100
AcDbEntity
  8
0
  6
CONTINUOUS
 62
               4
100
AcDbCircle
 10
223.1553725149777
 20
-103.50255046569924
 30
0.0
 40
1.1500000000000001
100
AcDbArc
 50
344.07920981155343
 51
94.22853820243769
  0
ARC
  5
A2
100
AcDbEntity
  8
0
  6
CONTINUOUS
 62
               4
100
AcDbCircle
 10
228.45537251534481
 20
-113.90255048336857
 30
0.0
 40
0.3
100
AcDbArc
 50
270.00000000202203
 51
0.0000000020226292
  0
ARC
  5
A3
100
AcDbEntity
  8
0
  6
CONTINUOUS
 62
               4
100
AcDbCircle
 10
217.85537251534478
 20
-113.90255048374271
 30
0.0
 40
0.3
100
AcDbArc
 50
180.00000000202223
 51
270.00000000202203
  0
LINE
  5
A4
100
AcDbEntity
  8
0
  6
CONTINUOUS
 62
               4
100
AcDbLine
 10
228.75537250837635
 20
-110.84370473609016
 30
0.0
 11
217.5553725143368
 21
-110.84370473648556
 31
0.0
  0
ARC
  5
A5
100
AcDbEntity
  8
0
  6
CONTINUOUS
 62
               4
100
AcDbCircle
 10
226.4553725152636
 20
-111.6025504834391
 30
0.0
 40
0.3
100
AcDbArc
 50
0.0000000020226547
 51
90.00000000202246
  0
ARC
  5
A6
100
AcDbEntity
  8
0
  6
CONTINUOUS
 62
               4
100
AcDbCircle
 10
219.85537251526361
 20
-111.6025504836721
 30
0.0
 40
0.3
100
AcDbArc
 50
90.00000000202246
 51
180.00000000202226
  0
LINE
  5
A7
100
AcDbEntity
  8
0
  6
CONTINUOUS
 62
               4
100
AcDbLine
 10
225.45537251500235
 20
-104.20255048347454
 30
0.0
 11
227.75537251500236
 21
-104.20255048339334
 31
0.0
  0
LINE
  5
A8
100
AcDbEntity
  8
0
  6
CONTINUOUS
 62
               4
100
AcDbLine
 10
226.45537251525303
 20
-111.30255048343915
 30
0.0
 11
219.85537251525304
 21
-111.30255048367215
 31
0.0
  0
LINE
  5
A9
100
AcDbEntity
  8
0
  6
CONTINUOUS
 62
               4
100
AcDbLine
 10
226.75537251534223
 20
-113.82934537154621
 30
0.0
 11
226.75537251526362
 21
-111.60255048342852
 31
0.0
  0
LINE
  5
AA
100
AcDbEntity
  8
0
  6
CONTINUOUS
 62
               4
100
AcDbLine
 10
219.55537251534221
 20
-113.82934537180039
 30
0.0
 11
219.55537251526363
 21
-111.60255048368269
 31
0.0
  0
LINE
  5
AB
100
AcDbEntity
  8
0
  6
CONTINUOUS
 62
               4
100
AcDbLine
 10
228.75537251534482
 20
-113.90255048335797
 30
0.0
 11
228.75537251503769
 21
-105.20255048335804
 31
0.0
  0
LINE
  5
AC
100
AcDbEntity
  8
0
  6
CONTINUOUS
 62
               4
100
AcDbLine
 10
217.5553725153448
 20
-113.90255048375332
 30
0.0
 11
217.55537251503767
 21
-105.20255048375344
 31
0.0
  0
LINE
  5
AD
100
AcDbEntity
  8
0
  6
CONTINUOUS
 62
               4
100
AcDbLine
 10
220.85537251500236
 20
-104.20255048363694
 30
0.0
 11
218.55537251500238
 21
-104.20255048371814
 31
0.0
  0
LINE
  5
AE
100
AcDbEntity
  8
0
  6
CONTINUOUS
 62
               4
100
AcDbLine
 10
228.75537252023881
 20
-108.20455048335799
 30
0.0
 11
225.01126958055934
 21
-108.20455048349018
 31
0.0
  0
LINE
  5
AF
100
AcDbEntity
  8
0
  6
CONTINUOUS
 62
               4
100
AcDbLine
 10
217.55537251079869
 20
-111.24370473648554
 30
0.0
 11
228.75537251079868
 21
-111.24370473609014
 31
0.0
  0
LINE
  5
B0
100
AcDbEntity
  8
0
  6
CONTINUOUS
 62
               4
100
AcDbLine
 10
226.75537251526507
 20
-111.64370473616079
 30
0.0
 11
228.7553725108128
 21
-111.64370473609017
 31
0.0
  0
LINE
  5
B1
100
AcDbEntity
  8
0
  6
CONTINUOUS
 62
               4
100
AcDbLine
 10
226.75537251527214
 20
-111.84370473616077
 30
0.0
 11
228.75537251081988
 21
-111.84370473609016
 31
0.0
  0
LINE
  5
B2
100
AcDbEntity
  8
0
  6
CONTINUOUS
 62
               4
100
AcDbLine
 10
226.75537251528627
 20
-112.24370473616075
 30
0.0
 11
228.75537251083401
 21
-112.24370473609014
 31
0.0
  0
LINE
  5
B3
100
AcDbEntity
  8
0
  6
CONTINUOUS
 62
               4
100
AcDbLine
 10
226.75537251529332
 20
-112.4437047361608
 30
0.0
 11
228.75537251084106
 21
-112.44370473609018
 31
0.0
  0
LINE
  5
B4
100
AcDbEntity
  8
0
  6
CONTINUOUS
 62
               4
100
AcDbLine
 10
226.75537251530744
 20
-112.84370473616077
 30
0.0
 11
228.75537251085518
 21
-112.84370473609016
 31
0.0
  0
LINE
  5
B5
100
AcDbEntity
  8
0
  6
CONTINUOUS
 62
               4
100
AcDbLine
 10
226.75537251531449
 20
-113.04370473616076
 30
0.0
 11
228.75537251086223
 21
-113.04370473609015
 31
0.0
  0
LINE
  5
B6
100
AcDbEntity
  8
0
  6
CONTINUOUS
 62
               4
100
AcDbLine
 10
226.75537251532862
 20
-113.4437047361608
 30
0.0
 11
228.75537251087636
 21
-113.44370473609018
 31
0.0
  0
LINE
  5
B7
100
AcDbEntity
  8
0
  6
CONTINUOUS
 62
               4
100
AcDbLine
 10
226.75537251533569
 20
-113.64370473616079
 30
0.0
 11
228.75537251088343
 21
-113.64370473609017
 31
0.0
  0
LINE
  5
B8
100
AcDbEntity
  8
0
  6
CONTINUOUS
 62
               4
100
AcDbLine
 10
217.59065478467122
 20
-114.0437047364843
 30
0.0
 11
228.72009024475756
 21
-114.0437047360914
 31
0.0
  0
LINE
  5
B9
100
AcDbEntity
  8
0
  6
CONTINUOUS
 62
               4
100
AcDbLine
 10
219.55537251526505
 20
-111.64370473641496
 30
0.0
 11
217.55537251971728
 21
-111.64370473648557
 31
0.0
  0
LINE
  5
BA
100
AcDbEntity
  8
0
  6
CONTINUOUS
 62
               4
100
AcDbLine
 10
219.55537251527213
 20
-111.84370473641495
 30
0.0
 11
217.55537251972436
 21
-111.84370473648556
 31
0.0
  0
LINE
  5
BB
100
AcDbEntity
  8
0
  6
CONTINUOUS
 62
               4
100
AcDbLine
 10
219.55537251528625
 20
-112.24370473641493
 30
0.0
 11
217.55537251973848
 21
-112.24370473648554
 31
0.0
  0
LINE
  5
BC
100
AcDbEntity
  8
0
  6
CONTINUOUS
 62
               4
100
AcDbLine
 10
219.5553725152933
 20
-112.44370473641497
 30
0.0
 11
217.55537251974553
 21
-112.44370473648559
 31
0.0
  0
LINE
  5
BD
100
AcDbEntity
  8
0
  6
CONTINUOUS
 62
               4
100
AcDbLine
 10
219.55537251530743
 20
-112.84370473641495
 30
0.0
 11
217.55537251975966
 21
-112.84370473648556
 31
0.0
  0
LINE
  5
BE
100
AcDbEntity
  8
0
  6
CONTINUOUS
 62
               4
100
AcDbLine
 10
219.55537251531447
 20
-113.04370473641494
 30
0.0
 11
217.55537251976671
 21
-113.04370473648555
 31
0.0
  0
LINE
  5
BF
100
AcDbEntity
  8
0
  6
CONTINUOUS
 62
               4
100
AcDbLine
 10
219.5553725153286
 20
-113.44370473641497
 30
0.0
 11
217.55537251978083
 21
-113.44370473648559
 31
0.0
  0
LINE
  5
C0
100
AcDbEntity
  8
0
  6
CONTINUOUS
 62
               4
100
AcDbLine
 10
219.55537251533568
 20
-113.64370473641496
 30
0.0
 11
217.55537251978791
 21
-113.64370473648557
 31
0.0
  0
ARC
  5
C1
100
AcDbEntity
  8
0
  6
CONTINUOUS
 62
               4
100
AcDbCircle
 10
223.15537251506237
 20
-105.90255048355573
 30
0.0
 40
1.3
100
AcDbArc
 50
180.00000000202232
 51
295.58827457679422
  0
LINE
  5
C2
100
AcDbEntity
  8
0
  6
CONTINUOUS
 62
               4
100
AcDbLine
 10
221.85537251506238
 20
-105.90255048394366
 30
0.0
 11
221.85537251503769
 21
-105.20255048394361
 31
0.0
  0
ARC
  5
C3
100
AcDbEntity
  8
0
  6
CONTINUOUS
 62
               4
100
AcDbCircle
 10
220.85537251503769
 20
-105.20255048363694
 30
0.0
 40
1.0
100
AcDbArc
 50
0.000000002022731
 51
90.000000002022531
  0
ARC
  5
C4
100
AcDbEntity
  8
0
  6
CONTINUOUS
 62
               4
100
AcDbCircle
 10
225.45537251503768
 20
-105.20255048347454
 30
0.0
 40
1.0
100
AcDbArc
 50
90.000000002022531
 51
110.90095671103151
  0
ARC
  5
C5
100
AcDbEntity
  8
0
  6
CONTINUOUS
 62
               4
100
AcDbCircle
 10
227.75537251503769
 20
-105.20255048339334
 30
0.0
 40
1.0
100
AcDbArc
 50
0.000000002022731
 51
90.000000002022531
  0
ARC
  5
C6
100
AcDbEntity
  8
0
  6
CONTINUOUS
 62
               4
100
AcDbCircle
 10
218.55537251503767
 20
-105.20255048371814
 30
0.0
 40
1.0
100
AcDbArc
 50
90.000000002022531
 51
180.00000000202232
  0
LINE
  5
C7
100
AcDbEntity
  8
0
  6
CONTINUOUS
 62
               4
100
AcDbLine
 10
219.55537251088998
 20
-113.82934537180039
 30
0.0
 11
226.75537251088997
 21
-113.82934537154621
 31
0.0
  0
LINE
  5
C8
100
AcDbEntity
  8
0
  6
CONTINUOUS
 62
               4
100
AcDbLine
 10
224.41917944510919
 20
-108.20455048351107
 30
0.0
 11
217.55537251514363
 21
-108.20455048375334
 31
0.0
  0
LINE
  5
C9
100
AcDbEntity
  8
0
  6
CENTER
 62
             200
100
AcDbLine
 10
225.470302650702
 20
-103.50255046561752
 30
0.0
 11
220.85537251497769
 21
-103.50255046618472
 31
0.0
  0
LINE
  5
CA
100
AcDbEntity
  8
0
  6
CENTER
 62
               2
100
AcDbLine
 10
223.15537251403504
 20
-76.802550784664675
 30
0.0
 11
223.15537251602612
 21
-133.20133035905843
 31
0.0
  0
LINE
  5
CB
100
AcDbEntity
  8
0
  6
CONTINUOUS
 62
               7
100
AcDbLine
 10
-147.41572661023517
 20
-137.60451569985057
 30
0.0
 11
-159.41572661023514
 21
-137.60451569985059
 31
0.0
  0
LINE
  5
CC
100
AcDbEntity
  8
0
  6
CONTINUOUS
 62
               7
100
AcDbLine
 10
-159.41572661023514
 20
-151.29851569985064
 30
0.0
 11
-159.41572661023542
 21
-84.904515699850606
 31
0.0
  0
LINE
  5
CD
100
AcDbEntity
  8
0
  6
CENTER
 62
               2
100
AcDbLine
 10
-153.41572661023542
 20
-60.704516005026306
 30
0.0
 11
-153.41572661023503
 21
-175.84360594997128
 31
0.0
  0
LINE
  5
CE
100
AcDbEntity
  8
0
  6
CONTINUOUS
 62
               7
100
AcDbLine
 10
-159.11572661023541
 20
-84.604515699850595
 30
0.0
 11
-159.41572661023542
 21
-84.904515699850606
 31
0.0
  0
LINE
  5
CF
100
AcDbEntity
  8
0
  6
CONTINUOUS
 62
               7
100
AcDbLine
 10
-147.71572661023538
 20
-84.604515699850566
 30
0.0
 11
-147.41572661023537
 21
-84.904515699850563
 31
0.0
  0
LINE
  5
D0
100
AcDbEntity
  8
0
  6
CONTINUOUS
 62
               7
100
AcDbLine
 10
-159.11572661023541
 20
-84.604515699850595
 30
0.0
 11
-147.71572661023538
 21
-84.604515699850566
 31
0.0
  0
LINE
  5
D1
100
AcDbEntity
  8
0
  6
CONTINUOUS
 62
               7
100
AcDbLine
 10
-147.51572660668324
 20
-98.604515699850566
 30
0.0
 11
-147.41572661023531
 21
-98.7045156962985
 31
0.0
  0
LINE
  5
D2
100
AcDbEntity
  8
0
  6
CONTINUOUS
 62
               7
100
AcDbLine
 10
-159.41572661023537
 20
-98.704515699850603
 30
0.0
 11
-159.31572661023534
 21
-98.604515699850609
 31
0.0
  0
LINE
  5
D3
100
AcDbEntity
  8
0
  6
CONTINUOUS
 62
               7
100
AcDbLine
 10
-147.41572661023531
 20
-98.604515699850566
 30
0.0
 11
-159.41572661023531
 21
-98.604515699850609
 31
0.0
  0
LINE
  5
D4
100
AcDbEntity
  8
0
  6
CONTINUOUS
 62
               4
100
AcDbLine
 10
-158.41572661023542
 20
-62.604515699850616
 30
0.0
 11
-158.41572661023537
 21
-84.604515699850595
 31
0.0
  0
LINE
  5
D5
100
AcDbEntity
  8
0
  6
CONTINUOUS
 62
               4
100
AcDbLine
 10
-151.61572661023547
 20
-62.70451569985061
 30
0.0
 11
-157.91572661023542
 21
-62.704515699850639
 31
0.0
  0
LINE
  5
D6
100
AcDbEntity
  8
0
  6
CONTINUOUS
 62
               4
100
AcDbLine
 10
-148.41572661023542
 20
-62.60451569985058
 30
0.0
 11
-158.41572661023542
 21
-62.604515699850616
 31
0.0
  0
ARC
  5
D7
100
AcDbEntity
  8
0
  6
CONTINUOUS
 62
               4
100
AcDbCircle
 10
-157.91572661023542
 20
-63.204515699850639
 30
0.0
 40
0.5
100
AcDbArc
 50
90.000000000000028
 51
179.99999999999983
  0
LINE
  5
D8
100
AcDbEntity
  8
0
  6
CONTINUOUS
 62
               4
100
AcDbLine
 10
-148.41572661023542
 20
-62.60451569985058
 30
0.0
 11
-148.41572661023537
 21
-84.604515699850566
 31
0.0
  0
LINE
  5
D9
100
AcDbEntity
  8
0
  6
CONTINUOUS
 62
               4
100
AcDbLine
 10
-148.41572661023542
 20
-63.204515699850603
 30
0.0
 11
-151.61572661023547
 21
-63.20451569985061
 31
0.0
  0
LINE
  5
DA
100
AcDbEntity
  8
0
  6
CONTINUOUS
 62
               4
100
AcDbLine
 10
-148.41572661023542
 20
-64.204515699850603
 30
0.0
 11
-151.61572661023547
 21
-64.204515699850617
 31
0.0
  0
LINE
  5
DB
100
AcDbEntity
  8
0
  6
CONTINUOUS
 62
               4
100
AcDbLine
 10
-151.61572661023547
 20
-62.70451569985061
 30
0.0
 11
-151.61572661023547
 21
-64.204515699850617
 31
0.0
  0
ARC
  5
DC
100
AcDbEntity
  8
0
  6
CONTINUOUS
 62
               4
100
AcDbCircle
 10
-149.21163146357731
 20
-63.204420553192406
 30
0.0
 40
0.5999048608870732
100
AcDbArc
 50
359.99091272245317
 51
90.009087277546371
  0
ARC
  5
DD
100
AcDbEntity
  8
0
  6
CONTINUOUS
 62
               4
100
AcDbCircle
 10
-151.01281461547251
 20
-63.203427694613588
 30
0.0
 40
0.5989129830170392
100
AcDbArc
 50
89.895914524772962
 51
180.1040854752269
  0
LINE
  5
DE
100
AcDbEntity
  8
0
  6
CENTER
 62
               2
100
AcDbLine
 10
-151.41572661023531
 20
-90.404515699850506
 30
0.0
 11
-155.41572661023531
 21
-90.404515699850521
 31
0.0
  0
CIRCLE
  5
DF
100
AcDbEntity
  8
0
  6
CONTINUOUS
 62
               7
100
AcDbCircle
 10
-153.41572661023531
 20
-90.404515699850506
 30
0.0
 40
1.0
  0
LINE
  5
E0
100
AcDbEntity
  8
0
  6
CENTER
 62
               2
100
AcDbLine
 10
-149.91572661023525
 20
-106.50451569985056
 30
0.0
 11
-156.91572661023525
 21
-106.50451569985059
 31
0.0
  0
LINE
  5
E1
100
AcDbEntity
  8
0
  6
CENTER
 62
               2
100
AcDbLine
 10
-149.9157266102352
 20
-129.70451569985056
 30
0.0
 11
-156.9157266102352
 21
-129.70451569985059
 31
0.0
  0
CIRCLE
  5
E2
100
AcDbEntity
  8
0
  6
CONTINUOUS
 62
               7
100
AcDbCircle
 10
-153.4157266102352
 20
-129.70451569985059
 30
0.0
 40
2.1000000000000001
  0
CIRCLE
  5
E3
100
AcDbEntity
  8
0
  6
CONTINUOUS
 62
               2
100
AcDbCircle
 10
-153.4157266102352
 20
-129.70451569985059
 30
0.0
 40
2.5
  0
CIRCLE
  5
E4
100
AcDbEntity
  8
0
  6
CONTINUOUS
 62
               7
100
AcDbCircle
 10
-153.41572661023525
 20
-106.50451569985057
 30
0.0
 40
2.1000000000000001
  0
CIRCLE
  5
E5
100
AcDbEntity
  8
0
  6
CONTINUOUS
 62
               2
100
AcDbCircle
 10
-153.41572661023525
 20
-106.50451569985057
 30
0.0
 40
2.5
  0
LINE
  5
E6
100
AcDbEntity
  8
0
  6
CENTER
 62
               2
100
AcDbLine
 10
-149.91572661023525
 20
-118.10451569985058
 30
0.0
 11
-156.91572661023525
 21
-118.10451569985061
 31
0.0
  0
CIRCLE
  5
E7
100
AcDbEntity
  8
0
  6
CONTINUOUS
 62
               7
100
AcDbCircle
 10
-153.41572661023525
 20
-118.10451569985059
 30
0.0
 40
2.1000000000000001
  0
CIRCLE
  5
E8
100
AcDbEntity
  8
0
  6
CONTINUOUS
 62
               2
100
AcDbCircle
 10
-153.41572661023525
 20
-118.10451569985059
 30
0.0
 40
2.5
  0
LINE
  5
E9
100
AcDbEntity
  8
0
  6
CENTER
 62
               2
100
AcDbLine
 10
-147.21572661023527
 20
-109.40451569985055
 30
0.0
 11
-150.21572661023527
 21
-109.40451569985053
 31
0.0
  0
LINE
  5
EA
100
AcDbEntity
  8
0
  6
CENTER
 62
               2
100
AcDbLine
 10
-148.71572661023527
 20
-110.90451569985055
 30
0.0
 11
-148.71572661023527
 21
-107.90451569985055
 31
0.0
  0
CIRCLE
  5
EB
100
AcDbEntity
  8
0
  6
CONTINUOUS
 62
               7
100
AcDbCircle
 10
-148.71572661023527
 20
-109.40451569985055
 30
0.0
 40
1.075
  0
LINE
  5
EC
100
AcDbEntity
  8
0
  6
CENTER
 62
               2
100
AcDbLine
 10
-159.61572661023519
 20
-126.80451569985065
 30
0.0
 11
-156.61572661023519
 21
-126.80451569985065
 31
0.0
  0
LINE
  5
ED
100
AcDbEntity
  8
0
  6
CENTER
 62
               2
100
AcDbLine
 10
-158.11572661023519
 20
-125.30451569985064
 30
0.0
 11
-158.11572661023519
 21
-128.30451569985064
 31
0.0
  0
CIRCLE
  5
EE
100
AcDbEntity
  8
0
  6
CONTINUOUS
 62
               7
100
AcDbCircle
 10
-158.11572661023519
 20
-126.80451569985064
 30
0.0
 40
1.075
  0
LINE
  5
EF
100
AcDbEntity
  8
0
  6
CONTINUOUS
 62
               7
100
AcDbLine
 10
-147.41572661023537
 20
-84.910515699850563
 30
0.0
 11
-147.41572661023514
 21
-151.30451569985058
 31
0.0
  0
ARC
  5
F0
100
AcDbEntity
  8
0
  6
CONTINUOUS
 62
               4
100
AcDbCircle
 10
-155.81863860499794
 20
-173.00560370508762
 30
0.0
 40
0.5989129830170392
100
AcDbArc
 50
269.89591452477259
 51
0.1040854752273245
  0
ARC
  5
F1
100
AcDbEntity
  8
0
  6
CONTINUOUS
 62
               4
100
AcDbCircle
 10
-157.61982175689315
 20
-173.00461084650877
 30
0.0
 40
0.5999048608870732
100
AcDbArc
 50
179.99091272245357
 51
270.00908727754597
  0
LINE
  5
F2
100
AcDbEntity
  8
0
  6
CONTINUOUS
 62
               4
100
AcDbLine
 10
-155.21572661023498
 20
-173.5045156998506
 30
0.0
 11
-155.21572661023498
 21
-172.0045156998506
 31
0.0
  0
LINE
  5
F3
100
AcDbEntity
  8
0
  6
CONTINUOUS
 62
               4
100
AcDbLine
 10
-158.41572661023503
 20
-172.0045156998506
 30
0.0
 11
-155.21572661023498
 21
-172.0045156998506
 31
0.0
  0
LINE
  5
F4
100
AcDbEntity
  8
0
  6
CONTINUOUS
 62
               4
100
AcDbLine
 10
-158.41572661023503
 20
-173.0045156998506
 30
0.0
 11
-155.21572661023498
 21
-173.0045156998506
 31
0.0
  0
LINE
  5
F5
100
AcDbEntity
  8
0
  6
CONTINUOUS
 62
               4
100
AcDbLine
 10
-158.41572661023503
 20
-173.60451569985062
 30
0.0
 11
-158.41572661023514
 21
-151.60451569985062
 31
0.0
  0
ARC
  5
F6
100
AcDbEntity
  8
0
  6
CONTINUOUS
 62
               4
100
AcDbCircle
 10
-148.91572661023503
 20
-173.00451569985057
 30
0.0
 40
0.5
100
AcDbArc
 50
269.9999999999996
 51
0.0000000000002036
  0
LINE
  5
F7
100
AcDbEntity
  8
0
  6
CONTINUOUS
 62
               4
100
AcDbLine
 10
-158.41572661023503
 20
-173.60451569985062
 30
0.0
 11
-148.41572661023503
 21
-173.60451569985059
 31
0.0
  0
LINE
  5
F8
100
AcDbEntity
  8
0
  6
CONTINUOUS
 62
               4
100
AcDbLine
 10
-155.21572661023498
 20
-173.5045156998506
 30
0.0
 11
-148.91572661023503
 21
-173.50451569985057
 31
0.0
  0
LINE
  5
F9
100
AcDbEntity
  8
0
  6
CONTINUOUS
 62
               4
100
AcDbLine
 10
-148.41572661023503
 20
-173.60451569985059
 30
0.0
 11
-148.41572661023514
 21
-151.60451569985059
 31
0.0
  0
LINE
  5
FA
100
AcDbEntity
  8
0
  6
CONTINUOUS
 62
               7
100
AcDbLine
 10
-159.11572661023519
 20
-151.60451569985062
 30
0.0
 11
-147.71572661023512
 21
-151.60451569985059
 31
0.0
  0
LINE
  5
FB
100
AcDbEntity
  8
0
  6
CONTINUOUS
 62
               7
100
AcDbLine
 10
-147.71572661023512
 20
-151.60451569985059
 30
0.0
 11
-147.41572661023514
 21
-151.30451569985058
 31
0.0
  0
LINE
  5
FC
100
AcDbEntity
  8
0
  6
CONTINUOUS
 62
               7
100
AcDbLine
 10
-159.11572661023519
 20
-151.60451569985062
 30
0.0
 11
-159.4157266102352
 21
-151.30451569985061
 31
0.0
  0
CIRCLE
  5
FD
100
AcDbEntity
  8
0
  6
CONTINUOUS
 62
               7
100
AcDbCircle
 10
-153.41572661023514
 20
-145.8045156998507
 30
0.0
 40
1.0
  0
LINE
  5
FE
100
AcDbEntity
  8
0
  6
CENTER
 62
               2
100
AcDbLine
 10
-151.41572661023514
 20
-145.80451569985067
 30
0.0
 11
-155.41572661023514
 21
-145.8045156998507
 31
0.0
  0
LINE
  5
FF
100
AcDbEntity
  8
0
  6
CONTINUOUS
 62
               4
100
AcDbLine
 10
-147.41572661023523
 20
-130.60151570411995
 30
0.0
 11
-145.11572661819699
 21
-130.60151570411995
 31
0.0
  0
LINE
  5
100
100
AcDbEntity
  8
0
  6
CONTINUOUS
 62
               4
100
AcDbLine
 10
-147.41572661023531
 20
-105.60151570411993
 30
0.0
 11
-145.11572661819719
 21
-105.60151570411992
 31
0.0
  0
LINE
  5
101
100
AcDbEntity
  8
0
  6
CONTINUOUS
 62
               4
100
AcDbLine
 10
-145.11572661819699
 20
-130.60151569611111
 30
0.0
 11
-145.11572661819719
 21
-105.60151569611108
 31
0.0
  0
LINE
  5
102
100
AcDbEntity
  8
0
  6
CENTER
 62
               2
100
AcDbLine
 10
-150.01572660668319
 20
-112.10451570767194
 30
0.0
 11
-142.71572661464506
 21
-112.10451570767194
 31
0.0
  0
LINE
  5
103
100
AcDbEntity
  8
0
  6
CENTER
 62
               2
100
AcDbLine
 10
-150.01572660668319
 20
-124.10451570767194
 30
0.0
 11
-142.71572661464506
 21
-124.10451570767194
 31
0.0
  0
LINE
  5
104
100
AcDbEntity
  8
0
  6
CONTINUOUS
 62
             200
100
AcDbLine
 10
-38.818156049116482
 20
-167.35251539040536
 30
0.0
 11
-37.374156049116522
 21
-164.85251539040533
 31
0.0
  0
LINE
  5
105
100
AcDbEntity
  8
0
  6
CONTINUOUS
 62
             200
100
AcDbLine
 10
-38.318156049116482
 20
-167.35251539040536
 30
0.0
 11
-36.874156049116522
 21
-164.85251539040533
 31
0.0
  0
LINE
  5
106
100
AcDbEntity
  8
0
  6
CONTINUOUS
 62
               4
100
AcDbLine
 10
-41.149057171794055
 20
-163.60251539040533
 30
0.0
 11
-40.449057171794067
 21
-163.60251539040533
 31
0.0
  0
LINE
  5
107
100
AcDbEntity
  8
0
  6
CONTINUOUS
 62
               4
100
AcDbLine
 10
-46.749059988320852
 20
-151.60451569558114
 30
0.0
 11
-46.749059988320852
 21
-173.00451538533761
 31
0.0
  0
LINE
  5
108
100
AcDbEntity
  8
0
  6
CONTINUOUS
 62
               4
100
AcDbLine
 10
-60.749059988320852
 20
-173.00451539040534
 30
0.0
 11
-60.749059988320852
 21
-151.60451569558114
 31
0.0
  0
LINE
  5
109
100
AcDbEntity
  8
0
  6
CONTINUOUS
 62
               4
100
AcDbLine
 10
-43.749057171794078
 20
-151.10451539040534
 30
0.0
 11
-43.749057171794078
 21
-169.60251539040536
 31
0.0
  0
LINE
  5
10A
100
AcDbEntity
  8
0
  6
CONTINUOUS
 62
               4
100
AcDbLine
 10
-43.749057171794078
 20
-151.10451539040534
 30
0.0
 11
-41.437057171794066
 21
-152.18251539040534
 31
0.0
  0
LINE
  5
10B
100
AcDbEntity
  8
0
  6
CONTINUOUS
 62
               4
100
AcDbLine
 10
-34.452156049116496
 20
-166.3516980075928
 30
0.0
 11
-30.952156049116496
 21
-166.3516980075928
 31
0.0
  0
LINE
  5
10C
100
AcDbEntity
  8
0
  6
CONTINUOUS
 62
               4
100
AcDbLine
 10
-34.452156049116496
 20
-165.8516980075928
 30
0.0
 11
-30.952156049116496
 21
-165.8516980075928
 31
0.0
  0
ARC
  5
10D
100
AcDbEntity
  8
0
  6
CONTINUOUS
 62
               4
100
AcDbCircle
 10
-40.449057171794067
 20
-168.10251539040536
 30
0.0
 40
0.5
100
AcDbArc
 50
269.99999999999937
 51
0.0
  0
ARC
  5
10E
100
AcDbEntity
  8
0
  6
CONTINUOUS
 62
               4
100
AcDbCircle
 10
-40.449057171794067
 20
-164.10251539040533
 30
0.0
 40
0.5
100
AcDbArc
 50
0.0
 51
89.999999999999815
  0
LINE
  5
10F
100
AcDbEntity
  8
0
  6
CONTINUOUS
 62
               4
100
AcDbLine
 10
-41.149057171794055
 20
-168.60251539040536
 30
0.0
 11
-40.449057171794067
 21
-168.60251539040536
 31
0.0
  0
LINE
  5
110
100
AcDbEntity
  8
0
  6
CONTINUOUS
 62
               4
100
AcDbLine
 10
-39.949057171794067
 20
-164.10251539040533
 30
0.0
 11
-39.949057171794067
 21
-168.10251539040536
 31
0.0
  0
LINE
  5
111
100
AcDbEntity
  8
0
  6
CONTINUOUS
 62
               4
100
AcDbLine
 10
-44.749059988320823
 20
-151.10451539040534
 30
0.0
 11
-43.749057171794078
 21
-151.10451539040534
 31
0.0
  0
LINE
  5
112
100
AcDbEntity
  8
0
  6
CONTINUOUS
 62
               4
100
AcDbLine
 10
-30.952156049116496
 20
-166.3516980075928
 30
0.0
 11
-30.952156049116496
 21
-165.8516980075928
 31
0.0
  0
ARC
  5
113
100
AcDbEntity
  8
0
  6
CONTINUOUS
 62
               4
100
AcDbCircle
 10
-60.066155134979027
 20
-173.00461053706354
 30
0.0
 40
0.5999048608870732
100
AcDbArc
 50
236.43994933325826
 51
270.00908727754575
  0
ARC
  5
114
100
AcDbEntity
  8
0
  6
CONTINUOUS
 62
               4
100
AcDbCircle
 10
-60.249059988320795
 20
-173.00451539040534
 30
0.0
 40
0.5
100
AcDbArc
 50
179.99999999999963
 51
245.26960130313901
  0
ARC
  5
115
100
AcDbEntity
  8
0
  6
CONTINUOUS
 62
               4
100
AcDbCircle
 10
-47.249059988320795
 20
-173.00451539040534
 30
0.0
 40
0.5
100
AcDbArc
 50
270.00000000000023
 51
0.0
  0
LINE
  5
116
100
AcDbEntity
  8
0
  6
CONTINUOUS
 62
               4
100
AcDbLine
 10
-47.249059988320795
 20
-173.50451539040534
 30
0.0
 11
-48.749059988320795
 21
-173.50451539040534
 31
0.0
  0
LINE
  5
117
100
AcDbEntity
  8
0
  6
CONTINUOUS
 62
               4
100
AcDbLine
 10
-60.749059988320852
 20
-172.00451539040543
 30
0.0
 11
-48.749057171794078
 21
-172.00451539040543
 31
0.0
  0
LINE
  5
118
100
AcDbEntity
  8
0
  6
CONTINUOUS
 62
               4
100
AcDbLine
 10
-48.749057171794078
 20
-173.60451539040542
 30
0.0
 11
-48.749057171794078
 21
-172.00451539040543
 31
0.0
  0
LINE
  5
119
100
AcDbEntity
  8
0
  6
CONTINUOUS
 62
               4
100
AcDbLine
 10
-60.749059988320795
 20
-173.00451539040546
 30
0.0
 11
-57.049059988320863
 21
-173.00451539040546
 31
0.0
  0
ARC
  5
11A
100
AcDbEntity
  8
0
  6
CONTINUOUS
 62
               4
100
AcDbCircle
 10
-60.066155134979027
 20
-173.00461053706354
 30
0.0
 40
0.5999048608870732
100
AcDbArc
 50
179.99091272245337
 51
236.43994933325826
  0
ARC
  5
11B
100
AcDbEntity
  8
0
  6
CONTINUOUS
 62
               4
100
AcDbCircle
 10
-58.264971983083825
 20
-173.00560339564237
 30
0.0
 40
0.5989129830170392
100
AcDbArc
 50
269.89591452477231
 51
0.1040854752270701
  0
LINE
  5
11C
100
AcDbEntity
  8
0
  6
CONTINUOUS
 62
               4
100
AcDbLine
 10
-60.066155134979084
 20
-173.60451539040534
 30
0.0
 11
-48.749057171794078
 21
-173.60451539040542
 31
0.0
  0
LINE
  5
11D
100
AcDbEntity
  8
0
  6
CONTINUOUS
 62
               4
100
AcDbLine
 10
-57.049059988320863
 20
-173.00451539040546
 30
0.0
 11
-57.049059988320863
 21
-173.60451539040537
 31
0.0
  0
LINE
  5
11E
100
AcDbEntity
  8
0
  6
CONTINUOUS
 62
               4
100
AcDbLine
 10
-41.149057171794055
 20
-168.60251539040536
 30
0.0
 11
-41.149057171794055
 21
-152.63651539040532
 31
0.0
  0
LINE
  5
11F
100
AcDbEntity
  8
0
  6
CONTINUOUS
 62
               4
100
AcDbLine
 10
-39.949057171794067
 20
-166.75251539040534
 30
0.0
 11
-38.472156049116478
 21
-166.75251539040534
 31
0.0
  0
LINE
  5
120
100
AcDbEntity
  8
0
  6
CONTINUOUS
 62
               4
100
AcDbLine
 10
-39.949057171794067
 20
-165.45251539040532
 30
0.0
 11
-37.722156049116478
 21
-165.45251539040532
 31
0.0
  0
LINE
  5
121
100
AcDbEntity
  8
0
  6
CONTINUOUS
 62
               4
100
AcDbLine
 10
-46.749057171794078
 20
-169.60251539040536
 30
0.0
 11
-41.649057171794055
 21
-169.60251539040536
 31
0.0
  0
ARC
  5
122
100
AcDbEntity
  8
0
  6
CONTINUOUS
 62
               4
100
AcDbCircle
 10
-41.649019647788663
 20
-169.10255291441075
 30
0.0
 40
0.4999624774027422
100
AcDbArc
 50
269.99569974300039
 51
0.0043002569990523
  0
ARC
  5
123
100
AcDbEntity
  8
0
  6
CONTINUOUS
 62
               4
100
AcDbCircle
 10
-41.649521616312057
 20
-152.63564261512161
 30
0.0
 40
0.5004652055472239
100
AcDbArc
 50
359.90008023532084
 51
64.878835756795922
  0
LINE
  5
124
100
AcDbEntity
  8
0
  6
CONTINUOUS
 62
               4
100
AcDbLine
 10
-41.149057171794055
 20
-169.10251539040536
 30
0.0
 11
-41.149057171794055
 21
-168.60251539040536
 31
0.0
  0
LINE
  5
125
100
AcDbEntity
  8
0
  6
CONTINUOUS
 62
               4
100
AcDbLine
 10
-37.222156049116478
 20
-165.45251539040532
 30
0.0
 11
-34.452156049116496
 21
-165.45251539040532
 31
0.0
  0
LINE
  5
126
100
AcDbEntity
  8
0
  6
CONTINUOUS
 62
               4
100
AcDbLine
 10
-37.972156049116478
 20
-166.75251539040534
 30
0.0
 11
-34.452156049116496
 21
-166.75251539040534
 31
0.0
  0
LINE
  5
127
100
AcDbEntity
  8
0
  6
CONTINUOUS
 62
               4
100
AcDbLine
 10
-34.452156049116496
 20
-166.75169800759278
 30
0.0
 11
-34.452156049116496
 21
-165.45169800759282
 31
0.0
  0
LINE
  5
128
100
AcDbEntity
  8
0
  6
CONTINUOUS
 62
             200
100
AcDbLine
 10
-38.818156049116482
 20
-68.856516009295689
 30
0.0
 11
-37.374156049116522
 21
-71.356516009295717
 31
0.0
  0
LINE
  5
129
100
AcDbEntity
  8
0
  6
CONTINUOUS
 62
             200
100
AcDbLine
 10
-38.318156049116482
 20
-68.856516009295689
 30
0.0
 11
-36.874156049116522
 21
-71.356516009295717
 31
0.0
  0
LINE
  5
12A
100
AcDbEntity
  8
0
  6
CONTINUOUS
 62
               4
100
AcDbLine
 10
-46.749059988320852
 20
-84.604515704119919
 30
0.0
 11
-46.749059988320852
 21
-63.204516014363435
 31
0.0
  0
LINE
  5
12B
100
AcDbEntity
  8
0
  6
CONTINUOUS
 62
               4
100
AcDbLine
 10
-60.749059988320852
 20
-63.204516009295702
 30
0.0
 11
-60.749059988320852
 21
-84.604515704119919
 31
0.0
  0
LINE
  5
12C
100
AcDbEntity
  8
0
  6
CONTINUOUS
 62
               4
100
AcDbLine
 10
-43.749057171794078
 20
-85.104516009295708
 30
0.0
 11
-43.749057171794078
 21
-66.606516009295689
 31
0.0
  0
LINE
  5
12D
100
AcDbEntity
  8
0
  6
CONTINUOUS
 62
               4
100
AcDbLine
 10
-43.749057171794078
 20
-85.104516009295708
 30
0.0
 11
-41.437057171794066
 21
-84.026516009295705
 31
0.0
  0
LINE
  5
12E
100
AcDbEntity
  8
0
  6
CONTINUOUS
 62
               4
100
AcDbLine
 10
-34.452156049116496
 20
-69.857333392108245
 30
0.0
 11
-30.952156049116496
 21
-69.857333392108245
 31
0.0
  0
LINE
  5
12F
100
AcDbEntity
  8
0
  6
CONTINUOUS
 62
               4
100
AcDbLine
 10
-34.452156049116496
 20
-70.357333392108245
 30
0.0
 11
-30.952156049116496
 21
-70.357333392108245
 31
0.0
  0
ARC
  5
130
100
AcDbEntity
  8
0
  6
CONTINUOUS
 62
               4
100
AcDbCircle
 10
-40.449057171794067
 20
-68.106516009295689
 30
0.0
 40
0.5
100
AcDbArc
 50
0.0
 51
89.999999999999815
  0
ARC
  5
131
100
AcDbEntity
  8
0
  6
CONTINUOUS
 62
               4
100
AcDbCircle
 10
-40.449057171794067
 20
-72.106516009295717
 30
0.0
 40
0.5
100
AcDbArc
 50
270.00000000000023
 51
0.0
  0
LINE
  5
132
100
AcDbEntity
  8
0
  6
CONTINUOUS
 62
               4
100
AcDbLine
 10
-41.149057171794055
 20
-67.606516009295689
 30
0.0
 11
-40.449057171794067
 21
-67.606516009295689
 31
0.0
  0
LINE
  5
133
100
AcDbEntity
  8
0
  6
CONTINUOUS
 62
               4
100
AcDbLine
 10
-39.949057171794067
 20
-72.106516009295717
 30
0.0
 11
-39.949057171794067
 21
-68.106516009295689
 31
0.0
  0
LINE
  5
134
100
AcDbEntity
  8
0
  6
CONTINUOUS
 62
               4
100
AcDbLine
 10
-44.749059988320823
 20
-85.104516009295708
 30
0.0
 11
-43.749057171794078
 21
-85.104516009295708
 31
0.0
  0
LINE
  5
135
100
AcDbEntity
  8
0
  6
CONTINUOUS
 62
               4
100
AcDbLine
 10
-30.952156049116496
 20
-69.857333392108245
 30
0.0
 11
-30.952156049116496
 21
-70.357333392108245
 31
0.0
  0
ARC
  5
136
100
AcDbEntity
  8
0
  6
CONTINUOUS
 62
               4
100
AcDbCircle
 10
-60.066155134979027
 20
-63.204420862637505
 30
0.0
 40
0.5999048608870732
100
AcDbArc
 50
89.99091272245343
 51
123.56005066674096
  0
ARC
  5
137
100
AcDbEntity
  8
0
  6
CONTINUOUS
 62
               4
100
AcDbCircle
 10
-60.249059988320795
 20
-63.204516009295702
 30
0.0
 40
0.5
100
AcDbArc
 50
114.73039869686018
 51
179.99999999999963
  0
ARC
  5
138
100
AcDbEntity
  8
0
  6
CONTINUOUS
 62
               4
100
AcDbCircle
 10
-47.249059988320795
 20
-63.204516009295702
 30
0.0
 40
0.5
100
AcDbArc
 50
0.0
 51
89.999999999999815
  0
LINE
  5
139
100
AcDbEntity
  8
0
  6
CONTINUOUS
 62
               4
100
AcDbLine
 10
-47.249059988320795
 20
-62.704516009295702
 30
0.0
 11
-48.749059988320795
 21
-62.704516009295702
 31
0.0
  0
LINE
  5
13A
100
AcDbEntity
  8
0
  6
CONTINUOUS
 62
               4
100
AcDbLine
 10
-60.749059988320852
 20
-64.204516009295617
 30
0.0
 11
-48.749057171794078
 21
-64.204516009295617
 31
0.0
  0
LINE
  5
13B
100
AcDbEntity
  8
0
  6
CONTINUOUS
 62
               4
100
AcDbLine
 10
-48.749057171794078
 20
-62.604516009295622
 30
0.0
 11
-48.749057171794078
 21
-64.204516009295617
 31
0.0
  0
LINE
  5
13C
100
AcDbEntity
  8
0
  6
CONTINUOUS
 62
               4
100
AcDbLine
 10
-60.749059988320795
 20
-63.204516009295588
 30
0.0
 11
-57.049059988320863
 21
-63.204516009295588
 31
0.0
  0
ARC
  5
13D
100
AcDbEntity
  8
0
  6
CONTINUOUS
 62
               4
100
AcDbCircle
 10
-60.066155134979027
 20
-63.204420862637505
 30
0.0
 40
0.5999048608870732
100
AcDbArc
 50
123.56005066674096
 51
180.00908727754583
  0
ARC
  5
13E
100
AcDbEntity
  8
0
  6
CONTINUOUS
 62
               4
100
AcDbCircle
 10
-58.264971983083825
 20
-63.203428004058679
 30
0.0
 40
0.5989129830170392
100
AcDbArc
 50
359.89591452477293
 51
90.104085475226867
  0
LINE
  5
13F
100
AcDbEntity
  8
0
  6
CONTINUOUS
 62
               4
100
AcDbLine
 10
-60.066155134979084
 20
-62.604516009295708
 30
0.0
 11
-48.749057171794078
 21
-62.604516009295622
 31
0.0
  0
LINE
  5
140
100
AcDbEntity
  8
0
  6
CONTINUOUS
 62
               4
100
AcDbLine
 10
-57.049059988320863
 20
-63.204516009295588
 30
0.0
 11
-57.049059988320863
 21
-62.604516009295679
 31
0.0
  0
LINE
  5
141
100
AcDbEntity
  8
0
  6
CONTINUOUS
 62
               4
100
AcDbLine
 10
-41.149057171794055
 20
-67.606516009295689
 30
0.0
 11
-41.149057171794055
 21
-83.572516009295725
 31
0.0
  0
LINE
  5
142
100
AcDbEntity
  8
0
  6
CONTINUOUS
 62
               4
100
AcDbLine
 10
-39.949057171794067
 20
-69.456516009295711
 30
0.0
 11
-38.472156049116478
 21
-69.456516009295711
 31
0.0
  0
LINE
  5
143
100
AcDbEntity
  8
0
  6
CONTINUOUS
 62
               4
100
AcDbLine
 10
-39.949057171794067
 20
-70.756516009295723
 30
0.0
 11
-37.722156049116478
 21
-70.756516009295723
 31
0.0
  0
LINE
  5
144
100
AcDbEntity
  8
0
  6
CONTINUOUS
 62
               4
100
AcDbLine
 10
-46.749057171794078
 20
-66.606516009295689
 30
0.0
 11
-41.649057171794055
 21
-66.606516009295689
 31
0.0
  0
ARC
  5
145
100
AcDbEntity
  8
0
  6
CONTINUOUS
 62
               4
100
AcDbCircle
 10
-41.649019647788663
 20
-67.106478485290296
 30
0.0
 40
0.4999624774027422
100
AcDbArc
 50
359.99569974300096
 51
90.004300256998803
  0
ARC
  5
146
100
AcDbEntity
  8
0
  6
CONTINUOUS
 62
               4
100
AcDbCircle
 10
-41.649521616312057
 20
-83.573388784579436
 30
0.0
 40
0.5004652055472239
100
AcDbArc
 50
295.12116424320402
 51
0.0999197646782735
  0
LINE
  5
147
100
AcDbEntity
  8
0
  6
CONTINUOUS
 62
               4
100
AcDbLine
 10
-41.149057171794055
 20
-67.106516009295689
 30
0.0
 11
-41.149057171794055
 21
-67.606516009295689
 31
0.0
  0
LINE
  5
148
100
AcDbEntity
  8
0
  6
CONTINUOUS
 62
               4
100
AcDbLine
 10
-37.222156049116478
 20
-70.756516009295723
 30
0.0
 11
-34.452156049116496
 21
-70.756516009295723
 31
0.0
  0
LINE
  5
149
100
AcDbEntity
  8
0
  6
CONTINUOUS
 62
               4
100
AcDbLine
 10
-37.972156049116478
 20
-69.456516009295711
 30
0.0
 11
-34.452156049116496
 21
-69.456516009295711
 31
0.0
  0
LINE
  5
14A
100
AcDbEntity
  8
0
  6
CONTINUOUS
 62
               4
100
AcDbLine
 10
-34.452156049116496
 20
-69.457333392108268
 30
0.0
 11
-34.452156049116496
 21
-70.757333392108222
 31
0.0
  0
LINE
  5
14B
100
AcDbEntity
  8
0
  6
CONTINUOUS
 62
               4
100
AcDbLine
 10
-41.149057171794055
 20
-72.606516009295717
 30
0.0
 11
-40.449057171794067
 21
-72.606516009295717
 31
0.0
  0
LINE
  5
14C
100
AcDbEntity
  8
0
  6
CONTINUOUS
 62
               7
100
AcDbLine
 10
-44.749059988320852
 20
-137.60451570411985
 30
0.0
 11
-62.749059988320852
 21
-137.60451570411982
 31
0.0
  0
LINE
  5
14D
100
AcDbEntity
  8
0
  6
CONTINUOUS
 62
               7
100
AcDbLine
 10
-62.649059988320829
 20
-98.604515704119834
 30
0.0
 11
-44.749059988320852
 21
-98.604515704119848
 31
0.0
  0
LINE
  5
14E
100
AcDbEntity
  8
0
  6
CONTINUOUS
 62
               7
100
AcDbLine
 10
-62.44905998832084
 20
-84.604515704119905
 30
0.0
 11
-62.749059988320852
 21
-84.904515704119916
 31
0.0
  0
LINE
  5
14F
100
AcDbEntity
  8
0
  6
CONTINUOUS
 62
               7
100
AcDbLine
 10
-62.749059988320795
 20
-98.704515704119913
 30
0.0
 11
-62.649059988320829
 21
-98.604515704119919
 31
0.0
  0
LINE
  5
150
100
AcDbEntity
  8
0
  6
CONTINUOUS
 62
               7
100
AcDbLine
 10
-62.44905998832084
 20
-84.604515704119905
 30
0.0
 11
-44.749059988320795
 21
-84.604515704119933
 31
0.0
  0
LINE
  5
151
100
AcDbEntity
  8
0
  6
CENTER
 62
               2
100
AcDbLine
 10
-56.94905998832084
 20
-112.10451570411985
 30
0.0
 11
-62.94905998832084
 21
-112.10451570411985
 31
0.0
  0
CIRCLE
  5
152
100
AcDbEntity
  8
0
  6
CONTINUOUS
 62
               4
100
AcDbCircle
 10
-59.949059988320897
 20
-124.10451570411986
 30
0.0
 40
1.75
  0
CIRCLE
  5
153
100
AcDbEntity
  8
0
  6
CONTINUOUS
 62
               4
100
AcDbCircle
 10
-59.94905998832084
 20
-112.10451570411985
 30
0.0
 40
1.75
  0
LINE
  5
154
100
AcDbEntity
  8
0
  6
CENTER
 62
               2
100
AcDbLine
 10
-59.94905998832084
 20
-109.10451570411985
 30
0.0
 11
-59.949059988320897
 21
-115.10451570411985
 31
0.0
  0
LINE
  5
155
100
AcDbEntity
  8
0
  6
CENTER
 62
               2
100
AcDbLine
 10
-53.749059988320852
 20
-60.704516005026278
 30
0.0
 11
-53.749059988320937
 21
-175.43738954137655
 31
0.0
  0
LINE
  5
156
100
AcDbEntity
  8
0
  6
CONTINUOUS
 62
               7
100
AcDbLine
 10
-44.749059988320852
 20
-151.60451570411976
 30
0.0
 11
-44.749059988320852
 21
-84.604515704119933
 31
0.0
  0
LINE
  5
157
100
AcDbEntity
  8
0
  6
CONTINUOUS
 62
               7
100
AcDbLine
 10
-62.749059988320909
 20
-151.30451570411975
 30
0.0
 11
-62.749059988320852
 21
-84.904515704119916
 31
0.0
  0
LINE
  5
158
100
AcDbEntity
  8
0
  6
CONTINUOUS
 62
               7
100
AcDbLine
 10
-45.749059988320852
 20
-107.75451569985053
 30
0.0
 11
-45.749059988320852
 21
-111.05084071205746
 31
0.0
  0
LINE
  5
159
100
AcDbEntity
  8
0
  6
CONTINUOUS
 62
               7
100
AcDbLine
 10
-62.44905998832084
 20
-151.60451570411976
 30
0.0
 11
-44.749059988320795
 21
-151.60451570411976
 31
0.0
  0
LINE
  5
15A
100
AcDbEntity
  8
0
  6
CONTINUOUS
 62
               7
100
AcDbLine
 10
-62.44905998832084
 20
-151.60451570411976
 30
0.0
 11
-62.749059988320852
 21
-151.30451570411975
 31
0.0
  0
LINE
  5
15B
100
AcDbEntity
  8
0
  6
CONTINUOUS
 62
               7
100
AcDbLine
 10
-44.749059988320852
 20
-107.75451569985053
 30
0.0
 11
-45.749059988320852
 21
-107.75451569985053
 31
0.0
  0
LINE
  5
15C
100
AcDbEntity
  8
0
  6
CONTINUOUS
 62
               7
100
AcDbLine
 10
-44.749059988320852
 20
-111.05451569985053
 30
0.0
 11
-45.749059988320852
 21
-111.05451569985053
 31
0.0
  0
ARC
  5
15E
100
AcDbEntity
  8
0
  6
DASHED
 62
             200
100
AcDbCircle
 10
-76.249059988320909
 20
-126.20451569985053
 30
0.0
 40
0.5
100
AcDbArc
 50
89.999999999999815
 51
179.99999999999963
  0
ARC
  5
15F
100
AcDbEntity
  8
0
  6
DASHED
 62
             200
100
AcDbCircle
 10
-76.249059988320909
 20
-133.20451569985053
 30
0.0
 40
0.5
100
AcDbArc
 50
179.99999999999963
 51
269.99999999999937
  0
LINE
  5
160
100
AcDbEntity
  8
0
  6
DASHED
 62
               7
100
AcDbLine
 10
-62.749059988320909
 20
-125.70451569985053
 30
0.0
 11
-62.749059988320909
 21
-133.70451569985053
 31
0.0
  0
LINE
  5
161
100
AcDbEntity
  8
0
  6
DASHED
 62
             200
100
AcDbLine
 10
-76.749059988320909
 20
-126.20451569985053
 30
0.0
 11
-76.749059988320909
 21
-133.20451569985053
 31
0.0
  0
LINE
  5
162
100
AcDbEntity
  8
0
  6
CENTER
 62
             200
100
AcDbLine
 10
-61.578709988320924
 20
-129.70451569985053
 30
0.0
 11
-77.879059988320904
 21
-129.70451569985053
 31
0.0
  0
LINE
  5
163
100
AcDbEntity
  8
0
  6
DASHED
 62
             200
100
AcDbLine
 10
-62.749059988320909
 20
-125.70451569985053
 30
0.0
 11
-76.249059988320909
 21
-125.70451569985053
 31
0.0
  0
LINE
  5
164
100
AcDbEntity
  8
0
  6
DASHED
 62
             200
100
AcDbLine
 10
-62.749059988320909
 20
-133.70451569985053
 30
0.0
 11
-76.249059988320909
 21
-133.70451569985053
 31
0.0
  0
LINE
  5
165
100
AcDbEntity
  8
0
  6
DASHED
 62
             200
100
AcDbLine
 10
-74.249059988320909
 20
-125.70451569985053
 30
0.0
 11
-74.249059988320909
 21
-133.70451569985053
 31
0.0
  0
LINE
  5
166
100
AcDbEntity
  8
0
  6
DASHED
 62
             200
100
AcDbLine
 10
-74.249059988320909
 20
-133.40451569985055
 30
0.0
 11
-76.249059988320909
 21
-133.40451569985055
 31
0.0
  0
LINE
  5
167
100
AcDbEntity
  8
0
  6
DASHED
 62
             200
100
AcDbLine
 10
-74.249059988320909
 20
-132.90451569985055
 30
0.0
 11
-76.249059988320909
 21
-132.90451569985055
 31
0.0
  0
LINE
  5
168
100
AcDbEntity
  8
0
  6
DASHED
 62
             200
100
AcDbLine
 10
-74.249059988320909
 20
-132.20451569985053
 30
0.0
 11
-76.249059988320909
 21
-132.20451569985053
 31
0.0
  0
LINE
  5
169
100
AcDbEntity
  8
0
  6
DASHED
 62
             200
100
AcDbLine
 10
-74.249059988320909
 20
-131.30451569985053
 30
0.0
 11
-76.249059988320909
 21
-131.30451569985053
 31
0.0
  0
LINE
  5
16A
100
AcDbEntity
  8
0
  6
DASHED
 62
             200
100
AcDbLine
 10
-76.249059988320909
 20
-125.70451569985053
 30
0.0
 11
-76.249059988320909
 21
-133.70451569985053
 31
0.0
  0
LINE
  5
16B
100
AcDbEntity
  8
0
  6
DASHED
 62
             200
100
AcDbLine
 10
-74.249059988320909
 20
-130.40451569985055
 30
0.0
 11
-76.249059988320909
 21
-130.40451569985055
 31
0.0
  0
LINE
  5
16C
100
AcDbEntity
  8
0
  6
DASHED
 62
             200
100
AcDbLine
 10
-74.249059988320909
 20
-126.00451569985054
 30
0.0
 11
-76.249059988320909
 21
-126.00451569985054
 31
0.0
  0
LINE
  5
16D
100
AcDbEntity
  8
0
  6
DASHED
 62
             200
100
AcDbLine
 10
-74.249059988320909
 20
-126.50451569985054
 30
0.0
 11
-76.249059988320909
 21
-126.50451569985054
 31
0.0
  0
LINE
  5
16E
100
AcDbEntity
  8
0
  6
DASHED
 62
             200
100
AcDbLine
 10
-74.249059988320909
 20
-127.20451569985053
 30
0.0
 11
-76.249059988320909
 21
-127.20451569985053
 31
0.0
  0
LINE
  5
16F
100
AcDbEntity
  8
0
  6
DASHED
 62
             200
100
AcDbLine
 10
-74.249059988320909
 20
-129.00451569985054
 30
0.0
 11
-76.249059988320909
 21
-129.00451569985054
 31
0.0
  0
LINE
  5
170
100
AcDbEntity
  8
0
  6
DASHED
 62
             200
100
AcDbLine
 10
-74.249059988320909
 20
-128.10451569985054
 30
0.0
 11
-76.249059988320909
 21
-128.10451569985054
 31
0.0
  0
ARC
  5
171
100
AcDbEntity
  8
0
  6
DASHED
 62
             200
100
AcDbCircle
 10
-76.249059988320852
 20
-103.00451569985051
 30
0.0
 40
0.5
100
AcDbArc
 50
89.999999999999815
 51
179.99999999999963
  0
ARC
  5
172
100
AcDbEntity
  8
0
  6
DASHED
 62
             200
100
AcDbCircle
 10
-76.249059988320852
 20
-110.00451569985051
 30
0.0
 40
0.5
100
AcDbArc
 50
179.99999999999963
 51
269.99999999999937
  0
LINE
  5
173
100
AcDbEntity
  8
0
  6
DASHED
 62
               7
100
AcDbLine
 10
-62.749059988320852
 20
-102.50451569985051
 30
0.0
 11
-62.749059988320852
 21
-110.50451569985051
 31
0.0
  0
LINE
  5
174
100
AcDbEntity
  8
0
  6
DASHED
 62
             200
100
AcDbLine
 10
-76.749059988320852
 20
-103.00451569985051
 30
0.0
 11
-76.749059988320852
 21
-110.00451569985051
 31
0.0
  0
LINE
  5
175
100
AcDbEntity
  8
0
  6
CENTER
 62
             200
100
AcDbLine
 10
-61.578709988320867
 20
-106.50451569985051
 30
0.0
 11
-77.879059988320847
 21
-106.50451569985051
 31
0.0
  0
LINE
  5
176
100
AcDbEntity
  8
0
  6
DASHED
 62
             200
100
AcDbLine
 10
-62.749059988320852
 20
-102.50451569985051
 30
0.0
 11
-76.249059988320852
 21
-102.50451569985051
 31
0.0
  0
LINE
  5
177
100
AcDbEntity
  8
0
  6
DASHED
 62
             200
100
AcDbLine
 10
-62.749059988320852
 20
-110.50451569985051
 30
0.0
 11
-76.249059988320852
 21
-110.50451569985051
 31
0.0
  0
LINE
  5
178
100
AcDbEntity
  8
0
  6
DASHED
 62
             200
100
AcDbLine
 10
-74.249059988320852
 20
-102.50451569985051
 30
0.0
 11
-74.249059988320852
 21
-110.50451569985051
 31
0.0
  0
LINE
  5
179
100
AcDbEntity
  8
0
  6
DASHED
 62
             200
100
AcDbLine
 10
-74.249059988320852
 20
-110.20451569985053
 30
0.0
 11
-76.249059988320852
 21
-110.20451569985053
 31
0.0
  0
LINE
  5
17A
100
AcDbEntity
  8
0
  6
DASHED
 62
             200
100
AcDbLine
 10
-74.249059988320852
 20
-109.70451569985053
 30
0.0
 11
-76.249059988320852
 21
-109.70451569985053
 31
0.0
  0
LINE
  5
17B
100
AcDbEntity
  8
0
  6
DASHED
 62
             200
100
AcDbLine
 10
-74.249059988320852
 20
-109.00451569985051
 30
0.0
 11
-76.249059988320852
 21
-109.00451569985051
 31
0.0
  0
LINE
  5
17C
100
AcDbEntity
  8
0
  6
DASHED
 62
             200
100
AcDbLine
 10
-74.249059988320852
 20
-108.10451569985052
 30
0.0
 11
-76.249059988320852
 21
-108.10451569985052
 31
0.0
  0
LINE
  5
17D
100
AcDbEntity
  8
0
  6
DASHED
 62
             200
100
AcDbLine
 10
-76.249059988320852
 20
-102.50451569985051
 30
0.0
 11
-76.249059988320852
 21
-110.50451569985051
 31
0.0
  0
LINE
  5
17E
100
AcDbEntity
  8
0
  6
DASHED
 62
             200
100
AcDbLine
 10
-74.249059988320852
 20
-107.20451569985053
 30
0.0
 11
-76.249059988320852
 21
-107.20451569985053
 31
0.0
  0
LINE
  5
17F
100
AcDbEntity
  8
0
  6
DASHED
 62
             200
100
AcDbLine
 10
-74.249059988320852
 20
-102.80451569985053
 30
0.0
 11
-76.249059988320852
 21
-102.80451569985053
 31
0.0
  0
LINE
  5
180
100
AcDbEntity
  8
0
  6
DASHED
 62
             200
100
AcDbLine
 10
-74.249059988320852
 20
-103.30451569985053
 30
0.0
 11
-76.249059988320852
 21
-103.30451569985053
 31
0.0
  0
LINE
  5
181
100
AcDbEntity
  8
0
  6
DASHED
 62
             200
100
AcDbLine
 10
-74.249059988320852
 20
-104.00451569985051
 30
0.0
 11
-76.249059988320852
 21
-104.00451569985051
 31
0.0
  0
LINE
  5
182
100
AcDbEntity
  8
0
  6
DASHED
 62
             200
100
AcDbLine
 10
-74.249059988320852
 20
-105.80451569985053
 30
0.0
 11
-76.249059988320852
 21
-105.80451569985053
 31
0.0
  0
LINE
  5
183
100
AcDbEntity
  8
0
  6
DASHED
 62
             200
100
AcDbLine
 10
-74.249059988320852
 20
-104.90451569985052
 30
0.0
 11
-76.249059988320852
 21
-104.90451569985052
 31
0.0
  0
LINE
  5
184
100
AcDbEntity
  8
0
  6
CENTER
 62
               2
100
AcDbLine
 10
-59.94905998832084
 20
-121.10451570411985
 30
0.0
 11
-59.949059988320897
 21
-127.10451570411985
 31
0.0
  0
LINE
  5
185
100
AcDbEntity
  8
0
  6
CENTER
 62
               2
100
AcDbLine
 10
-56.94905998832084
 20
-124.10451570411985
 30
0.0
 11
-62.94905998832084
 21
-124.10451570411985
 31
0.0
  0
ARC
  5
186
100
AcDbEntity
  8
0
  6
CONTINUOUS
 62
               4
100
AcDbCircle
 10
-51.349059988320846
 20
-106.60451570411985
 30
0.0
 40
1.0
100
AcDbArc
 50
0.0
 51
89.999999999999815
  0
LINE
  5
187
100
AcDbEntity
  8
0
  6
CONTINUOUS
 62
               4
100
AcDbLine
 10
-50.349059988320846
 20
-129.60451570411985
 30
0.0
 11
-50.349059988320846
 21
-106.60451570411985
 31
0.0
  0
ARC
  5
188
100
AcDbEntity
  8
0
  6
CONTINUOUS
 62
               4
100
AcDbCircle
 10
-51.349059988320846
 20
-129.60451570411985
 30
0.0
 40
1.0
100
AcDbArc
 50
270.00000000000023
 51
0.0
  0
LINE
  5
189
100
AcDbEntity
  8
0
  6
CONTINUOUS
 62
               4
100
AcDbLine
 10
-62.349059988320846
 20
-129.60451570411985
 30
0.0
 11
-62.349059988320846
 21
-106.60451570411985
 31
0.0
  0
ARC
  5
18A
100
AcDbEntity
  8
0
  6
CONTINUOUS
 62
               4
100
AcDbCircle
 10
-61.349059988320846
 20
-129.60451570411985
 30
0.0
 40
1.0
100
AcDbArc
 50
179.99999999999963
 51
269.99999999999937
  0
LINE
  5
18B
100
AcDbEntity
  8
0
  6
CONTINUOUS
 62
               4
100
AcDbLine
 10
-61.349059988320846
 20
-130.60451570411985
 30
0.0
 11
-51.349059988320846
 21
-130.60451570411985
 31
0.0
  0
ARC
  5
18C
100
AcDbEntity
  8
0
  6
CONTINUOUS
 62
               4
100
AcDbCircle
 10
-61.349059988320846
 20
-106.60451570411985
 30
0.0
 40
1.0
100
AcDbArc
 50
89.999999999999815
 51
179.99999999999963
  0
LINE
  5
18D
100
AcDbEntity
  8
0
  6
CONTINUOUS
 62
               4
100
AcDbLine
 10
-61.349059988320846
 20
-105.60451570411985
 30
0.0
 11
-51.349059988320846
 21
-105.60451570411985
 31
0.0
  0
LINE
  5
18E
100
AcDbEntity
  8
0
  6
PHANTOM
 62
             200
100
AcDbLine
 10
32.417588323046743
 20
-158.60451569558109
 30
0.0
 11
35.417588323046743
 21
-158.60451569558109
 31
0.0
  0
LINE
  5
18F
100
AcDbEntity
  8
0
  6
PHANTOM
 62
             200
100
AcDbLine
 10
32.417588323046743
 20
-156.60451569558109
 30
0.0
 11
35.417588323046743
 21
-156.60451569558109
 31
0.0
  0
LINE
  5
190
100
AcDbEntity
  8
0
  6
PHANTOM
 62
             200
100
AcDbLine
 10
35.417588323046743
 20
-158.60451569558109
 30
0.0
 11
35.417588323046743
 21
-156.60451569558109
 31
0.0
  0
LINE
  5
191
100
AcDbEntity
  8
0
  6
PHANTOM
 62
             200
100
AcDbLine
 10
32.417606633593635
 20
-158.60651569985055
 30
0.0
 11
32.417606633593635
 21
-156.60651569985055
 31
0.0
  0
LINE
  5
192
100
AcDbEntity
  8
0
  6
CONTINUOUS
 62
               4
100
AcDbLine
 10
35.717606633593562
 20
-173.50451569985054
 30
0.0
 11
29.417606633593607
 21
-173.50451569985054
 31
0.0
  0
LINE
  5
193
100
AcDbEntity
  8
0
  6
CONTINUOUS
 62
               4
100
AcDbLine
 10
35.717606633593562
 20
-173.50451569985054
 30
0.0
 11
35.717606633593562
 21
-172.00451569985054
 31
0.0
  0
ARC
  5
194
100
AcDbEntity
  8
0
  6
CONTINUOUS
 62
               4
100
AcDbCircle
 10
29.417606633593607
 20
-173.00451569985054
 30
0.0
 40
0.5
100
AcDbArc
 50
179.99999999999963
 51
269.99999999999937
  0
ARC
  5
195
100
AcDbEntity
  8
0
  6
CONTINUOUS
 62
               4
100
AcDbCircle
 10
29.417903657799741
 20
-169.10421867564443
 30
0.0
 40
0.5002971123771114
100
AcDbArc
 50
180.03401625554562
 51
269.96598374445358
  0
ARC
  5
196
100
AcDbEntity
  8
0
  6
CONTINUOUS
 62
               4
100
AcDbCircle
 10
36.320518628356524
 20
-173.00560370508757
 30
0.0
 40
0.5989129830170392
100
AcDbArc
 50
179.89591452477254
 51
270.10408547522644
  0
LINE
  5
197
100
AcDbEntity
  8
0
  6
CONTINUOUS
 62
               4
100
AcDbLine
 10
28.917606633593607
 20
-173.60451569985057
 30
0.0
 11
28.917606633593607
 21
-151.10451569985057
 31
0.0
  0
ARC
  5
198
100
AcDbEntity
  8
0
  6
CONTINUOUS
 62
               4
100
AcDbCircle
 10
38.417903481457813
 20
-151.60421885198636
 30
0.0
 40
0.4997032403068001
100
AcDbArc
 50
359.96596353714727
 51
90.034036462852669
  0
ARC
  5
199
100
AcDbEntity
  8
0
  6
CONTINUOUS
 62
               4
100
AcDbCircle
 10
38.417903481457813
 20
-169.10481254771474
 30
0.0
 40
0.4997032403068001
100
AcDbArc
 50
269.96596353714727
 51
0.0340364628526655
  0
ARC
  5
19A
100
AcDbEntity
  8
0
  6
CONTINUOUS
 62
               4
100
AcDbCircle
 10
38.121701780251783
 20
-173.00461084650874
 30
0.0
 40
0.5999048608870732
100
AcDbArc
 50
269.99091272245386
 51
0.0090872775462214
  0
LINE
  5
19B
100
AcDbEntity
  8
0
  6
CONTINUOUS
 62
               4
100
AcDbLine
 10
38.917606633593607
 20
-173.60451569985057
 30
0.0
 11
38.917606633593607
 21
-151.10451569985057
 31
0.0
  0
LINE
  5
19C
100
AcDbEntity
  8
0
  6
CONTINUOUS
 62
               4
100
AcDbLine
 10
29.647606633593597
 20
-152.31679943260531
 30
0.0
 11
38.187606633593617
 21
-152.31679943260531
 31
0.0
  0
LINE
  5
19D
100
AcDbEntity
  8
0
  6
CONTINUOUS
 62
               4
100
AcDbLine
 10
38.687606633593617
 20
-169.10451569985057
 30
0.0
 11
38.687606633593617
 21
-152.81679943260531
 31
0.0
  0
LINE
  5
19E
100
AcDbEntity
  8
0
  6
CONTINUOUS
 62
               4
100
AcDbLine
 10
29.147606633593597
 20
-169.10451569985057
 30
0.0
 11
29.147606633593597
 21
-152.81679943260531
 31
0.0
  0
ARC
  5
19F
100
AcDbEntity
  8
0
  6
CONTINUOUS
 62
               4
100
AcDbCircle
 10
38.187606633593617
 20
-152.81679943260531
 30
0.0
 40
0.5
100
AcDbArc
 50
0.0
 51
89.999999999999815
  0
ARC
  5
1A0
100
AcDbEntity
  8
0
  6
CONTINUOUS
 62
               4
100
AcDbCircle
 10
29.647606633593597
 20
-152.81679943260531
 30
0.0
 40
0.5
100
AcDbArc
 50
89.999999999999815
 51
179.99999999999963
  0
ARC
  5
1A1
100
AcDbEntity
  8
0
  6
CONTINUOUS
 62
               4
100
AcDbCircle
 10
38.187606633593617
 20
-169.10451569985057
 30
0.0
 40
0.5
100
AcDbArc
 50
270.00000000000023
 51
0.0
  0
ARC
  5
1A2
100
AcDbEntity
  8
0
  6
CONTINUOUS
 62
               4
100
AcDbCircle
 10
29.647606633593597
 20
-169.10451569985057
 30
0.0
 40
0.5
100
AcDbArc
 50
179.99999999999963
 51
269.99999999999937
  0
ARC
  5
1A3
100
AcDbEntity
  8
0
  6
CONTINUOUS
 62
               4
100
AcDbCircle
 10
29.417903657799741
 20
-151.60481272405667
 30
0.0
 40
0.5002971123771115
100
AcDbArc
 50
90.034016255545609
 51
179.96598374445364
  0
LINE
  5
1A4
100
AcDbEntity
  8
0
  6
CONTINUOUS
 62
               4
100
AcDbLine
 10
38.917606633593607
 20
-173.00451569985054
 30
0.0
 11
35.717606633593562
 21
-173.00451569985054
 31
0.0
  0
LINE
  5
1A5
100
AcDbEntity
  8
0
  6
CONTINUOUS
 62
               4
100
AcDbLine
 10
38.917606633593607
 20
-173.60451569985057
 30
0.0
 11
28.917606633593607
 21
-173.60451569985057
 31
0.0
  0
LINE
  5
1A6
100
AcDbEntity
  8
0
  6
CONTINUOUS
 62
               4
100
AcDbLine
 10
38.917606633593607
 20
-172.00451569985054
 30
0.0
 11
35.717606633593562
 21
-172.00451569985054
 31
0.0
  0
LINE
  5
1A7
100
AcDbEntity
  8
0
  6
CONTINUOUS
 62
               4
100
AcDbLine
 10
38.417606633593607
 20
-169.60451569985057
 30
0.0
 11
29.417606633593607
 21
-169.60451569985057
 31
0.0
  0
CIRCLE
  5
1A8
100
AcDbEntity
  8
0
  6
CONTINUOUS
 62
               4
100
AcDbCircle
 10
32.668200505663947
 20
-166.10451569985057
 30
0.0
 40
0.7250000000000001
  0
CIRCLE
  5
1A9
100
AcDbEntity
  8
0
  6
CONTINUOUS
 62
               4
100
AcDbCircle
 10
35.168200505663947
 20
-166.10451569985057
 30
0.0
 40
0.7250000000000001
  0
LINE
  5
1AA
100
AcDbEntity
  8
0
  6
CONTINUOUS
 62
               4
100
AcDbLine
 10
35.167606633593607
 20
-164.10451569985057
 30
0.0
 11
32.667606633593607
 21
-164.10451569985057
 31
0.0
  0
LINE
  5
1AB
100
AcDbEntity
  8
0
  6
CONTINUOUS
 62
               4
100
AcDbLine
 10
35.167606633593607
 20
-168.10451569985057
 30
0.0
 11
32.667606633593607
 21
-168.10451569985057
 31
0.0
  0
ARC
  5
1AC
100
AcDbEntity
  8
0
  6
CONTINUOUS
 62
               4
100
AcDbCircle
 10
32.667606633593607
 20
-166.10451569985057
 30
0.0
 40
2.0000000881710065
100
AcDbArc
 50
89.999999999999815
 51
269.99999999999937
  0
ARC
  5
1AD
100
AcDbEntity
  8
0
  6
CONTINUOUS
 62
               4
100
AcDbCircle
 10
35.167606633593607
 20
-166.10451569985057
 30
0.0
 40
2.0000000881710065
100
AcDbArc
 50
270.00000000000023
 51
89.999999999999801
  0
CIRCLE
  5
1AE
100
AcDbEntity
  8
0
  6
CONTINUOUS
 62
               4
100
AcDbCircle
 10
32.668200505663947
 20
-166.10451569985057
 30
0.0
 40
0.25
  0
CIRCLE
  5
1AF
100
AcDbEntity
  8
0
  6
CONTINUOUS
 62
               4
100
AcDbCircle
 10
35.168200505663947
 20
-166.10451569985057
 30
0.0
 40
0.25
  0
LINE
  5
1B0
100
AcDbEntity
  8
0
  6
PHANTOM
 62
             200
100
AcDbLine
 10
32.417588323046743
 20
-77.604515704120075
 30
0.0
 11
35.417588323046743
 21
-77.604515704120075
 31
0.0
  0
LINE
  5
1B1
100
AcDbEntity
  8
0
  6
PHANTOM
 62
             200
100
AcDbLine
 10
32.417588323046743
 20
-79.604515704120075
 30
0.0
 11
35.417588323046743
 21
-79.604515704120075
 31
0.0
  0
LINE
  5
1B2
100
AcDbEntity
  8
0
  6
PHANTOM
 62
             200
100
AcDbLine
 10
35.417588323046743
 20
-77.604515704120075
 30
0.0
 11
35.417588323046743
 21
-79.604515704120075
 31
0.0
  0
LINE
  5
1B3
100
AcDbEntity
  8
0
  6
PHANTOM
 62
             200
100
AcDbLine
 10
32.417606633593635
 20
-77.602515699850599
 30
0.0
 11
32.417606633593635
 21
-79.602515699850599
 31
0.0
  0
LINE
  5
1B4
100
AcDbEntity
  8
0
  6
CONTINUOUS
 62
               4
100
AcDbLine
 10
38.417606633593607
 20
-66.604515699850595
 30
0.0
 11
29.417606633593607
 21
-66.604515699850595
 31
0.0
  0
LINE
  5
1B5
100
AcDbEntity
  8
0
  6
CONTINUOUS
 62
               4
100
AcDbLine
 10
38.917606633593607
 20
-64.204515699850617
 30
0.0
 11
35.717606633593562
 21
-64.204515699850617
 31
0.0
  0
LINE
  5
1B6
100
AcDbEntity
  8
0
  6
CONTINUOUS
 62
               4
100
AcDbLine
 10
38.917606633593607
 20
-62.604515699850595
 30
0.0
 11
28.917606633593607
 21
-62.604515699850595
 31
0.0
  0
LINE
  5
1B7
100
AcDbEntity
  8
0
  6
CONTINUOUS
 62
               4
100
AcDbLine
 10
38.917606633593607
 20
-63.204515699850617
 30
0.0
 11
35.717606633593562
 21
-63.204515699850617
 31
0.0
  0
ARC
  5
1B8
100
AcDbEntity
  8
0
  6
CONTINUOUS
 62
               4
100
AcDbCircle
 10
29.417903657799741
 20
-84.604218675644489
 30
0.0
 40
0.5002971123771115
100
AcDbArc
 50
180.03401625554557
 51
269.96598374445358
  0
ARC
  5
1B9
100
AcDbEntity
  8
0
  6
CONTINUOUS
 62
               4
100
AcDbCircle
 10
29.647606633593597
 20
-67.104515699850595
 30
0.0
 40
0.5
100
AcDbArc
 50
89.999999999999815
 51
179.99999999999963
  0
ARC
  5
1BA
100
AcDbEntity
  8
0
  6
CONTINUOUS
 62
               4
100
AcDbCircle
 10
38.187606633593617
 20
-67.104515699850595
 30
0.0
 40
0.5
100
AcDbArc
 50
0.0
 51
89.999999999999815
  0
ARC
  5
1BB
100
AcDbEntity
  8
0
  6
CONTINUOUS
 62
               4
100
AcDbCircle
 10
29.647606633593597
 20
-83.392231967095853
 30
0.0
 40
0.5
100
AcDbArc
 50
179.99999999999963
 51
269.99999999999937
  0
ARC
  5
1BC
100
AcDbEntity
  8
0
  6
CONTINUOUS
 62
               4
100
AcDbCircle
 10
38.187606633593617
 20
-83.392231967095853
 30
0.0
 40
0.5
100
AcDbArc
 50
269.99999999999937
 51
0.0
  0
LINE
  5
1BD
100
AcDbEntity
  8
0
  6
CONTINUOUS
 62
               4
100
AcDbLine
 10
29.147606633593597
 20
-67.104515699850595
 30
0.0
 11
29.147606633593597
 21
-83.392231967095853
 31
0.0
  0
LINE
  5
1BE
100
AcDbEntity
  8
0
  6
CONTINUOUS
 62
               4
100
AcDbLine
 10
38.687606633593617
 20
-67.104515699850595
 30
0.0
 11
38.687606633593617
 21
-83.392231967095853
 31
0.0
  0
LINE
  5
1BF
100
AcDbEntity
  8
0
  6
CONTINUOUS
 62
               4
100
AcDbLine
 10
29.647606633593597
 20
-83.892231967095853
 30
0.0
 11
38.187606633593617
 21
-83.892231967095853
 31
0.0
  0
LINE
  5
1C0
100
AcDbEntity
  8
0
  6
CONTINUOUS
 62
               4
100
AcDbLine
 10
38.917606633593607
 20
-62.604515699850595
 30
0.0
 11
38.917606633593607
 21
-85.104515699850595
 31
0.0
  0
ARC
  5
1C1
100
AcDbEntity
  8
0
  6
CONTINUOUS
 62
               4
100
AcDbCircle
 10
38.121701780251783
 20
-63.204420553192421
 30
0.0
 40
0.5999048608870732
100
AcDbArc
 50
359.99091272245295
 51
90.009087277546172
  0
ARC
  5
1C2
100
AcDbEntity
  8
0
  6
CONTINUOUS
 62
               4
100
AcDbCircle
 10
38.417903481457813
 20
-67.104218851986417
 30
0.0
 40
0.4997032403068001
100
AcDbArc
 50
359.96596353714654
 51
90.034036462852711
  0
ARC
  5
1C3
100
AcDbEntity
  8
0
  6
CONTINUOUS
 62
               4
100
AcDbCircle
 10
38.417903481457813
 20
-84.604812547714801
 30
0.0
 40
0.4997032403068001
100
AcDbArc
 50
269.96596353714654
 51
0.0340364628527164
  0
LINE
  5
1C4
100
AcDbEntity
  8
0
  6
CONTINUOUS
 62
               4
100
AcDbLine
 10
28.917606633593607
 20
-62.604515699850595
 30
0.0
 11
28.917606633593607
 21
-85.104515699850595
 31
0.0
  0
ARC
  5
1C5
100
AcDbEntity
  8
0
  6
CONTINUOUS
 62
               4
100
AcDbCircle
 10
36.320518628356524
 20
-63.203427694613595
 30
0.0
 40
0.5989129830170392
100
AcDbArc
 50
89.895914524772735
 51
180.10408547522667
  0
ARC
  5
1C6
100
AcDbEntity
  8
0
  6
CONTINUOUS
 62
               4
100
AcDbCircle
 10
29.417903657799741
 20
-67.104812724056728
 30
0.0
 40
0.5002971123771114
100
AcDbArc
 50
90.034016255545609
 51
179.96598374445358
  0
ARC
  5
1C7
100
AcDbEntity
  8
0
  6
CONTINUOUS
 62
               4
100
AcDbCircle
 10
29.417606633593607
 20
-63.204515699850617
 30
0.0
 40
0.5
100
AcDbArc
 50
89.999999999999815
 51
179.99999999999963
  0
LINE
  5
1C8
100
AcDbEntity
  8
0
  6
CONTINUOUS
 62
               4
100
AcDbLine
 10
35.717606633593562
 20
-62.704515699850617
 30
0.0
 11
35.717606633593562
 21
-64.204515699850617
 31
0.0
  0
LINE
  5
1C9
100
AcDbEntity
  8
0
  6
CONTINUOUS
 62
               4
100
AcDbLine
 10
35.717606633593562
 20
-62.704515699850617
 30
0.0
 11
29.417606633593607
 21
-62.704515699850617
 31
0.0
  0
CIRCLE
  5
1CA
100
AcDbEntity
  8
0
  6
CONTINUOUS
 62
               4
100
AcDbCircle
 10
35.168200505663947
 20
-70.104515699850595
 30
0.0
 40
0.25
  0
CIRCLE
  5
1CB
100
AcDbEntity
  8
0
  6
CONTINUOUS
 62
               4
100
AcDbCircle
 10
32.668200505663947
 20
-70.104515699850595
 30
0.0
 40
0.25
  0
ARC
  5
1CC
100
AcDbEntity
  8
0
  6
CONTINUOUS
 62
               4
100
AcDbCircle
 10
35.167606633593607
 20
-70.104515699850595
 30
0.0
 40
2.0000000881710065
100
AcDbArc
 50
269.99999999999937
 51
89.999999999999801
  0
ARC
  5
1CD
100
AcDbEntity
  8
0
  6
CONTINUOUS
 62
               4
100
AcDbCircle
 10
32.667606633593607
 20
-70.104515699850595
 30
0.0
 40
2.0000000881710065
100
AcDbArc
 50
89.999999999999815
 51
269.99999999999937
  0
LINE
  5
1CE
100
AcDbEntity
  8
0
  6
CONTINUOUS
 62
               4
100
AcDbLine
 10
35.167606633593607
 20
-68.104515699850595
 30
0.0
 11
32.667606633593607
 21
-68.104515699850595
 31
0.0
  0
LINE
  5
1CF
100
AcDbEntity
  8
0
  6
CONTINUOUS
 62
               4
100
AcDbLine
 10
35.167606633593607
 20
-72.104515699850595
 30
0.0
 11
32.667606633593607
 21
-72.104515699850595
 31
0.0
  0
CIRCLE
  5
1D0
100
AcDbEntity
  8
0
  6
CONTINUOUS
 62
               4
100
AcDbCircle
 10
35.168200505663947
 20
-70.104515699850595
 30
0.0
 40
0.7250000000000001
  0
CIRCLE
  5
1D1
100
AcDbEntity
  8
0
  6
CONTINUOUS
 62
               4
100
AcDbCircle
 10
32.668200505663947
 20
-70.104515699850595
 30
0.0
 40
0.7250000000000001
  0
LINE
  5
1D2
100
AcDbEntity
  8
0
  6
CONTINUOUS
 62
               7
100
AcDbLine
 10
27.917606633593635
 20
-98.604515699850595
 30
0.0
 11
39.917606633593635
 21
-98.604515699850566
 31
0.0
  0
LINE
  5
1D3
100
AcDbEntity
  8
0
  6
CONTINUOUS
 62
               7
100
AcDbLine
 10
39.917606633593635
 20
-98.70451569985056
 30
0.0
 11
39.817606633593613
 21
-98.604515699850566
 31
0.0
  0
LINE
  5
1D4
100
AcDbEntity
  8
0
  6
CONTINUOUS
 62
               7
100
AcDbLine
 10
28.01760663004157
 20
-98.604515699850595
 30
0.0
 11
27.917606633593635
 21
-98.704515696298529
 31
0.0
  0
CIRCLE
  5
1D5
100
AcDbEntity
  8
0
  6
CONTINUOUS
 62
               7
100
AcDbCircle
 10
33.917606633593607
 20
-87.404515686263636
 30
0.0
 40
1.3999999999999997
  0
CIRCLE
  5
1D6
100
AcDbEntity
  8
0
  6
CONTINUOUS
 62
               7
100
AcDbCircle
 10
33.917606633593607
 20
-87.404515686263636
 30
0.0
 40
0.75
  0
CIRCLE
  5
1D7
100
AcDbEntity
  8
0
  6
CONTINUOUS
 62
               7
100
AcDbCircle
 10
33.917606633593607
 20
-87.404515686263636
 30
0.0
 40
1.1000000000000001
  0
LINE
  5
1D8
100
AcDbEntity
  8
0
  6
CENTER
 62
               2
100
AcDbLine
 10
36.23253676931796
 20
-87.404515686263636
 30
0.0
 11
31.693662480917965
 21
-87.404515686263636
 31
0.0
  0
LINE
  5
1D9
100
AcDbEntity
  8
0
  6
CONTINUOUS
 62
               7
100
AcDbLine
 10
39.167606633593607
 20
-84.604515699850595
 30
0.0
 11
39.617606633593624
 21
-84.604515699850595
 31
0.0
  0
CIRCLE
  5
1DA
100
AcDbEntity
  8
0
  6
CONTINUOUS
 62
               7
100
AcDbCircle
 10
33.917856633593658
 20
-87.404515699850592
 30
0.0
 40
1.1500000000000001
  0
LINE
  5
1DB
100
AcDbEntity
  8
0
  6
CONTINUOUS
 62
               7
100
AcDbLine
 10
28.217606633593647
 20
-84.604515699850595
 30
0.0
 11
28.667606633593607
 21
-84.604515699850595
 31
0.0
  0
LINE
  5
1DC
100
AcDbEntity
  8
0
  6
CONTINUOUS
 62
               7
100
AcDbLine
 10
28.217606633593647
 20
-84.604515699850595
 30
0.0
 11
27.917606633593635
 21
-84.904515699850577
 31
0.0
  0
LINE
  5
1DD
100
AcDbEntity
  8
0
  6
CONTINUOUS
 62
               7
100
AcDbLine
 10
39.617606633593624
 20
-84.604515699850595
 30
0.0
 11
39.917606633593635
 21
-84.904515699850577
 31
0.0
  0
LINE
  5
1DE
100
AcDbEntity
  8
0
  6
CONTINUOUS
 62
               7
100
AcDbLine
 10
38.967606633593618
 20
-84.804515699850583
 30
0.0
 11
38.967606633593618
 21
-85.10451569985058
 31
0.0
  0
LINE
  5
1DF
100
AcDbEntity
  8
0
  6
CONTINUOUS
 62
               7
100
AcDbLine
 10
28.867606633593653
 20
-84.804515699850583
 30
0.0
 11
28.867606633593653
 21
-85.104515699850595
 31
0.0
  0
LINE
  5
1E0
100
AcDbEntity
  8
0
  6
CONTINUOUS
 62
               7
100
AcDbLine
 10
28.867606633593653
 20
-84.804515699850583
 30
0.0
 11
28.667606633593607
 21
-84.604515699850595
 31
0.0
  0
LINE
  5
1E1
100
AcDbEntity
  8
0
  6
CONTINUOUS
 62
               7
100
AcDbLine
 10
38.967606633593618
 20
-84.804515699850583
 30
0.0
 11
39.167606633593607
 21
-84.604515699850595
 31
0.0
  0
LINE
  5
1E2
100
AcDbEntity
  8
0
  6
CONTINUOUS
 62
               7
100
AcDbLine
 10
28.867606633593653
 20
-85.104515699850595
 30
0.0
 11
38.967606633593618
 21
-85.10451569985058
 31
0.0
  0
LINE
  5
1E3
100
AcDbEntity
  8
0
  6
CENTER
 62
               2
100
AcDbLine
 10
33.917606633593607
 20
-60.704516005026321
 30
0.0
 11
33.917606633593607
 21
-175.4373895413766
 31
0.0
  0
LINE
  5
1E4
100
AcDbEntity
  8
0
  6
CONTINUOUS
 62
               7
100
AcDbLine
 10
39.917606633593579
 20
-151.30451570838929
 30
0.0
 11
39.917606633593635
 21
-84.904515699850577
 31
0.0
  0
LINE
  5
1E5
100
AcDbEntity
  8
0
  6
CONTINUOUS
 62
               7
100
AcDbLine
 10
27.917606633593635
 20
-151.30451570838935
 30
0.0
 11
27.917606633593635
 21
-84.904515699850577
 31
0.0
  0
LINE
  5
1E6
100
AcDbEntity
  8
0
  6
CENTER
 62
               2
100
AcDbLine
 10
36.117606633593539
 20
-108.80451569629852
 30
0.0
 11
36.117606633593596
 21
-115.80451569629852
 31
0.0
  0
LINE
  5
1E7
100
AcDbEntity
  8
0
  6
CENTER
 62
               2
100
AcDbLine
 10
31.717606633593618
 20
-120.40451569629852
 30
0.0
 11
31.717606633593618
 21
-127.40451569629852
 31
0.0
  0
CIRCLE
  5
1E8
100
AcDbEntity
  8
0
  6
CONTINUOUS
 62
               2
100
AcDbCircle
 10
31.717606633593618
 20
-123.90451569629852
 30
0.0
 40
2.5
  0
CIRCLE
  5
1E9
100
AcDbEntity
  8
0
  6
CONTINUOUS
 62
               7
100
AcDbCircle
 10
31.717606633593618
 20
-123.90451569629852
 30
0.0
 40
2.0999999999999996
  0
LINE
  5
1EA
100
AcDbEntity
  8
0
  6
CENTER
 62
               2
100
AcDbLine
 10
28.217606633593618
 20
-123.90451569629853
 30
0.0
 11
35.217606633593618
 21
-123.90451569629852
 31
0.0
  0
CIRCLE
  5
1EB
100
AcDbEntity
  8
0
  6
CONTINUOUS
 62
               2
100
AcDbCircle
 10
36.117606633593539
 20
-112.30451569629852
 30
0.0
 40
2.5
  0
CIRCLE
  5
1EC
100
AcDbEntity
  8
0
  6
CONTINUOUS
 62
               7
100
AcDbCircle
 10
36.117606633593539
 20
-112.30451569629852
 30
0.0
 40
2.0999999999999996
  0
LINE
  5
1ED
100
AcDbEntity
  8
0
  6
CENTER
 62
               2
100
AcDbLine
 10
32.617606633593567
 20
-112.30451569629852
 30
0.0
 11
39.617606633593567
 21
-112.30451569629852
 31
0.0
  0
LINE
  5
1EE
100
AcDbEntity
  8
0
  6
CONTINUOUS
 62
               7
100
AcDbLine
 10
27.917606633593635
 20
-137.60451569985059
 30
0.0
 11
39.917606633593579
 21
-137.60451569985059
 31
0.0
  0
LINE
  5
1EF
100
AcDbEntity
  8
0
  6
CONTINUOUS
 62
               7
100
AcDbLine
 10
28.867606633593653
 20
-151.10451570838933
 30
0.0
 11
38.967606633593505
 21
-151.10451570838936
 31
0.0
  0
LINE
  5
1F0
100
AcDbEntity
  8
0
  6
CONTINUOUS
 62
               7
100
AcDbLine
 10
38.967606633593505
 20
-151.40451570838937
 30
0.0
 11
39.167606633593607
 21
-151.60451570838936
 31
0.0
  0
LINE
  5
1F1
100
AcDbEntity
  8
0
  6
CONTINUOUS
 62
               7
100
AcDbLine
 10
28.867606633593653
 20
-151.40451570838934
 30
0.0
 11
28.667606633593607
 21
-151.60451570838933
 31
0.0
  0
LINE
  5
1F2
100
AcDbEntity
  8
0
  6
CONTINUOUS
 62
               7
100
AcDbLine
 10
28.867606633593653
 20
-151.40451570838934
 30
0.0
 11
28.867606633593653
 21
-151.10451570838933
 31
0.0
  0
LINE
  5
1F3
100
AcDbEntity
  8
0
  6
CONTINUOUS
 62
               7
100
AcDbLine
 10
38.967606633593505
 20
-151.40451570838937
 30
0.0
 11
38.967606633593505
 21
-151.10451570838936
 31
0.0
  0
LINE
  5
1F4
100
AcDbEntity
  8
0
  6
CONTINUOUS
 62
               7
100
AcDbLine
 10
39.617606633593624
 20
-151.60451570838936
 30
0.0
 11
39.917606633593522
 21
-151.30451570838935
 31
0.0
  0
LINE
  5
1F5
100
AcDbEntity
  8
0
  6
CONTINUOUS
 62
               7
100
AcDbLine
 10
28.217606633593533
 20
-151.60451570838933
 30
0.0
 11
27.917606633593635
 21
-151.30451570838935
 31
0.0
  0
LINE
  5
1F6
100
AcDbEntity
  8
0
  6
CONTINUOUS
 62
               7
100
AcDbLine
 10
28.217606633593533
 20
-151.60451570838933
 30
0.0
 11
28.667606633593607
 21
-151.60451570838933
 31
0.0
  0
CIRCLE
  5
1F7
100
AcDbEntity
  8
0
  6
CONTINUOUS
 62
               7
100
AcDbCircle
 10
33.917856633593658
 20
-148.80451570838932
 30
0.0
 40
1.1500000000000001
  0
LINE
  5
1F8
100
AcDbEntity
  8
0
  6
CONTINUOUS
 62
               7
100
AcDbLine
 10
39.167606633593607
 20
-151.60451570838936
 30
0.0
 11
39.617606633593624
 21
-151.60451570838936
 31
0.0
  0
LINE
  5
1F9
100
AcDbEntity
  8
0
  6
CENTER
 62
               2
100
AcDbLine
 10
36.23253676931796
 20
-148.80451572197629
 30
0.0
 11
31.693662480917851
 21
-148.80451572197629
 31
0.0
  0
CIRCLE
  5
1FA
100
AcDbEntity
  8
0
  6
CONTINUOUS
 62
               7
100
AcDbCircle
 10
33.917606633593607
 20
-148.80451572197629
 30
0.0
 40
1.1000000000000001
  0
CIRCLE
  5
1FB
100
AcDbEntity
  8
0
  6
CONTINUOUS
 62
               7
100
AcDbCircle
 10
33.917606633593607
 20
-148.80451572197629
 30
0.0
 40
0.75
  0
CIRCLE
  5
1FC
100
AcDbEntity
  8
0
  6
CONTINUOUS
 62
               7
100
AcDbCircle
 10
33.917606633593607
 20
-148.80451572197629
 30
0.0
 40
1.3999999999999997
  0
LINE
  5
1FD
100
AcDbEntity
  8
0
  6
CENTER
 62
               2
100
AcDbLine
 10
27.21760663359359
 20
-109.40451569629852
 30
0.0
 11
31.21760663359359
 21
-109.40451569629852
 31
0.0
  0
LINE
  5
1FE
100
AcDbEntity
  8
0
  6
CENTER
 62
               2
100
AcDbLine
 10
29.21760663359359
 20
-111.40451569629852
 30
0.0
 11
29.21760663359359
 21
-107.40451569629853
 31
0.0
  0
CIRCLE
  5
1FF
100
AcDbEntity
  8
0
  6
CONTINUOUS
 62
               7
100
AcDbCircle
 10
29.21760663359359
 20
-109.40451569629852
 30
0.0
 40
1.075
  0
LINE
  5
200
100
AcDbEntity
  8
0
  6
CONTINUOUS
 62
               7
100
AcDbLine
 10
29.21760663359359
 20
-107.75451569629853
 30
0.0
 11
27.917606633593635
 21
-107.75451569629853
 31
0.0
  0
LINE
  5
201
100
AcDbEntity
  8
0
  6
CONTINUOUS
 62
               7
100
AcDbLine
 10
29.21760663359359
 20
-111.05451569629852
 30
0.0
 11
27.917606633593635
 21
-111.05451569629852
 31
0.0
  0
ARC
  5
202
100
AcDbEntity
  8
0
  6
CONTINUOUS
 62
               7
100
AcDbCircle
 10
29.21760663359359
 20
-109.40451569629852
 30
0.0
 40
1.6499999999999999
100
AcDbArc
 50
269.99999999999937
 51
89.999999999999801
  0
LINE
  5
203
100
AcDbEntity
  8
0
  6
CENTER
 62
               2
100
AcDbLine
 10
36.617606633593596
 20
-126.80451569629852
 30
0.0
 11
40.617606633593596
 21
-126.80451569629852
 31
0.0
  0
CIRCLE
  5
204
100
AcDbEntity
  8
0
  6
CONTINUOUS
 62
               7
100
AcDbCircle
 10
38.617606633593596
 20
-126.80451569629852
 30
0.0
 40
1.075
  0
ARC
  5
205
100
AcDbEntity
  8
0
  6
CONTINUOUS
 62
               7
100
AcDbCircle
 10
38.617606633593596
 20
-126.80451569629852
 30
0.0
 40
1.6499999999999999
100
AcDbArc
 50
89.999999999999815
 51
269.99999999999937
  0
LINE
  5
206
100
AcDbEntity
  8
0
  6
CONTINUOUS
 62
               7
100
AcDbLine
 10
38.617606633593596
 20
-125.15451569629852
 30
0.0
 11
39.917606633593607
 21
-125.15451569629852
 31
0.0
  0
LINE
  5
207
100
AcDbEntity
  8
0
  6
CONTINUOUS
 62
               7
100
AcDbLine
 10
38.617606633593596
 20
-128.45451569629853
 30
0.0
 11
39.917606633593607
 21
-128.45451569629853
 31
0.0
  0
LINE
  5
208
100
AcDbEntity
  8
0
  6
CENTER
 62
               2
100
AcDbLine
 10
38.617606633593596
 20
-128.80451569629852
 30
0.0
 11
38.617606633593596
 21
-124.80451569629852
 31
0.0
  0
LINE
  5
209
100
AcDbEntity
  8
0
  6
CONTINUOUS
 62
               4
100
AcDbLine
 10
27.917606633593635
 20
-130.60151570411995
 30
0.0
 11
25.617606641555398
 21
-130.60151570411995
 31
0.0
  0
LINE
  5
20A
100
AcDbEntity
  8
0
  6
CONTINUOUS
 62
               4
100
AcDbLine
 10
27.917606633593635
 20
-105.60151570411995
 30
0.0
 11
25.617606641555511
 21
-105.60151570411995
 31
0.0
  0
LINE
  5
20B
100
AcDbEntity
  8
0
  6
CONTINUOUS
 62
               4
100
AcDbLine
 10
25.617606641555398
 20
-130.60151569611111
 30
0.0
 11
25.617606641555511
 21
-105.60151569611111
 31
0.0
  0
LINE
  5
20C
100
AcDbEntity
  8
0
  6
CENTER
 62
               2
100
AcDbLine
 10
30.317606637145602
 20
-112.10451571122401
 30
0.0
 11
23.017606645107449
 21
-112.10451571122401
 31
0.0
  0
LINE
  5
20D
100
AcDbEntity
  8
0
  6
CENTER
 62
               2
100
AcDbLine
 10
30.317606637145602
 20
-124.10451571122401
 30
0.0
 11
23.017606645107449
 21
-124.10451571122401
 31
0.0
  0
LINE
  5
20E
100
AcDbEntity
  8
0
  6
CONTINUOUS
 62
             200
100
AcDbLine
 10
35.448307188945172
 20
-4.1216704320484325
 30
0.0
 11
42.948307188945165
 21
-2.1116704320483848
 31
0.0
  0
LINE
  5
20F
100
AcDbEntity
  8
0
  6
CONTINUOUS
 62
             200
100
AcDbLine
 10
35.448307188945172
 20
-5.1616704320484246
 30
0.0
 11
42.948307188945165
 21
-3.1516704320484052
 31
0.0
  0
LINE
  5
210
100
AcDbEntity
  8
0
  6
CONTINUOUS
 62
               4
100
AcDbLine
 10
35.448307188945151
 20
0.3583295679515857
 30
0.0
 11
35.448307188945137
 21
5.3583298773965709
 31
0.0
  0
LINE
  5
211
100
AcDbEntity
  8
0
  6
CONTINUOUS
 62
               4
100
AcDbLine
 10
35.448307188945151
 20
1.8583295679515857
 30
0.0
 11
42.948307188945151
 21
1.8583295679516141
 31
0.0
  0
LINE
  5
212
100
AcDbEntity
  8
0
  6
CONTINUOUS
 62
               4
100
AcDbLine
 10
42.948307188945158
 20
0.3583295679516141
 30
0.0
 11
42.948307188945137
 21
5.3583298773965993
 31
0.0
  0
LINE
  5
213
100
AcDbEntity
  8
0
  6
CONTINUOUS
 62
               4
100
AcDbLine
 10
35.448307188945151
 20
0.3583295679515857
 30
0.0
 11
42.948307188945158
 21
0.3583295679516141
 31
0.0
  0
LINE
  5
214
100
AcDbEntity
  8
0
  6
CONTINUOUS
 62
               4
100
AcDbLine
 10
41.098307188945157
 20
-7.1345997049818948
 30
0.0
 11
41.098307188945149
 21
-3.6416704320484001
 31
0.0
  0
LINE
  5
215
100
AcDbEntity
  8
0
  6
CONTINUOUS
 62
               4
100
AcDbLine
 10
39.798307188945145
 20
-7.1345997049818948
 30
0.0
 11
39.798307188945138
 21
-3.9916704320484229
 31
0.0
  0
LINE
  5
216
100
AcDbEntity
  8
0
  6
CONTINUOUS
 62
               4
100
AcDbLine
 10
38.198307188945194
 20
-10.634599702981916
 30
0.0
 11
38.198307188945179
 21
-7.1345997049818948
 31
0.0
  0
LINE
  5
217
100
AcDbEntity
  8
0
  6
CONTINUOUS
 62
               4
100
AcDbLine
 10
37.698307188945194
 20
-10.63459970298193
 30
0.0
 11
37.698307188945179
 21
-7.134599704981909
 31
0.0
  0
LINE
  5
218
100
AcDbEntity
  8
0
  6
CONTINUOUS
 62
               4
100
AcDbLine
 10
41.098307188945142
 20
-2.611670432048399
 30
0.0
 11
41.098307188945135
 21
0.3583295679515999
 31
0.0
  0
LINE
  5
219
100
AcDbEntity
  8
0
  6
CONTINUOUS
 62
               4
100
AcDbLine
 10
39.798307188945131
 20
-2.9616704320484217
 30
0.0
 11
39.798307188945124
 21
0.3583295679515999
 31
0.0
  0
LINE
  5
21A
100
AcDbEntity
  8
0
  6
CONTINUOUS
 62
               4
100
AcDbLine
 10
37.298307188945138
 20
-3.6316704320484234
 30
0.0
 11
37.298307188945124
 21
0.3583295679515857
 31
0.0
  0
LINE
  5
21B
100
AcDbEntity
  8
0
  6
CONTINUOUS
 62
               4
100
AcDbLine
 10
38.598307188945157
 20
-7.1345997049818948
 30
0.0
 11
38.598307188945149
 21
-4.311670432048416
 31
0.0
  0
LINE
  5
21C
100
AcDbEntity
  8
0
  6
CONTINUOUS
 62
               4
100
AcDbLine
 10
37.298307188945145
 20
-7.134599704981909
 30
0.0
 11
37.298307188945138
 21
-4.6616704320484246
 31
0.0
  0
LINE
  5
21D
100
AcDbEntity
  8
0
  6
CONTINUOUS
 62
               4
100
AcDbLine
 10
40.698307188945194
 20
-10.634599702981916
 30
0.0
 11
40.698307188945179
 21
-7.1345997049818948
 31
0.0
  0
LINE
  5
21E
100
AcDbEntity
  8
0
  6
CONTINUOUS
 62
               4
100
AcDbLine
 10
40.198307188945194
 20
-10.634599702981916
 30
0.0
 11
40.198307188945179
 21
-7.1345997049818948
 31
0.0
  0
LINE
  5
21F
100
AcDbEntity
  8
0
  6
CONTINUOUS
 62
               4
100
AcDbLine
 10
38.598307188945142
 20
-3.2816704320484149
 30
0.0
 11
38.598307188945135
 21
0.3583295679515999
 31
0.0
  0
LINE
  5
220
100
AcDbEntity
  8
0
  6
CONTINUOUS
 62
               4
100
AcDbLine
 10
37.298307188945145
 20
-7.134599704981909
 30
0.0
 11
38.598307188945157
 21
-7.1345997049818948
 31
0.0
  0
LINE
  5
221
100
AcDbEntity
  8
0
  6
CONTINUOUS
 62
               4
100
AcDbLine
 10
39.798307188945145
 20
-7.1345997049818948
 30
0.0
 11
41.098307188945157
 21
-7.1345997049818948
 31
0.0
  0
LINE
  5
222
100
AcDbEntity
  8
0
  6
CONTINUOUS
 62
               4
100
AcDbLine
 10
34.198325499492
 20
5.3583295636820765
 30
0.0
 11
34.198325499491922
 21
27.358329567951422
 31
0.0
  0
LINE
  5
223
100
AcDbEntity
  8
0
  6
CONTINUOUS
 62
               4
100
AcDbLine
 10
44.198325499492
 20
5.3583295636821049
 30
0.0
 11
42.948307188945137
 21
5.3583295636821049
 31
0.0
  0
LINE
  5
224
100
AcDbEntity
  8
0
  6
CONTINUOUS
 62
               4
100
AcDbLine
 10
44.198325499491993
 20
6.9583295636821276
 30
0.0
 11
42.94830718894513
 21
6.9583295636821276
 31
0.0
  0
LINE
  5
225
100
AcDbEntity
  8
0
  6
CONTINUOUS
 62
               4
100
AcDbLine
 10
34.198325528581194
 20
5.3583295636820765
 30
0.0
 11
35.448307188945137
 21
5.3583295636820765
 31
0.0
  0
LINE
  5
226
100
AcDbEntity
  8
0
  6
CONTINUOUS
 62
               4
100
AcDbLine
 10
44.198325499492
 20
5.358329567951472
 30
0.0
 11
44.198325499491922
 21
27.358329567951458
 31
0.0
  0
LINE
  5
227
100
AcDbEntity
  8
0
  6
CONTINUOUS
 62
               4
100
AcDbLine
 10
37.698307188945194
 20
-10.63459970298193
 30
0.0
 11
38.198307188945194
 21
-10.634599702981916
 31
0.0
  0
LINE
  5
228
100
AcDbEntity
  8
0
  6
CONTINUOUS
 62
               4
100
AcDbLine
 10
40.198307188945194
 20
-10.634599702981916
 30
0.0
 11
40.698307188945194
 21
-10.634599702981916
 31
0.0
  0
LINE
  5
229
100
AcDbEntity
  8
0
  6
CONTINUOUS
 62
               4
100
AcDbLine
 10
40.998325499491955
 20
5.4583298773966078
 30
0.0
 11
34.698325499492
 21
5.4583298773965936
 31
0.0
  0
LINE
  5
22A
100
AcDbEntity
  8
0
  6
CONTINUOUS
 62
               4
100
AcDbLine
 10
44.198325499492
 20
5.3583298773965993
 30
0.0
 11
34.198325499492
 21
5.3583298773965709
 31
0.0
  0
ARC
  5
22B
100
AcDbEntity
  8
0
  6
CONTINUOUS
 62
               4
100
AcDbCircle
 10
34.698325499492
 20
5.9583298773965865
 30
0.0
 40
0.5
100
AcDbArc
 50
179.9999999999998
 51
269.9999999999996
  0
LINE
  5
22C
100
AcDbEntity
  8
0
  6
CONTINUOUS
 62
               4
100
AcDbLine
 10
44.198325499492
 20
5.958329877396622
 30
0.0
 11
40.998325499491955
 21
5.9583298773966149
 31
0.0
  0
LINE
  5
22D
100
AcDbEntity
  8
0
  6
CONTINUOUS
 62
               4
100
AcDbLine
 10
44.198325499491993
 20
6.958329877396622
 30
0.0
 11
40.998325499491948
 21
6.9583298773966149
 31
0.0
  0
LINE
  5
22E
100
AcDbEntity
  8
0
  6
CONTINUOUS
 62
               4
100
AcDbLine
 10
40.998325499491955
 20
5.4583298773966078
 30
0.0
 11
40.998325499491948
 21
6.9583298773966149
 31
0.0
  0
ARC
  5
22F
100
AcDbEntity
  8
0
  6
CONTINUOUS
 62
               4
100
AcDbCircle
 10
43.402420646150119
 20
5.9582347307384254
 30
0.0
 40
0.5999048608870732
100
AcDbArc
 50
269.99091272245403
 51
0.009087277546425
  0
ARC
  5
230
100
AcDbEntity
  8
0
  6
CONTINUOUS
 62
               4
100
AcDbCircle
 10
41.601237494254917
 20
5.9572418721595923
 30
0.0
 40
0.5989129830170392
100
AcDbArc
 50
179.89591452477268
 51
270.10408547522661
  0
ARC
  5
231
100
AcDbEntity
  8
0
  6
CONTINUOUS
 62
               4
100
AcDbCircle
 10
41.601237494254526
 20
115.75941727228212
 30
0.0
 40
0.5989129830170392
100
AcDbArc
 50
89.895914524772962
 51
180.1040854752269
  0
ARC
  5
232
100
AcDbEntity
  8
0
  6
CONTINUOUS
 62
               4
100
AcDbCircle
 10
43.402420646149729
 20
115.7584244137033
 30
0.0
 40
0.5999048608870732
100
AcDbArc
 50
359.99091272245317
 51
90.009087277546371
  0
LINE
  5
233
100
AcDbEntity
  8
0
  6
CONTINUOUS
 62
               4
100
AcDbLine
 10
40.998325499491564
 20
116.2583292670451
 30
0.0
 11
40.998325499491564
 21
114.7583292670451
 31
0.0
  0
LINE
  5
234
100
AcDbEntity
  8
0
  6
CONTINUOUS
 62
               4
100
AcDbLine
 10
44.198325499491609
 20
114.7583292670451
 30
0.0
 11
40.998325499491564
 21
114.7583292670451
 31
0.0
  0
LINE
  5
235
100
AcDbEntity
  8
0
  6
CONTINUOUS
 62
               4
100
AcDbLine
 10
44.198325499491609
 20
115.7583292670451
 30
0.0
 11
40.998325499491564
 21
115.7583292670451
 31
0.0
  0
ARC
  5
236
100
AcDbEntity
  8
0
  6
CONTINUOUS
 62
               4
100
AcDbCircle
 10
34.698325499491609
 20
115.75832926704507
 30
0.0
 40
0.5
100
AcDbArc
 50
90.000000000000028
 51
179.99999999999983
  0
LINE
  5
237
100
AcDbEntity
  8
0
  6
CONTINUOUS
 62
               4
100
AcDbLine
 10
44.198325499491609
 20
116.35832926704512
 30
0.0
 11
34.198325499491602
 21
116.35832926704509
 31
0.0
  0
LINE
  5
238
100
AcDbEntity
  8
0
  6
CONTINUOUS
 62
               4
100
AcDbLine
 10
40.998325499491564
 20
116.2583292670451
 30
0.0
 11
34.698325499491609
 21
116.25832926704507
 31
0.0
  0
LINE
  5
239
100
AcDbEntity
  8
0
  6
CONTINUOUS
 62
             200
100
AcDbLine
 10
35.44830718894471
 20
125.8383295764901
 30
0.0
 11
42.948307188944717
 21
123.82832957649011
 31
0.0
  0
LINE
  5
23A
100
AcDbEntity
  8
0
  6
CONTINUOUS
 62
             200
100
AcDbLine
 10
35.448307188944703
 20
126.87832957649009
 30
0.0
 11
42.94830718894471
 21
124.86832957649013
 31
0.0
  0
LINE
  5
23B
100
AcDbEntity
  8
0
  6
CONTINUOUS
 62
               4
100
AcDbLine
 10
40.198307188944689
 20
132.35125884742359
 30
0.0
 11
40.698307188944689
 21
132.35125884742359
 31
0.0
  0
LINE
  5
23C
100
AcDbEntity
  8
0
  6
CONTINUOUS
 62
               4
100
AcDbLine
 10
37.698307188944689
 20
132.35125884742359
 30
0.0
 11
38.198307188944689
 21
132.35125884742359
 31
0.0
  0
LINE
  5
23D
100
AcDbEntity
  8
0
  6
CONTINUOUS
 62
               4
100
AcDbLine
 10
44.198325499491609
 20
116.35832957649025
 30
0.0
 11
44.198325499491688
 21
94.358329576490263
 31
0.0
  0
LINE
  5
23E
100
AcDbEntity
  8
0
  6
CONTINUOUS
 62
               4
100
AcDbLine
 10
34.198325528580796
 20
116.35832958075957
 30
0.0
 11
35.448307188944739
 21
116.35832958075959
 31
0.0
  0
LINE
  5
23F
100
AcDbEntity
  8
0
  6
CONTINUOUS
 62
               4
100
AcDbLine
 10
44.198325499491609
 20
114.75832958075959
 30
0.0
 11
42.948307188944746
 21
114.75832958075959
 31
0.0
  0
LINE
  5
240
100
AcDbEntity
  8
0
  6
CONTINUOUS
 62
               4
100
AcDbLine
 10
44.198325499491609
 20
116.35832958075962
 30
0.0
 11
42.948307188944746
 21
116.35832958075962
 31
0.0
  0
LINE
  5
241
100
AcDbEntity
  8
0
  6
CONTINUOUS
 62
               4
100
AcDbLine
 10
34.198325499491602
 20
116.35832958075957
 30
0.0
 11
34.198325499491688
 21
94.358329576490235
 31
0.0
  0
LINE
  5
242
100
AcDbEntity
  8
0
  6
CONTINUOUS
 62
               4
100
AcDbLine
 10
39.798307188944662
 20
128.85125884942357
 30
0.0
 11
41.098307188944673
 21
128.8512588494236
 31
0.0
  0
LINE
  5
243
100
AcDbEntity
  8
0
  6
CONTINUOUS
 62
               4
100
AcDbLine
 10
37.298307188944662
 20
128.85125884942357
 30
0.0
 11
38.598307188944673
 21
128.85125884942357
 31
0.0
  0
LINE
  5
244
100
AcDbEntity
  8
0
  6
CONTINUOUS
 62
               4
100
AcDbLine
 10
38.598307188944688
 20
124.99832957649011
 30
0.0
 11
38.598307188944702
 21
121.35832957649009
 31
0.0
  0
LINE
  5
245
100
AcDbEntity
  8
0
  6
CONTINUOUS
 62
               4
100
AcDbLine
 10
40.198307188944689
 20
132.35125884742359
 30
0.0
 11
40.198307188944696
 21
128.85125884942357
 31
0.0
  0
LINE
  5
246
100
AcDbEntity
  8
0
  6
CONTINUOUS
 62
               4
100
AcDbLine
 10
40.698307188944689
 20
132.35125884742359
 30
0.0
 11
40.698307188944696
 21
128.85125884942357
 31
0.0
  0
LINE
  5
247
100
AcDbEntity
  8
0
  6
CONTINUOUS
 62
               4
100
AcDbLine
 10
37.298307188944662
 20
128.85125884942357
 30
0.0
 11
37.298307188944676
 21
126.3783295764901
 31
0.0
  0
LINE
  5
248
100
AcDbEntity
  8
0
  6
CONTINUOUS
 62
               4
100
AcDbLine
 10
38.598307188944673
 20
128.85125884942357
 30
0.0
 11
38.598307188944688
 21
126.02832957649011
 31
0.0
  0
LINE
  5
249
100
AcDbEntity
  8
0
  6
CONTINUOUS
 62
               4
100
AcDbLine
 10
37.298307188944676
 20
125.3483295764901
 30
0.0
 11
37.29830718894469
 21
121.35832957649009
 31
0.0
  0
LINE
  5
24A
100
AcDbEntity
  8
0
  6
CONTINUOUS
 62
               4
100
AcDbLine
 10
39.798307188944676
 20
124.67832957649011
 30
0.0
 11
39.79830718894469
 21
121.35832957649009
 31
0.0
  0
LINE
  5
24B
100
AcDbEntity
  8
0
  6
CONTINUOUS
 62
               4
100
AcDbLine
 10
41.098307188944695
 20
124.32832957649009
 30
0.0
 11
41.098307188944702
 21
121.35832957649009
 31
0.0
  0
LINE
  5
24C
100
AcDbEntity
  8
0
  6
CONTINUOUS
 62
               4
100
AcDbLine
 10
37.698307188944689
 20
132.35125884742359
 30
0.0
 11
37.698307188944696
 21
128.85125884942357
 31
0.0
  0
LINE
  5
24D
100
AcDbEntity
  8
0
  6
CONTINUOUS
 62
               4
100
AcDbLine
 10
38.198307188944689
 20
132.35125884742359
 30
0.0
 11
38.198307188944696
 21
128.85125884942357
 31
0.0
  0
LINE
  5
24E
100
AcDbEntity
  8
0
  6
CONTINUOUS
 62
               4
100
AcDbLine
 10
39.798307188944662
 20
128.85125884942357
 30
0.0
 11
39.798307188944676
 21
125.70832957649012
 31
0.0
  0
LINE
  5
24F
100
AcDbEntity
  8
0
  6
CONTINUOUS
 62
               4
100
AcDbLine
 10
41.098307188944673
 20
128.8512588494236
 30
0.0
 11
41.098307188944688
 21
125.35832957649009
 31
0.0
  0
LINE
  5
250
100
AcDbEntity
  8
0
  6
CONTINUOUS
 62
               4
100
AcDbLine
 10
35.448307188944725
 20
121.35832957649008
 30
0.0
 11
42.948307188944725
 21
121.35832957649011
 31
0.0
  0
LINE
  5
251
100
AcDbEntity
  8
0
  6
CONTINUOUS
 62
               4
100
AcDbLine
 10
42.948307188944725
 20
121.35832957649011
 30
0.0
 11
42.948307188944746
 21
116.35832926704512
 31
0.0
  0
LINE
  5
252
100
AcDbEntity
  8
0
  6
CONTINUOUS
 62
               4
100
AcDbLine
 10
35.448307188944732
 20
119.85832957649008
 30
0.0
 11
42.948307188944732
 21
119.85832957649011
 31
0.0
  0
LINE
  5
253
100
AcDbEntity
  8
0
  6
CONTINUOUS
 62
               4
100
AcDbLine
 10
35.448307188944725
 20
121.35832957649008
 30
0.0
 11
35.448307188944739
 21
116.35832926704509
 31
0.0
  0
LINE
  5
254
100
AcDbEntity
  8
0
  6
CONTINUOUS
 62
               7
100
AcDbLine
 10
45.198325499491872
 20
41.358329576490263
 30
0.0
 11
33.198325499491872
 21
41.35832957649022
 31
0.0
  0
LINE
  5
255
100
AcDbEntity
  8
0
  6
CONTINUOUS
 62
               7
100
AcDbLine
 10
33.198325499491922
 20
27.664329576490196
 30
0.0
 11
33.198325499491631
 21
94.058329576490223
 31
0.0
  0
LINE
  5
256
100
AcDbEntity
  8
0
  6
CENTER
 62
               2
100
AcDbLine
 10
39.198325499491588
 20
122.25832927131449
 30
0.0
 11
39.198325499492007
 21
3.1192393263695237
 31
0.0
  0
LINE
  5
257
100
AcDbEntity
  8
0
  6
CONTINUOUS
 62
               7
100
AcDbLine
 10
33.498325499491642
 20
94.358329576490235
 30
0.0
 11
33.198325499491631
 21
94.058329576490223
 31
0.0
  0
LINE
  5
258
100
AcDbEntity
  8
0
  6
CONTINUOUS
 62
               7
100
AcDbLine
 10
44.898325499491676
 20
94.358329576490263
 30
0.0
 11
45.198325499491688
 21
94.058329576490266
 31
0.0
  0
LINE
  5
259
100
AcDbEntity
  8
0
  6
CONTINUOUS
 62
               7
100
AcDbLine
 10
33.498325499491642
 20
94.358329576490235
 30
0.0
 11
44.898325499491676
 21
94.358329576490263
 31
0.0
  0
LINE
  5
25A
100
AcDbEntity
  8
0
  6
CONTINUOUS
 62
               7
100
AcDbLine
 10
45.098325503043803
 20
80.358329576490263
 30
0.0
 11
45.198325499491737
 21
80.258329580042329
 31
0.0
  0
LINE
  5
25B
100
AcDbEntity
  8
0
  6
CONTINUOUS
 62
               7
100
AcDbLine
 10
33.198325499491681
 20
80.258329576490226
 30
0.0
 11
33.298325499491696
 21
80.35832957649022
 31
0.0
  0
LINE
  5
25C
100
AcDbEntity
  8
0
  6
CONTINUOUS
 62
               7
100
AcDbLine
 10
45.198325499491737
 20
80.358329576490263
 30
0.0
 11
33.19832549949173
 21
80.35832957649022
 31
0.0
  0
LINE
  5
25D
100
AcDbEntity
  8
0
  6
CENTER
 62
               2
100
AcDbLine
 10
41.198325499491702
 20
88.558329576490323
 30
0.0
 11
37.198325499491702
 21
88.558329576490308
 31
0.0
  0
CIRCLE
  5
25E
100
AcDbEntity
  8
0
  6
CONTINUOUS
 62
               7
100
AcDbCircle
 10
39.198325499491702
 20
88.558329576490323
 30
0.0
 40
1.0
  0
LINE
  5
25F
100
AcDbEntity
  8
0
  6
CENTER
 62
               2
100
AcDbLine
 10
42.698325499491766
 20
72.458329576490272
 30
0.0
 11
35.698325499491759
 21
72.458329576490243
 31
0.0
  0
LINE
  5
260
100
AcDbEntity
  8
0
  6
CENTER
 62
               2
100
AcDbLine
 10
42.698325499491844
 20
49.258329576490254
 30
0.0
 11
35.698325499491844
 21
49.258329576490226
 31
0.0
  0
CIRCLE
  5
261
100
AcDbEntity
  8
0
  6
CONTINUOUS
 62
               7
100
AcDbCircle
 10
39.198325499491844
 20
49.25832957649024
 30
0.0
 40
2.1000000000000001
  0
CIRCLE
  5
262
100
AcDbEntity
  8
0
  6
CONTINUOUS
 62
               2
100
AcDbCircle
 10
39.198325499491844
 20
49.25832957649024
 30
0.0
 40
2.5
  0
CIRCLE
  5
263
100
AcDbEntity
  8
0
  6
CONTINUOUS
 62
               7
100
AcDbCircle
 10
39.198325499491759
 20
72.458329576490257
 30
0.0
 40
2.1000000000000001
  0
CIRCLE
  5
264
100
AcDbEntity
  8
0
  6
CONTINUOUS
 62
               2
100
AcDbCircle
 10
39.198325499491759
 20
72.458329576490257
 30
0.0
 40
2.5
  0
LINE
  5
265
100
AcDbEntity
  8
0
  6
CENTER
 62
               2
100
AcDbLine
 10
42.698325499491801
 20
60.858329576490249
 30
0.0
 11
35.698325499491801
 21
60.85832957649022
 31
0.0
  0
CIRCLE
  5
266
100
AcDbEntity
  8
0
  6
CONTINUOUS
 62
               7
100
AcDbCircle
 10
39.198325499491801
 20
60.858329576490235
 30
0.0
 40
2.1000000000000001
  0
CIRCLE
  5
267
100
AcDbEntity
  8
0
  6
CONTINUOUS
 62
               2
100
AcDbCircle
 10
39.198325499491801
 20
60.858329576490235
 30
0.0
 40
2.5
  0
LINE
  5
268
100
AcDbEntity
  8
0
  6
CENTER
 62
               2
100
AcDbLine
 10
45.398325499491762
 20
69.55832957649028
 30
0.0
 11
42.398325499491762
 21
69.558329576490294
 31
0.0
  0
LINE
  5
269
100
AcDbEntity
  8
0
  6
CENTER
 62
               2
100
AcDbLine
 10
43.898325499491769
 20
68.05832957649028
 30
0.0
 11
43.898325499491754
 21
71.05832957649028
 31
0.0
  0
CIRCLE
  5
26A
100
AcDbEntity
  8
0
  6
CONTINUOUS
 62
               7
100
AcDbCircle
 10
43.898325499491762
 20
69.55832957649028
 30
0.0
 40
1.075
  0
LINE
  5
26B
100
AcDbEntity
  8
0
  6
CENTER
 62
               2
100
AcDbLine
 10
32.998325499491848
 20
52.158329576490175
 30
0.0
 11
35.998325499491848
 21
52.158329576490175
 31
0.0
  0
LINE
  5
26C
100
AcDbEntity
  8
0
  6
CENTER
 62
               2
100
AcDbLine
 10
34.498325499491841
 20
53.658329576490175
 30
0.0
 11
34.498325499491855
 21
50.658329576490175
 31
0.0
  0
CIRCLE
  5
26D
100
AcDbEntity
  8
0
  6
CONTINUOUS
 62
               7
100
AcDbCircle
 10
34.498325499491848
 20
52.158329576490175
 30
0.0
 40
1.075
  0
LINE
  5
26E
100
AcDbEntity
  8
0
  6
CONTINUOUS
 62
               7
100
AcDbLine
 10
45.198325499491688
 20
94.052329576490266
 30
0.0
 11
45.198325499491922
 21
27.658329576490239
 31
0.0
  0
LINE
  5
26F
100
AcDbEntity
  8
0
  6
CONTINUOUS
 62
               7
100
AcDbLine
 10
33.498325499491877
 20
27.358329576490199
 30
0.0
 11
44.898325499491911
 21
27.358329576490235
 31
0.0
  0
LINE
  5
270
100
AcDbEntity
  8
0
  6
CONTINUOUS
 62
               7
100
AcDbLine
 10
44.898325499491911
 20
27.358329576490235
 30
0.0
 11
45.198325499491922
 21
27.658329576490239
 31
0.0
  0
LINE
  5
271
100
AcDbEntity
  8
0
  6
CONTINUOUS
 62
               7
100
AcDbLine
 10
33.498325499491877
 20
27.358329576490199
 30
0.0
 11
33.198325499491865
 21
27.658329576490196
 31
0.0
  0
CIRCLE
  5
272
100
AcDbEntity
  8
0
  6
CONTINUOUS
 62
               7
100
AcDbCircle
 10
39.198325499491901
 20
33.158329576490146
 30
0.0
 40
1.0
  0
LINE
  5
273
100
AcDbEntity
  8
0
  6
CENTER
 62
               2
100
AcDbLine
 10
41.198325499491901
 20
33.158329576490154
 30
0.0
 11
37.198325499491901
 21
33.158329576490139
 31
0.0
  0
LINE
  5
274
100
AcDbEntity
  8
0
  6
CONTINUOUS
 62
               4
100
AcDbLine
 10
45.198325499491823
 20
48.361329572220896
 30
0.0
 11
47.498325491530061
 21
48.36132957222091
 31
0.0
  0
LINE
  5
275
100
AcDbEntity
  8
0
  6
CONTINUOUS
 62
               4
100
AcDbLine
 10
45.19832549949173
 20
73.361329572220896
 30
0.0
 11
47.498325491529855
 21
73.36132957222091
 31
0.0
  0
LINE
  5
276
100
AcDbEntity
  8
0
  6
CONTINUOUS
 62
               4
100
AcDbLine
 10
47.498325491530061
 20
48.36132958022975
 30
0.0
 11
47.498325491529855
 21
73.36132958022975
 31
0.0
  0
LINE
  5
277
100
AcDbEntity
  8
0
  6
CENTER
 62
               2
100
AcDbLine
 10
42.698325499491773
 20
66.958329568668887
 30
0.0
 11
49.998325491529926
 21
66.958329568668887
 31
0.0
  0
LINE
  5
278
100
AcDbEntity
  8
0
  6
CENTER
 62
               2
100
AcDbLine
 10
42.698325499491773
 20
54.958329568668887
 30
0.0
 11
49.998325491529926
 21
54.958329568668887
 31
0.0
  0
LINE
  5
279
100
AcDbEntity
  8
0
  6
CONTINUOUS
 62
             200
100
AcDbLine
 10
152.41366586475084
 20
-3.3113670937553223
 30
0.0
 11
149.41568606848415
 21
-5.0436903250886047
 31
0.0
  0
LINE
  5
27A
100
AcDbEntity
  8
0
  6
CONTINUOUS
 62
             200
100
AcDbLine
 10
152.41366586475084
 20
-2.9649024474886545
 30
0.0
 11
149.41568606848415
 21
-4.6972256788219937
 31
0.0
  0
LINE
  5
27B
100
AcDbEntity
  8
0
  6
CONTINUOUS
 62
               4
100
AcDbLine
 10
153.51669616715077
 20
16.361360183444603
 30
0.0
 11
154.21669616675075
 21
16.361360183444603
 31
0.0
  0
LINE
  5
27C
100
AcDbEntity
  8
0
  6
CONTINUOUS
 62
               4
100
AcDbLine
 10
154.51366586355078
 20
6.9643904918445827
 30
0.0
 11
154.51366586355078
 21
16.064390486644569
 31
0.0
  0
LINE
  5
27D
100
AcDbEntity
  8
0
  6
CONTINUOUS
 62
               4
100
AcDbLine
 10
152.51265576368411
 20
6.8654005929112003
 30
0.0
 11
152.81669616755079
 21
6.5613601890445779
 31
0.0
  0
LINE
  5
27E
100
AcDbEntity
  8
0
  6
CONTINUOUS
 62
               4
100
AcDbLine
 10
148.41871637208413
 20
6.3633803911779268
 30
0.0
 11
148.91366586675082
 21
6.3633803911779268
 31
0.0
  0
LINE
  5
27F
100
AcDbEntity
  8
0
  6
CONTINUOUS
 62
               4
100
AcDbLine
 10
148.41871637208413
 20
1.3623702773113706
 30
0.0
 11
148.91366586675082
 21
1.3623702773113706
 31
0.0
  0
LINE
  5
280
100
AcDbEntity
  8
0
  6
CONTINUOUS
 62
               4
100
AcDbLine
 10
152.51265576368411
 20
0.3583298738447098
 30
0.0
 11
152.81669616755079
 21
0.6623702777113891
 31
0.0
  0
LINE
  5
281
100
AcDbEntity
  8
0
  6
CONTINUOUS
 62
               4
100
AcDbLine
 10
152.81669616755079
 20
0.6623702777113891
 30
0.0
 11
152.81669616755079
 21
6.5613601890445779
 31
0.0
  0
LINE
  5
282
100
AcDbEntity
  8
0
  6
CONTINUOUS
 62
               4
100
AcDbLine
 10
152.51265576368411
 20
0.3583298738447098
 30
0.0
 11
152.51265576368411
 21
7.9613601882445408
 31
0.0
  0
LINE
  5
283
100
AcDbEntity
  8
0
  6
CONTINUOUS
 62
               4
100
AcDbLine
 10
153.51669616715077
 20
9.3613601874445607
 30
0.0
 11
153.51669616715077
 21
15.060350083177909
 31
0.0
  0
LINE
  5
284
100
AcDbEntity
  8
0
  6
CONTINUOUS
 62
               4
100
AcDbLine
 10
153.31164566221747
 20
8.0320672589112263
 30
0.0
 11
154.41467596461752
 21
1.7679066535018393
 31
0.0
  0
LINE
  5
285
100
AcDbEntity
  8
0
  6
CONTINUOUS
 62
               4
100
AcDbLine
 10
154.41467596461752
 20
0.3583298738447098
 30
0.0
 11
155.41164566101742
 21
0.3583298738447098
 31
0.0
  0
LINE
  5
286
100
AcDbEntity
  8
0
  6
CONTINUOUS
 62
               4
100
AcDbLine
 10
154.41467596461752
 20
0.3583298738447098
 30
0.0
 11
154.41467596461752
 21
1.7724712871780781
 31
0.0
  0
LINE
  5
287
100
AcDbEntity
  8
0
  6
CONTINUOUS
 62
               4
100
AcDbLine
 10
154.51366586355078
 20
6.9643904918445827
 30
0.0
 11
155.41164566101742
 21
1.8573197719780552
 31
0.0
  0
LINE
  5
288
100
AcDbEntity
  8
0
  6
CONTINUOUS
 62
               4
100
AcDbLine
 10
155.41164566101742
 20
0.3583298738447098
 30
0.0
 11
155.41164566101742
 21
1.8573197719780552
 31
0.0
  0
LINE
  5
289
100
AcDbEntity
  8
0
  6
CONTINUOUS
 62
               4
100
AcDbLine
 10
151.81265576408413
 20
0.3583298738447098
 30
0.0
 11
151.81265576408413
 21
8.3643904910445457
 31
0.0
  0
LINE
  5
28A
100
AcDbEntity
  8
0
  6
CONTINUOUS
 62
               4
100
AcDbLine
 10
150.01669616915075
 20
0.3583298738447098
 30
0.0
 11
150.01669616915075
 21
8.3643904910445457
 31
0.0
  0
LINE
  5
28B
100
AcDbEntity
  8
0
  6
CONTINUOUS
 62
               4
100
AcDbLine
 10
148.41871637208413
 20
0.3583298738447098
 30
0.0
 11
152.51265576368411
 21
0.3583298738447098
 31
0.0
  0
LINE
  5
28C
100
AcDbEntity
  8
0
  6
CONTINUOUS
 62
               4
100
AcDbLine
 10
145.4136658687508
 20
8.3643904910445457
 30
0.0
 11
152.91568606648417
 21
8.3643904910445457
 31
0.0
  0
LINE
  5
28D
100
AcDbEntity
  8
0
  6
CONTINUOUS
 62
               4
100
AcDbLine
 10
143.41366587275087
 20
5.3583298738445677
 30
0.0
 11
143.41366587275087
 21
6.9583298738445336
 31
0.0
  0
ARC
  5
28E
100
AcDbEntity
  8
0
  6
CONTINUOUS
 62
               4
100
AcDbCircle
 10
144.9136658687508
 20
5.9583298738445336
 30
0.0
 40
0.5
100
AcDbArc
 50
269.99999999999937
 51
0.0
  0
ARC
  5
28F
100
AcDbEntity
  8
0
  6
CONTINUOUS
 62
               4
100
AcDbCircle
 10
144.61376092939946
 20
5.9582347271959151
 30
0.0
 40
0.5999048008965869
100
AcDbArc
 50
269.990912722453
 51
303.75258212960529
  0
LINE
  5
290
100
AcDbEntity
  8
0
  6
CONTINUOUS
 62
               4
100
AcDbLine
 10
144.9136658687508
 20
5.4583298738445336
 30
0.0
 11
143.41366587275087
 21
5.4583298738445336
 31
0.0
  0
LINE
  5
291
100
AcDbEntity
  8
0
  6
CONTINUOUS
 62
               4
100
AcDbLine
 10
150.6672012192841
 20
-10.636619614821981
 30
0.0
 11
151.16215071395078
 21
-10.636619614821981
 31
0.0
  0
LINE
  5
292
100
AcDbEntity
  8
0
  6
CONTINUOUS
 62
               4
100
AcDbLine
 10
145.41366587275081
 20
27.358329568668822
 30
0.0
 11
145.41366587275081
 21
5.9583298789123234
 31
0.0
  0
LINE
  5
293
100
AcDbEntity
  8
0
  6
CONTINUOUS
 62
               4
100
AcDbLine
 10
153.4177062682175
 20
8.8593399857112303
 30
0.0
 11
153.4177062682175
 21
25.213885430911333
 31
0.0
  0
LINE
  5
294
100
AcDbEntity
  8
0
  6
CONTINUOUS
 62
               4
100
AcDbLine
 10
148.41871637208413
 20
27.85832987384471
 30
0.0
 11
148.41871637208413
 21
8.3643904910445457
 31
0.0
  0
ARC
  5
295
100
AcDbEntity
  8
0
  6
CONTINUOUS
 62
               4
100
AcDbCircle
 10
131.91366587675083
 20
5.9583298738445336
 30
0.0
 40
0.5
100
AcDbArc
 50
179.99999999999963
 51
266.08041410034838
  0
ARC
  5
296
100
AcDbEntity
  8
0
  6
CONTINUOUS
 62
               4
100
AcDbCircle
 10
132.21257795762261
 20
5.9572418687163662
 30
0.0
 40
0.5989129231257409
100
AcDbArc
 50
179.89591452477254
 51
270.10408547522644
  0
LINE
  5
297
100
AcDbEntity
  8
0
  6
CONTINUOUS
 62
               4
100
AcDbLine
 10
134.1136658727508
 20
5.9583298738445336
 30
0.0
 11
131.41366587675083
 21
5.9583298738445336
 31
0.0
  0
LINE
  5
298
100
AcDbEntity
  8
0
  6
CONTINUOUS
 62
               4
100
AcDbLine
 10
134.1136658727508
 20
5.3583298738445677
 30
0.0
 11
134.1136658727508
 21
5.9583298738445336
 31
0.0
  0
LINE
  5
299
100
AcDbEntity
  8
0
  6
CONTINUOUS
 62
               4
100
AcDbLine
 10
131.41366587275081
 20
5.9583298738446189
 30
0.0
 11
131.41366587275081
 21
27.358329568668822
 31
0.0
  0
LINE
  5
29A
100
AcDbEntity
  8
0
  6
CONTINUOUS
 62
               4
100
AcDbLine
 10
144.61366578275084
 20
5.3583298738445677
 30
0.0
 11
132.21366596275078
 21
5.3583298738445677
 31
0.0
  0
LINE
  5
29B
100
AcDbEntity
  8
0
  6
CONTINUOUS
 62
               4
100
AcDbLine
 10
143.41366587275087
 20
6.9583298738445336
 30
0.0
 11
131.41366587675083
 21
6.9583298738445336
 31
0.0
  0
LINE
  5
29C
100
AcDbEntity
  8
0
  6
CONTINUOUS
 62
               4
100
AcDbLine
 10
153.4177062682175
 20
15.060350083177909
 30
0.0
 11
153.51669616715077
 21
15.060350083177909
 31
0.0
  0
LINE
  5
29D
100
AcDbEntity
  8
0
  6
CONTINUOUS
 62
               4
100
AcDbLine
 10
153.4177062682175
 20
16.262370284511277
 30
0.0
 11
153.51669616715077
 21
16.361360183444603
 31
0.0
  0
LINE
  5
29E
100
AcDbEntity
  8
0
  6
CONTINUOUS
 62
               4
100
AcDbLine
 10
150.26417091648415
 20
-4.2093468912219549
 30
0.0
 11
150.26417091648415
 21
0.3583298738447098
 31
0.0
  0
LINE
  5
29F
100
AcDbEntity
  8
0
  6
CONTINUOUS
 62
               4
100
AcDbLine
 10
151.56518101675084
 20
-7.1366196168219602
 30
0.0
 11
151.56518101675084
 21
-3.8063165884219501
 31
0.0
  0
LINE
  5
2A0
100
AcDbEntity
  8
0
  6
CONTINUOUS
 62
               4
100
AcDbLine
 10
150.26417091648415
 20
-7.1366196168219602
 30
0.0
 11
150.26417091648415
 21
-4.5558115374886228
 31
0.0
  0
LINE
  5
2A1
100
AcDbEntity
  8
0
  6
CONTINUOUS
 62
               4
100
AcDbLine
 10
150.26417091648415
 20
-7.1366196168219602
 30
0.0
 11
151.56518101675084
 21
-7.1366196168219602
 31
0.0
  0
LINE
  5
2A2
100
AcDbEntity
  8
0
  6
CONTINUOUS
 62
               4
100
AcDbLine
 10
150.6672012192841
 20
-10.636619614821981
 30
0.0
 11
150.6672012192841
 21
-7.1366196168219602
 31
0.0
  0
LINE
  5
2A3
100
AcDbEntity
  8
0
  6
CONTINUOUS
 62
               4
100
AcDbLine
 10
151.16215071395078
 20
-10.636619614821981
 30
0.0
 11
151.16215071395078
 21
-7.1366196168219602
 31
0.0
  0
LINE
  5
2A4
100
AcDbEntity
  8
0
  6
CONTINUOUS
 62
               4
100
AcDbLine
 10
151.56518101675084
 20
-3.4598519421552822
 30
0.0
 11
151.56518101675084
 21
0.3583298738447098
 31
0.0
  0
LINE
  5
2A5
100
AcDbEntity
  8
0
  6
CONTINUOUS
 62
               4
100
AcDbLine
 10
148.41871637208413
 20
0.3583298738447098
 30
0.0
 11
148.41871637208413
 21
1.3623702773113706
 31
0.0
  0
LINE
  5
2A6
100
AcDbEntity
  8
0
  6
CONTINUOUS
 62
               4
100
AcDbLine
 10
148.41871637208413
 20
6.3633803911779268
 30
0.0
 11
148.41871637208413
 21
8.3643904910445457
 31
0.0
  0
LINE
  5
2A7
100
AcDbEntity
  8
0
  6
CONTINUOUS
 62
               4
100
AcDbLine
 10
148.91366586675082
 20
1.3623702773113706
 30
0.0
 11
148.91366586675082
 21
6.3633803911779268
 31
0.0
  0
ARC
  5
2A8
100
AcDbEntity
  8
0
  6
CONTINUOUS
 62
               4
100
AcDbCircle
 10
152.91749999202949
 20
8.8646213590609335
 30
0.0
 40
0.5002341568128574
100
AcDbArc
 50
269.79223628684531
 51
359.39507124653568
  0
ARC
  5
2A9
100
AcDbEntity
  8
0
  6
CONTINUOUS
 62
               4
100
AcDbCircle
 10
154.21156199084265
 20
16.059256310736359
 30
0.0
 40
0.3021474965435785
100
AcDbArc
 50
0.9736329845118463
 51
89.026367015487978
  0
ARC
  5
2AA
100
AcDbEntity
  8
0
  6
CONTINUOUS
 62
               4
100
AcDbCircle
 10
153.01365281361763
 20
9.3640581404000471
 30
0.0
 40
0.5030505883944908
100
AcDbArc
 50
323.43739164534645
 51
359.69271070880933
  0
ARC
  5
2AB
100
AcDbEntity
  8
0
  6
CONTINUOUS
 62
               4
100
AcDbCircle
 10
152.91558699544879
 20
7.9578837313508615
 30
0.0
 40
0.4029462287748787
100
AcDbArc
 50
10.608827982274413
 51
179.50566908284432
  0
LINE
  5
2AC
100
AcDbEntity
  8
0
  6
CONTINUOUS
 62
               4
100
AcDbLine
 10
147.41366587275084
 20
27.858329873844596
 30
0.0
 11
148.41366868927759
 21
27.858329873844596
 31
0.0
  0
LINE
  5
2AD
100
AcDbEntity
  8
0
  6
CONTINUOUS
 62
               4
100
AcDbLine
 10
148.41871637208413
 20
27.85832987384471
 30
0.0
 11
153.12780727848411
 21
25.666410683177972
 31
0.0
  0
ARC
  5
2AE
100
AcDbEntity
  8
0
  6
CONTINUOUS
 62
               4
100
AcDbCircle
 10
152.91169893031991
 20
25.208845376352954
 30
0.0
 40
0.5060324378497572
100
AcDbArc
 50
0.570672169885155
 51
64.718608099947076
  0
LINE
  5
2AF
100
AcDbEntity
  8
0
  6
CONTINUOUS
 62
             200
100
AcDbLine
 10
152.41366586475084
 20
125.02802623109298
 30
0.0
 11
149.41568606848415
 21
126.76034946242626
 31
0.0
  0
LINE
  5
2B0
100
AcDbEntity
  8
0
  6
CONTINUOUS
 62
             200
100
AcDbLine
 10
152.41366586475084
 20
124.68156158482631
 30
0.0
 11
149.41568606848415
 21
126.41388481615965
 31
0.0
  0
ARC
  5
2B1
100
AcDbEntity
  8
0
  6
CONTINUOUS
 62
               4
100
AcDbCircle
 10
152.91169893031991
 20
96.507813760984703
 30
0.0
 40
0.5060324378497572
100
AcDbArc
 50
295.28139190005214
 51
359.42932783011406
  0
LINE
  5
2B2
100
AcDbEntity
  8
0
  6
CONTINUOUS
 62
               4
100
AcDbLine
 10
148.41871637208413
 20
93.858329263492948
 30
0.0
 11
153.12780727848411
 21
96.050248454159686
 31
0.0
  0
LINE
  5
2B3
100
AcDbEntity
  8
0
  6
CONTINUOUS
 62
               4
100
AcDbLine
 10
147.41366587275084
 20
93.858329263493061
 30
0.0
 11
148.41366868927759
 21
93.858329263493061
 31
0.0
  0
ARC
  5
2B4
100
AcDbEntity
  8
0
  6
CONTINUOUS
 62
               4
100
AcDbCircle
 10
152.91558699544879
 20
113.7587754059868
 30
0.0
 40
0.4029462287748787
100
AcDbArc
 50
180.49433091715488
 51
349.39117201772478
  0
ARC
  5
2B5
100
AcDbEntity
  8
0
  6
CONTINUOUS
 62
               4
100
AcDbCircle
 10
153.01365281361763
 20
112.35260099693761
 30
0.0
 40
0.5030505883944908
100
AcDbArc
 50
0.3072892911898554
 51
36.562608354652731
  0
ARC
  5
2B6
100
AcDbEntity
  8
0
  6
CONTINUOUS
 62
               4
100
AcDbCircle
 10
154.21156199084265
 20
105.6574028266013
 30
0.0
 40
0.3021474965435785
100
AcDbArc
 50
270.97363298451126
 51
359.02636701548732
  0
ARC
  5
2B7
100
AcDbEntity
  8
0
  6
CONTINUOUS
 62
               4
100
AcDbCircle
 10
152.91749999202949
 20
112.85203777827672
 30
0.0
 40
0.5002341568128574
100
AcDbArc
 50
0.6049287534634878
 51
90.207763713153867
  0
LINE
  5
2B8
100
AcDbEntity
  8
0
  6
CONTINUOUS
 62
               4
100
AcDbLine
 10
148.91366586675082
 20
120.35428886002629
 30
0.0
 11
148.91366586675082
 21
115.35327874615973
 31
0.0
  0
LINE
  5
2B9
100
AcDbEntity
  8
0
  6
CONTINUOUS
 62
               4
100
AcDbLine
 10
148.41871637208413
 20
115.35327874615973
 30
0.0
 11
148.41871637208413
 21
113.35226864629311
 31
0.0
  0
LINE
  5
2BA
100
AcDbEntity
  8
0
  6
CONTINUOUS
 62
               4
100
AcDbLine
 10
148.41871637208413
 20
121.35832926349295
 30
0.0
 11
148.41871637208413
 21
120.35428886002629
 31
0.0
  0
LINE
  5
2BB
100
AcDbEntity
  8
0
  6
CONTINUOUS
 62
               4
100
AcDbLine
 10
151.56518101675084
 20
125.17651107949294
 30
0.0
 11
151.56518101675084
 21
121.35832926349295
 31
0.0
  0
LINE
  5
2BC
100
AcDbEntity
  8
0
  6
CONTINUOUS
 62
               4
100
AcDbLine
 10
151.16215071395078
 20
132.35327875215964
 30
0.0
 11
151.16215071395078
 21
128.85327875415962
 31
0.0
  0
LINE
  5
2BD
100
AcDbEntity
  8
0
  6
CONTINUOUS
 62
               4
100
AcDbLine
 10
150.6672012192841
 20
132.35327875215964
 30
0.0
 11
150.6672012192841
 21
128.85327875415962
 31
0.0
  0
LINE
  5
2BE
100
AcDbEntity
  8
0
  6
CONTINUOUS
 62
               4
100
AcDbLine
 10
150.26417091648415
 20
128.85327875415962
 30
0.0
 11
151.56518101675084
 21
128.85327875415962
 31
0.0
  0
LINE
  5
2BF
100
AcDbEntity
  8
0
  6
CONTINUOUS
 62
               4
100
AcDbLine
 10
150.26417091648415
 20
128.85327875415962
 30
0.0
 11
150.26417091648415
 21
126.27247067482628
 31
0.0
  0
LINE
  5
2C0
100
AcDbEntity
  8
0
  6
CONTINUOUS
 62
               4
100
AcDbLine
 10
151.56518101675084
 20
128.85327875415962
 30
0.0
 11
151.56518101675084
 21
125.52297572575961
 31
0.0
  0
LINE
  5
2C1
100
AcDbEntity
  8
0
  6
CONTINUOUS
 62
               4
100
AcDbLine
 10
150.26417091648415
 20
125.92600602855961
 30
0.0
 11
150.26417091648415
 21
121.35832926349295
 31
0.0
  0
LINE
  5
2C2
100
AcDbEntity
  8
0
  6
CONTINUOUS
 62
               4
100
AcDbLine
 10
153.4177062682175
 20
105.45428885282638
 30
0.0
 11
153.51669616715077
 21
105.35529895389305
 31
0.0
  0
LINE
  5
2C3
100
AcDbEntity
  8
0
  6
CONTINUOUS
 62
               4
100
AcDbLine
 10
153.4177062682175
 20
106.65630905415975
 30
0.0
 11
153.51669616715077
 21
106.65630905415975
 31
0.0
  0
LINE
  5
2C4
100
AcDbEntity
  8
0
  6
CONTINUOUS
 62
               4
100
AcDbLine
 10
143.41366587275087
 20
114.75832926349312
 30
0.0
 11
131.41366587675083
 21
114.75832926349312
 31
0.0
  0
LINE
  5
2C5
100
AcDbEntity
  8
0
  6
CONTINUOUS
 62
               4
100
AcDbLine
 10
144.61366578275084
 20
116.35832926349309
 30
0.0
 11
132.21366596275078
 21
116.35832926349309
 31
0.0
  0
LINE
  5
2C6
100
AcDbEntity
  8
0
  6
CONTINUOUS
 62
               4
100
AcDbLine
 10
131.41366587275081
 20
115.75832926349304
 30
0.0
 11
131.41366587275081
 21
94.358329568668836
 31
0.0
  0
LINE
  5
2C7
100
AcDbEntity
  8
0
  6
CONTINUOUS
 62
               4
100
AcDbLine
 10
134.1136658727508
 20
116.35832926349309
 30
0.0
 11
134.1136658727508
 21
115.75832926349312
 31
0.0
  0
LINE
  5
2C8
100
AcDbEntity
  8
0
  6
CONTINUOUS
 62
               4
100
AcDbLine
 10
134.1136658727508
 20
115.75832926349312
 30
0.0
 11
131.41366587675083
 21
115.75832926349312
 31
0.0
  0
ARC
  5
2C9
100
AcDbEntity
  8
0
  6
CONTINUOUS
 62
               4
100
AcDbCircle
 10
132.21257795762261
 20
115.75941726862129
 30
0.0
 40
0.5989129231257409
100
AcDbArc
 50
89.895914524772735
 51
180.10408547522667
  0
ARC
  5
2CA
100
AcDbEntity
  8
0
  6
CONTINUOUS
 62
               4
100
AcDbCircle
 10
131.91366587675083
 20
115.75832926349312
 30
0.0
 40
0.5
100
AcDbArc
 50
93.919585899650798
 51
179.99999999999963
  0
LINE
  5
2CB
100
AcDbEntity
  8
0
  6
CONTINUOUS
 62
               4
100
AcDbLine
 10
148.41871637208413
 20
93.858329263492948
 30
0.0
 11
148.41871637208413
 21
113.35226864629311
 31
0.0
  0
LINE
  5
2CC
100
AcDbEntity
  8
0
  6
CONTINUOUS
 62
               4
100
AcDbLine
 10
153.4177062682175
 20
112.85731915162643
 30
0.0
 11
153.4177062682175
 21
96.502773706426325
 31
0.0
  0
LINE
  5
2CD
100
AcDbEntity
  8
0
  6
CONTINUOUS
 62
               4
100
AcDbLine
 10
145.41366587275081
 20
94.358329568668836
 30
0.0
 11
145.41366587275081
 21
115.75832925842533
 31
0.0
  0
LINE
  5
2CE
100
AcDbEntity
  8
0
  6
CONTINUOUS
 62
               4
100
AcDbLine
 10
150.6672012192841
 20
132.35327875215964
 30
0.0
 11
151.16215071395078
 21
132.35327875215964
 31
0.0
  0
LINE
  5
2CF
100
AcDbEntity
  8
0
  6
CONTINUOUS
 62
               4
100
AcDbLine
 10
144.9136658687508
 20
116.25832926349312
 30
0.0
 11
143.41366587275087
 21
116.25832926349312
 31
0.0
  0
ARC
  5
2D0
100
AcDbEntity
  8
0
  6
CONTINUOUS
 62
               4
100
AcDbCircle
 10
144.61376092939946
 20
115.75842441014174
 30
0.0
 40
0.5999048008965869
100
AcDbArc
 50
56.247417870393882
 51
90.009087277546172
  0
ARC
  5
2D1
100
AcDbEntity
  8
0
  6
CONTINUOUS
 62
               4
100
AcDbCircle
 10
144.9136658687508
 20
115.75832926349312
 30
0.0
 40
0.5
100
AcDbArc
 50
0.0
 51
89.999999999999815
  0
LINE
  5
2D2
100
AcDbEntity
  8
0
  6
CONTINUOUS
 62
               4
100
AcDbLine
 10
143.41366587275087
 20
116.35832926349309
 30
0.0
 11
143.41366587275087
 21
114.75832926349312
 31
0.0
  0
LINE
  5
2D3
100
AcDbEntity
  8
0
  6
CONTINUOUS
 62
               4
100
AcDbLine
 10
145.4136658687508
 20
113.35226864629311
 30
0.0
 11
152.91568606648417
 21
113.35226864629311
 31
0.0
  0
LINE
  5
2D4
100
AcDbEntity
  8
0
  6
CONTINUOUS
 62
               4
100
AcDbLine
 10
148.41871637208413
 20
121.35832926349295
 30
0.0
 11
152.51265576368411
 21
121.35832926349295
 31
0.0
  0
LINE
  5
2D5
100
AcDbEntity
  8
0
  6
CONTINUOUS
 62
               4
100
AcDbLine
 10
150.01669616915075
 20
121.35832926349295
 30
0.0
 11
150.01669616915075
 21
113.35226864629311
 31
0.0
  0
LINE
  5
2D6
100
AcDbEntity
  8
0
  6
CONTINUOUS
 62
               4
100
AcDbLine
 10
151.81265576408413
 20
121.35832926349295
 30
0.0
 11
151.81265576408413
 21
113.35226864629311
 31
0.0
  0
LINE
  5
2D7
100
AcDbEntity
  8
0
  6
CONTINUOUS
 62
               4
100
AcDbLine
 10
155.41164566101742
 20
121.35832926349295
 30
0.0
 11
155.41164566101742
 21
119.8593393653596
 31
0.0
  0
LINE
  5
2D8
100
AcDbEntity
  8
0
  6
CONTINUOUS
 62
               4
100
AcDbLine
 10
154.51366586355078
 20
114.75226864549307
 30
0.0
 11
155.41164566101742
 21
119.8593393653596
 31
0.0
  0
LINE
  5
2D9
100
AcDbEntity
  8
0
  6
CONTINUOUS
 62
               4
100
AcDbLine
 10
154.41467596461752
 20
121.35832926349295
 30
0.0
 11
154.41467596461752
 21
119.94418785015958
 31
0.0
  0
LINE
  5
2DA
100
AcDbEntity
  8
0
  6
CONTINUOUS
 62
               4
100
AcDbLine
 10
154.41467596461752
 20
121.35832926349295
 30
0.0
 11
155.41164566101742
 21
121.35832926349295
 31
0.0
  0
LINE
  5
2DB
100
AcDbEntity
  8
0
  6
CONTINUOUS
 62
               4
100
AcDbLine
 10
153.31164566221747
 20
113.68459187842643
 30
0.0
 11
154.41467596461752
 21
119.94875248383582
 31
0.0
  0
LINE
  5
2DC
100
AcDbEntity
  8
0
  6
CONTINUOUS
 62
               4
100
AcDbLine
 10
153.51669616715077
 20
112.3552989498931
 30
0.0
 11
153.51669616715077
 21
106.65630905415975
 31
0.0
  0
LINE
  5
2DD
100
AcDbEntity
  8
0
  6
CONTINUOUS
 62
               4
100
AcDbLine
 10
152.51265576368411
 20
121.35832926349295
 30
0.0
 11
152.51265576368411
 21
113.75529894909312
 31
0.0
  0
LINE
  5
2DE
100
AcDbEntity
  8
0
  6
CONTINUOUS
 62
               4
100
AcDbLine
 10
152.81669616755079
 20
121.05428885962627
 30
0.0
 11
152.81669616755079
 21
115.15529894829308
 31
0.0
  0
LINE
  5
2DF
100
AcDbEntity
  8
0
  6
CONTINUOUS
 62
               4
100
AcDbLine
 10
152.51265576368411
 20
121.35832926349295
 30
0.0
 11
152.81669616755079
 21
121.05428885962627
 31
0.0
  0
LINE
  5
2E0
100
AcDbEntity
  8
0
  6
CONTINUOUS
 62
               4
100
AcDbLine
 10
148.41871637208413
 20
120.35428886002629
 30
0.0
 11
148.91366586675082
 21
120.35428886002629
 31
0.0
  0
LINE
  5
2E1
100
AcDbEntity
  8
0
  6
CONTINUOUS
 62
               4
100
AcDbLine
 10
148.41871637208413
 20
115.35327874615973
 30
0.0
 11
148.91366586675082
 21
115.35327874615973
 31
0.0
  0
LINE
  5
2E2
100
AcDbEntity
  8
0
  6
CONTINUOUS
 62
               4
100
AcDbLine
 10
152.51265576368411
 20
114.85125854442646
 30
0.0
 11
152.81669616755079
 21
115.15529894829308
 31
0.0
  0
LINE
  5
2E3
100
AcDbEntity
  8
0
  6
CONTINUOUS
 62
               4
100
AcDbLine
 10
154.51366586355078
 20
114.75226864549307
 30
0.0
 11
154.51366586355078
 21
105.65226865069309
 31
0.0
  0
LINE
  5
2E4
100
AcDbEntity
  8
0
  6
CONTINUOUS
 62
               4
100
AcDbLine
 10
153.51669616715077
 20
105.35529895389305
 30
0.0
 11
154.21669616675075
 21
105.35529895389305
 31
0.0
  0
LINE
  5
2E5
100
AcDbEntity
  8
0
  6
CONTINUOUS
 62
               7
100
AcDbLine
 10
147.41366587275084
 20
41.358329568668893
 30
0.0
 11
129.41366587275084
 21
41.358329568668907
 31
0.0
  0
LINE
  5
2E6
100
AcDbEntity
  8
0
  6
CONTINUOUS
 62
               7
100
AcDbLine
 10
129.51366587275086
 20
80.358329568668907
 30
0.0
 11
147.41366587275084
 21
80.358329568668893
 31
0.0
  0
LINE
  5
2E7
100
AcDbEntity
  8
0
  6
CONTINUOUS
 62
               7
100
AcDbLine
 10
129.71366587275085
 20
94.358329568668836
 30
0.0
 11
129.41366587275084
 21
94.058329568668825
 31
0.0
  0
LINE
  5
2E8
100
AcDbEntity
  8
0
  6
CONTINUOUS
 62
               7
100
AcDbLine
 10
129.4136658727509
 20
80.258329568668827
 30
0.0
 11
129.51366587275086
 21
80.358329568668822
 31
0.0
  0
LINE
  5
2E9
100
AcDbEntity
  8
0
  6
CONTINUOUS
 62
               7
100
AcDbLine
 10
129.71366587275085
 20
94.358329568668836
 30
0.0
 11
147.4136658727509
 21
94.358329568668807
 31
0.0
  0
LINE
  5
2EA
100
AcDbEntity
  8
0
  6
CENTER
 62
               2
100
AcDbLine
 10
135.21366587275085
 20
66.858329568668893
 30
0.0
 11
129.21366587275085
 21
66.858329568668893
 31
0.0
  0
CIRCLE
  5
2EB
100
AcDbEntity
  8
0
  6
CONTINUOUS
 62
               4
100
AcDbCircle
 10
132.21366587275079
 20
54.858329568668879
 30
0.0
 40
1.75
  0
CIRCLE
  5
2EC
100
AcDbEntity
  8
0
  6
CONTINUOUS
 62
               4
100
AcDbCircle
 10
132.21366587275085
 20
66.858329568668893
 30
0.0
 40
1.75
  0
LINE
  5
2ED
100
AcDbEntity
  8
0
  6
CENTER
 62
               2
100
AcDbLine
 10
132.21366587275085
 20
69.858329568668893
 30
0.0
 11
132.21366587275079
 21
63.858329568668886
 31
0.0
  0
LINE
  5
2EE
100
AcDbEntity
  8
0
  6
CENTER
 62
               2
100
AcDbLine
 10
138.41366587275084
 20
118.25832926776246
 30
0.0
 11
138.41366587275076
 21
3.5254557314121939
 31
0.0
  0
LINE
  5
2EF
100
AcDbEntity
  8
0
  6
CONTINUOUS
 62
               7
100
AcDbLine
 10
147.41366587275084
 20
27.358329568668978
 30
0.0
 11
147.41366587275084
 21
94.358329568668807
 31
0.0
  0
LINE
  5
2F0
100
AcDbEntity
  8
0
  6
CONTINUOUS
 62
               7
100
AcDbLine
 10
129.41366587275078
 20
27.658329568668989
 30
0.0
 11
129.41366587275084
 21
94.058329568668825
 31
0.0
  0
LINE
  5
2F1
100
AcDbEntity
  8
0
  6
CONTINUOUS
 62
               7
100
AcDbLine
 10
146.41366587275084
 20
71.208329572938212
 30
0.0
 11
146.41366587275084
 21
67.912004560731276
 31
0.0
  0
LINE
  5
2F2
100
AcDbEntity
  8
0
  6
CONTINUOUS
 62
               7
100
AcDbLine
 10
129.71366587275085
 20
27.358329568668978
 30
0.0
 11
147.4136658727509
 21
27.358329568668978
 31
0.0
  0
LINE
  5
2F3
100
AcDbEntity
  8
0
  6
CONTINUOUS
 62
               7
100
AcDbLine
 10
129.71366587275085
 20
27.358329568668978
 30
0.0
 11
129.41366587275084
 21
27.658329568668989
 31
0.0
  0
LINE
  5
2F4
100
AcDbEntity
  8
0
  6
CONTINUOUS
 62
               7
100
AcDbLine
 10
147.41366587275084
 20
71.208329572938212
 30
0.0
 11
146.41366587275084
 21
71.208329572938212
 31
0.0
  0
LINE
  5
2F5
100
AcDbEntity
  8
0
  6
CONTINUOUS
 62
               7
100
AcDbLine
 10
147.41366587275084
 20
67.908329572938214
 30
0.0
 11
146.41366587275084
 21
67.908329572938214
 31
0.0
  0
ARC
  5
2F6
100
AcDbEntity
  8
0
  6
DASHED
 62
             200
100
AcDbCircle
 10
115.91366587275078
 20
52.758329572938202
 30
0.0
 40
0.5
100
AcDbArc
 50
89.999999999999815
 51
179.99999999999963
  0
ARC
  5
2F7
100
AcDbEntity
  8
0
  6
DASHED
 62
             200
100
AcDbCircle
 10
115.91366587275078
 20
45.758329572938202
 30
0.0
 40
0.5
100
AcDbArc
 50
179.99999999999963
 51
269.99999999999937
  0
LINE
  5
2F8
100
AcDbEntity
  8
0
  6
DASHED
 62
               7
100
AcDbLine
 10
129.41366587275078
 20
53.258329572938202
 30
0.0
 11
129.41366587275078
 21
45.258329572938202
 31
0.0
  0
LINE
  5
2F9
100
AcDbEntity
  8
0
  6
DASHED
 62
             200
100
AcDbLine
 10
115.41366587275078
 20
52.758329572938202
 30
0.0
 11
115.41366587275078
 21
45.758329572938202
 31
0.0
  0
LINE
  5
2FA
100
AcDbEntity
  8
0
  6
CENTER
 62
             200
100
AcDbLine
 10
130.58401587275077
 20
49.258329572938202
 30
0.0
 11
114.28366587275079
 21
49.258329572938202
 31
0.0
  0
LINE
  5
2FB
100
AcDbEntity
  8
0
  6
DASHED
 62
             200
100
AcDbLine
 10
129.41366587275078
 20
53.258329572938202
 30
0.0
 11
115.91366587275078
 21
53.258329572938202
 31
0.0
  0
LINE
  5
2FC
100
AcDbEntity
  8
0
  6
DASHED
 62
             200
100
AcDbLine
 10
129.41366587275078
 20
45.258329572938202
 30
0.0
 11
115.91366587275078
 21
45.258329572938202
 31
0.0
  0
LINE
  5
2FD
100
AcDbEntity
  8
0
  6
DASHED
 62
             200
100
AcDbLine
 10
117.91366587275078
 20
53.258329572938202
 30
0.0
 11
117.91366587275078
 21
45.258329572938202
 31
0.0
  0
LINE
  5
2FE
100
AcDbEntity
  8
0
  6
DASHED
 62
             200
100
AcDbLine
 10
117.91366587275078
 20
45.558329572938199
 30
0.0
 11
115.91366587275078
 21
45.558329572938199
 31
0.0
  0
LINE
  5
2FF
100
AcDbEntity
  8
0
  6
DASHED
 62
             200
100
AcDbLine
 10
117.91366587275078
 20
46.058329572938199
 30
0.0
 11
115.91366587275078
 21
46.058329572938199
 31
0.0
  0
LINE
  5
300
100
AcDbEntity
  8
0
  6
DASHED
 62
             200
100
AcDbLine
 10
117.91366587275078
 20
46.758329572938202
 30
0.0
 11
115.91366587275078
 21
46.758329572938202
 31
0.0
  0
LINE
  5
301
100
AcDbEntity
  8
0
  6
DASHED
 62
             200
100
AcDbLine
 10
117.91366587275078
 20
47.6583295729382
 30
0.0
 11
115.91366587275078
 21
47.6583295729382
 31
0.0
  0
LINE
  5
302
100
AcDbEntity
  8
0
  6
DASHED
 62
             200
100
AcDbLine
 10
115.91366587275078
 20
53.258329572938202
 30
0.0
 11
115.91366587275078
 21
45.258329572938202
 31
0.0
  0
LINE
  5
303
100
AcDbEntity
  8
0
  6
DASHED
 62
             200
100
AcDbLine
 10
117.91366587275078
 20
48.558329572938199
 30
0.0
 11
115.91366587275078
 21
48.558329572938199
 31
0.0
  0
LINE
  5
304
100
AcDbEntity
  8
0
  6
DASHED
 62
             200
100
AcDbLine
 10
117.91366587275078
 20
52.958329572938197
 30
0.0
 11
115.91366587275078
 21
52.958329572938197
 31
0.0
  0
LINE
  5
305
100
AcDbEntity
  8
0
  6
DASHED
 62
             200
100
AcDbLine
 10
117.91366587275078
 20
52.458329572938197
 30
0.0
 11
115.91366587275078
 21
52.458329572938197
 31
0.0
  0
LINE
  5
306
100
AcDbEntity
  8
0
  6
DASHED
 62
             200
100
AcDbLine
 10
117.91366587275078
 20
51.758329572938202
 30
0.0
 11
115.91366587275078
 21
51.758329572938202
 31
0.0
  0
LINE
  5
307
100
AcDbEntity
  8
0
  6
DASHED
 62
             200
100
AcDbLine
 10
117.91366587275078
 20
49.958329572938204
 30
0.0
 11
115.91366587275078
 21
49.958329572938204
 31
0.0
  0
LINE
  5
308
100
AcDbEntity
  8
0
  6
DASHED
 62
             200
100
AcDbLine
 10
117.91366587275078
 20
50.858329572938203
 30
0.0
 11
115.91366587275078
 21
50.858329572938203
 31
0.0
  0
ARC
  5
309
100
AcDbEntity
  8
0
  6
DASHED
 62
             200
100
AcDbCircle
 10
115.91366587275084
 20
75.958329572938226
 30
0.0
 40
0.5
100
AcDbArc
 50
89.999999999999815
 51
179.99999999999963
  0
ARC
  5
30A
100
AcDbEntity
  8
0
  6
DASHED
 62
             200
100
AcDbCircle
 10
115.91366587275084
 20
68.958329572938226
 30
0.0
 40
0.5
100
AcDbArc
 50
179.99999999999963
 51
269.99999999999937
  0
LINE
  5
30B
100
AcDbEntity
  8
0
  6
DASHED
 62
               7
100
AcDbLine
 10
129.41366587275084
 20
76.458329572938226
 30
0.0
 11
129.41366587275084
 21
68.458329572938226
 31
0.0
  0
LINE
  5
30C
100
AcDbEntity
  8
0
  6
DASHED
 62
             200
100
AcDbLine
 10
115.41366587275084
 20
75.958329572938226
 30
0.0
 11
115.41366587275084
 21
68.958329572938226
 31
0.0
  0
LINE
  5
30D
100
AcDbEntity
  8
0
  6
CENTER
 62
             200
100
AcDbLine
 10
130.58401587275083
 20
72.458329572938226
 30
0.0
 11
114.28366587275084
 21
72.458329572938226
 31
0.0
  0
LINE
  5
30E
100
AcDbEntity
  8
0
  6
DASHED
 62
             200
100
AcDbLine
 10
129.41366587275084
 20
76.458329572938226
 30
0.0
 11
115.91366587275084
 21
76.458329572938226
 31
0.0
  0
LINE
  5
30F
100
AcDbEntity
  8
0
  6
DASHED
 62
             200
100
AcDbLine
 10
129.41366587275084
 20
68.458329572938226
 30
0.0
 11
115.91366587275084
 21
68.458329572938226
 31
0.0
  0
LINE
  5
310
100
AcDbEntity
  8
0
  6
DASHED
 62
             200
100
AcDbLine
 10
117.91366587275084
 20
76.458329572938226
 30
0.0
 11
117.91366587275084
 21
68.458329572938226
 31
0.0
  0
LINE
  5
311
100
AcDbEntity
  8
0
  6
DASHED
 62
             200
100
AcDbLine
 10
117.91366587275084
 20
68.758329572938209
 30
0.0
 11
115.91366587275084
 21
68.758329572938209
 31
0.0
  0
LINE
  5
312
100
AcDbEntity
  8
0
  6
DASHED
 62
             200
100
AcDbLine
 10
117.91366587275084
 20
69.258329572938209
 30
0.0
 11
115.91366587275084
 21
69.258329572938209
 31
0.0
  0
LINE
  5
313
100
AcDbEntity
  8
0
  6
DASHED
 62
             200
100
AcDbLine
 10
117.91366587275084
 20
69.958329572938226
 30
0.0
 11
115.91366587275084
 21
69.958329572938226
 31
0.0
  0
LINE
  5
314
100
AcDbEntity
  8
0
  6
DASHED
 62
             200
100
AcDbLine
 10
117.91366587275084
 20
70.858329572938217
 30
0.0
 11
115.91366587275084
 21
70.858329572938217
 31
0.0
  0
LINE
  5
315
100
AcDbEntity
  8
0
  6
DASHED
 62
             200
100
AcDbLine
 10
115.91366587275084
 20
76.458329572938226
 30
0.0
 11
115.91366587275084
 21
68.458329572938226
 31
0.0
  0
LINE
  5
316
100
AcDbEntity
  8
0
  6
DASHED
 62
             200
100
AcDbLine
 10
117.91366587275084
 20
71.758329572938209
 30
0.0
 11
115.91366587275084
 21
71.758329572938209
 31
0.0
  0
LINE
  5
317
100
AcDbEntity
  8
0
  6
DASHED
 62
             200
100
AcDbLine
 10
117.91366587275084
 20
76.158329572938214
 30
0.0
 11
115.91366587275084
 21
76.158329572938214
 31
0.0
  0
LINE
  5
318
100
AcDbEntity
  8
0
  6
DASHED
 62
             200
100
AcDbLine
 10
117.91366587275084
 20
75.658329572938214
 30
0.0
 11
115.91366587275084
 21
75.658329572938214
 31
0.0
  0
LINE
  5
319
100
AcDbEntity
  8
0
  6
DASHED
 62
             200
100
AcDbLine
 10
117.91366587275084
 20
74.958329572938226
 30
0.0
 11
115.91366587275084
 21
74.958329572938226
 31
0.0
  0
LINE
  5
31A
100
AcDbEntity
  8
0
  6
DASHED
 62
             200
100
AcDbLine
 10
117.91366587275084
 20
73.158329572938214
 30
0.0
 11
115.91366587275084
 21
73.158329572938214
 31
0.0
  0
LINE
  5
31B
100
AcDbEntity
  8
0
  6
DASHED
 62
             200
100
AcDbLine
 10
117.91366587275084
 20
74.05832957293822
 30
0.0
 11
115.91366587275084
 21
74.05832957293822
 31
0.0
  0
LINE
  5
31C
100
AcDbEntity
  8
0
  6
CENTER
 62
               2
100
AcDbLine
 10
132.21366587275085
 20
57.858329568668893
 30
0.0
 11
132.21366587275079
 21
51.858329568668886
 31
0.0
  0
LINE
  5
31D
100
AcDbEntity
  8
0
  6
CENTER
 62
               2
100
AcDbLine
 10
135.21366587275085
 20
54.858329568668893
 30
0.0
 11
129.21366587275085
 21
54.858329568668893
 31
0.0
  0
ARC
  5
31E
100
AcDbEntity
  8
0
  6
CONTINUOUS
 62
               4
100
AcDbCircle
 10
140.81366587275085
 20
72.358329568668893
 30
0.0
 40
1.0
100
AcDbArc
 50
0.0
 51
89.999999999999815
  0
LINE
  5
31F
100
AcDbEntity
  8
0
  6
CONTINUOUS
 62
               4
100
AcDbLine
 10
141.81366587275085
 20
49.358329568668893
 30
0.0
 11
141.81366587275085
 21
72.358329568668893
 31
0.0
  0
ARC
  5
320
100
AcDbEntity
  8
0
  6
CONTINUOUS
 62
               4
100
AcDbCircle
 10
140.81366587275085
 20
49.358329568668893
 30
0.0
 40
1.0
100
AcDbArc
 50
270.00000000000023
 51
0.0
  0
LINE
  5
321
100
AcDbEntity
  8
0
  6
CONTINUOUS
 62
               4
100
AcDbLine
 10
129.81366587275085
 20
49.358329568668893
 30
0.0
 11
129.81366587275085
 21
72.358329568668893
 31
0.0
  0
ARC
  5
322
100
AcDbEntity
  8
0
  6
CONTINUOUS
 62
               4
100
AcDbCircle
 10
130.81366587275085
 20
49.358329568668893
 30
0.0
 40
1.0
100
AcDbArc
 50
179.99999999999963
 51
269.99999999999937
  0
LINE
  5
323
100
AcDbEntity
  8
0
  6
CONTINUOUS
 62
               4
100
AcDbLine
 10
130.81366587275085
 20
48.358329568668893
 30
0.0
 11
140.81366587275085
 21
48.358329568668893
 31
0.0
  0
ARC
  5
324
100
AcDbEntity
  8
0
  6
CONTINUOUS
 62
               4
100
AcDbCircle
 10
130.81366587275085
 20
72.358329568668893
 30
0.0
 40
1.0
100
AcDbArc
 50
89.999999999999815
 51
179.99999999999963
  0
LINE
  5
325
100
AcDbEntity
  8
0
  6
CONTINUOUS
 62
               4
100
AcDbLine
 10
130.81366587275085
 20
73.358329568668893
 30
0.0
 11
140.81366587275085
 21
73.358329568668893
 31
0.0
  0
LINE
  5
326
100
AcDbEntity
  8
0
  6
CONTINUOUS
 62
             200
100
AcDbLine
 10
222.78164043277377
 20
-4.1216704320483757
 30
0.0
 11
230.28164043277377
 21
-2.1116704320483564
 31
0.0
  0
LINE
  5
327
100
AcDbEntity
  8
0
  6
CONTINUOUS
 62
             200
100
AcDbLine
 10
222.78164043277377
 20
-5.1616704320483677
 30
0.0
 11
230.28164043277377
 21
-3.1516704320483768
 31
0.0
  0
LINE
  5
328
100
AcDbEntity
  8
0
  6
PHANTOM
 62
             200
100
AcDbLine
 10
228.03164043277377
 20
20.358329567951643
 30
0.0
 11
228.03164043277377
 21
22.358329567951643
 31
0.0
  0
LINE
  5
329
100
AcDbEntity
  8
0
  6
PHANTOM
 62
             200
100
AcDbLine
 10
225.03164043277377
 20
20.358329567951643
 30
0.0
 11
225.03164043277377
 21
22.358329567951643
 31
0.0
  0
LINE
  5
32A
100
AcDbEntity
  8
0
  6
PHANTOM
 62
             200
100
AcDbLine
 10
225.03164043277377
 20
22.358329567951643
 30
0.0
 11
228.03164043277377
 21
22.358329567951643
 31
0.0
  0
LINE
  5
32B
100
AcDbEntity
  8
0
  6
PHANTOM
 62
             200
100
AcDbLine
 10
225.03164043277377
 20
20.358329567951643
 30
0.0
 11
228.03164043277377
 21
20.358329567951643
 31
0.0
  0
LINE
  5
32C
100
AcDbEntity
  8
0
  6
CONTINUOUS
 62
               4
100
AcDbLine
 10
222.78164043277377
 20
0.3583295679516425
 30
0.0
 11
222.78164043277377
 21
8.3583295679516425
 31
0.0
  0
LINE
  5
32D
100
AcDbEntity
  8
0
  6
CONTINUOUS
 62
               4
100
AcDbLine
 10
223.78164043277377
 20
1.8583295679516425
 30
0.0
 11
229.28164043277377
 21
1.8583295679516425
 31
0.0
  0
LINE
  5
32E
100
AcDbEntity
  8
0
  6
CONTINUOUS
 62
               4
100
AcDbLine
 10
229.28164043277377
 20
0.3583295679516425
 30
0.0
 11
229.28164043277377
 21
16.358329567951643
 31
0.0
  0
LINE
  5
32F
100
AcDbEntity
  8
0
  6
CONTINUOUS
 62
               4
100
AcDbLine
 10
230.28164043277377
 20
0.3583295679516425
 30
0.0
 11
230.28164043277377
 21
8.3583295679516425
 31
0.0
  0
LINE
  5
330
100
AcDbEntity
  8
0
  6
CONTINUOUS
 62
               4
100
AcDbLine
 10
222.78164043277377
 20
0.3583295679516425
 30
0.0
 11
230.28164043277377
 21
0.3583295679516425
 31
0.0
  0
ARC
  5
331
100
AcDbEntity
  8
0
  6
CONTINUOUS
 62
               4
100
AcDbCircle
 10
222.03162975164236
 20
8.8583188868202569
 30
0.0
 40
0.4999893189827007
100
AcDbArc
 50
179.99877600635489
 51
270.00122399364443
  0
ARC
  5
332
100
AcDbEntity
  8
0
  6
CONTINUOUS
 62
               4
100
AcDbCircle
 10
231.03163585502296
 20
8.8583341457024289
 30
0.0
 40
0.5000045777717621
100
AcDbArc
 50
270.00052456679839
 51
359.99947543319996
  0
ARC
  5
333
100
AcDbEntity
  8
0
  6
CONTINUOUS
 62
               4
100
AcDbCircle
 10
222.03163585525112
 20
27.358334145474259
 30
0.0
 40
0.4999954224983215
100
AcDbArc
 50
89.999475449742633
 51
180.00052455025664
  0
LINE
  5
334
100
AcDbEntity
  8
0
  6
CONTINUOUS
 62
               4
100
AcDbLine
 10
228.43164043277375
 20
-7.1345997049818521
 30
0.0
 11
228.43164043277375
 21
-3.6416704320483575
 31
0.0
  0
LINE
  5
335
100
AcDbEntity
  8
0
  6
CONTINUOUS
 62
               4
100
AcDbLine
 10
227.13164043277374
 20
-7.1345997049818521
 30
0.0
 11
227.13164043277374
 21
-3.9916704320483802
 31
0.0
  0
LINE
  5
336
100
AcDbEntity
  8
0
  6
CONTINUOUS
 62
               4
100
AcDbLine
 10
225.53164043277377
 20
-10.634599702981873
 30
0.0
 11
225.53164043277377
 21
-7.1345997049818521
 31
0.0
  0
LINE
  5
337
100
AcDbEntity
  8
0
  6
CONTINUOUS
 62
               4
100
AcDbLine
 10
225.03164043277377
 20
-10.634599702981873
 30
0.0
 11
225.03164043277377
 21
-7.1345997049818521
 31
0.0
  0
LINE
  5
338
100
AcDbEntity
  8
0
  6
CONTINUOUS
 62
               4
100
AcDbLine
 10
228.43164043277375
 20
-2.6116704320483564
 30
0.0
 11
228.43164043277375
 21
0.3583295679516425
 31
0.0
  0
LINE
  5
339
100
AcDbEntity
  8
0
  6
CONTINUOUS
 62
               4
100
AcDbLine
 10
227.13164043277374
 20
-2.9616704320483791
 30
0.0
 11
227.13164043277374
 21
0.3583295679516425
 31
0.0
  0
LINE
  5
33A
100
AcDbEntity
  8
0
  6
CONTINUOUS
 62
               4
100
AcDbLine
 10
224.63164043277374
 20
-3.6316704320483666
 30
0.0
 11
224.63164043277374
 21
0.3583295679516425
 31
0.0
  0
LINE
  5
33B
100
AcDbEntity
  8
0
  6
CONTINUOUS
 62
               4
100
AcDbLine
 10
225.93164043277375
 20
-7.1345997049818521
 30
0.0
 11
225.93164043277375
 21
-4.3116704320483734
 31
0.0
  0
LINE
  5
33C
100
AcDbEntity
  8
0
  6
CONTINUOUS
 62
               4
100
AcDbLine
 10
224.63164043277374
 20
-7.1345997049818521
 30
0.0
 11
224.63164043277374
 21
-4.6616704320483677
 31
0.0
  0
LINE
  5
33D
100
AcDbEntity
  8
0
  6
CONTINUOUS
 62
               4
100
AcDbLine
 10
228.03164043277377
 20
-10.634599702981873
 30
0.0
 11
228.03164043277377
 21
-7.1345997049818521
 31
0.0
  0
LINE
  5
33E
100
AcDbEntity
  8
0
  6
CONTINUOUS
 62
               4
100
AcDbLine
 10
227.53164043277377
 20
-10.634599702981873
 30
0.0
 11
227.53164043277377
 21
-7.1345997049818521
 31
0.0
  0
LINE
  5
33F
100
AcDbEntity
  8
0
  6
CONTINUOUS
 62
               4
100
AcDbLine
 10
225.93164043277375
 20
-3.2816704320483723
 30
0.0
 11
225.93164043277375
 21
0.3583295679516425
 31
0.0
  0
LINE
  5
340
100
AcDbEntity
  8
0
  6
CONTINUOUS
 62
               4
100
AcDbLine
 10
224.63164043277374
 20
-7.1345997049818521
 30
0.0
 11
225.93164043277375
 21
-7.1345997049818521
 31
0.0
  0
LINE
  5
341
100
AcDbEntity
  8
0
  6
CONTINUOUS
 62
               4
100
AcDbLine
 10
227.13164043277374
 20
-7.1345997049818521
 30
0.0
 11
228.43164043277375
 21
-7.1345997049818521
 31
0.0
  0
LINE
  5
342
100
AcDbEntity
  8
0
  6
CONTINUOUS
 62
               4
100
AcDbLine
 10
223.78164043277377
 20
0.3583295679516425
 30
0.0
 11
223.78164043277377
 21
16.358329567951643
 31
0.0
  0
LINE
  5
343
100
AcDbEntity
  8
0
  6
CONTINUOUS
 62
               4
100
AcDbLine
 10
229.28164043277377
 20
8.3583295679516425
 30
0.0
 11
231.03164043277377
 21
8.3583295679516425
 31
0.0
  0
LINE
  5
344
100
AcDbEntity
  8
0
  6
CONTINUOUS
 62
               4
100
AcDbLine
 10
223.78164043277377
 20
16.358329567951643
 30
0.0
 11
229.28164043277377
 21
16.358329567951643
 31
0.0
  0
LINE
  5
345
100
AcDbEntity
  8
0
  6
CONTINUOUS
 62
               4
100
AcDbLine
 10
231.03164043277377
 20
8.3583295679516425
 30
0.0
 11
231.53164043277377
 21
8.3583295679516425
 31
0.0
  0
LINE
  5
346
100
AcDbEntity
  8
0
  6
CONTINUOUS
 62
               4
100
AcDbLine
 10
222.03164043277377
 20
8.3583295679516425
 30
0.0
 11
223.78164043277377
 21
8.3583295679516425
 31
0.0
  0
LINE
  5
347
100
AcDbEntity
  8
0
  6
CONTINUOUS
 62
               4
100
AcDbLine
 10
221.53164043277377
 20
8.3583295679516425
 30
0.0
 11
222.03164043277377
 21
8.3583295679516425
 31
0.0
  0
LINE
  5
348
100
AcDbEntity
  8
0
  6
CONTINUOUS
 62
               4
100
AcDbLine
 10
221.53165874332063
 20
5.3583295636821333
 30
0.0
 11
221.53165874332063
 21
27.858329563682133
 31
0.0
  0
LINE
  5
349
100
AcDbEntity
  8
0
  6
CONTINUOUS
 62
               4
100
AcDbLine
 10
231.53165874332063
 20
5.958329563682156
 30
0.0
 11
230.28164043277377
 21
5.958329563682156
 31
0.0
  0
LINE
  5
34A
100
AcDbEntity
  8
0
  6
CONTINUOUS
 62
               4
100
AcDbLine
 10
231.53165874332063
 20
5.3583295636821333
 30
0.0
 11
230.28164043277377
 21
5.3583295636821333
 31
0.0
  0
LINE
  5
34B
100
AcDbEntity
  8
0
  6
CONTINUOUS
 62
               4
100
AcDbLine
 10
225.03164043277377
 20
-10.634599702981873
 30
0.0
 11
225.53164043277377
 21
-10.634599702981873
 31
0.0
  0
LINE
  5
34C
100
AcDbEntity
  8
0
  6
CONTINUOUS
 62
               4
100
AcDbLine
 10
227.53164043277377
 20
-10.634599702981873
 30
0.0
 11
228.03164043277377
 21
-10.634599702981873
 31
0.0
  0
ARC
  5
34D
100
AcDbEntity
  8
0
  6
CONTINUOUS
 62
               4
100
AcDbCircle
 10
222.46965874332062
 20
8.8583295679516425
 30
0.0
 40
0.5
100
AcDbArc
 50
179.99999999999963
 51
269.99999999999937
  0
ARC
  5
34E
100
AcDbEntity
  8
0
  6
CONTINUOUS
 62
               4
100
AcDbCircle
 10
230.59365874332065
 20
8.8583295679516425
 30
0.0
 40
0.5
100
AcDbArc
 50
270.00000000000023
 51
0.0
  0
ARC
  5
34F
100
AcDbEntity
  8
0
  6
CONTINUOUS
 62
               4
100
AcDbCircle
 10
230.59365874332065
 20
25.031472409090696
 30
0.0
 40
0.5
100
AcDbArc
 50
0.0
 51
89.999999999999815
  0
ARC
  5
350
100
AcDbEntity
  8
0
  6
CONTINUOUS
 62
               4
100
AcDbCircle
 10
222.46965874332062
 20
25.031472409090696
 30
0.0
 40
0.5
100
AcDbArc
 50
89.999999999999815
 51
179.99999999999963
  0
LINE
  5
351
100
AcDbEntity
  8
0
  6
CONTINUOUS
 62
               4
100
AcDbLine
 10
221.96965874332062
 20
8.8583295679516425
 30
0.0
 11
221.96965874332062
 21
25.031472409090696
 31
0.0
  0
LINE
  5
352
100
AcDbEntity
  8
0
  6
CONTINUOUS
 62
               4
100
AcDbLine
 10
231.09365874332065
 20
8.8583295679516425
 30
0.0
 11
231.09365874332065
 21
25.031472409090696
 31
0.0
  0
LINE
  5
353
100
AcDbEntity
  8
0
  6
CONTINUOUS
 62
               4
100
AcDbLine
 10
222.46965874332062
 20
25.531472409090696
 30
0.0
 11
230.59365874332065
 21
25.531472409090696
 31
0.0
  0
ARC
  5
354
100
AcDbEntity
  8
0
  6
CONTINUOUS
 62
               4
100
AcDbCircle
 10
231.03195559118484
 20
27.358626415815706
 30
0.0
 40
0.4997032403068001
100
AcDbArc
 50
359.96596353714727
 51
90.034036462852669
  0
LINE
  5
355
100
AcDbEntity
  8
0
  6
CONTINUOUS
 62
               4
100
AcDbLine
 10
231.53165874332063
 20
5.3583295679515004
 30
0.0
 11
231.53165874332063
 21
27.8583295679515
 31
0.0
  0
LINE
  5
356
100
AcDbEntity
  8
0
  6
CONTINUOUS
 62
               4
100
AcDbLine
 10
221.53165877240983
 20
5.3583295636821333
 30
0.0
 11
222.78164043277377
 21
5.3583295636821333
 31
0.0
  0
ARC
  5
357
100
AcDbEntity
  8
0
  6
CONTINUOUS
 62
               4
100
AcDbCircle
 10
230.73575388997881
 20
5.9582344170239878
 30
0.0
 40
0.5999048608870732
100
AcDbArc
 50
269.99091272245386
 51
0.0090872775462214
  0
ARC
  5
358
100
AcDbEntity
  8
0
  6
CONTINUOUS
 62
               4
100
AcDbCircle
 10
222.03165874332063
 20
5.958329563682156
 30
0.0
 40
0.5
100
AcDbArc
 50
179.99999999999963
 51
269.99999999999937
  0
LINE
  5
359
100
AcDbEntity
  8
0
  6
CONTINUOUS
 62
               4
100
AcDbLine
 10
222.78164043277377
 20
5.458329563682156
 30
0.0
 11
222.03165874332063
 21
5.458329563682156
 31
0.0
  0
LINE
  5
35A
100
AcDbEntity
  8
0
  6
CONTINUOUS
 62
               4
100
AcDbLine
 10
231.53165874332063
 20
6.958329563682156
 30
0.0
 11
230.28164043277377
 21
6.958329563682156
 31
0.0
  0
LINE
  5
35B
100
AcDbEntity
  8
0
  6
PHANTOM
 62
             200
100
AcDbLine
 10
225.03164043277377
 20
101.35832957649008
 30
0.0
 11
228.03164043277377
 21
101.35832957649008
 31
0.0
  0
LINE
  5
35C
100
AcDbEntity
  8
0
  6
PHANTOM
 62
             200
100
AcDbLine
 10
225.03164043277377
 20
99.358329576490078
 30
0.0
 11
228.03164043277377
 21
99.358329576490078
 31
0.0
  0
LINE
  5
35D
100
AcDbEntity
  8
0
  6
PHANTOM
 62
             200
100
AcDbLine
 10
225.03164043277377
 20
101.35832957649008
 30
0.0
 11
225.03164043277377
 21
99.358329576490078
 31
0.0
  0
LINE
  5
35E
100
AcDbEntity
  8
0
  6
PHANTOM
 62
             200
100
AcDbLine
 10
228.03164043277377
 20
101.35832957649008
 30
0.0
 11
228.03164043277377
 21
99.358329576490078
 31
0.0
  0
LINE
  5
35F
100
AcDbEntity
  8
0
  6
CONTINUOUS
 62
             200
100
AcDbLine
 10
222.78164043277377
 20
126.87832957649009
 30
0.0
 11
230.28164043277377
 21
124.8683295764901
 31
0.0
  0
LINE
  5
360
100
AcDbEntity
  8
0
  6
CONTINUOUS
 62
             200
100
AcDbLine
 10
222.78164043277377
 20
125.8383295764901
 30
0.0
 11
230.28164043277377
 21
123.82832957649008
 31
0.0
  0
LINE
  5
361
100
AcDbEntity
  8
0
  6
CONTINUOUS
 62
               4
100
AcDbLine
 10
222.46965874332062
 20
96.185186735351024
 30
0.0
 11
230.59365874332065
 21
96.185186735351024
 31
0.0
  0
LINE
  5
362
100
AcDbEntity
  8
0
  6
CONTINUOUS
 62
               4
100
AcDbLine
 10
231.09365874332065
 20
112.85832957649008
 30
0.0
 11
231.09365874332065
 21
96.685186735351024
 31
0.0
  0
LINE
  5
363
100
AcDbEntity
  8
0
  6
CONTINUOUS
 62
               4
100
AcDbLine
 10
221.96965874332062
 20
112.85832957649008
 30
0.0
 11
221.96965874332062
 21
96.685186735351024
 31
0.0
  0
ARC
  5
364
100
AcDbEntity
  8
0
  6
CONTINUOUS
 62
               4
100
AcDbCircle
 10
222.46965874332062
 20
96.685186735351024
 30
0.0
 40
0.5
100
AcDbArc
 50
179.99999999999963
 51
269.99999999999937
  0
ARC
  5
365
100
AcDbEntity
  8
0
  6
CONTINUOUS
 62
               4
100
AcDbCircle
 10
230.59365874332065
 20
96.685186735351024
 30
0.0
 40
0.5
100
AcDbArc
 50
270.00000000000023
 51
0.0
  0
ARC
  5
366
100
AcDbEntity
  8
0
  6
CONTINUOUS
 62
               4
100
AcDbCircle
 10
230.59365874332065
 20
112.85832957649008
 30
0.0
 40
0.5
100
AcDbArc
 50
0.0
 51
89.999999999999815
  0
ARC
  5
367
100
AcDbEntity
  8
0
  6
CONTINUOUS
 62
               4
100
AcDbCircle
 10
222.46965874332062
 20
112.85832957649008
 30
0.0
 40
0.5
100
AcDbArc
 50
89.999999999999815
 51
179.99999999999963
  0
LINE
  5
368
100
AcDbEntity
  8
0
  6
CONTINUOUS
 62
               4
100
AcDbLine
 10
227.53164043277377
 20
132.35125884742359
 30
0.0
 11
228.03164043277377
 21
132.35125884742359
 31
0.0
  0
LINE
  5
369
100
AcDbEntity
  8
0
  6
CONTINUOUS
 62
               4
100
AcDbLine
 10
225.03164043277377
 20
132.35125884742359
 30
0.0
 11
225.53164043277377
 21
132.35125884742359
 31
0.0
  0
ARC
  5
36A
100
AcDbEntity
  8
0
  6
CONTINUOUS
 62
               4
100
AcDbCircle
 10
231.03195559118484
 20
94.358032728626014
 30
0.0
 40
0.4997032403068001
100
AcDbArc
 50
269.96596353714654
 51
0.0340364628527164
  0
LINE
  5
36B
100
AcDbEntity
  8
0
  6
CONTINUOUS
 62
               4
100
AcDbLine
 10
231.53165874332063
 20
116.35832957649022
 30
0.0
 11
231.53165874332063
 21
93.85832957649022
 31
0.0
  0
LINE
  5
36C
100
AcDbEntity
  8
0
  6
CONTINUOUS
 62
               4
100
AcDbLine
 10
221.53165877240983
 20
116.35832958075959
 30
0.0
 11
222.78164043277377
 21
116.35832958075959
 31
0.0
  0
ARC
  5
36D
100
AcDbEntity
  8
0
  6
CONTINUOUS
 62
               4
100
AcDbCircle
 10
230.73575388997881
 20
115.75842472741773
 30
0.0
 40
0.5999048608870732
100
AcDbArc
 50
359.99091272245295
 51
90.009087277546172
  0
ARC
  5
36E
100
AcDbEntity
  8
0
  6
CONTINUOUS
 62
               4
100
AcDbCircle
 10
222.03165874332063
 20
115.75832958075956
 30
0.0
 40
0.5
100
AcDbArc
 50
89.999999999999815
 51
179.99999999999963
  0
LINE
  5
36F
100
AcDbEntity
  8
0
  6
CONTINUOUS
 62
               4
100
AcDbLine
 10
222.78164043277377
 20
116.25832958075956
 30
0.0
 11
222.03165874332063
 21
116.25832958075956
 31
0.0
  0
LINE
  5
370
100
AcDbEntity
  8
0
  6
CONTINUOUS
 62
               4
100
AcDbLine
 10
231.53165874332063
 20
114.75832958075956
 30
0.0
 11
230.28164043277377
 21
114.75832958075956
 31
0.0
  0
LINE
  5
371
100
AcDbEntity
  8
0
  6
CONTINUOUS
 62
               4
100
AcDbLine
 10
231.53165874332063
 20
116.35832958075959
 30
0.0
 11
230.28164043277377
 21
116.35832958075959
 31
0.0
  0
LINE
  5
372
100
AcDbEntity
  8
0
  6
CONTINUOUS
 62
               4
100
AcDbLine
 10
231.53165874332063
 20
115.75832958075956
 30
0.0
 11
230.28164043277377
 21
115.75832958075956
 31
0.0
  0
LINE
  5
373
100
AcDbEntity
  8
0
  6
CONTINUOUS
 62
               4
100
AcDbLine
 10
221.53165874332063
 20
116.35832958075959
 30
0.0
 11
221.53165874332063
 21
93.858329580759587
 31
0.0
  0
LINE
  5
374
100
AcDbEntity
  8
0
  6
CONTINUOUS
 62
               4
100
AcDbLine
 10
221.53164043277377
 20
113.35832957649008
 30
0.0
 11
222.03164043277377
 21
113.35832957649008
 31
0.0
  0
LINE
  5
375
100
AcDbEntity
  8
0
  6
CONTINUOUS
 62
               4
100
AcDbLine
 10
222.03164043277377
 20
113.35832957649008
 30
0.0
 11
223.78164043277377
 21
113.35832957649008
 31
0.0
  0
LINE
  5
376
100
AcDbEntity
  8
0
  6
CONTINUOUS
 62
               4
100
AcDbLine
 10
231.03164043277377
 20
113.35832957649008
 30
0.0
 11
231.53164043277377
 21
113.35832957649008
 31
0.0
  0
LINE
  5
377
100
AcDbEntity
  8
0
  6
CONTINUOUS
 62
               4
100
AcDbLine
 10
223.78164043277377
 20
105.35832957649008
 30
0.0
 11
229.28164043277377
 21
105.35832957649008
 31
0.0
  0
LINE
  5
378
100
AcDbEntity
  8
0
  6
CONTINUOUS
 62
               4
100
AcDbLine
 10
229.28164043277377
 20
113.35832957649008
 30
0.0
 11
231.03164043277377
 21
113.35832957649008
 31
0.0
  0
LINE
  5
379
100
AcDbEntity
  8
0
  6
CONTINUOUS
 62
               4
100
AcDbLine
 10
223.78164043277377
 20
121.35832957649008
 30
0.0
 11
223.78164043277377
 21
105.35832957649008
 31
0.0
  0
LINE
  5
37A
100
AcDbEntity
  8
0
  6
CONTINUOUS
 62
               4
100
AcDbLine
 10
227.13164043277374
 20
128.85125884942357
 30
0.0
 11
228.43164043277375
 21
128.85125884942357
 31
0.0
  0
LINE
  5
37B
100
AcDbEntity
  8
0
  6
CONTINUOUS
 62
               4
100
AcDbLine
 10
224.63164043277374
 20
128.85125884942357
 30
0.0
 11
225.93164043277375
 21
128.85125884942357
 31
0.0
  0
LINE
  5
37C
100
AcDbEntity
  8
0
  6
CONTINUOUS
 62
               4
100
AcDbLine
 10
225.93164043277375
 20
124.99832957649009
 30
0.0
 11
225.93164043277375
 21
121.35832957649008
 31
0.0
  0
LINE
  5
37D
100
AcDbEntity
  8
0
  6
CONTINUOUS
 62
               4
100
AcDbLine
 10
227.53164043277377
 20
132.35125884742359
 30
0.0
 11
227.53164043277377
 21
128.85125884942357
 31
0.0
  0
LINE
  5
37E
100
AcDbEntity
  8
0
  6
CONTINUOUS
 62
               4
100
AcDbLine
 10
228.03164043277377
 20
132.35125884742359
 30
0.0
 11
228.03164043277377
 21
128.85125884942357
 31
0.0
  0
LINE
  5
37F
100
AcDbEntity
  8
0
  6
CONTINUOUS
 62
               4
100
AcDbLine
 10
224.63164043277374
 20
128.85125884942357
 30
0.0
 11
224.63164043277374
 21
126.37832957649009
 31
0.0
  0
LINE
  5
380
100
AcDbEntity
  8
0
  6
CONTINUOUS
 62
               4
100
AcDbLine
 10
225.93164043277375
 20
128.85125884942357
 30
0.0
 11
225.93164043277375
 21
126.02832957649009
 31
0.0
  0
LINE
  5
381
100
AcDbEntity
  8
0
  6
CONTINUOUS
 62
               4
100
AcDbLine
 10
224.63164043277374
 20
125.34832957649009
 30
0.0
 11
224.63164043277374
 21
121.35832957649008
 31
0.0
  0
LINE
  5
382
100
AcDbEntity
  8
0
  6
CONTINUOUS
 62
               4
100
AcDbLine
 10
227.13164043277374
 20
124.6783295764901
 30
0.0
 11
227.13164043277374
 21
121.35832957649008
 31
0.0
  0
LINE
  5
383
100
AcDbEntity
  8
0
  6
CONTINUOUS
 62
               4
100
AcDbLine
 10
228.43164043277375
 20
124.32832957649008
 30
0.0
 11
228.43164043277375
 21
121.35832957649008
 31
0.0
  0
LINE
  5
384
100
AcDbEntity
  8
0
  6
CONTINUOUS
 62
               4
100
AcDbLine
 10
225.03164043277377
 20
132.35125884742359
 30
0.0
 11
225.03164043277377
 21
128.85125884942357
 31
0.0
  0
LINE
  5
385
100
AcDbEntity
  8
0
  6
CONTINUOUS
 62
               4
100
AcDbLine
 10
225.53164043277377
 20
132.35125884742359
 30
0.0
 11
225.53164043277377
 21
128.85125884942357
 31
0.0
  0
LINE
  5
386
100
AcDbEntity
  8
0
  6
CONTINUOUS
 62
               4
100
AcDbLine
 10
227.13164043277374
 20
128.85125884942357
 30
0.0
 11
227.13164043277374
 21
125.7083295764901
 31
0.0
  0
LINE
  5
387
100
AcDbEntity
  8
0
  6
CONTINUOUS
 62
               4
100
AcDbLine
 10
228.43164043277375
 20
128.85125884942357
 30
0.0
 11
228.43164043277375
 21
125.35832957649008
 31
0.0
  0
ARC
  5
388
100
AcDbEntity
  8
0
  6
CONTINUOUS
 62
               4
100
AcDbCircle
 10
222.03163585525112
 20
94.358324998967461
 30
0.0
 40
0.4999954224983215
100
AcDbArc
 50
179.99947544974256
 51
270.00052455025656
  0
ARC
  5
389
100
AcDbEntity
  8
0
  6
CONTINUOUS
 62
               4
100
AcDbCircle
 10
231.03163585502296
 20
112.85832499873929
 30
0.0
 40
0.5000045777717621
100
AcDbArc
 50
0.0005245667992071
 51
89.9994754332008
  0
ARC
  5
38A
100
AcDbEntity
  8
0
  6
CONTINUOUS
 62
               4
100
AcDbCircle
 10
222.03162975164236
 20
112.85834025762146
 30
0.0
 40
0.4999893189827007
100
AcDbArc
 50
89.998776006354774
 51
180.00122399364432
  0
LINE
  5
38B
100
AcDbEntity
  8
0
  6
CONTINUOUS
 62
               4
100
AcDbLine
 10
222.78164043277377
 20
121.35832957649008
 30
0.0
 11
230.28164043277377
 21
121.35832957649008
 31
0.0
  0
LINE
  5
38C
100
AcDbEntity
  8
0
  6
CONTINUOUS
 62
               4
100
AcDbLine
 10
230.28164043277377
 20
121.35832957649008
 30
0.0
 11
230.28164043277377
 21
113.35832957649008
 31
0.0
  0
LINE
  5
38D
100
AcDbEntity
  8
0
  6
CONTINUOUS
 62
               4
100
AcDbLine
 10
229.28164043277377
 20
121.35832957649008
 30
0.0
 11
229.28164043277377
 21
105.35832957649008
 31
0.0
  0
LINE
  5
38E
100
AcDbEntity
  8
0
  6
CONTINUOUS
 62
               4
100
AcDbLine
 10
223.78164043277377
 20
119.85832957649008
 30
0.0
 11
229.28164043277377
 21
119.85832957649008
 31
0.0
  0
LINE
  5
38F
100
AcDbEntity
  8
0
  6
CONTINUOUS
 62
               4
100
AcDbLine
 10
222.78164043277377
 20
121.35832957649008
 30
0.0
 11
222.78164043277377
 21
113.35832957649008
 31
0.0
  0
LINE
  5
390
100
AcDbEntity
  8
0
  6
CONTINUOUS
 62
               7
100
AcDbLine
 10
220.53165874332066
 20
80.358329576490235
 30
0.0
 11
232.53165874332066
 21
80.358329576490263
 31
0.0
  0
LINE
  5
391
100
AcDbEntity
  8
0
  6
CONTINUOUS
 62
               7
100
AcDbLine
 10
232.53165874332066
 20
80.258329576490269
 30
0.0
 11
232.43165874332064
 21
80.358329576490263
 31
0.0
  0
LINE
  5
392
100
AcDbEntity
  8
0
  6
CONTINUOUS
 62
               7
100
AcDbLine
 10
220.6316587397686
 20
80.358329576490235
 30
0.0
 11
220.53165874332066
 21
80.2583295800423
 31
0.0
  0
CIRCLE
  5
393
100
AcDbEntity
  8
0
  6
CONTINUOUS
 62
               7
100
AcDbCircle
 10
226.53165874332063
 20
91.558329590077193
 30
0.0
 40
1.3999999999999997
  0
CIRCLE
  5
394
100
AcDbEntity
  8
0
  6
CONTINUOUS
 62
               7
100
AcDbCircle
 10
226.53165874332063
 20
91.558329590077193
 30
0.0
 40
0.75
  0
CIRCLE
  5
395
100
AcDbEntity
  8
0
  6
CONTINUOUS
 62
               7
100
AcDbCircle
 10
226.53165874332063
 20
91.558329590077193
 30
0.0
 40
1.1000000000000001
  0
LINE
  5
396
100
AcDbEntity
  8
0
  6
CENTER
 62
               2
100
AcDbLine
 10
228.84658887904499
 20
91.558329590077193
 30
0.0
 11
224.30771459064499
 21
91.558329590077193
 31
0.0
  0
LINE
  5
397
100
AcDbEntity
  8
0
  6
CONTINUOUS
 62
               7
100
AcDbLine
 10
231.78165874332063
 20
94.358329576490235
 30
0.0
 11
232.23165874332065
 21
94.358329576490235
 31
0.0
  0
CIRCLE
  5
398
100
AcDbEntity
  8
0
  6
CONTINUOUS
 62
               7
100
AcDbCircle
 10
226.53190874332068
 20
91.558329576490237
 30
0.0
 40
1.1500000000000001
  0
LINE
  5
399
100
AcDbEntity
  8
0
  6
CONTINUOUS
 62
               7
100
AcDbLine
 10
220.83165874332067
 20
94.358329576490235
 30
0.0
 11
221.28165874332063
 21
94.358329576490235
 31
0.0
  0
LINE
  5
39A
100
AcDbEntity
  8
0
  6
CONTINUOUS
 62
               7
100
AcDbLine
 10
220.83165874332067
 20
94.358329576490235
 30
0.0
 11
220.53165874332066
 21
94.058329576490252
 31
0.0
  0
LINE
  5
39B
100
AcDbEntity
  8
0
  6
CONTINUOUS
 62
               7
100
AcDbLine
 10
232.23165874332065
 20
94.358329576490235
 30
0.0
 11
232.53165874332066
 21
94.058329576490252
 31
0.0
  0
LINE
  5
39C
100
AcDbEntity
  8
0
  6
CONTINUOUS
 62
               7
100
AcDbLine
 10
231.58165874332065
 20
94.158329576490246
 30
0.0
 11
231.58165874332065
 21
93.858329576490249
 31
0.0
  0
LINE
  5
39D
100
AcDbEntity
  8
0
  6
CONTINUOUS
 62
               7
100
AcDbLine
 10
221.48165874332068
 20
94.158329576490246
 30
0.0
 11
221.48165874332068
 21
93.858329576490235
 31
0.0
  0
LINE
  5
39E
100
AcDbEntity
  8
0
  6
CONTINUOUS
 62
               7
100
AcDbLine
 10
221.48165874332068
 20
94.158329576490246
 30
0.0
 11
221.28165874332063
 21
94.358329576490235
 31
0.0
  0
LINE
  5
39F
100
AcDbEntity
  8
0
  6
CONTINUOUS
 62
               7
100
AcDbLine
 10
231.58165874332065
 20
94.158329576490246
 30
0.0
 11
231.78165874332063
 21
94.358329576490235
 31
0.0
  0
LINE
  5
3A0
100
AcDbEntity
  8
0
  6
CONTINUOUS
 62
               7
100
AcDbLine
 10
221.48165874332068
 20
93.858329576490235
 30
0.0
 11
231.58165874332065
 21
93.858329576490249
 31
0.0
  0
LINE
  5
3A1
100
AcDbEntity
  8
0
  6
CENTER
 62
               2
100
AcDbLine
 10
226.53165874332063
 20
122.25832927131451
 30
0.0
 11
226.53165874332063
 21
-0.4745442650357745
 31
0.0
  0
LINE
  5
3A2
100
AcDbEntity
  8
0
  6
CONTINUOUS
 62
               7
100
AcDbLine
 10
232.53165874332061
 20
27.65832956795154
 30
0.0
 11
232.53165874332066
 21
94.058329576490252
 31
0.0
  0
LINE
  5
3A3
100
AcDbEntity
  8
0
  6
CONTINUOUS
 62
               7
100
AcDbLine
 10
220.53165874332066
 20
27.658329567951483
 30
0.0
 11
220.53165874332066
 21
94.058329576490252
 31
0.0
  0
LINE
  5
3A4
100
AcDbEntity
  8
0
  6
CENTER
 62
               2
100
AcDbLine
 10
228.73165874332057
 20
70.158329580042306
 30
0.0
 11
228.73165874332062
 21
63.158329580042299
 31
0.0
  0
LINE
  5
3A5
100
AcDbEntity
  8
0
  6
CENTER
 62
               2
100
AcDbLine
 10
224.33165874332065
 20
58.558329580042304
 30
0.0
 11
224.33165874332065
 21
51.558329580042304
 31
0.0
  0
CIRCLE
  5
3A6
100
AcDbEntity
  8
0
  6
CONTINUOUS
 62
               2
100
AcDbCircle
 10
224.33165874332065
 20
55.058329580042312
 30
0.0
 40
2.5
  0
CIRCLE
  5
3A7
100
AcDbEntity
  8
0
  6
CONTINUOUS
 62
               7
100
AcDbCircle
 10
224.33165874332065
 20
55.058329580042312
 30
0.0
 40
2.0999999999999996
  0
LINE
  5
3A8
100
AcDbEntity
  8
0
  6
CENTER
 62
               2
100
AcDbLine
 10
220.83165874332065
 20
55.058329580042297
 30
0.0
 11
227.83165874332065
 21
55.058329580042312
 31
0.0
  0
CIRCLE
  5
3A9
100
AcDbEntity
  8
0
  6
CONTINUOUS
 62
               2
100
AcDbCircle
 10
228.73165874332057
 20
66.658329580042306
 30
0.0
 40
2.5
  0
CIRCLE
  5
3AA
100
AcDbEntity
  8
0
  6
CONTINUOUS
 62
               7
100
AcDbCircle
 10
228.73165874332057
 20
66.658329580042306
 30
0.0
 40
2.0999999999999996
  0
LINE
  5
3AB
100
AcDbEntity
  8
0
  6
CENTER
 62
               2
100
AcDbLine
 10
225.23165874332059
 20
66.658329580042306
 30
0.0
 11
232.23165874332059
 21
66.658329580042306
 31
0.0
  0
LINE
  5
3AC
100
AcDbEntity
  8
0
  6
CONTINUOUS
 62
               7
100
AcDbLine
 10
220.53165874332066
 20
41.358329576490235
 30
0.0
 11
232.53165874332061
 21
41.358329576490249
 31
0.0
  0
LINE
  5
3AD
100
AcDbEntity
  8
0
  6
CONTINUOUS
 62
               7
100
AcDbLine
 10
221.48165874332068
 20
27.8583295679515
 30
0.0
 11
231.58165874332053
 21
27.858329567951472
 31
0.0
  0
LINE
  5
3AE
100
AcDbEntity
  8
0
  6
CONTINUOUS
 62
               7
100
AcDbLine
 10
231.58165874332053
 20
27.558329567951461
 30
0.0
 11
231.78165874332063
 21
27.358329567951472
 31
0.0
  0
LINE
  5
3AF
100
AcDbEntity
  8
0
  6
CONTINUOUS
 62
               7
100
AcDbLine
 10
221.48165874332068
 20
27.558329567951489
 30
0.0
 11
221.28165874332063
 21
27.3583295679515
 31
0.0
  0
LINE
  5
3B0
100
AcDbEntity
  8
0
  6
CONTINUOUS
 62
               7
100
AcDbLine
 10
221.48165874332068
 20
27.558329567951489
 30
0.0
 11
221.48165874332068
 21
27.8583295679515
 31
0.0
  0
LINE
  5
3B1
100
AcDbEntity
  8
0
  6
CONTINUOUS
 62
               7
100
AcDbLine
 10
231.58165874332053
 20
27.558329567951461
 30
0.0
 11
231.58165874332053
 21
27.858329567951472
 31
0.0
  0
LINE
  5
3B2
100
AcDbEntity
  8
0
  6
CONTINUOUS
 62
               7
100
AcDbLine
 10
232.23165874332065
 20
27.358329567951472
 30
0.0
 11
232.53165874332055
 21
27.658329567951483
 31
0.0
  0
LINE
  5
3B3
100
AcDbEntity
  8
0
  6
CONTINUOUS
 62
               7
100
AcDbLine
 10
220.83165874332056
 20
27.3583295679515
 30
0.0
 11
220.53165874332066
 21
27.658329567951483
 31
0.0
  0
LINE
  5
3B4
100
AcDbEntity
  8
0
  6
CONTINUOUS
 62
               7
100
AcDbLine
 10
220.83165874332056
 20
27.3583295679515
 30
0.0
 11
221.28165874332063
 21
27.3583295679515
 31
0.0
  0
CIRCLE
  5
3B5
100
AcDbEntity
  8
0
  6
CONTINUOUS
 62
               7
100
AcDbCircle
 10
226.53190874332068
 20
30.158329567951498
 30
0.0
 40
1.1500000000000001
  0
LINE
  5
3B6
100
AcDbEntity
  8
0
  6
CONTINUOUS
 62
               7
100
AcDbLine
 10
231.78165874332063
 20
27.358329567951472
 30
0.0
 11
232.23165874332065
 21
27.358329567951472
 31
0.0
  0
LINE
  5
3B7
100
AcDbEntity
  8
0
  6
CENTER
 62
               2
100
AcDbLine
 10
228.84658887904499
 20
30.158329554364542
 30
0.0
 11
224.30771459064488
 21
30.158329554364542
 31
0.0
  0
CIRCLE
  5
3B8
100
AcDbEntity
  8
0
  6
CONTINUOUS
 62
               7
100
AcDbCircle
 10
226.53165874332063
 20
30.158329554364542
 30
0.0
 40
1.1000000000000001
  0
CIRCLE
  5
3B9
100
AcDbEntity
  8
0
  6
CONTINUOUS
 62
               7
100
AcDbCircle
 10
226.53165874332063
 20
30.158329554364542
 30
0.0
 40
0.75
  0
CIRCLE
  5
3BA
100
AcDbEntity
  8
0
  6
CONTINUOUS
 62
               7
100
AcDbCircle
 10
226.53165874332063
 20
30.158329554364542
 30
0.0
 40
1.3999999999999997
  0
LINE
  5
3BB
100
AcDbEntity
  8
0
  6
CENTER
 62
               2
100
AcDbLine
 10
219.83165874332062
 20
69.558329580042312
 30
0.0
 11
223.83165874332062
 21
69.558329580042312
 31
0.0
  0
LINE
  5
3BC
100
AcDbEntity
  8
0
  6
CENTER
 62
               2
100
AcDbLine
 10
221.83165874332062
 20
67.558329580042312
 30
0.0
 11
221.83165874332062
 21
71.558329580042297
 31
0.0
  0
CIRCLE
  5
3BD
100
AcDbEntity
  8
0
  6
CONTINUOUS
 62
               7
100
AcDbCircle
 10
221.83165874332062
 20
69.558329580042312
 30
0.0
 40
1.075
  0
LINE
  5
3BE
100
AcDbEntity
  8
0
  6
CONTINUOUS
 62
               7
100
AcDbLine
 10
221.83165874332062
 20
71.208329580042303
 30
0.0
 11
220.53165874332066
 21
71.208329580042303
 31
0.0
  0
LINE
  5
3BF
100
AcDbEntity
  8
0
  6
CONTINUOUS
 62
               7
100
AcDbLine
 10
221.83165874332062
 20
67.908329580042306
 30
0.0
 11
220.53165874332066
 21
67.908329580042306
 31
0.0
  0
ARC
  5
3C0
100
AcDbEntity
  8
0
  6
CONTINUOUS
 62
               7
100
AcDbCircle
 10
221.83165874332062
 20
69.558329580042312
 30
0.0
 40
1.6499999999999999
100
AcDbArc
 50
269.99999999999937
 51
89.999999999999801
  0
LINE
  5
3C1
100
AcDbEntity
  8
0
  6
CENTER
 62
               2
100
AcDbLine
 10
229.23165874332062
 20
52.158329580042306
 30
0.0
 11
233.23165874332062
 21
52.158329580042306
 31
0.0
  0
CIRCLE
  5
3C2
100
AcDbEntity
  8
0
  6
CONTINUOUS
 62
               7
100
AcDbCircle
 10
231.23165874332062
 20
52.158329580042306
 30
0.0
 40
1.075
  0
ARC
  5
3C3
100
AcDbEntity
  8
0
  6
CONTINUOUS
 62
               7
100
AcDbCircle
 10
231.23165874332062
 20
52.158329580042306
 30
0.0
 40
1.6499999999999999
100
AcDbArc
 50
89.999999999999815
 51
269.99999999999937
  0
LINE
  5
3C4
100
AcDbEntity
  8
0
  6
CONTINUOUS
 62
               7
100
AcDbLine
 10
231.23165874332062
 20
53.808329580042304
 30
0.0
 11
232.53165874332063
 21
53.808329580042304
 31
0.0
  0
LINE
  5
3C5
100
AcDbEntity
  8
0
  6
CONTINUOUS
 62
               7
100
AcDbLine
 10
231.23165874332062
 20
50.508329580042307
 30
0.0
 11
232.53165874332063
 21
50.508329580042307
 31
0.0
  0
LINE
  5
3C6
100
AcDbEntity
  8
0
  6
CENTER
 62
               2
100
AcDbLine
 10
231.23165874332062
 20
50.158329580042306
 30
0.0
 11
231.23165874332062
 21
54.158329580042306
 31
0.0
  0
LINE
  5
3C7
100
AcDbEntity
  8
0
  6
CONTINUOUS
 62
               4
100
AcDbLine
 10
220.53165874332066
 20
48.361329572220882
 30
0.0
 11
218.23165875128242
 21
48.361329572220882
 31
0.0
  0
LINE
  5
3C8
100
AcDbEntity
  8
0
  6
CONTINUOUS
 62
               4
100
AcDbLine
 10
220.53165874332066
 20
73.361329572220882
 30
0.0
 11
218.23165875128254
 21
73.361329572220882
 31
0.0
  0
LINE
  5
3C9
100
AcDbEntity
  8
0
  6
CONTINUOUS
 62
               4
100
AcDbLine
 10
218.23165875128242
 20
48.361329580229722
 30
0.0
 11
218.23165875128254
 21
73.361329580229722
 31
0.0
  0
LINE
  5
3CA
100
AcDbEntity
  8
0
  6
CENTER
 62
               2
100
AcDbLine
 10
223.03165874332058
 20
66.958329565116813
 30
0.0
 11
215.73165875128242
 21
66.958329565116813
 31
0.0
  0
LINE
  5
3CB
100
AcDbEntity
  8
0
  6
CENTER
 62
               2
100
AcDbLine
 10
223.03165874332058
 20
54.958329565116813
 30
0.0
 11
215.73165875128242
 21
54.958329565116813
 31
0.0
  0
LINE
  5
3CC
100
AcDbEntity
  8
0
  6
CENTER
 62
               2
100
AcDbLine
 10
-238.97660125832073
 20
66.858329568668893
 30
0.0
 11
-231.67660126628257
 21
66.858329568668893
 31
0.0
  0
LINE
  5
3CD
100
AcDbEntity
  8
0
  6
CONTINUOUS
 62
               4
100
AcDbLine
 10
-234.17660126628243
 20
48.361329580229764
 30
0.0
 11
-234.17660126628263
 21
73.361329580229764
 31
0.0
  0
LINE
  5
3CE
100
AcDbEntity
  8
0
  6
CONTINUOUS
 62
               4
100
AcDbLine
 10
-236.47660125832076
 20
73.36132957222091
 30
0.0
 11
-234.17660126628263
 21
73.361329572220924
 31
0.0
  0
LINE
  5
3CF
100
AcDbEntity
  8
0
  6
CONTINUOUS
 62
               4
100
AcDbLine
 10
-236.47660125832067
 20
48.36132957222091
 30
0.0
 11
-234.17660126628243
 21
48.361329572220924
 31
0.0
  0
LINE
  5
3D0
100
AcDbEntity
  8
0
  6
CENTER
 62
               2
100
AcDbLine
 10
-240.47660125832058
 20
33.158329576490168
 30
0.0
 11
-244.47660125832058
 21
33.158329576490154
 31
0.0
  0
CIRCLE
  5
3D1
100
AcDbEntity
  8
0
  6
CONTINUOUS
 62
               7
100
AcDbCircle
 10
-242.47660125832058
 20
33.158329576490161
 30
0.0
 40
1.0
  0
LINE
  5
3D2
100
AcDbEntity
  8
0
  6
CONTINUOUS
 62
               7
100
AcDbLine
 10
-248.17660125832063
 20
27.358329576490213
 30
0.0
 11
-248.47660125832064
 21
27.65832957649021
 31
0.0
  0
LINE
  5
3D3
100
AcDbEntity
  8
0
  6
CONTINUOUS
 62
               7
100
AcDbLine
 10
-236.7766012583206
 20
27.358329576490249
 30
0.0
 11
-236.47660125832058
 21
27.658329576490253
 31
0.0
  0
LINE
  5
3D4
100
AcDbEntity
  8
0
  6
CONTINUOUS
 62
               7
100
AcDbLine
 10
-248.17660125832063
 20
27.358329576490213
 30
0.0
 11
-236.7766012583206
 21
27.358329576490249
 31
0.0
  0
LINE
  5
3D5
100
AcDbEntity
  8
0
  6
CONTINUOUS
 62
               4
100
AcDbLine
 10
-237.4766012583205
 20
5.358329576490263
 30
0.0
 11
-237.47660125832058
 21
27.358329576490249
 31
0.0
  0
LINE
  5
3D6
100
AcDbEntity
  8
0
  6
CONTINUOUS
 62
               4
100
AcDbLine
 10
-244.27660125832045
 20
5.4583295764902573
 30
0.0
 11
-237.9766012583205
 21
5.4583295764902857
 31
0.0
  0
LINE
  5
3D7
100
AcDbEntity
  8
0
  6
CONTINUOUS
 62
               4
100
AcDbLine
 10
-247.4766012583205
 20
5.3583295764902346
 30
0.0
 11
-237.4766012583205
 21
5.358329576490263
 31
0.0
  0
ARC
  5
3D8
100
AcDbEntity
  8
0
  6
CONTINUOUS
 62
               4
100
AcDbCircle
 10
-237.9766012583205
 20
5.9583295764902857
 30
0.0
 40
0.5
100
AcDbArc
 50
269.9999999999996
 51
0.0000000000002036
  0
LINE
  5
3D9
100
AcDbEntity
  8
0
  6
CONTINUOUS
 62
               4
100
AcDbLine
 10
-247.4766012583205
 20
5.3583295764902346
 30
0.0
 11
-247.47660125832058
 21
27.358329576490213
 31
0.0
  0
LINE
  5
3DA
100
AcDbEntity
  8
0
  6
CONTINUOUS
 62
               4
100
AcDbLine
 10
-247.4766012583205
 20
5.9583295764902502
 30
0.0
 11
-244.27660125832045
 21
5.9583295764902644
 31
0.0
  0
LINE
  5
3DB
100
AcDbEntity
  8
0
  6
CONTINUOUS
 62
               4
100
AcDbLine
 10
-247.4766012583205
 20
6.9583295764902502
 30
0.0
 11
-244.27660125832045
 21
6.9583295764902644
 31
0.0
  0
LINE
  5
3DC
100
AcDbEntity
  8
0
  6
CONTINUOUS
 62
               4
100
AcDbLine
 10
-244.27660125832045
 20
5.4583295764902573
 30
0.0
 11
-244.27660125832045
 21
6.9583295764902644
 31
0.0
  0
ARC
  5
3DD
100
AcDbEntity
  8
0
  6
CONTINUOUS
 62
               4
100
AcDbCircle
 10
-246.68069640497862
 20
5.9582344298320606
 30
0.0
 40
0.5999048608870732
100
AcDbArc
 50
179.99091272245357
 51
270.00908727754597
  0
ARC
  5
3DE
100
AcDbEntity
  8
0
  6
CONTINUOUS
 62
               4
100
AcDbCircle
 10
-244.87951325308342
 20
5.9572415712532347
 30
0.0
 40
0.5989129830170392
100
AcDbArc
 50
269.89591452477259
 51
0.1040854752273245
  0
LINE
  5
3DF
100
AcDbEntity
  8
0
  6
CONTINUOUS
 62
               7
100
AcDbLine
 10
-236.47660125832081
 20
94.05232957649028
 30
0.0
 11
-236.47660125832058
 21
27.658329576490253
 31
0.0
  0
CIRCLE
  5
3E0
100
AcDbEntity
  8
0
  6
CONTINUOUS
 62
               7
100
AcDbCircle
 10
-247.17660125832066
 20
52.158329576490189
 30
0.0
 40
1.075
  0
LINE
  5
3E1
100
AcDbEntity
  8
0
  6
CENTER
 62
               2
100
AcDbLine
 10
-247.17660125832066
 20
53.658329576490189
 30
0.0
 11
-247.17660125832066
 21
50.658329576490189
 31
0.0
  0
LINE
  5
3E2
100
AcDbEntity
  8
0
  6
CENTER
 62
               2
100
AcDbLine
 10
-248.67660125832066
 20
52.158329576490189
 30
0.0
 11
-245.67660125832066
 21
52.158329576490189
 31
0.0
  0
CIRCLE
  5
3E3
100
AcDbEntity
  8
0
  6
CONTINUOUS
 62
               7
100
AcDbCircle
 10
-237.77660125832074
 20
69.558329576490294
 30
0.0
 40
1.075
  0
LINE
  5
3E4
100
AcDbEntity
  8
0
  6
CENTER
 62
               2
100
AcDbLine
 10
-237.77660125832074
 20
68.058329576490294
 30
0.0
 11
-237.77660125832074
 21
71.058329576490294
 31
0.0
  0
LINE
  5
3E5
100
AcDbEntity
  8
0
  6
CENTER
 62
               2
100
AcDbLine
 10
-236.27660125832074
 20
69.558329576490294
 30
0.0
 11
-239.27660125832074
 21
69.558329576490308
 31
0.0
  0
CIRCLE
  5
3E6
100
AcDbEntity
  8
0
  6
CONTINUOUS
 62
               2
100
AcDbCircle
 10
-242.4766012583207
 20
60.858329576490249
 30
0.0
 40
2.5
  0
CIRCLE
  5
3E7
100
AcDbEntity
  8
0
  6
CONTINUOUS
 62
               7
100
AcDbCircle
 10
-242.4766012583207
 20
60.858329576490249
 30
0.0
 40
2.1000000000000001
  0
LINE
  5
3E8
100
AcDbEntity
  8
0
  6
CENTER
 62
               2
100
AcDbLine
 10
-238.9766012583207
 20
60.858329576490263
 30
0.0
 11
-245.9766012583207
 21
60.858329576490235
 31
0.0
  0
CIRCLE
  5
3E9
100
AcDbEntity
  8
0
  6
CONTINUOUS
 62
               2
100
AcDbCircle
 10
-242.47660125832073
 20
72.458329576490272
 30
0.0
 40
2.5
  0
CIRCLE
  5
3EA
100
AcDbEntity
  8
0
  6
CONTINUOUS
 62
               7
100
AcDbCircle
 10
-242.47660125832073
 20
72.458329576490272
 30
0.0
 40
2.1000000000000001
  0
CIRCLE
  5
3EB
100
AcDbEntity
  8
0
  6
CONTINUOUS
 62
               2
100
AcDbCircle
 10
-242.47660125832064
 20
49.258329576490254
 30
0.0
 40
2.5
  0
CIRCLE
  5
3EC
100
AcDbEntity
  8
0
  6
CONTINUOUS
 62
               7
100
AcDbCircle
 10
-242.47660125832064
 20
49.258329576490254
 30
0.0
 40
2.1000000000000001
  0
LINE
  5
3ED
100
AcDbEntity
  8
0
  6
CENTER
 62
               2
100
AcDbLine
 10
-238.97660125832064
 20
49.258329576490269
 30
0.0
 11
-245.97660125832064
 21
49.25832957649024
 31
0.0
  0
LINE
  5
3EE
100
AcDbEntity
  8
0
  6
CENTER
 62
               2
100
AcDbLine
 10
-238.97660125832073
 20
72.458329576490286
 30
0.0
 11
-245.97660125832073
 21
72.458329576490257
 31
0.0
  0
CIRCLE
  5
3EF
100
AcDbEntity
  8
0
  6
CONTINUOUS
 62
               7
100
AcDbCircle
 10
-242.47660125832078
 20
88.558329576490337
 30
0.0
 40
1.0
  0
LINE
  5
3F0
100
AcDbEntity
  8
0
  6
CENTER
 62
               2
100
AcDbLine
 10
-240.47660125832078
 20
88.558329576490337
 30
0.0
 11
-244.47660125832078
 21
88.558329576490323
 31
0.0
  0
ARC
  5
3F1
100
AcDbEntity
  8
0
  6
CONTINUOUS
 62
               4
100
AcDbCircle
 10
-240.07368926355798
 20
115.75941758172726
 30
0.0
 40
0.5989129830170392
100
AcDbArc
 50
89.895914524772962
 51
180.1040854752269
  0
ARC
  5
3F2
100
AcDbEntity
  8
0
  6
CONTINUOUS
 62
               4
100
AcDbCircle
 10
-238.27250611166278
 20
115.75842472314844
 30
0.0
 40
0.5999048608870732
100
AcDbArc
 50
359.99091272245317
 51
90.009087277546371
  0
LINE
  5
3F3
100
AcDbEntity
  8
0
  6
CONTINUOUS
 62
               4
100
AcDbLine
 10
-240.67660125832094
 20
116.25832957649024
 30
0.0
 11
-240.67660125832094
 21
114.75832957649024
 31
0.0
  0
LINE
  5
3F4
100
AcDbEntity
  8
0
  6
CONTINUOUS
 62
               4
100
AcDbLine
 10
-237.4766012583209
 20
114.75832957649024
 30
0.0
 11
-240.67660125832094
 21
114.75832957649024
 31
0.0
  0
LINE
  5
3F5
100
AcDbEntity
  8
0
  6
CONTINUOUS
 62
               4
100
AcDbLine
 10
-237.4766012583209
 20
115.75832957649024
 30
0.0
 11
-240.67660125832094
 21
115.75832957649024
 31
0.0
  0
LINE
  5
3F6
100
AcDbEntity
  8
0
  6
CONTINUOUS
 62
               4
100
AcDbLine
 10
-237.4766012583209
 20
116.35832957649026
 30
0.0
 11
-237.47660125832081
 21
94.358329576490277
 31
0.0
  0
ARC
  5
3F7
100
AcDbEntity
  8
0
  6
CONTINUOUS
 62
               4
100
AcDbCircle
 10
-246.9766012583209
 20
115.75832957649021
 30
0.0
 40
0.5
100
AcDbArc
 50
90.000000000000028
 51
179.99999999999983
  0
LINE
  5
3F8
100
AcDbEntity
  8
0
  6
CONTINUOUS
 62
               4
100
AcDbLine
 10
-237.4766012583209
 20
116.35832957649026
 30
0.0
 11
-247.4766012583209
 21
116.35832957649023
 31
0.0
  0
LINE
  5
3F9
100
AcDbEntity
  8
0
  6
CONTINUOUS
 62
               4
100
AcDbLine
 10
-240.67660125832094
 20
116.25832957649024
 30
0.0
 11
-246.9766012583209
 21
116.25832957649021
 31
0.0
  0
LINE
  5
3FA
100
AcDbEntity
  8
0
  6
CONTINUOUS
 62
               4
100
AcDbLine
 10
-247.4766012583209
 20
116.35832957649023
 30
0.0
 11
-247.47660125832081
 21
94.358329576490235
 31
0.0
  0
LINE
  5
3FB
100
AcDbEntity
  8
0
  6
CONTINUOUS
 62
               7
100
AcDbLine
 10
-236.47660125832076
 20
80.358329576490277
 30
0.0
 11
-248.47660125832076
 21
80.358329576490235
 31
0.0
  0
LINE
  5
3FC
100
AcDbEntity
  8
0
  6
CONTINUOUS
 62
               7
100
AcDbLine
 10
-248.47660125832081
 20
80.25832957649024
 30
0.0
 11
-248.37660125832079
 21
80.358329576490235
 31
0.0
  0
LINE
  5
3FD
100
AcDbEntity
  8
0
  6
CONTINUOUS
 62
               7
100
AcDbLine
 10
-236.57660125476869
 20
80.358329576490277
 30
0.0
 11
-236.47660125832076
 21
80.258329580042343
 31
0.0
  0
LINE
  5
3FE
100
AcDbEntity
  8
0
  6
CONTINUOUS
 62
               7
100
AcDbLine
 10
-248.17660125832086
 20
94.358329576490235
 30
0.0
 11
-236.77660125832082
 21
94.358329576490277
 31
0.0
  0
LINE
  5
3FF
100
AcDbEntity
  8
0
  6
CONTINUOUS
 62
               7
100
AcDbLine
 10
-236.77660125832082
 20
94.358329576490277
 30
0.0
 11
-236.47660125832081
 21
94.05832957649028
 31
0.0
  0
LINE
  5
400
100
AcDbEntity
  8
0
  6
CONTINUOUS
 62
               7
100
AcDbLine
 10
-248.17660125832086
 20
94.358329576490235
 30
0.0
 11
-248.47660125832087
 21
94.058329576490237
 31
0.0
  0
LINE
  5
401
100
AcDbEntity
  8
0
  6
CENTER
 62
               2
100
AcDbLine
 10
-242.4766012583209
 20
118.25832927131454
 30
0.0
 11
-242.4766012583205
 21
3.1192393263695379
 31
0.0
  0
LINE
  5
402
100
AcDbEntity
  8
0
  6
CONTINUOUS
 62
               7
100
AcDbLine
 10
-248.47660125832058
 20
27.664329576490211
 30
0.0
 11
-248.47660125832087
 21
94.058329576490237
 31
0.0
  0
LINE
  5
403
100
AcDbEntity
  8
0
  6
CONTINUOUS
 62
               7
100
AcDbLine
 10
-236.47660125832061
 20
41.358329576490277
 30
0.0
 11
-248.47660125832061
 21
41.358329576490235
 31
0.0
  0
LINE
  5
404
100
AcDbEntity
  8
0
  6
CENTER
 62
               2
100
AcDbLine
 10
-238.97660125832073
 20
54.858329568668893
 30
0.0
 11
-231.67660126628257
 21
54.858329568668893
 31
0.0
  0
LINE
  5
405
100
AcDbEntity
  8
0
  6
CONTINUOUS
 62
               4
100
AcDbLine
 10
-150.86126088506174
 20
73.358329568668893
 30
0.0
 11
-140.86126088506174
 21
73.358329568668893
 31
0.0
  0
ARC
  5
406
100
AcDbEntity
  8
0
  6
CONTINUOUS
 62
               4
100
AcDbCircle
 10
-150.86126088506174
 20
72.358329568668893
 30
0.0
 40
1.0
100
AcDbArc
 50
89.999999999999815
 51
179.99999999999963
  0
LINE
  5
407
100
AcDbEntity
  8
0
  6
CONTINUOUS
 62
               4
100
AcDbLine
 10
-150.86126088506174
 20
48.358329568668893
 30
0.0
 11
-140.86126088506174
 21
48.358329568668893
 31
0.0
  0
ARC
  5
408
100
AcDbEntity
  8
0
  6
CONTINUOUS
 62
               4
100
AcDbCircle
 10
-150.86126088506174
 20
49.358329568668893
 30
0.0
 40
1.0
100
AcDbArc
 50
179.99999999999963
 51
269.99999999999937
  0
LINE
  5
409
100
AcDbEntity
  8
0
  6
CONTINUOUS
 62
               4
100
AcDbLine
 10
-151.86126088506174
 20
49.358329568668893
 30
0.0
 11
-151.86126088506174
 21
72.358329568668893
 31
0.0
  0
ARC
  5
40A
100
AcDbEntity
  8
0
  6
CONTINUOUS
 62
               4
100
AcDbCircle
 10
-140.86126088506174
 20
49.358329568668893
 30
0.0
 40
1.0
100
AcDbArc
 50
270.00000000000023
 51
0.0
  0
LINE
  5
40B
100
AcDbEntity
  8
0
  6
CONTINUOUS
 62
               4
100
AcDbLine
 10
-139.86126088506174
 20
49.358329568668893
 30
0.0
 11
-139.86126088506174
 21
72.358329568668893
 31
0.0
  0
ARC
  5
40C
100
AcDbEntity
  8
0
  6
CONTINUOUS
 62
               4
100
AcDbCircle
 10
-140.86126088506174
 20
72.358329568668893
 30
0.0
 40
1.0
100
AcDbArc
 50
0.0
 51
89.999999999999815
  0
LINE
  5
40D
100
AcDbEntity
  8
0
  6
CENTER
 62
               2
100
AcDbLine
 10
-146.46126088506173
 20
54.858329568668893
 30
0.0
 11
-152.46126088506173
 21
54.858329568668893
 31
0.0
  0
LINE
  5
40E
100
AcDbEntity
  8
0
  6
CENTER
 62
               2
100
AcDbLine
 10
-149.46126088506173
 20
57.858329568668893
 30
0.0
 11
-149.46126088506179
 21
51.858329568668886
 31
0.0
  0
LINE
  5
40F
100
AcDbEntity
  8
0
  6
DASHED
 62
             200
100
AcDbLine
 10
-163.76126088506174
 20
74.05832957293822
 30
0.0
 11
-165.76126088506174
 21
74.05832957293822
 31
0.0
  0
LINE
  5
410
100
AcDbEntity
  8
0
  6
DASHED
 62
             200
100
AcDbLine
 10
-163.76126088506174
 20
73.158329572938214
 30
0.0
 11
-165.76126088506174
 21
73.158329572938214
 31
0.0
  0
LINE
  5
411
100
AcDbEntity
  8
0
  6
DASHED
 62
             200
100
AcDbLine
 10
-163.76126088506174
 20
74.958329572938226
 30
0.0
 11
-165.76126088506174
 21
74.958329572938226
 31
0.0
  0
LINE
  5
412
100
AcDbEntity
  8
0
  6
DASHED
 62
             200
100
AcDbLine
 10
-163.76126088506174
 20
75.658329572938214
 30
0.0
 11
-165.76126088506174
 21
75.658329572938214
 31
0.0
  0
LINE
  5
413
100
AcDbEntity
  8
0
  6
DASHED
 62
             200
100
AcDbLine
 10
-163.76126088506174
 20
76.158329572938214
 30
0.0
 11
-165.76126088506174
 21
76.158329572938214
 31
0.0
  0
LINE
  5
414
100
AcDbEntity
  8
0
  6
DASHED
 62
             200
100
AcDbLine
 10
-163.76126088506174
 20
71.758329572938209
 30
0.0
 11
-165.76126088506174
 21
71.758329572938209
 31
0.0
  0
LINE
  5
415
100
AcDbEntity
  8
0
  6
DASHED
 62
             200
100
AcDbLine
 10
-165.76126088506174
 20
76.458329572938226
 30
0.0
 11
-165.76126088506174
 21
68.458329572938226
 31
0.0
  0
LINE
  5
416
100
AcDbEntity
  8
0
  6
DASHED
 62
             200
100
AcDbLine
 10
-163.76126088506174
 20
70.858329572938217
 30
0.0
 11
-165.76126088506174
 21
70.858329572938217
 31
0.0
  0
LINE
  5
417
100
AcDbEntity
  8
0
  6
DASHED
 62
             200
100
AcDbLine
 10
-163.76126088506174
 20
69.958329572938226
 30
0.0
 11
-165.76126088506174
 21
69.958329572938226
 31
0.0
  0
LINE
  5
418
100
AcDbEntity
  8
0
  6
DASHED
 62
             200
100
AcDbLine
 10
-163.76126088506174
 20
69.258329572938209
 30
0.0
 11
-165.76126088506174
 21
69.258329572938209
 31
0.0
  0
LINE
  5
419
100
AcDbEntity
  8
0
  6
DASHED
 62
             200
100
AcDbLine
 10
-163.76126088506174
 20
68.758329572938209
 30
0.0
 11
-165.76126088506174
 21
68.758329572938209
 31
0.0
  0
LINE
  5
41A
100
AcDbEntity
  8
0
  6
DASHED
 62
             200
100
AcDbLine
 10
-163.76126088506174
 20
76.458329572938226
 30
0.0
 11
-163.76126088506174
 21
68.458329572938226
 31
0.0
  0
LINE
  5
41B
100
AcDbEntity
  8
0
  6
DASHED
 62
             200
100
AcDbLine
 10
-152.26126088506174
 20
68.458329572938226
 30
0.0
 11
-165.76126088506174
 21
68.458329572938226
 31
0.0
  0
LINE
  5
41C
100
AcDbEntity
  8
0
  6
DASHED
 62
             200
100
AcDbLine
 10
-152.26126088506174
 20
76.458329572938226
 30
0.0
 11
-165.76126088506174
 21
76.458329572938226
 31
0.0
  0
LINE
  5
41D
100
AcDbEntity
  8
0
  6
CENTER
 62
             200
100
AcDbLine
 10
-151.09091088506176
 20
72.458329572938226
 30
0.0
 11
-167.39126088506174
 21
72.458329572938226
 31
0.0
  0
LINE
  5
41E
100
AcDbEntity
  8
0
  6
DASHED
 62
             200
100
AcDbLine
 10
-166.26126088506174
 20
75.958329572938226
 30
0.0
 11
-166.26126088506174
 21
68.958329572938226
 31
0.0
  0
LINE
  5
41F
100
AcDbEntity
  8
0
  6
DASHED
 62
               7
100
AcDbLine
 10
-152.26126088506174
 20
76.458329572938226
 30
0.0
 11
-152.26126088506174
 21
68.458329572938226
 31
0.0
  0
ARC
  5
420
100
AcDbEntity
  8
0
  6
DASHED
 62
             200
100
AcDbCircle
 10
-165.76126088506174
 20
68.958329572938226
 30
0.0
 40
0.5
100
AcDbArc
 50
179.99999999999963
 51
269.99999999999937
  0
ARC
  5
421
100
AcDbEntity
  8
0
  6
DASHED
 62
             200
100
AcDbCircle
 10
-165.76126088506174
 20
75.958329572938226
 30
0.0
 40
0.5
100
AcDbArc
 50
89.999999999999815
 51
179.99999999999963
  0
LINE
  5
422
100
AcDbEntity
  8
0
  6
DASHED
 62
             200
100
AcDbLine
 10
-163.7612608850618
 20
50.858329572938203
 30
0.0
 11
-165.7612608850618
 21
50.858329572938203
 31
0.0
  0
LINE
  5
423
100
AcDbEntity
  8
0
  6
DASHED
 62
             200
100
AcDbLine
 10
-163.7612608850618
 20
49.958329572938204
 30
0.0
 11
-165.7612608850618
 21
49.958329572938204
 31
0.0
  0
LINE
  5
424
100
AcDbEntity
  8
0
  6
DASHED
 62
             200
100
AcDbLine
 10
-163.7612608850618
 20
51.758329572938202
 30
0.0
 11
-165.7612608850618
 21
51.758329572938202
 31
0.0
  0
LINE
  5
425
100
AcDbEntity
  8
0
  6
DASHED
 62
             200
100
AcDbLine
 10
-163.7612608850618
 20
52.458329572938197
 30
0.0
 11
-165.7612608850618
 21
52.458329572938197
 31
0.0
  0
LINE
  5
426
100
AcDbEntity
  8
0
  6
DASHED
 62
             200
100
AcDbLine
 10
-163.7612608850618
 20
52.958329572938197
 30
0.0
 11
-165.7612608850618
 21
52.958329572938197
 31
0.0
  0
LINE
  5
427
100
AcDbEntity
  8
0
  6
DASHED
 62
             200
100
AcDbLine
 10
-163.7612608850618
 20
48.558329572938199
 30
0.0
 11
-165.7612608850618
 21
48.558329572938199
 31
0.0
  0
LINE
  5
428
100
AcDbEntity
  8
0
  6
DASHED
 62
             200
100
AcDbLine
 10
-165.7612608850618
 20
53.258329572938202
 30
0.0
 11
-165.7612608850618
 21
45.258329572938202
 31
0.0
  0
LINE
  5
429
100
AcDbEntity
  8
0
  6
DASHED
 62
             200
100
AcDbLine
 10
-163.7612608850618
 20
47.6583295729382
 30
0.0
 11
-165.7612608850618
 21
47.6583295729382
 31
0.0
  0
LINE
  5
42A
100
AcDbEntity
  8
0
  6
DASHED
 62
             200
100
AcDbLine
 10
-163.7612608850618
 20
46.758329572938202
 30
0.0
 11
-165.7612608850618
 21
46.758329572938202
 31
0.0
  0
LINE
  5
42B
100
AcDbEntity
  8
0
  6
DASHED
 62
             200
100
AcDbLine
 10
-163.7612608850618
 20
46.058329572938199
 30
0.0
 11
-165.7612608850618
 21
46.058329572938199
 31
0.0
  0
LINE
  5
42C
100
AcDbEntity
  8
0
  6
DASHED
 62
             200
100
AcDbLine
 10
-163.7612608850618
 20
45.558329572938199
 30
0.0
 11
-165.7612608850618
 21
45.558329572938199
 31
0.0
  0
LINE
  5
42D
100
AcDbEntity
  8
0
  6
DASHED
 62
             200
100
AcDbLine
 10
-163.7612608850618
 20
53.258329572938202
 30
0.0
 11
-163.7612608850618
 21
45.258329572938202
 31
0.0
  0
LINE
  5
42E
100
AcDbEntity
  8
0
  6
DASHED
 62
             200
100
AcDbLine
 10
-152.2612608850618
 20
45.258329572938202
 30
0.0
 11
-165.7612608850618
 21
45.258329572938202
 31
0.0
  0
LINE
  5
42F
100
AcDbEntity
  8
0
  6
DASHED
 62
             200
100
AcDbLine
 10
-152.2612608850618
 20
53.258329572938202
 30
0.0
 11
-165.7612608850618
 21
53.258329572938202
 31
0.0
  0
LINE
  5
430
100
AcDbEntity
  8
0
  6
CENTER
 62
             200
100
AcDbLine
 10
-151.09091088506182
 20
49.258329572938202
 30
0.0
 11
-167.3912608850618
 21
49.258329572938202
 31
0.0
  0
LINE
  5
431
100
AcDbEntity
  8
0
  6
DASHED
 62
             200
100
AcDbLine
 10
-166.2612608850618
 20
52.758329572938202
 30
0.0
 11
-166.2612608850618
 21
45.758329572938202
 31
0.0
  0
LINE
  5
432
100
AcDbEntity
  8
0
  6
DASHED
 62
               7
100
AcDbLine
 10
-152.2612608850618
 20
53.258329572938202
 30
0.0
 11
-152.2612608850618
 21
45.258329572938202
 31
0.0
  0
ARC
  5
433
100
AcDbEntity
  8
0
  6
DASHED
 62
             200
100
AcDbCircle
 10
-165.7612608850618
 20
45.758329572938202
 30
0.0
 40
0.5
100
AcDbArc
 50
179.99999999999963
 51
269.99999999999937
  0
ARC
  5
434
100
AcDbEntity
  8
0
  6
DASHED
 62
             200
100
AcDbCircle
 10
-165.7612608850618
 20
52.758329572938202
 30
0.0
 40
0.5
100
AcDbArc
 50
89.999999999999815
 51
179.99999999999963
  0
LINE
  5
435
100
AcDbEntity
  8
0
  6
CONTINUOUS
 62
               7
100
AcDbLine
 10
-134.26126088506174
 20
67.908329572938214
 30
0.0
 11
-135.26126088506174
 21
67.908329572938214
 31
0.0
  0
LINE
  5
436
100
AcDbEntity
  8
0
  6
CONTINUOUS
 62
               7
100
AcDbLine
 10
-134.26126088506174
 20
71.208329572938212
 30
0.0
 11
-135.26126088506174
 21
71.208329572938212
 31
0.0
  0
LINE
  5
437
100
AcDbEntity
  8
0
  6
CONTINUOUS
 62
               7
100
AcDbLine
 10
-151.96126088506173
 20
27.358329568668978
 30
0.0
 11
-152.26126088506174
 21
27.658329568668989
 31
0.0
  0
LINE
  5
438
100
AcDbEntity
  8
0
  6
CONTINUOUS
 62
               4
100
AcDbLine
 10
-150.2612608850618
 20
27.358329570875682
 30
0.0
 11
-150.26126088506174
 21
5.9583298789125081
 31
0.0
  0
LINE
  5
439
100
AcDbEntity
  8
0
  6
CONTINUOUS
 62
               4
100
AcDbLine
 10
-136.2612608850618
 20
5.9583298738448036
 30
0.0
 11
-136.2612608850618
 21
27.358329568668992
 31
0.0
  0
ARC
  5
43A
100
AcDbEntity
  8
0
  6
CONTINUOUS
 62
               4
100
AcDbCircle
 10
-136.94416573840363
 20
5.958234727186607
 30
0.0
 40
0.5999048608870732
100
AcDbArc
 50
269.990912722453
 51
303.56005066674055
  0
ARC
  5
43B
100
AcDbEntity
  8
0
  6
CONTINUOUS
 62
               4
100
AcDbCircle
 10
-136.7612608850618
 20
5.9583298738447752
 30
0.0
 40
0.5
100
AcDbArc
 50
294.73039869685095
 51
0.0
  0
ARC
  5
43C
100
AcDbEntity
  8
0
  6
CONTINUOUS
 62
               4
100
AcDbCircle
 10
-149.7612608850618
 20
5.9583298738447752
 30
0.0
 40
0.5
100
AcDbArc
 50
179.99999999999963
 51
269.99999999999937
  0
LINE
  5
43D
100
AcDbEntity
  8
0
  6
CONTINUOUS
 62
               4
100
AcDbLine
 10
-149.7612608850618
 20
5.4583298738447752
 30
0.0
 11
-148.2612608850618
 21
5.4583298738447752
 31
0.0
  0
LINE
  5
43E
100
AcDbEntity
  8
0
  6
CONTINUOUS
 62
               4
100
AcDbLine
 10
-136.2612608850618
 20
6.9583298738446899
 30
0.0
 11
-148.26126370158858
 21
6.9583298738446757
 31
0.0
  0
LINE
  5
43F
100
AcDbEntity
  8
0
  6
CONTINUOUS
 62
               4
100
AcDbLine
 10
-148.26126370158858
 20
5.3583298738446956
 30
0.0
 11
-148.26126370158858
 21
6.9583298738446757
 31
0.0
  0
LINE
  5
440
100
AcDbEntity
  8
0
  6
CONTINUOUS
 62
               4
100
AcDbLine
 10
-136.2612608850618
 20
5.9583298738446899
 30
0.0
 11
-139.96126088506179
 21
5.9583298738446757
 31
0.0
  0
ARC
  5
441
100
AcDbEntity
  8
0
  6
CONTINUOUS
 62
               4
100
AcDbCircle
 10
-136.94416573840363
 20
5.958234727186607
 30
0.0
 40
0.5999048608870732
100
AcDbArc
 50
303.56005066674135
 51
0.0090872775462214
  0
ARC
  5
442
100
AcDbEntity
  8
0
  6
CONTINUOUS
 62
               4
100
AcDbCircle
 10
-138.74534889029883
 20
5.957241868607781
 30
0.0
 40
0.5989129830170392
100
AcDbArc
 50
179.89591452477256
 51
270.1040854752265
  0
LINE
  5
443
100
AcDbEntity
  8
0
  6
CONTINUOUS
 62
               4
100
AcDbLine
 10
-136.94416573840357
 20
5.3583298738447809
 30
0.0
 11
-148.26126370158858
 21
5.3583298738446956
 31
0.0
  0
LINE
  5
444
100
AcDbEntity
  8
0
  6
CONTINUOUS
 62
               4
100
AcDbLine
 10
-139.96126088506179
 20
5.9583298738446757
 30
0.0
 11
-139.96126088506179
 21
5.3583298738447667
 31
0.0
  0
LINE
  5
445
100
AcDbEntity
  8
0
  6
CONTINUOUS
 62
               7
100
AcDbLine
 10
-151.96126088506173
 20
27.358329568668978
 30
0.0
 11
-134.26126088506169
 21
27.358329568668978
 31
0.0
  0
LINE
  5
446
100
AcDbEntity
  8
0
  6
CONTINUOUS
 62
               4
100
AcDbLine
 10
-134.26126088506169
 20
27.858329873844767
 30
0.0
 11
-133.37427043493415
 21
27.858329873844767
 31
0.0
  0
LINE
  5
447
100
AcDbEntity
  8
0
  6
CONTINUOUS
 62
               4
100
AcDbLine
 10
-136.2612608850618
 20
8.3573197839780988
 30
0.0
 11
-128.76631139439519
 21
8.3573197839780846
 31
0.0
  0
LINE
  5
448
100
AcDbEntity
  8
0
  6
CONTINUOUS
 62
               4
100
AcDbLine
 10
-129.26833159612852
 20
8.2583298850447591
 30
0.0
 11
-134.96732149186187
 21
8.2583298850447733
 31
0.0
  0
LINE
  5
449
100
AcDbEntity
  8
0
  6
CONTINUOUS
 62
               4
100
AcDbLine
 10
-126.87136190052854
 20
7.2542894815780699
 30
0.0
 11
-135.9612608850619
 21
7.2542894815780841
 31
0.0
  0
LINE
  5
44A
100
AcDbEntity
  8
0
  6
CONTINUOUS
 62
               4
100
AcDbLine
 10
-120.26732150026186
 20
11.758329883044738
 30
0.0
 11
-128.26429119266186
 21
11.758329883044752
 31
0.0
  0
LINE
  5
44B
100
AcDbEntity
  8
0
  6
CONTINUOUS
 62
               4
100
AcDbLine
 10
-120.26732150026186
 20
9.9552995810447413
 30
0.0
 11
-128.26429119266186
 21
9.9552995810447555
 31
0.0
  0
LINE
  5
44C
100
AcDbEntity
  8
0
  6
CONTINUOUS
 62
               4
100
AcDbLine
 10
-120.26732150026186
 20
9.2552995814447598
 30
0.0
 11
-127.86126088986191
 21
9.255299581444774
 31
0.0
  0
LINE
  5
44D
100
AcDbEntity
  8
0
  6
CONTINUOUS
 62
               4
100
AcDbLine
 10
-120.56429119706183
 20
8.9583298846447263
 30
0.0
 11
-126.46833159772859
 21
8.9583298846447406
 31
0.0
  0
LINE
  5
44E
100
AcDbEntity
  8
0
  6
CONTINUOUS
 62
               4
100
AcDbLine
 10
-121.26429119666193
 20
12.755299579444738
 30
0.0
 11
-126.26328109279518
 21
12.755299579444738
 31
0.0
  0
LINE
  5
44F
100
AcDbEntity
  8
0
  6
CONTINUOUS
 62
               4
100
AcDbLine
 10
-127.9319679605286
 20
8.4563096829114386
 30
0.0
 11
-121.66982757285268
 21
7.3532793805114238
 31
0.0
  0
LINE
  5
450
100
AcDbEntity
  8
0
  6
CONTINUOUS
 62
               4
100
AcDbLine
 10
-126.87136190052854
 20
7.2542894815780699
 30
0.0
 11
-121.76631139839515
 21
6.3563096841114088
 31
0.0
  0
ARC
  5
451
100
AcDbEntity
  8
0
  6
CONTINUOUS
 62
               4
100
AcDbCircle
 10
-127.86042684570748
 20
8.8514352344903955
 30
0.0
 40
0.403865208170398
100
AcDbArc
 50
90.118324735513326
 51
179.88167526448447
  0
ARC
  5
452
100
AcDbEntity
  8
0
  6
CONTINUOUS
 62
               4
100
AcDbCircle
 10
-127.86136495868288
 20
8.8530026422402557
 30
0.0
 40
0.4029269013737999
100
AcDbArc
 50
180.10428358574862
 51
259.90822844260316
  0
ARC
  5
453
100
AcDbEntity
  8
0
  6
CONTINUOUS
 62
               4
100
AcDbCircle
 10
-129.26134837092468
 20
8.7532955487520496
 30
0.0
 40
0.4950149226876425
100
AcDbArc
 50
269.19169587542069
 51
306.87687525883445
  0
ARC
  5
454
100
AcDbEntity
  8
0
  6
CONTINUOUS
 62
               4
100
AcDbCircle
 10
-128.76092804414054
 20
8.8539566354567398
 30
0.0
 40
0.4966660273328702
100
AcDbArc
 50
269.3789603635654
 51
0.6210396364360893
  0
ARC
  5
455
100
AcDbEntity
  8
0
  6
CONTINUOUS
 62
               4
100
AcDbCircle
 10
-128.76400351550501
 20
25.205807413305592
 30
0.0
 40
0.4997133381008655
100
AcDbArc
 50
0.1154955796428247
 51
65.173784690190203
  0
LINE
  5
456
100
AcDbEntity
  8
0
  6
CONTINUOUS
 62
               4
100
AcDbLine
 10
-133.37641240186178
 20
27.858329873844767
 30
0.0
 11
-133.3764124018619
 21
8.3573197839780988
 31
0.0
  0
LINE
  5
457
100
AcDbEntity
  8
0
  6
CONTINUOUS
 62
               4
100
AcDbLine
 10
-128.26429119266186
 20
13.356309680111451
 30
0.0
 11
-126.26328109279518
 21
13.356309680111451
 31
0.0
  0
LINE
  5
458
100
AcDbEntity
  8
0
  6
CONTINUOUS
 62
               4
100
AcDbLine
 10
-126.76530129452851
 20
9.255299581444774
 30
0.0
 11
-126.46833159772859
 21
8.9583298846447406
 31
0.0
  0
LINE
  5
459
100
AcDbEntity
  8
0
  6
CONTINUOUS
 62
               4
100
AcDbLine
 10
-126.26328109279518
 20
13.356309680111451
 30
0.0
 11
-126.26328109279518
 21
12.755299579444738
 31
0.0
  0
LINE
  5
45A
100
AcDbEntity
  8
0
  6
CONTINUOUS
 62
               4
100
AcDbLine
 10
-133.16271599055113
 20
27.811369294935034
 30
0.0
 11
-128.55419018239513
 21
25.659339976111426
 31
0.0
  0
LINE
  5
45B
100
AcDbEntity
  8
0
  6
CONTINUOUS
 62
               4
100
AcDbLine
 10
-128.26429119266186
 20
8.859339985711415
 30
0.0
 11
-128.26429119266174
 21
25.206814723844758
 31
0.0
  0
LINE
  5
45C
100
AcDbEntity
  8
0
  6
CONTINUOUS
 62
               4
100
AcDbLine
 10
-109.26530130452852
 20
11.107824832911405
 30
0.0
 11
-109.26530130452852
 21
10.605804631178074
 31
0.0
  0
LINE
  5
45D
100
AcDbEntity
  8
0
  6
CONTINUOUS
 62
               4
100
AcDbLine
 10
-109.26530130452852
 20
11.107824832911405
 30
0.0
 11
-112.76530130252854
 21
11.107824832911419
 31
0.0
  0
LINE
  5
45E
100
AcDbEntity
  8
0
  6
CONTINUOUS
 62
               4
100
AcDbLine
 10
-109.26530130452852
 20
10.605804631178074
 30
0.0
 11
-112.76530130252854
 21
10.605804631178088
 31
0.0
  0
LINE
  5
45F
100
AcDbEntity
  8
0
  6
CONTINUOUS
 62
               4
100
AcDbLine
 10
-112.76530130252854
 20
11.503784428644721
 30
0.0
 11
-112.76530130252854
 21
10.202774328378084
 31
0.0
  0
LINE
  5
460
100
AcDbEntity
  8
0
  6
CONTINUOUS
 62
               4
100
AcDbLine
 10
-121.26429119666193
 20
13.356309680111451
 30
0.0
 11
-120.26732150026186
 21
13.356309680111437
 31
0.0
  0
LINE
  5
461
100
AcDbEntity
  8
0
  6
CONTINUOUS
 62
               4
100
AcDbLine
 10
-120.26732150026186
 20
7.3532793805114096
 30
0.0
 11
-121.67439220652852
 21
7.3532793805114238
 31
0.0
  0
LINE
  5
462
100
AcDbEntity
  8
0
  6
CONTINUOUS
 62
               4
100
AcDbLine
 10
-120.26732150026186
 20
6.3563096841113946
 30
0.0
 11
-121.76631139839515
 21
6.3563096841114088
 31
0.0
  0
LINE
  5
463
100
AcDbEntity
  8
0
  6
CONTINUOUS
 62
               4
100
AcDbLine
 10
-116.44913968426187
 20
10.202774328378084
 30
0.0
 11
-120.26732150026186
 21
10.202774328378084
 31
0.0
  0
LINE
  5
464
100
AcDbEntity
  8
0
  6
CONTINUOUS
 62
             200
100
AcDbLine
 10
-116.93701847186185
 20
9.354289480378057
 30
0.0
 11
-115.20469524052851
 21
12.359339983711365
 31
0.0
  0
LINE
  5
465
100
AcDbEntity
  8
0
  6
CONTINUOUS
 62
               4
100
AcDbLine
 10
-115.69964473519519
 20
11.503784428644721
 30
0.0
 11
-120.26732150026186
 21
11.503784428644721
 31
0.0
  0
LINE
  5
466
100
AcDbEntity
  8
0
  6
CONTINUOUS
 62
               4
100
AcDbLine
 10
-121.26429119666193
 20
13.356309680111451
 30
0.0
 11
-121.26429119666193
 21
12.755299579444738
 31
0.0
  0
LINE
  5
467
100
AcDbEntity
  8
0
  6
CONTINUOUS
 62
               4
100
AcDbLine
 10
-120.26732150026186
 20
9.2552995814447598
 30
0.0
 11
-120.56429119706183
 21
8.9583298846447263
 31
0.0
  0
LINE
  5
468
100
AcDbEntity
  8
0
  6
CONTINUOUS
 62
               4
100
AcDbLine
 10
-120.26732150026186
 20
7.3532793805114096
 30
0.0
 11
-120.26732150026186
 21
6.3563096841113946
 31
0.0
  0
LINE
  5
469
100
AcDbEntity
  8
0
  6
CONTINUOUS
 62
               4
100
AcDbLine
 10
-120.26732150026186
 20
13.356309680111437
 30
0.0
 11
-120.26732150026186
 21
9.2552995814447598
 31
0.0
  0
LINE
  5
46A
100
AcDbEntity
  8
0
  6
CONTINUOUS
 62
             200
100
AcDbLine
 10
-116.59055382559518
 20
9.354289480378057
 30
0.0
 11
-114.85823059426184
 21
12.352269276644719
 31
0.0
  0
LINE
  5
46B
100
AcDbEntity
  8
0
  6
CONTINUOUS
 62
               4
100
AcDbLine
 10
-112.76530130252854
 20
11.503784428644721
 30
0.0
 11
-115.35318008892853
 21
11.503784428644721
 31
0.0
  0
LINE
  5
46C
100
AcDbEntity
  8
0
  6
CONTINUOUS
 62
               4
100
AcDbLine
 10
-112.76530130252854
 20
10.202774328378084
 30
0.0
 11
-116.1026750379952
 21
10.202774328378084
 31
0.0
  0
ARC
  5
46D
100
AcDbEntity
  8
0
  6
CONTINUOUS
 62
               4
100
AcDbCircle
 10
-133.37427043493415
 20
27.358329873844781
 30
0.0
 40
0.5
100
AcDbArc
 50
64.968979182781382
 51
89.999999999999702
  0
LINE
  5
46E
100
AcDbEntity
  8
0
  6
CONTINUOUS
 62
               4
100
AcDbLine
 10
-134.96732149186187
 20
8.2583298850447733
 30
0.0
 11
-134.96732149186187
 21
8.3573197839780988
 31
0.0
  0
ARC
  5
46F
100
AcDbEntity
  8
0
  6
CONTINUOUS
 62
               4
100
AcDbCircle
 10
-135.9612608850619
 20
7.5542894815780812
 30
0.0
 40
0.3
100
AcDbArc
 50
179.99999999999949
 51
269.99999999999932
  0
ARC
  5
470
100
AcDbEntity
  8
0
  6
CONTINUOUS
 62
               4
100
AcDbCircle
 10
-135.96126088506179
 20
114.1623696557597
 30
0.0
 40
0.3
100
AcDbArc
 50
89.999999999999815
 51
179.99999999999963
  0
LINE
  5
471
100
AcDbEntity
  8
0
  6
CONTINUOUS
 62
               4
100
AcDbLine
 10
-134.96732149186175
 20
113.45832925229301
 30
0.0
 11
-134.96732149186175
 21
113.35933935335969
 31
0.0
  0
LINE
  5
472
100
AcDbEntity
  8
0
  6
CONTINUOUS
 62
               7
100
AcDbLine
 10
-135.26126088506174
 20
71.208329572938212
 30
0.0
 11
-135.26126088506174
 21
67.912004560731276
 31
0.0
  0
LINE
  5
473
100
AcDbEntity
  8
0
  6
CONTINUOUS
 62
               7
100
AcDbLine
 10
-152.2612608850618
 20
27.658329568668989
 30
0.0
 11
-152.26126088506174
 21
94.058329568668825
 31
0.0
  0
LINE
  5
474
100
AcDbEntity
  8
0
  6
CONTINUOUS
 62
               7
100
AcDbLine
 10
-134.26126088506174
 20
27.358329568668978
 30
0.0
 11
-134.26126088506174
 21
94.358329568668807
 31
0.0
  0
LINE
  5
475
100
AcDbEntity
  8
0
  6
CENTER
 62
               2
100
AcDbLine
 10
-143.26126088506174
 20
118.25832926776246
 30
0.0
 11
-143.26126088506183
 21
3.5254557314121939
 31
0.0
  0
LINE
  5
476
100
AcDbEntity
  8
0
  6
CENTER
 62
               2
100
AcDbLine
 10
-149.46126088506173
 20
69.858329568668893
 30
0.0
 11
-149.46126088506179
 21
63.858329568668886
 31
0.0
  0
CIRCLE
  5
477
100
AcDbEntity
  8
0
  6
CONTINUOUS
 62
               4
100
AcDbCircle
 10
-149.46126088506173
 20
66.858329568668893
 30
0.0
 40
1.75
  0
CIRCLE
  5
478
100
AcDbEntity
  8
0
  6
CONTINUOUS
 62
               4
100
AcDbCircle
 10
-149.46126088506179
 20
54.858329568668879
 30
0.0
 40
1.75
  0
LINE
  5
479
100
AcDbEntity
  8
0
  6
CENTER
 62
               2
100
AcDbLine
 10
-146.46126088506173
 20
66.858329568668893
 30
0.0
 11
-152.46126088506173
 21
66.858329568668893
 31
0.0
  0
ARC
  5
47A
100
AcDbEntity
  8
0
  6
CONTINUOUS
 62
               4
100
AcDbCircle
 10
-133.37427043493415
 20
94.358329263493005
 30
0.0
 40
0.5
100
AcDbArc
 50
269.99999999999937
 51
295.03102081721772
  0
LINE
  5
47B
100
AcDbEntity
  8
0
  6
CONTINUOUS
 62
               4
100
AcDbLine
 10
-112.76530130252843
 20
111.51388480895967
 30
0.0
 11
-116.10267503799508
 21
111.51388480895967
 31
0.0
  0
LINE
  5
47C
100
AcDbEntity
  8
0
  6
CONTINUOUS
 62
               4
100
AcDbLine
 10
-112.76530130252843
 20
110.21287470869304
 30
0.0
 11
-115.35318008892841
 21
110.21287470869304
 31
0.0
  0
LINE
  5
47D
100
AcDbEntity
  8
0
  6
CONTINUOUS
 62
             200
100
AcDbLine
 10
-116.59055382559507
 20
112.3623696569597
 30
0.0
 11
-114.85823059426173
 21
109.36438986069304
 31
0.0
  0
LINE
  5
47E
100
AcDbEntity
  8
0
  6
CONTINUOUS
 62
               4
100
AcDbLine
 10
-120.26732150026174
 20
108.36034945722632
 30
0.0
 11
-120.26732150026174
 21
112.461359555893
 31
0.0
  0
LINE
  5
47F
100
AcDbEntity
  8
0
  6
CONTINUOUS
 62
               4
100
AcDbLine
 10
-120.26732150026174
 20
114.36337975682635
 30
0.0
 11
-120.26732150026174
 21
115.36034945322636
 31
0.0
  0
LINE
  5
480
100
AcDbEntity
  8
0
  6
CONTINUOUS
 62
               4
100
AcDbLine
 10
-120.26732150026174
 20
112.461359555893
 30
0.0
 11
-120.56429119706172
 21
112.75832925269303
 31
0.0
  0
LINE
  5
481
100
AcDbEntity
  8
0
  6
CONTINUOUS
 62
               4
100
AcDbLine
 10
-121.26429119666182
 20
108.36034945722632
 30
0.0
 11
-121.26429119666182
 21
108.96135955789303
 31
0.0
  0
LINE
  5
482
100
AcDbEntity
  8
0
  6
CONTINUOUS
 62
               4
100
AcDbLine
 10
-115.69964473519508
 20
110.21287470869304
 30
0.0
 11
-120.26732150026174
 21
110.21287470869304
 31
0.0
  0
LINE
  5
483
100
AcDbEntity
  8
0
  6
CONTINUOUS
 62
             200
100
AcDbLine
 10
-116.93701847186173
 20
112.3623696569597
 30
0.0
 11
-115.20469524052839
 21
109.35731915362639
 31
0.0
  0
LINE
  5
484
100
AcDbEntity
  8
0
  6
CONTINUOUS
 62
               4
100
AcDbLine
 10
-116.44913968426175
 20
111.51388480895967
 30
0.0
 11
-120.26732150026174
 21
111.51388480895967
 31
0.0
  0
LINE
  5
485
100
AcDbEntity
  8
0
  6
CONTINUOUS
 62
               4
100
AcDbLine
 10
-120.26732150026174
 20
115.36034945322636
 30
0.0
 11
-121.76631139839503
 21
115.36034945322636
 31
0.0
  0
LINE
  5
486
100
AcDbEntity
  8
0
  6
CONTINUOUS
 62
               4
100
AcDbLine
 10
-120.26732150026174
 20
114.36337975682635
 30
0.0
 11
-121.67439220652841
 21
114.36337975682635
 31
0.0
  0
LINE
  5
487
100
AcDbEntity
  8
0
  6
CONTINUOUS
 62
               4
100
AcDbLine
 10
-121.26429119666182
 20
108.36034945722632
 30
0.0
 11
-120.26732150026174
 21
108.36034945722632
 31
0.0
  0
LINE
  5
488
100
AcDbEntity
  8
0
  6
CONTINUOUS
 62
               4
100
AcDbLine
 10
-112.76530130252843
 20
110.21287470869304
 30
0.0
 11
-112.76530130252843
 21
111.51388480895967
 31
0.0
  0
LINE
  5
489
100
AcDbEntity
  8
0
  6
CONTINUOUS
 62
               4
100
AcDbLine
 10
-109.26530130452841
 20
111.11085450615967
 30
0.0
 11
-112.76530130252843
 21
111.11085450615967
 31
0.0
  0
LINE
  5
48A
100
AcDbEntity
  8
0
  6
CONTINUOUS
 62
               4
100
AcDbLine
 10
-109.26530130452841
 20
110.60883430442634
 30
0.0
 11
-112.76530130252843
 21
110.60883430442634
 31
0.0
  0
LINE
  5
48B
100
AcDbEntity
  8
0
  6
CONTINUOUS
 62
               4
100
AcDbLine
 10
-109.26530130452841
 20
110.60883430442634
 30
0.0
 11
-109.26530130452841
 21
111.11085450615967
 31
0.0
  0
LINE
  5
48C
100
AcDbEntity
  8
0
  6
CONTINUOUS
 62
               4
100
AcDbLine
 10
-128.26429119266174
 20
112.85731915162636
 30
0.0
 11
-128.26429119266174
 21
96.509844413493013
 31
0.0
  0
LINE
  5
48D
100
AcDbEntity
  8
0
  6
CONTINUOUS
 62
               4
100
AcDbLine
 10
-133.16271599055113
 20
93.905289842402752
 30
0.0
 11
-128.55419018239513
 21
96.057319161226346
 31
0.0
  0
LINE
  5
48E
100
AcDbEntity
  8
0
  6
CONTINUOUS
 62
               4
100
AcDbLine
 10
-126.26328109279507
 20
108.36034945722632
 30
0.0
 11
-126.26328109279507
 21
108.96135955789303
 31
0.0
  0
LINE
  5
48F
100
AcDbEntity
  8
0
  6
CONTINUOUS
 62
               4
100
AcDbLine
 10
-126.7653012945284
 20
112.461359555893
 30
0.0
 11
-126.46833159772848
 21
112.75832925269303
 31
0.0
  0
LINE
  5
490
100
AcDbEntity
  8
0
  6
CONTINUOUS
 62
               4
100
AcDbLine
 10
-128.26429119266174
 20
108.36034945722632
 30
0.0
 11
-126.26328109279507
 21
108.36034945722632
 31
0.0
  0
LINE
  5
491
100
AcDbEntity
  8
0
  6
CONTINUOUS
 62
               4
100
AcDbLine
 10
-133.37641240186178
 20
93.858329263493019
 30
0.0
 11
-133.37641240186178
 21
113.35933935335969
 31
0.0
  0
ARC
  5
492
100
AcDbEntity
  8
0
  6
CONTINUOUS
 62
               4
100
AcDbCircle
 10
-128.76400351550501
 20
96.510851724032179
 30
0.0
 40
0.4997133381008655
100
AcDbArc
 50
294.8262153098089
 51
359.88450442035634
  0
ARC
  5
493
100
AcDbEntity
  8
0
  6
CONTINUOUS
 62
               4
100
AcDbCircle
 10
-128.76092804414043
 20
112.86270250188103
 30
0.0
 40
0.4966660273328702
100
AcDbArc
 50
359.37896036356381
 51
90.621039636433693
  0
ARC
  5
494
100
AcDbEntity
  8
0
  6
CONTINUOUS
 62
               4
100
AcDbCircle
 10
-129.26134837092457
 20
112.96336358858572
 30
0.0
 40
0.4950149226876425
100
AcDbArc
 50
53.123124741164709
 51
90.808304124578498
  0
ARC
  5
495
100
AcDbEntity
  8
0
  6
CONTINUOUS
 62
               4
100
AcDbCircle
 10
-127.86136495868277
 20
112.86365649509752
 30
0.0
 40
0.4029269013737999
100
AcDbArc
 50
100.09177155739597
 51
179.8957164142505
  0
ARC
  5
496
100
AcDbEntity
  8
0
  6
CONTINUOUS
 62
               4
100
AcDbCircle
 10
-127.86042684570737
 20
112.86522390284738
 30
0.0
 40
0.403865208170398
100
AcDbArc
 50
180.11832473551465
 51
269.88167526448575
  0
LINE
  5
497
100
AcDbEntity
  8
0
  6
CONTINUOUS
 62
               4
100
AcDbLine
 10
-126.87136190052843
 20
114.4623696557597
 30
0.0
 11
-121.76631139839503
 21
115.36034945322636
 31
0.0
  0
LINE
  5
498
100
AcDbEntity
  8
0
  6
CONTINUOUS
 62
               4
100
AcDbLine
 10
-127.93196796052848
 20
113.26034945442633
 30
0.0
 11
-121.66982757285257
 21
114.36337975682635
 31
0.0
  0
LINE
  5
499
100
AcDbEntity
  8
0
  6
CONTINUOUS
 62
               4
100
AcDbLine
 10
-121.26429119666182
 20
108.96135955789303
 30
0.0
 11
-126.26328109279507
 21
108.96135955789303
 31
0.0
  0
LINE
  5
49A
100
AcDbEntity
  8
0
  6
CONTINUOUS
 62
               4
100
AcDbLine
 10
-120.56429119706172
 20
112.75832925269303
 30
0.0
 11
-126.46833159772848
 21
112.75832925269303
 31
0.0
  0
LINE
  5
49B
100
AcDbEntity
  8
0
  6
CONTINUOUS
 62
               4
100
AcDbLine
 10
-120.26732150026174
 20
112.461359555893
 30
0.0
 11
-127.8612608898618
 21
112.461359555893
 31
0.0
  0
LINE
  5
49C
100
AcDbEntity
  8
0
  6
CONTINUOUS
 62
               4
100
AcDbLine
 10
-120.26732150026174
 20
111.76135955629302
 30
0.0
 11
-128.26429119266174
 21
111.76135955629302
 31
0.0
  0
LINE
  5
49D
100
AcDbEntity
  8
0
  6
CONTINUOUS
 62
               4
100
AcDbLine
 10
-120.26732150026174
 20
109.95832925429302
 30
0.0
 11
-128.26429119266174
 21
109.95832925429302
 31
0.0
  0
LINE
  5
49E
100
AcDbEntity
  8
0
  6
CONTINUOUS
 62
               4
100
AcDbLine
 10
-126.87136190052843
 20
114.4623696557597
 30
0.0
 11
-135.96126088506179
 21
114.4623696557597
 31
0.0
  0
LINE
  5
49F
100
AcDbEntity
  8
0
  6
CONTINUOUS
 62
               4
100
AcDbLine
 10
-129.26833159612841
 20
113.45832925229301
 30
0.0
 11
-134.96732149186175
 21
113.45832925229301
 31
0.0
  0
LINE
  5
4A0
100
AcDbEntity
  8
0
  6
CONTINUOUS
 62
               4
100
AcDbLine
 10
-136.26126088506169
 20
113.35933935335969
 30
0.0
 11
-128.76631139439507
 21
113.35933935335969
 31
0.0
  0
LINE
  5
4A1
100
AcDbEntity
  8
0
  6
CONTINUOUS
 62
               4
100
AcDbLine
 10
-134.26126088506169
 20
93.858329263493019
 30
0.0
 11
-133.37427043493415
 21
93.858329263493019
 31
0.0
  0
LINE
  5
4A2
100
AcDbEntity
  8
0
  6
CONTINUOUS
 62
               7
100
AcDbLine
 10
-151.96126088506173
 20
94.358329568668836
 30
0.0
 11
-134.26126088506169
 21
94.358329568668807
 31
0.0
  0
LINE
  5
4A3
100
AcDbEntity
  8
0
  6
CONTINUOUS
 62
               4
100
AcDbLine
 10
-146.56126088506176
 20
115.75832926349312
 30
0.0
 11
-146.56126088506176
 21
116.35832926349303
 31
0.0
  0
LINE
  5
4A4
100
AcDbEntity
  8
0
  6
CONTINUOUS
 62
               4
100
AcDbLine
 10
-149.57835603171998
 20
116.35832926349303
 30
0.0
 11
-138.26125806853497
 21
116.35832926349309
 31
0.0
  0
ARC
  5
4A5
100
AcDbEntity
  8
0
  6
CONTINUOUS
 62
               4
100
AcDbCircle
 10
-147.77717287982472
 20
115.75941726873003
 30
0.0
 40
0.5989129830170392
100
AcDbArc
 50
359.89591452477299
 51
90.104085475226924
  0
ARC
  5
4A6
100
AcDbEntity
  8
0
  6
CONTINUOUS
 62
               4
100
AcDbCircle
 10
-149.57835603171992
 20
115.75842441015121
 30
0.0
 40
0.5999048608870732
100
AcDbArc
 50
123.56005066674096
 51
180.00908727754583
  0
LINE
  5
4A7
100
AcDbEntity
  8
0
  6
CONTINUOUS
 62
               4
100
AcDbLine
 10
-150.26126088506174
 20
115.75832926349312
 30
0.0
 11
-146.56126088506176
 21
115.75832926349312
 31
0.0
  0
LINE
  5
4A8
100
AcDbEntity
  8
0
  6
CONTINUOUS
 62
               4
100
AcDbLine
 10
-138.26125806853497
 20
116.35832926349309
 30
0.0
 11
-138.26125806853497
 21
114.75832926349311
 31
0.0
  0
LINE
  5
4A9
100
AcDbEntity
  8
0
  6
CONTINUOUS
 62
               4
100
AcDbLine
 10
-150.26126088506174
 20
114.75832926349312
 30
0.0
 11
-138.26125806853497
 21
114.75832926349311
 31
0.0
  0
LINE
  5
4AA
100
AcDbEntity
  8
0
  6
CONTINUOUS
 62
               4
100
AcDbLine
 10
-136.76126088506174
 20
116.25832926349301
 30
0.0
 11
-138.26126088506174
 21
116.25832926349301
 31
0.0
  0
ARC
  5
4AB
100
AcDbEntity
  8
0
  6
CONTINUOUS
 62
               4
100
AcDbCircle
 10
-136.76126088506174
 20
115.75832926349301
 30
0.0
 40
0.5
100
AcDbArc
 50
0.0
 51
89.999999999999815
  0
ARC
  5
4AC
100
AcDbEntity
  8
0
  6
CONTINUOUS
 62
               4
100
AcDbCircle
 10
-149.76126088506174
 20
115.75832926349304
 30
0.0
 40
0.5
100
AcDbArc
 50
114.73039869685056
 51
179.99999999999963
  0
ARC
  5
4AD
100
AcDbEntity
  8
0
  6
CONTINUOUS
 62
               4
100
AcDbCircle
 10
-149.57835603171992
 20
115.75842441015121
 30
0.0
 40
0.5999048608870732
100
AcDbArc
 50
89.99091272245343
 51
123.56005066674096
  0
LINE
  5
4AE
100
AcDbEntity
  8
0
  6
CONTINUOUS
 62
               4
100
AcDbLine
 10
-150.26126088506174
 20
115.75832926349301
 30
0.0
 11
-150.2612608850618
 21
94.358329568668822
 31
0.0
  0
LINE
  5
4AF
100
AcDbEntity
  8
0
  6
CONTINUOUS
 62
               4
100
AcDbLine
 10
-136.2612608850618
 20
94.358329566462103
 30
0.0
 11
-136.2612608850618
 21
115.75832925842528
 31
0.0
  0
LINE
  5
4B0
100
AcDbEntity
  8
0
  6
CONTINUOUS
 62
               7
100
AcDbLine
 10
-152.26126088506169
 20
80.258329568668827
 30
0.0
 11
-152.16126088506172
 21
80.358329568668822
 31
0.0
  0
LINE
  5
4B1
100
AcDbEntity
  8
0
  6
CONTINUOUS
 62
               7
100
AcDbLine
 10
-151.96126088506173
 20
94.358329568668836
 30
0.0
 11
-152.26126088506174
 21
94.058329568668825
 31
0.0
  0
LINE
  5
4B2
100
AcDbEntity
  8
0
  6
CONTINUOUS
 62
               7
100
AcDbLine
 10
-152.16126088506172
 20
80.358329568668907
 30
0.0
 11
-134.26126088506174
 21
80.358329568668893
 31
0.0
  0
LINE
  5
4B3
100
AcDbEntity
  8
0
  6
CONTINUOUS
 62
               7
100
AcDbLine
 10
-134.26126088506174
 20
41.358329568668893
 30
0.0
 11
-152.26126088506174
 21
41.358329568668907
 31
0.0
  0
LINE
  5
4B4
100
AcDbEntity
  8
0
  6
CONTINUOUS
 62
               4
100
AcDbLine
 10
-63.443268006530076
 20
48.361329583781426
 30
0.0
 11
-63.443268006529962
 21
73.361329583781426
 31
0.0
  0
LINE
  5
4B5
100
AcDbEntity
  8
0
  6
CONTINUOUS
 62
               4
100
AcDbLine
 10
-61.143268014491838
 20
73.361329575772587
 30
0.0
 11
-63.443268006529962
 21
73.361329575772587
 31
0.0
  0
LINE
  5
4B6
100
AcDbEntity
  8
0
  6
CONTINUOUS
 62
               4
100
AcDbLine
 10
-61.143268014491838
 20
48.361329575772587
 30
0.0
 11
-63.443268006530076
 21
48.361329575772587
 31
0.0
  0
LINE
  5
4B7
100
AcDbEntity
  8
0
  6
CENTER
 62
               2
100
AcDbLine
 10
-50.443268014491878
 20
50.158329583594011
 30
0.0
 11
-50.443268014491878
 21
54.158329583594011
 31
0.0
  0
LINE
  5
4B8
100
AcDbEntity
  8
0
  6
CONTINUOUS
 62
               7
100
AcDbLine
 10
-50.443268014491878
 20
50.508329583594012
 30
0.0
 11
-49.143268014491866
 21
50.508329583594012
 31
0.0
  0
LINE
  5
4B9
100
AcDbEntity
  8
0
  6
CONTINUOUS
 62
               7
100
AcDbLine
 10
-50.443268014491878
 20
53.808329583594009
 30
0.0
 11
-49.143268014491866
 21
53.808329583594009
 31
0.0
  0
ARC
  5
4BA
100
AcDbEntity
  8
0
  6
CONTINUOUS
 62
               7
100
AcDbCircle
 10
-50.443268014491878
 20
52.158329583594011
 30
0.0
 40
1.6499999999999999
100
AcDbArc
 50
89.999999999999815
 51
269.99999999999937
  0
CIRCLE
  5
4BB
100
AcDbEntity
  8
0
  6
CONTINUOUS
 62
               7
100
AcDbCircle
 10
-50.443268014491878
 20
52.158329583594011
 30
0.0
 40
1.075
  0
LINE
  5
4BC
100
AcDbEntity
  8
0
  6
CENTER
 62
               2
100
AcDbLine
 10
-52.443268014491878
 20
52.158329583594011
 30
0.0
 11
-48.443268014491878
 21
52.158329583594011
 31
0.0
  0
ARC
  5
4BD
100
AcDbEntity
  8
0
  6
CONTINUOUS
 62
               7
100
AcDbCircle
 10
-59.843268014491883
 20
69.558329583594016
 30
0.0
 40
1.6499999999999999
100
AcDbArc
 50
269.99999999999937
 51
89.999999999999801
  0
LINE
  5
4BE
100
AcDbEntity
  8
0
  6
CONTINUOUS
 62
               7
100
AcDbLine
 10
-59.843268014491883
 20
67.908329583594011
 30
0.0
 11
-61.143268014491838
 21
67.908329583594011
 31
0.0
  0
LINE
  5
4BF
100
AcDbEntity
  8
0
  6
CONTINUOUS
 62
               7
100
AcDbLine
 10
-59.843268014491883
 20
71.208329583594008
 30
0.0
 11
-61.143268014491838
 21
71.208329583594008
 31
0.0
  0
CIRCLE
  5
4C0
100
AcDbEntity
  8
0
  6
CONTINUOUS
 62
               7
100
AcDbCircle
 10
-59.843268014491883
 20
69.558329583594016
 30
0.0
 40
1.075
  0
LINE
  5
4C1
100
AcDbEntity
  8
0
  6
CENTER
 62
               2
100
AcDbLine
 10
-59.843268014491883
 20
67.558329583594016
 30
0.0
 11
-59.843268014491883
 21
71.558329583594002
 31
0.0
  0
LINE
  5
4C2
100
AcDbEntity
  8
0
  6
CENTER
 62
               2
100
AcDbLine
 10
-61.843268014491883
 20
69.558329583594016
 30
0.0
 11
-57.843268014491883
 21
69.558329583594016
 31
0.0
  0
ARC
  5
4C3
100
AcDbEntity
  8
0
  6
CONTINUOUS
 62
               4
100
AcDbCircle
 10
-59.205268014491907
 20
8.8563295800419297
 30
0.0
 40
0.5
100
AcDbArc
 50
179.99999999999963
 51
269.99999999999937
  0
LINE
  5
4C4
100
AcDbEntity
  8
0
  6
CONTINUOUS
 62
               4
100
AcDbLine
 10
-59.705268014491907
 20
8.8563295800419297
 30
0.0
 11
-59.705268014491907
 21
25.031472421181149
 31
0.0
  0
ARC
  5
4C5
100
AcDbEntity
  8
0
  6
CONTINUOUS
 62
               4
100
AcDbCircle
 10
-59.205268014491907
 20
25.031472421181149
 30
0.0
 40
0.5
100
AcDbArc
 50
89.999999999999815
 51
179.99999999999963
  0
ARC
  5
4C6
100
AcDbEntity
  8
0
  6
CONTINUOUS
 62
               4
100
AcDbCircle
 10
-51.081268014491883
 20
25.031472421181149
 30
0.0
 40
0.5
100
AcDbArc
 50
0.0
 51
89.999999999999815
  0
LINE
  5
4C7
100
AcDbEntity
  8
0
  6
CONTINUOUS
 62
               4
100
AcDbLine
 10
-59.205268014491878
 20
25.531472421181149
 30
0.0
 11
-51.081268014491883
 21
25.531472421181149
 31
0.0
  0
LINE
  5
4C8
100
AcDbEntity
  8
0
  6
CONTINUOUS
 62
               4
100
AcDbLine
 10
-50.581268014491883
 20
8.8563295800419297
 30
0.0
 11
-50.581268014491883
 21
25.031472421181149
 31
0.0
  0
ARC
  5
4C9
100
AcDbEntity
  8
0
  6
CONTINUOUS
 62
               4
100
AcDbCircle
 10
-51.081268014491883
 20
8.8563295800419297
 30
0.0
 40
0.5
100
AcDbArc
 50
270.00000000000023
 51
0.0
  0
ARC
  5
4CA
100
AcDbEntity
  8
0
  6
CONTINUOUS
 62
               4
100
AcDbCircle
 10
-59.205268014491907
 20
112.86032958004198
 30
0.0
 40
0.5
100
AcDbArc
 50
89.999999999999815
 51
179.99999999999963
  0
LINE
  5
4CB
100
AcDbEntity
  8
0
  6
CONTINUOUS
 62
               4
100
AcDbLine
 10
-59.705268014491907
 20
112.86032958004198
 30
0.0
 11
-59.705268014491907
 21
96.685186738902757
 31
0.0
  0
ARC
  5
4CC
100
AcDbEntity
  8
0
  6
CONTINUOUS
 62
               4
100
AcDbCircle
 10
-59.205268014491907
 20
96.685186738902757
 30
0.0
 40
0.5
100
AcDbArc
 50
179.99999999999963
 51
269.99999999999937
  0
LINE
  5
4CD
100
AcDbEntity
  8
0
  6
CONTINUOUS
 62
               4
100
AcDbLine
 10
-59.205268014491878
 20
96.185186738902757
 30
0.0
 11
-51.081268014491883
 21
96.185186738902757
 31
0.0
  0
ARC
  5
4CE
100
AcDbEntity
  8
0
  6
CONTINUOUS
 62
               4
100
AcDbCircle
 10
-51.081268014491883
 20
96.685186738902757
 30
0.0
 40
0.5
100
AcDbArc
 50
270.00000000000023
 51
0.0
  0
LINE
  5
4CF
100
AcDbEntity
  8
0
  6
CONTINUOUS
 62
               4
100
AcDbLine
 10
-50.581268014491883
 20
112.86032958004198
 30
0.0
 11
-50.581268014491883
 21
96.685186738902757
 31
0.0
  0
ARC
  5
4D0
100
AcDbEntity
  8
0
  6
CONTINUOUS
 62
               4
100
AcDbCircle
 10
-51.081268014491883
 20
112.86032958004198
 30
0.0
 40
0.5
100
AcDbArc
 50
0.0
 51
89.999999999999815
  0
CIRCLE
  5
4D1
100
AcDbEntity
  8
0
  6
CONTINUOUS
 62
               7
100
AcDbCircle
 10
-55.143268014491866
 20
30.158329557916247
 30
0.0
 40
1.3999999999999997
  0
CIRCLE
  5
4D2
100
AcDbEntity
  8
0
  6
CONTINUOUS
 62
               7
100
AcDbCircle
 10
-55.143268014491866
 20
30.158329557916247
 30
0.0
 40
0.75
  0
CIRCLE
  5
4D3
100
AcDbEntity
  8
0
  6
CONTINUOUS
 62
               7
100
AcDbCircle
 10
-55.143268014491866
 20
30.158329557916247
 30
0.0
 40
1.1000000000000001
  0
LINE
  5
4D4
100
AcDbEntity
  8
0
  6
CENTER
 62
               2
100
AcDbLine
 10
-52.828337878767513
 20
30.158329557916247
 30
0.0
 11
-57.367212167167622
 21
30.158329557916247
 31
0.0
  0
LINE
  5
4D5
100
AcDbEntity
  8
0
  6
CONTINUOUS
 62
               7
100
AcDbLine
 10
-49.893268014491866
 20
27.358329571503177
 30
0.0
 11
-49.443268014491849
 21
27.358329571503177
 31
0.0
  0
CIRCLE
  5
4D6
100
AcDbEntity
  8
0
  6
CONTINUOUS
 62
               7
100
AcDbCircle
 10
-55.143018014491815
 20
30.158329571503202
 30
0.0
 40
1.1500000000000001
  0
LINE
  5
4D7
100
AcDbEntity
  8
0
  6
CONTINUOUS
 62
               7
100
AcDbLine
 10
-60.84326801449194
 20
27.358329571503205
 30
0.0
 11
-60.393268014491866
 21
27.358329571503205
 31
0.0
  0
LINE
  5
4D8
100
AcDbEntity
  8
0
  6
CONTINUOUS
 62
               7
100
AcDbLine
 10
-60.84326801449194
 20
27.358329571503205
 30
0.0
 11
-61.143268014491838
 21
27.658329571503188
 31
0.0
  0
LINE
  5
4D9
100
AcDbEntity
  8
0
  6
CONTINUOUS
 62
               7
100
AcDbLine
 10
-49.443268014491849
 20
27.358329571503177
 30
0.0
 11
-49.143268014491952
 21
27.658329571503188
 31
0.0
  0
LINE
  5
4DA
100
AcDbEntity
  8
0
  6
CONTINUOUS
 62
               7
100
AcDbLine
 10
-50.093268014491969
 20
27.558329571503165
 30
0.0
 11
-50.093268014491969
 21
27.858329571503177
 31
0.0
  0
LINE
  5
4DB
100
AcDbEntity
  8
0
  6
CONTINUOUS
 62
               7
100
AcDbLine
 10
-60.193268014491821
 20
27.558329571503194
 30
0.0
 11
-60.193268014491821
 21
27.858329571503205
 31
0.0
  0
LINE
  5
4DC
100
AcDbEntity
  8
0
  6
CONTINUOUS
 62
               7
100
AcDbLine
 10
-60.193268014491821
 20
27.558329571503194
 30
0.0
 11
-60.393268014491866
 21
27.358329571503205
 31
0.0
  0
LINE
  5
4DD
100
AcDbEntity
  8
0
  6
CONTINUOUS
 62
               7
100
AcDbLine
 10
-50.093268014491969
 20
27.558329571503165
 30
0.0
 11
-49.893268014491866
 21
27.358329571503177
 31
0.0
  0
LINE
  5
4DE
100
AcDbEntity
  8
0
  6
CONTINUOUS
 62
               4
100
AcDbLine
 10
-60.143268014491753
 20
5.3583295715032051
 30
0.0
 11
-50.143268014491809
 21
5.3583295715032051
 31
0.0
  0
LINE
  5
4DF
100
AcDbEntity
  8
0
  6
CONTINUOUS
 62
               4
100
AcDbLine
 10
-60.143268014491753
 20
6.960329571503209
 30
0.0
 11
-57.893268014491753
 21
6.960329571503209
 31
0.0
  0
LINE
  5
4E0
100
AcDbEntity
  8
0
  6
CONTINUOUS
 62
               4
100
AcDbLine
 10
-56.943268014491764
 20
5.4603295715031805
 30
0.0
 11
-50.643268014491809
 21
5.4603295715031805
 31
0.0
  0
LINE
  5
4E1
100
AcDbEntity
  8
0
  6
CONTINUOUS
 62
               4
100
AcDbLine
 10
-56.943268014491764
 20
5.4603295715031805
 30
0.0
 11
-56.943268014491764
 21
6.2563295715031728
 31
0.0
  0
ARC
  5
4E2
100
AcDbEntity
  8
0
  6
CONTINUOUS
 62
               4
100
AcDbCircle
 10
-50.643268014491809
 20
5.9603295715031805
 30
0.0
 40
0.5
100
AcDbArc
 50
269.99999999999949
 51
0.0000000000001018
  0
LINE
  5
4E3
100
AcDbEntity
  8
0
  6
CONTINUOUS
 62
               4
100
AcDbLine
 10
-60.143268014491753
 20
5.9583295715031994
 30
0.0
 11
-56.943268014491821
 21
5.9583295715031994
 31
0.0
  0
ARC
  5
4E4
100
AcDbEntity
  8
0
  6
CONTINUOUS
 62
               4
100
AcDbCircle
 10
-59.347363161149985
 20
5.9582344248450312
 30
0.0
 40
0.5999048608870732
100
AcDbArc
 50
179.99091272245349
 51
270.00908727754586
  0
ARC
  5
4E5
100
AcDbEntity
  8
0
  6
CONTINUOUS
 62
               4
100
AcDbCircle
 10
-57.546180009254783
 20
5.9572415662661768
 30
0.0
 40
0.5989129830170392
100
AcDbArc
 50
269.89591452477248
 51
0.1040854752272227
  0
LINE
  5
4E6
100
AcDbEntity
  8
0
  6
CONTINUOUS
 62
               4
100
AcDbLine
 10
-60.143268014491753
 20
5.3583295715032051
 30
0.0
 11
-60.143268014491866
 21
27.858329571503177
 31
0.0
  0
LINE
  5
4E7
100
AcDbEntity
  8
0
  6
CONTINUOUS
 62
               4
100
AcDbLine
 10
-50.143268014491809
 20
5.3583295715032051
 30
0.0
 11
-50.143268014491809
 21
27.858329571503205
 31
0.0
  0
ARC
  5
4E8
100
AcDbEntity
  8
0
  6
CONTINUOUS
 62
               4
100
AcDbCircle
 10
-50.64297116662766
 20
27.358626419367383
 30
0.0
 40
0.4997032403068001
100
AcDbArc
 50
359.96596353714716
 51
90.034036462852569
  0
ARC
  5
4E9
100
AcDbEntity
  8
0
  6
CONTINUOUS
 62
               4
100
AcDbCircle
 10
-59.642970990285733
 20
27.3580325472971
 30
0.0
 40
0.5002971123771115
100
AcDbArc
 50
90.034016255545509
 51
179.96598374445352
  0
LINE
  5
4EA
100
AcDbEntity
  8
0
  6
CONTINUOUS
 62
               4
100
AcDbLine
 10
-52.723268014491794
 20
8.9563295715031899
 30
0.0
 11
-57.553268014491778
 21
8.9563295715031899
 31
0.0
  0
LINE
  5
4EB
100
AcDbEntity
  8
0
  6
CONTINUOUS
 62
               4
100
AcDbLine
 10
-52.423268014491782
 20
9.2563295715031728
 30
0.0
 11
-57.853268014491789
 21
9.2563295715031728
 31
0.0
  0
LINE
  5
4EC
100
AcDbEntity
  8
0
  6
CONTINUOUS
 62
               4
100
AcDbLine
 10
-52.393268014491809
 20
8.2563295715031728
 30
0.0
 11
-57.893268014491753
 21
8.2563295715031728
 31
0.0
  0
LINE
  5
4ED
100
AcDbEntity
  8
0
  6
CONTINUOUS
 62
               4
100
AcDbLine
 10
-52.393268014491809
 20
7.2563295715031728
 30
0.0
 11
-57.893268014491753
 21
7.2563295715031728
 31
0.0
  0
LINE
  5
4EE
100
AcDbEntity
  8
0
  6
CONTINUOUS
 62
               4
100
AcDbLine
 10
-52.393268014491809
 20
6.2563295715031728
 30
0.0
 11
-57.893268014491753
 21
6.2563295715031728
 31
0.0
  0
CIRCLE
  5
4EF
100
AcDbEntity
  8
0
  6
CONTINUOUS
 62
               4
100
AcDbCircle
 10
-53.893268014491809
 20
10.756344830292235
 30
0.0
 40
0.8499675393104554
  0
LINE
  5
4F0
100
AcDbEntity
  8
0
  6
CONTINUOUS
 62
               4
100
AcDbLine
 10
-52.943268014491821
 20
9.6063295715031671
 30
0.0
 11
-54.843268014491798
 21
9.6063295715031671
 31
0.0
  0
LINE
  5
4F1
100
AcDbEntity
  8
0
  6
CONTINUOUS
 62
               4
100
AcDbLine
 10
-52.943268014491821
 20
9.8063295715031842
 30
0.0
 11
-54.843268014491798
 21
9.8063295715031842
 31
0.0
  0
ARC
  5
4F2
100
AcDbEntity
  8
0
  6
CONTINUOUS
 62
               4
100
AcDbCircle
 10
-50.643278695665117
 20
8.8563402526764747
 30
0.0
 40
0.5000106812873828
100
AcDbArc
 50
270.00122394615289
 51
359.99877605384523
  0
LINE
  5
4F3
100
AcDbEntity
  8
0
  6
CONTINUOUS
 62
               4
100
AcDbLine
 10
-52.943268014491821
 20
9.6063295715031671
 30
0.0
 11
-52.943268014491821
 21
11.70632957150319
 31
0.0
  0
LINE
  5
4F4
100
AcDbEntity
  8
0
  6
CONTINUOUS
 62
               4
100
AcDbLine
 10
-51.393268014491809
 20
11.756329571503173
 30
0.0
 11
-51.393268014491809
 21
9.9563295715031899
 31
0.0
  0
LINE
  5
4F5
100
AcDbEntity
  8
0
  6
CONTINUOUS
 62
               4
100
AcDbLine
 10
-51.293268014491787
 20
9.8563295715031671
 30
0.0
 11
-51.293268014491787
 21
11.856329571503167
 31
0.0
  0
LINE
  5
4F6
100
AcDbEntity
  8
0
  6
CONTINUOUS
 62
               4
100
AcDbLine
 10
-50.643268014491809
 20
8.3563295715031671
 30
0.0
 11
-52.393268014491809
 21
8.3563295715031671
 31
0.0
  0
LINE
  5
4F7
100
AcDbEntity
  8
0
  6
CONTINUOUS
 62
               4
100
AcDbLine
 10
-52.293268014491787
 20
8.3563295715031671
 30
0.0
 11
-52.293268014491787
 21
9.8563295715031671
 31
0.0
  0
LINE
  5
4F8
100
AcDbEntity
  8
0
  6
CONTINUOUS
 62
               4
100
AcDbLine
 10
-52.393268014491809
 20
9.2963295715031649
 30
0.0
 11
-52.723268014491794
 21
8.9563295715031899
 31
0.0
  0
LINE
  5
4F9
100
AcDbEntity
  8
0
  6
CONTINUOUS
 62
               4
100
AcDbLine
 10
-51.293268014491787
 20
9.8563295715031671
 30
0.0
 11
-52.293268014491787
 21
9.8563295715031671
 31
0.0
  0
LINE
  5
4FA
100
AcDbEntity
  8
0
  6
CONTINUOUS
 62
               4
100
AcDbLine
 10
-51.393268014491809
 20
9.9563295715031899
 30
0.0
 11
-52.393268014491809
 21
9.9563295715031899
 31
0.0
  0
LINE
  5
4FB
100
AcDbEntity
  8
0
  6
CONTINUOUS
 62
               4
100
AcDbLine
 10
-52.393268014491809
 20
6.2563295715031728
 30
0.0
 11
-52.393268014491809
 21
9.9563295715031899
 31
0.0
  0
LINE
  5
4FC
100
AcDbEntity
  8
0
  6
PHANTOM
 62
             200
100
AcDbLine
 10
-53.643268014491809
 20
20.35632957150321
 30
0.0
 11
-56.643268014491866
 21
20.35632957150321
 31
0.0
  0
LINE
  5
4FD
100
AcDbEntity
  8
0
  6
PHANTOM
 62
             200
100
AcDbLine
 10
-53.643268014491809
 20
22.35632957150321
 30
0.0
 11
-56.643268014491866
 21
22.35632957150321
 31
0.0
  0
LINE
  5
4FE
100
AcDbEntity
  8
0
  6
PHANTOM
 62
             200
100
AcDbLine
 10
-53.643268014491809
 20
20.35632957150321
 30
0.0
 11
-53.643268014491809
 21
22.35632957150321
 31
0.0
  0
LINE
  5
4FF
100
AcDbEntity
  8
0
  6
CONTINUOUS
 62
               4
100
AcDbLine
 10
-52.293268014491787
 20
13.356329571503167
 30
0.0
 11
-57.993268014491775
 21
13.356329571503167
 31
0.0
  0
LINE
  5
500
100
AcDbEntity
  8
0
  6
CONTINUOUS
 62
               4
100
AcDbLine
 10
-52.393268014491809
 20
13.256329571503173
 30
0.0
 11
-57.893268014491753
 21
13.256329571503173
 31
0.0
  0
LINE
  5
501
100
AcDbEntity
  8
0
  6
CONTINUOUS
 62
               4
100
AcDbLine
 10
-54.393268014491809
 20
11.70632957150319
 30
0.0
 11
-54.393268014491809
 21
12.006329571503173
 31
0.0
  0
LINE
  5
502
100
AcDbEntity
  8
0
  6
CONTINUOUS
 62
               4
100
AcDbLine
 10
-54.843268014491798
 20
9.6063295715031671
 30
0.0
 11
-54.843268014491798
 21
11.70632957150319
 31
0.0
  0
LINE
  5
503
100
AcDbEntity
  8
0
  6
CONTINUOUS
 62
               4
100
AcDbLine
 10
-52.393268014491809
 20
11.756329571503173
 30
0.0
 11
-52.393268014491809
 21
13.256329571503173
 31
0.0
  0
LINE
  5
504
100
AcDbEntity
  8
0
  6
CONTINUOUS
 62
               4
100
AcDbLine
 10
-53.393268014491809
 20
11.70632957150319
 30
0.0
 11
-53.393268014491809
 21
12.006329571503173
 31
0.0
  0
LINE
  5
505
100
AcDbEntity
  8
0
  6
CONTINUOUS
 62
               4
100
AcDbLine
 10
-52.293268014491787
 20
11.856329571503167
 30
0.0
 11
-52.293268014491787
 21
13.356329571503167
 31
0.0
  0
LINE
  5
506
100
AcDbEntity
  8
0
  6
CONTINUOUS
 62
               4
100
AcDbLine
 10
-51.293268014491787
 20
11.856329571503167
 30
0.0
 11
-52.293268014491787
 21
11.856329571503167
 31
0.0
  0
LINE
  5
507
100
AcDbEntity
  8
0
  6
CONTINUOUS
 62
               4
100
AcDbLine
 10
-51.393268014491809
 20
11.756329571503173
 30
0.0
 11
-52.393268014491809
 21
11.756329571503173
 31
0.0
  0
LINE
  5
508
100
AcDbEntity
  8
0
  6
CONTINUOUS
 62
               4
100
AcDbLine
 10
-53.393268014491809
 20
12.006329571503173
 30
0.0
 11
-54.393268014491809
 21
12.006329571503173
 31
0.0
  0
LINE
  5
509
100
AcDbEntity
  8
0
  6
CONTINUOUS
 62
               4
100
AcDbLine
 10
-52.943268014491821
 20
11.70632957150319
 30
0.0
 11
-54.843268014491798
 21
11.70632957150319
 31
0.0
  0
LINE
  5
50A
100
AcDbEntity
  8
0
  6
CONTINUOUS
 62
               4
100
AcDbLine
 10
-57.893268014491753
 20
6.2563295715031728
 30
0.0
 11
-57.893268014491753
 21
9.9563295715031899
 31
0.0
  0
LINE
  5
50B
100
AcDbEntity
  8
0
  6
CONTINUOUS
 62
               4
100
AcDbLine
 10
-57.993268014491775
 20
11.856329571503167
 30
0.0
 11
-57.993268014491775
 21
13.356329571503167
 31
0.0
  0
LINE
  5
50C
100
AcDbEntity
  8
0
  6
CONTINUOUS
 62
               4
100
AcDbLine
 10
-57.993268014491775
 20
8.3563295715031671
 30
0.0
 11
-57.993268014491775
 21
9.8563295715031671
 31
0.0
  0
LINE
  5
50D
100
AcDbEntity
  8
0
  6
CONTINUOUS
 62
               4
100
AcDbLine
 10
-55.893268014491753
 20
11.70632957150319
 30
0.0
 11
-55.893268014491753
 21
12.006329571503173
 31
0.0
  0
LINE
  5
50E
100
AcDbEntity
  8
0
  6
CONTINUOUS
 62
               4
100
AcDbLine
 10
-55.443268014491821
 20
9.6063295715031671
 30
0.0
 11
-55.443268014491821
 21
11.70632957150319
 31
0.0
  0
LINE
  5
50F
100
AcDbEntity
  8
0
  6
CONTINUOUS
 62
               4
100
AcDbLine
 10
-58.893268014491753
 20
11.756329571503173
 30
0.0
 11
-58.893268014491753
 21
9.9563295715031899
 31
0.0
  0
LINE
  5
510
100
AcDbEntity
  8
0
  6
CONTINUOUS
 62
               4
100
AcDbLine
 10
-58.993268014491775
 20
9.8563295715031671
 30
0.0
 11
-58.993268014491775
 21
11.856329571503167
 31
0.0
  0
LINE
  5
511
100
AcDbEntity
  8
0
  6
CONTINUOUS
 62
               4
100
AcDbLine
 10
-57.893268014491753
 20
9.9563295715031899
 30
0.0
 11
-58.893268014491753
 21
9.9563295715031899
 31
0.0
  0
LINE
  5
512
100
AcDbEntity
  8
0
  6
CONTINUOUS
 62
               4
100
AcDbLine
 10
-57.993268014491775
 20
9.8563295715031671
 30
0.0
 11
-58.993268014491775
 21
9.8563295715031671
 31
0.0
  0
LINE
  5
513
100
AcDbEntity
  8
0
  6
CONTINUOUS
 62
               4
100
AcDbLine
 10
-57.993268014491775
 20
11.856329571503167
 30
0.0
 11
-58.993268014491775
 21
11.856329571503167
 31
0.0
  0
LINE
  5
514
100
AcDbEntity
  8
0
  6
CONTINUOUS
 62
               4
100
AcDbLine
 10
-57.893268014491753
 20
11.756329571503173
 30
0.0
 11
-58.893268014491753
 21
11.756329571503173
 31
0.0
  0
LINE
  5
515
100
AcDbEntity
  8
0
  6
CONTINUOUS
 62
               4
100
AcDbLine
 10
-57.893268014491753
 20
11.756329571503173
 30
0.0
 11
-57.893268014491753
 21
13.256329571503173
 31
0.0
  0
LINE
  5
516
100
AcDbEntity
  8
0
  6
CONTINUOUS
 62
               4
100
AcDbLine
 10
-56.893268014491753
 20
11.70632957150319
 30
0.0
 11
-56.893268014491753
 21
12.006329571503173
 31
0.0
  0
LINE
  5
517
100
AcDbEntity
  8
0
  6
CONTINUOUS
 62
               4
100
AcDbLine
 10
-57.853268014491789
 20
9.2563295715031728
 30
0.0
 11
-57.553268014491778
 21
8.9563295715031899
 31
0.0
  0
LINE
  5
518
100
AcDbEntity
  8
0
  6
CONTINUOUS
 62
               4
100
AcDbLine
 10
-57.343268014491798
 20
9.6063295715031671
 30
0.0
 11
-57.343268014491798
 21
11.70632957150319
 31
0.0
  0
LINE
  5
519
100
AcDbEntity
  8
0
  6
CONTINUOUS
 62
               4
100
AcDbLine
 10
-55.893268014491753
 20
12.006329571503173
 30
0.0
 11
-56.893268014491753
 21
12.006329571503173
 31
0.0
  0
LINE
  5
51A
100
AcDbEntity
  8
0
  6
CONTINUOUS
 62
               4
100
AcDbLine
 10
-55.443268014491821
 20
9.8063295715031842
 30
0.0
 11
-57.343268014491798
 21
9.8063295715031842
 31
0.0
  0
LINE
  5
51B
100
AcDbEntity
  8
0
  6
CONTINUOUS
 62
               4
100
AcDbLine
 10
-55.443268014491821
 20
11.70632957150319
 30
0.0
 11
-57.343268014491798
 21
11.70632957150319
 31
0.0
  0
LINE
  5
51C
100
AcDbEntity
  8
0
  6
CONTINUOUS
 62
               4
100
AcDbLine
 10
-55.443268014491821
 20
9.6063295715031671
 30
0.0
 11
-57.343268014491798
 21
9.6063295715031671
 31
0.0
  0
CIRCLE
  5
51D
100
AcDbEntity
  8
0
  6
CONTINUOUS
 62
               4
100
AcDbCircle
 10
-56.393268014491753
 20
10.756344830292235
 30
0.0
 40
0.8499675393104554
  0
ARC
  5
51E
100
AcDbEntity
  8
0
  6
CONTINUOUS
 62
               4
100
AcDbCircle
 10
-59.643272592014398
 20
8.8563249939805502
 30
0.0
 40
0.4999954224983215
100
AcDbArc
 50
179.99947544974265
 51
270.00052455025656
  0
LINE
  5
51F
100
AcDbEntity
  8
0
  6
CONTINUOUS
 62
               4
100
AcDbLine
 10
-57.893268014491753
 20
8.3563295715031671
 30
0.0
 11
-59.643268014491753
 21
8.3563295715031671
 31
0.0
  0
LINE
  5
520
100
AcDbEntity
  8
0
  6
PHANTOM
 62
             200
100
AcDbLine
 10
-56.643268014491866
 20
20.35632957150321
 30
0.0
 11
-56.643268014491866
 21
22.35632957150321
 31
0.0
  0
LINE
  5
521
100
AcDbEntity
  8
0
  6
CONTINUOUS
 62
               7
100
AcDbLine
 10
-60.193268014491821
 20
27.858329571503205
 30
0.0
 11
-50.093268014491969
 21
27.858329571503177
 31
0.0
  0
LINE
  5
522
100
AcDbEntity
  8
0
  6
CONTINUOUS
 62
               7
100
AcDbLine
 10
-61.143268014491838
 20
41.358329580041939
 30
0.0
 11
-49.143268014491895
 21
41.358329580041953
 31
0.0
  0
LINE
  5
523
100
AcDbEntity
  8
0
  6
CENTER
 62
               2
100
AcDbLine
 10
-56.443268014491906
 20
66.658329583594011
 30
0.0
 11
-49.443268014491906
 21
66.658329583594011
 31
0.0
  0
CIRCLE
  5
524
100
AcDbEntity
  8
0
  6
CONTINUOUS
 62
               7
100
AcDbCircle
 10
-52.943268014491935
 20
66.658329583594011
 30
0.0
 40
2.0999999999999996
  0
CIRCLE
  5
525
100
AcDbEntity
  8
0
  6
CONTINUOUS
 62
               2
100
AcDbCircle
 10
-52.943268014491935
 20
66.658329583594011
 30
0.0
 40
2.5
  0
LINE
  5
526
100
AcDbEntity
  8
0
  6
CENTER
 62
               2
100
AcDbLine
 10
-60.843268014491855
 20
55.058329583594002
 30
0.0
 11
-53.843268014491855
 21
55.058329583594016
 31
0.0
  0
CIRCLE
  5
527
100
AcDbEntity
  8
0
  6
CONTINUOUS
 62
               7
100
AcDbCircle
 10
-57.343268014491855
 20
55.058329583594016
 30
0.0
 40
2.0999999999999996
  0
CIRCLE
  5
528
100
AcDbEntity
  8
0
  6
CONTINUOUS
 62
               2
100
AcDbCircle
 10
-57.343268014491855
 20
55.058329583594016
 30
0.0
 40
2.5
  0
LINE
  5
529
100
AcDbEntity
  8
0
  6
CENTER
 62
               2
100
AcDbLine
 10
-57.343268014491855
 20
58.558329583594009
 30
0.0
 11
-57.343268014491855
 21
51.558329583594009
 31
0.0
  0
LINE
  5
52A
100
AcDbEntity
  8
0
  6
CENTER
 62
               2
100
AcDbLine
 10
-52.943268014491935
 20
70.158329583594011
 30
0.0
 11
-52.943268014491878
 21
63.158329583594004
 31
0.0
  0
LINE
  5
52B
100
AcDbEntity
  8
0
  6
CONTINUOUS
 62
               7
100
AcDbLine
 10
-61.143268014491838
 20
27.658329571503188
 30
0.0
 11
-61.143268014491838
 21
94.058329580041956
 31
0.0
  0
LINE
  5
52C
100
AcDbEntity
  8
0
  6
CONTINUOUS
 62
               7
100
AcDbLine
 10
-49.143268014491895
 20
27.658329571503245
 30
0.0
 11
-49.143268014491838
 21
94.058329580041956
 31
0.0
  0
LINE
  5
52D
100
AcDbEntity
  8
0
  6
CENTER
 62
               2
100
AcDbLine
 10
-55.143268014491866
 20
118.25832927486621
 30
0.0
 11
-55.143268014491866
 21
3.5254557385159302
 31
0.0
  0
LINE
  5
52E
100
AcDbEntity
  8
0
  6
CONTINUOUS
 62
               7
100
AcDbLine
 10
-60.193268014491821
 20
93.858329580041939
 30
0.0
 11
-50.093268014491855
 21
93.858329580041953
 31
0.0
  0
LINE
  5
52F
100
AcDbEntity
  8
0
  6
PHANTOM
 62
             200
100
AcDbLine
 10
-53.643268014491866
 20
101.36032958004193
 30
0.0
 11
-53.643268014491866
 21
99.360329580041935
 31
0.0
  0
LINE
  5
530
100
AcDbEntity
  8
0
  6
CONTINUOUS
 62
               4
100
AcDbLine
 10
-52.393268014491866
 20
113.36032958004198
 30
0.0
 11
-50.643268014491866
 21
113.36032958004198
 31
0.0
  0
ARC
  5
531
100
AcDbEntity
  8
0
  6
CONTINUOUS
 62
               4
100
AcDbCircle
 10
-50.643263436969221
 20
112.86033415756459
 30
0.0
 40
0.4999954224983215
100
AcDbArc
 50
359.99947544974214
 51
90.000524550256856
  0
CIRCLE
  5
532
100
AcDbEntity
  8
0
  6
CONTINUOUS
 62
               4
100
AcDbCircle
 10
-53.893268014491866
 20
110.96031432125291
 30
0.0
 40
0.8499675393104554
  0
LINE
  5
533
100
AcDbEntity
  8
0
  6
CONTINUOUS
 62
               4
100
AcDbLine
 10
-54.843268014491798
 20
112.11032958004198
 30
0.0
 11
-52.943268014491821
 21
112.11032958004198
 31
0.0
  0
LINE
  5
534
100
AcDbEntity
  8
0
  6
CONTINUOUS
 62
               4
100
AcDbLine
 10
-54.843268014491798
 20
110.01032958004195
 30
0.0
 11
-52.943268014491821
 21
110.01032958004195
 31
0.0
  0
LINE
  5
535
100
AcDbEntity
  8
0
  6
CONTINUOUS
 62
               4
100
AcDbLine
 10
-54.843268014491798
 20
111.91032958004196
 30
0.0
 11
-52.943268014491821
 21
111.91032958004196
 31
0.0
  0
LINE
  5
536
100
AcDbEntity
  8
0
  6
CONTINUOUS
 62
               4
100
AcDbLine
 10
-54.393268014491866
 20
109.71032958004197
 30
0.0
 11
-53.393268014491866
 21
109.71032958004197
 31
0.0
  0
LINE
  5
537
100
AcDbEntity
  8
0
  6
CONTINUOUS
 62
               4
100
AcDbLine
 10
-52.943268014491821
 20
112.11032958004198
 30
0.0
 11
-52.943268014491821
 21
110.01032958004195
 31
0.0
  0
LINE
  5
538
100
AcDbEntity
  8
0
  6
CONTINUOUS
 62
               4
100
AcDbLine
 10
-52.43326801449183
 20
112.46032958004197
 30
0.0
 11
-52.733268014491841
 21
112.76032958004195
 31
0.0
  0
LINE
  5
539
100
AcDbEntity
  8
0
  6
CONTINUOUS
 62
               4
100
AcDbLine
 10
-53.393268014491866
 20
110.01032958004195
 30
0.0
 11
-53.393268014491866
 21
109.71032958004197
 31
0.0
  0
LINE
  5
53A
100
AcDbEntity
  8
0
  6
CONTINUOUS
 62
               4
100
AcDbLine
 10
-52.393268014491866
 20
109.96032958004196
 30
0.0
 11
-52.393268014491866
 21
108.46032958004196
 31
0.0
  0
LINE
  5
53B
100
AcDbEntity
  8
0
  6
CONTINUOUS
 62
               4
100
AcDbLine
 10
-52.393268014491866
 20
109.96032958004196
 30
0.0
 11
-51.393268014491866
 21
109.96032958004196
 31
0.0
  0
LINE
  5
53C
100
AcDbEntity
  8
0
  6
CONTINUOUS
 62
               4
100
AcDbLine
 10
-52.293268014491844
 20
109.86032958004196
 30
0.0
 11
-51.293268014491844
 21
109.86032958004196
 31
0.0
  0
LINE
  5
53D
100
AcDbEntity
  8
0
  6
CONTINUOUS
 62
               4
100
AcDbLine
 10
-52.293268014491844
 20
111.86032958004198
 30
0.0
 11
-51.293268014491844
 21
111.86032958004198
 31
0.0
  0
LINE
  5
53E
100
AcDbEntity
  8
0
  6
CONTINUOUS
 62
               4
100
AcDbLine
 10
-52.393268014491866
 20
111.76032958004195
 30
0.0
 11
-51.393268014491866
 21
111.76032958004195
 31
0.0
  0
LINE
  5
53F
100
AcDbEntity
  8
0
  6
CONTINUOUS
 62
               4
100
AcDbLine
 10
-51.293268014491844
 20
111.86032958004198
 30
0.0
 11
-51.293268014491844
 21
109.86032958004196
 31
0.0
  0
LINE
  5
540
100
AcDbEntity
  8
0
  6
CONTINUOUS
 62
               4
100
AcDbLine
 10
-51.393268014491866
 20
109.96032958004196
 30
0.0
 11
-51.393268014491866
 21
111.76032958004195
 31
0.0
  0
LINE
  5
541
100
AcDbEntity
  8
0
  6
CONTINUOUS
 62
               4
100
AcDbLine
 10
-54.843268014491798
 20
112.11032958004198
 30
0.0
 11
-54.843268014491798
 21
110.01032958004195
 31
0.0
  0
LINE
  5
542
100
AcDbEntity
  8
0
  6
CONTINUOUS
 62
               4
100
AcDbLine
 10
-54.393268014491866
 20
110.01032958004195
 30
0.0
 11
-54.393268014491866
 21
109.71032958004197
 31
0.0
  0
LINE
  5
543
100
AcDbEntity
  8
0
  6
CONTINUOUS
 62
               4
100
AcDbLine
 10
-52.293268014491844
 20
113.36032958004198
 30
0.0
 11
-52.293268014491844
 21
111.86032958004198
 31
0.0
  0
LINE
  5
544
100
AcDbEntity
  8
0
  6
CONTINUOUS
 62
               4
100
AcDbLine
 10
-52.293268014491844
 20
109.86032958004196
 30
0.0
 11
-52.293268014491844
 21
108.36032958004196
 31
0.0
  0
LINE
  5
545
100
AcDbEntity
  8
0
  6
CONTINUOUS
 62
               4
100
AcDbLine
 10
-52.393268014491866
 20
115.46032958004197
 30
0.0
 11
-52.393268014491866
 21
111.76032958004195
 31
0.0
  0
LINE
  5
546
100
AcDbEntity
  8
0
  6
CONTINUOUS
 62
               4
100
AcDbLine
 10
-57.343268014491798
 20
110.01032958004195
 30
0.0
 11
-55.443268014491821
 21
110.01032958004195
 31
0.0
  0
LINE
  5
547
100
AcDbEntity
  8
0
  6
CONTINUOUS
 62
               4
100
AcDbLine
 10
-56.893268014491809
 20
109.71032958004197
 30
0.0
 11
-55.893268014491809
 21
109.71032958004197
 31
0.0
  0
LINE
  5
548
100
AcDbEntity
  8
0
  6
CONTINUOUS
 62
               4
100
AcDbLine
 10
-58.893268014491809
 20
109.96032958004197
 30
0.0
 11
-57.893268014491809
 21
109.96032958004197
 31
0.0
  0
LINE
  5
549
100
AcDbEntity
  8
0
  6
CONTINUOUS
 62
               4
100
AcDbLine
 10
-58.993268014491832
 20
109.86032958004198
 30
0.0
 11
-57.993268014491832
 21
109.86032958004198
 31
0.0
  0
LINE
  5
54A
100
AcDbEntity
  8
0
  6
CONTINUOUS
 62
               4
100
AcDbLine
 10
-57.993268014491832
 20
109.86032958004198
 30
0.0
 11
-57.993268014491832
 21
108.36032958004198
 31
0.0
  0
LINE
  5
54B
100
AcDbEntity
  8
0
  6
CONTINUOUS
 62
               4
100
AcDbLine
 10
-56.893268014491809
 20
110.01032958004195
 30
0.0
 11
-56.893268014491809
 21
109.71032958004197
 31
0.0
  0
LINE
  5
54C
100
AcDbEntity
  8
0
  6
CONTINUOUS
 62
               4
100
AcDbLine
 10
-57.893268014491809
 20
109.96032958004197
 30
0.0
 11
-57.893268014491809
 21
108.46032958004197
 31
0.0
  0
LINE
  5
54D
100
AcDbEntity
  8
0
  6
CONTINUOUS
 62
               4
100
AcDbLine
 10
-55.443268014491821
 20
112.11032958004198
 30
0.0
 11
-55.443268014491821
 21
110.01032958004195
 31
0.0
  0
LINE
  5
54E
100
AcDbEntity
  8
0
  6
CONTINUOUS
 62
               4
100
AcDbLine
 10
-55.893268014491809
 20
110.01032958004195
 30
0.0
 11
-55.893268014491809
 21
109.71032958004197
 31
0.0
  0
LINE
  5
54F
100
AcDbEntity
  8
0
  6
CONTINUOUS
 62
               4
100
AcDbLine
 10
-57.893268014491809
 20
108.46032958004197
 30
0.0
 11
-52.393268014491866
 21
108.46032958004196
 31
0.0
  0
LINE
  5
550
100
AcDbEntity
  8
0
  6
CONTINUOUS
 62
               4
100
AcDbLine
 10
-57.993268014491832
 20
108.36032958004198
 30
0.0
 11
-52.293268014491844
 21
108.36032958004196
 31
0.0
  0
LINE
  5
551
100
AcDbEntity
  8
0
  6
PHANTOM
 62
             200
100
AcDbLine
 10
-56.643268014491809
 20
101.36032958004193
 30
0.0
 11
-56.643268014491809
 21
99.360329580041935
 31
0.0
  0
LINE
  5
552
100
AcDbEntity
  8
0
  6
PHANTOM
 62
             200
100
AcDbLine
 10
-56.643268014491809
 20
99.360329580041935
 30
0.0
 11
-53.643268014491866
 21
99.360329580041935
 31
0.0
  0
LINE
  5
553
100
AcDbEntity
  8
0
  6
PHANTOM
 62
             200
100
AcDbLine
 10
-56.643268014491809
 20
101.36032958004193
 30
0.0
 11
-53.643268014491866
 21
101.36032958004193
 31
0.0
  0
LINE
  5
554
100
AcDbEntity
  8
0
  6
CONTINUOUS
 62
               4
100
AcDbLine
 10
-57.893268014491809
 20
115.46032958004197
 30
0.0
 11
-57.893268014491809
 21
111.76032958004195
 31
0.0
  0
LINE
  5
555
100
AcDbEntity
  8
0
  6
CONTINUOUS
 62
               4
100
AcDbLine
 10
-58.893268014491809
 20
111.76032958004195
 30
0.0
 11
-57.893268014491809
 21
111.76032958004195
 31
0.0
  0
LINE
  5
556
100
AcDbEntity
  8
0
  6
CONTINUOUS
 62
               4
100
AcDbLine
 10
-58.993268014491832
 20
111.86032958004198
 30
0.0
 11
-57.993268014491832
 21
111.86032958004198
 31
0.0
  0
LINE
  5
557
100
AcDbEntity
  8
0
  6
CONTINUOUS
 62
               4
100
AcDbLine
 10
-57.893268014491809
 20
112.42032958004198
 30
0.0
 11
-57.563268014491825
 21
112.76032958004195
 31
0.0
  0
LINE
  5
558
100
AcDbEntity
  8
0
  6
CONTINUOUS
 62
               4
100
AcDbLine
 10
-57.993268014491832
 20
113.36032958004198
 30
0.0
 11
-57.993268014491832
 21
111.86032958004198
 31
0.0
  0
LINE
  5
559
100
AcDbEntity
  8
0
  6
CONTINUOUS
 62
               4
100
AcDbLine
 10
-59.643268014491809
 20
113.36032958004198
 30
0.0
 11
-57.893268014491809
 21
113.36032958004198
 31
0.0
  0
LINE
  5
55A
100
AcDbEntity
  8
0
  6
CONTINUOUS
 62
               4
100
AcDbLine
 10
-58.993268014491832
 20
111.86032958004198
 30
0.0
 11
-58.993268014491832
 21
109.86032958004198
 31
0.0
  0
LINE
  5
55B
100
AcDbEntity
  8
0
  6
CONTINUOUS
 62
               4
100
AcDbLine
 10
-58.893268014491809
 20
109.96032958004197
 30
0.0
 11
-58.893268014491809
 21
111.76032958004195
 31
0.0
  0
LINE
  5
55C
100
AcDbEntity
  8
0
  6
CONTINUOUS
 62
               4
100
AcDbLine
 10
-57.343268014491798
 20
112.11032958004198
 30
0.0
 11
-57.343268014491798
 21
110.01032958004195
 31
0.0
  0
ARC
  5
55D
100
AcDbEntity
  8
0
  6
CONTINUOUS
 62
               4
100
AcDbCircle
 10
-59.643257333318502
 20
112.86031889886867
 30
0.0
 40
0.5000106812873828
100
AcDbArc
 50
90.001223946153218
 51
179.99877605384546
  0
LINE
  5
55E
100
AcDbEntity
  8
0
  6
CONTINUOUS
 62
               4
100
AcDbLine
 10
-57.343268014491798
 20
111.91032958004196
 30
0.0
 11
-55.443268014491821
 21
111.91032958004196
 31
0.0
  0
LINE
  5
55F
100
AcDbEntity
  8
0
  6
CONTINUOUS
 62
               4
100
AcDbLine
 10
-57.343268014491798
 20
112.11032958004198
 30
0.0
 11
-55.443268014491821
 21
112.11032958004198
 31
0.0
  0
CIRCLE
  5
560
100
AcDbEntity
  8
0
  6
CONTINUOUS
 62
               4
100
AcDbCircle
 10
-56.393268014491809
 20
110.96031432125291
 30
0.0
 40
0.8499675393104554
  0
LINE
  5
561
100
AcDbEntity
  8
0
  6
CONTINUOUS
 62
               4
100
AcDbLine
 10
-57.893268014491809
 20
115.46032958004197
 30
0.0
 11
-52.393268014491866
 21
115.46032958004197
 31
0.0
  0
LINE
  5
562
100
AcDbEntity
  8
0
  6
CONTINUOUS
 62
               4
100
AcDbLine
 10
-57.893268014491809
 20
114.46032958004197
 30
0.0
 11
-52.393268014491866
 21
114.46032958004197
 31
0.0
  0
LINE
  5
563
100
AcDbEntity
  8
0
  6
CONTINUOUS
 62
               4
100
AcDbLine
 10
-57.893268014491809
 20
113.46032958004197
 30
0.0
 11
-52.393268014491866
 21
113.46032958004197
 31
0.0
  0
LINE
  5
564
100
AcDbEntity
  8
0
  6
CONTINUOUS
 62
               4
100
AcDbLine
 10
-57.863268014491837
 20
112.46032958004197
 30
0.0
 11
-52.43326801449183
 21
112.46032958004197
 31
0.0
  0
LINE
  5
565
100
AcDbEntity
  8
0
  6
CONTINUOUS
 62
               4
100
AcDbLine
 10
-57.563268014491825
 20
112.76032958004195
 30
0.0
 11
-52.733268014491841
 21
112.76032958004195
 31
0.0
  0
ARC
  5
566
100
AcDbEntity
  8
0
  6
CONTINUOUS
 62
               4
100
AcDbCircle
 10
-59.642970990285733
 20
94.358626604248045
 30
0.0
 40
0.5002971123771115
100
AcDbArc
 50
180.03401625554557
 51
269.96598374445358
  0
ARC
  5
567
100
AcDbEntity
  8
0
  6
CONTINUOUS
 62
               4
100
AcDbCircle
 10
-50.64297116662766
 20
94.358032732177747
 30
0.0
 40
0.4997032403068001
100
AcDbArc
 50
269.96596353714654
 51
0.0340364628527164
  0
LINE
  5
568
100
AcDbEntity
  8
0
  6
CONTINUOUS
 62
               4
100
AcDbLine
 10
-60.143268014491809
 20
116.35832958004194
 30
0.0
 11
-60.143268014491809
 21
93.858329580041939
 31
0.0
  0
LINE
  5
569
100
AcDbEntity
  8
0
  6
CONTINUOUS
 62
               4
100
AcDbLine
 10
-50.143268014491866
 20
116.35832958004194
 30
0.0
 11
-50.143268014491866
 21
93.858329580041953
 31
0.0
  0
ARC
  5
56A
100
AcDbEntity
  8
0
  6
CONTINUOUS
 62
               4
100
AcDbCircle
 10
-52.740356019728836
 20
115.75941758527897
 30
0.0
 40
0.5989129830170392
100
AcDbArc
 50
89.895914524772778
 51
180.10408547522673
  0
ARC
  5
56B
100
AcDbEntity
  8
0
  6
CONTINUOUS
 62
               4
100
AcDbCircle
 10
-50.939172867833634
 20
115.75842472670011
 30
0.0
 40
0.5999048608870732
100
AcDbArc
 50
359.99091272245295
 51
90.009087277546172
  0
LINE
  5
56C
100
AcDbEntity
  8
0
  6
CONTINUOUS
 62
               4
100
AcDbLine
 10
-50.143268014491866
 20
115.75832958004194
 30
0.0
 11
-53.343268014491798
 21
115.75832958004194
 31
0.0
  0
ARC
  5
56D
100
AcDbEntity
  8
0
  6
CONTINUOUS
 62
               4
100
AcDbCircle
 10
-59.643268014491809
 20
115.75632958004196
 30
0.0
 40
0.5
100
AcDbArc
 50
89.999999999999815
 51
179.99999999999963
  0
LINE
  5
56E
100
AcDbEntity
  8
0
  6
CONTINUOUS
 62
               4
100
AcDbLine
 10
-53.343268014491855
 20
116.25632958004196
 30
0.0
 11
-53.343268014491855
 21
115.46032958004197
 31
0.0
  0
LINE
  5
56F
100
AcDbEntity
  8
0
  6
CONTINUOUS
 62
               4
100
AcDbLine
 10
-53.343268014491855
 20
116.25632958004196
 30
0.0
 11
-59.643268014491809
 21
116.25632958004196
 31
0.0
  0
LINE
  5
570
100
AcDbEntity
  8
0
  6
CONTINUOUS
 62
               4
100
AcDbLine
 10
-50.143268014491866
 20
114.75632958004194
 30
0.0
 11
-52.393268014491866
 21
114.75632958004194
 31
0.0
  0
LINE
  5
571
100
AcDbEntity
  8
0
  6
CONTINUOUS
 62
               4
100
AcDbLine
 10
-50.143268014491866
 20
116.35832958004194
 30
0.0
 11
-60.143268014491809
 21
116.35832958004194
 31
0.0
  0
LINE
  5
572
100
AcDbEntity
  8
0
  6
CONTINUOUS
 62
               7
100
AcDbLine
 10
-50.093268014491855
 20
94.158329580041951
 30
0.0
 11
-49.893268014491866
 21
94.358329580041939
 31
0.0
  0
LINE
  5
573
100
AcDbEntity
  8
0
  6
CONTINUOUS
 62
               7
100
AcDbLine
 10
-60.193268014491821
 20
94.158329580041951
 30
0.0
 11
-60.393268014491866
 21
94.358329580041939
 31
0.0
  0
LINE
  5
574
100
AcDbEntity
  8
0
  6
CONTINUOUS
 62
               7
100
AcDbLine
 10
-60.193268014491821
 20
94.158329580041951
 30
0.0
 11
-60.193268014491821
 21
93.858329580041939
 31
0.0
  0
LINE
  5
575
100
AcDbEntity
  8
0
  6
CONTINUOUS
 62
               7
100
AcDbLine
 10
-50.093268014491855
 20
94.158329580041951
 30
0.0
 11
-50.093268014491855
 21
93.858329580041953
 31
0.0
  0
LINE
  5
576
100
AcDbEntity
  8
0
  6
CONTINUOUS
 62
               7
100
AcDbLine
 10
-49.443268014491849
 20
94.358329580041939
 30
0.0
 11
-49.143268014491838
 21
94.058329580041956
 31
0.0
  0
LINE
  5
577
100
AcDbEntity
  8
0
  6
CONTINUOUS
 62
               7
100
AcDbLine
 10
-60.843268014491827
 20
94.358329580041939
 30
0.0
 11
-61.143268014491838
 21
94.058329580041956
 31
0.0
  0
LINE
  5
578
100
AcDbEntity
  8
0
  6
CONTINUOUS
 62
               7
100
AcDbLine
 10
-60.843268014491827
 20
94.358329580041939
 30
0.0
 11
-60.393268014491866
 21
94.358329580041939
 31
0.0
  0
CIRCLE
  5
579
100
AcDbEntity
  8
0
  6
CONTINUOUS
 62
               7
100
AcDbCircle
 10
-55.143018014491815
 20
91.558329580041942
 30
0.0
 40
1.1500000000000001
  0
LINE
  5
57A
100
AcDbEntity
  8
0
  6
CONTINUOUS
 62
               7
100
AcDbLine
 10
-49.893268014491866
 20
94.358329580041939
 30
0.0
 11
-49.443268014491849
 21
94.358329580041939
 31
0.0
  0
LINE
  5
57B
100
AcDbEntity
  8
0
  6
CENTER
 62
               2
100
AcDbLine
 10
-52.828337878767513
 20
91.558329593628898
 30
0.0
 11
-57.367212167167509
 21
91.558329593628898
 31
0.0
  0
CIRCLE
  5
57C
100
AcDbEntity
  8
0
  6
CONTINUOUS
 62
               7
100
AcDbCircle
 10
-55.143268014491866
 20
91.558329593628898
 30
0.0
 40
1.1000000000000001
  0
CIRCLE
  5
57D
100
AcDbEntity
  8
0
  6
CONTINUOUS
 62
               7
100
AcDbCircle
 10
-55.143268014491866
 20
91.558329593628898
 30
0.0
 40
0.75
  0
CIRCLE
  5
57E
100
AcDbEntity
  8
0
  6
CONTINUOUS
 62
               7
100
AcDbCircle
 10
-55.143268014491866
 20
91.558329593628898
 30
0.0
 40
1.3999999999999997
  0
LINE
  5
57F
100
AcDbEntity
  8
0
  6
CONTINUOUS
 62
               7
100
AcDbLine
 10
-61.043268018043904
 20
80.358329580041939
 30
0.0
 11
-61.143268014491838
 21
80.258329583594005
 31
0.0
  0
LINE
  5
580
100
AcDbEntity
  8
0
  6
CONTINUOUS
 62
               7
100
AcDbLine
 10
-49.143268014491838
 20
80.258329580041973
 30
0.0
 11
-49.243268014491861
 21
80.358329580041968
 31
0.0
  0
LINE
  5
581
100
AcDbEntity
  8
0
  6
CONTINUOUS
 62
               7
100
AcDbLine
 10
-61.143268014491838
 20
80.358329580041939
 30
0.0
 11
-49.143268014491838
 21
80.358329580041968
 31
0.0
  0
LINE
  5
582
100
AcDbEntity
  8
0
  6
CENTER
 62
               2
100
AcDbLine
 10
-58.643268014491923
 20
66.858329568668523
 30
0.0
 11
-65.943268006530076
 21
66.858329568668523
 31
0.0
  0
LINE
  5
583
100
AcDbEntity
  8
0
  6
CENTER
 62
               2
100
AcDbLine
 10
-58.643268014491923
 20
54.858329568668523
 30
0.0
 11
-65.943268006530076
 21
54.858329568668523
 31
0.0
  0
ENDSEC
  0
SECTION
  2
OBJECTS
  0
DICTIONARY
  5
19
100
AcDbDictionary
  3
ACAD_GROUP
350
1A
  3
ACAD_MLINESTYLE
350
1B
  0
DICTIONARY
  5
1A
102
{ACAD_REACTORS
330
19
102
}
100
AcDbDictionary
  0
DICTIONARY
  5
1B
102
{ACAD_REACTORS
330
19
102
}
100
AcDbDictionary
  3
STANDARD
350
1C
  0
MLINESTYLE
  5
1C
102
{ACAD_REACTORS
330
1B
102
}
100
AcDbMlineStyle
  2
Standard
 70
               0
  3

 62
               0
 51
90.0
 52
90.0
 71
               2
 49
0.5
 62
             256
  6
ByLayer
 49
-0.5
 62
             256
  6
ByLayer
  0
ENDSEC
  0
EOF
