  0
SECTION
  2
HEADER
  9
$ACADVER
  1
AC1012
  9
$DWGCODEPAGE
  3
dos932
  9
$INSBASE
 10
0.0
 20
0.0
 30
0.0
  9
$EXTMIN
 10
-281.25
 20
-195.0
 30
0.0
  9
$EXTMAX
 10
285.6319057062413
 20
195.5
 30
0.0
  9
$LIMMIN
 10
-281.25
 20
-195.0
  9
$LIMMAX
 10
285.6319057062413
 20
195.5
  9
$ORTHOMODE
 70
               0
  9
$REGENMODE
 70
               1
  9
$FILLMODE
 70
               1
  9
$QTEXTMODE
 70
               0
  9
$MIRRTEXT
 70
               1
  9
$DRAGMODE
 70
               2
  9
$LTSCALE
 40
1.0
  9
$OSMODE
 70
               0
  9
$ATTMODE
 70
               1
  9
$TEXTSIZE
 40
3.2000000476837158
  9
$TRACEWID
 40
0.05
  9
$TEXTSTYLE
  7
MX_NOTE_STANDARD
  9
$CLAYER
  8
0
  9
$CELTYPE
  6
CONTINUOUS
  9
$CECOLOR
 62
             256
  9
$CELTSCALE
 40
1.0
  9
$DELOBJ
 70
               1
  9
$DISPSILH
 70
               0
  9
$DIMSCALE
 40
1.0
  9
$DIMASZ
 40
2.5
  9
$DIMEXO
 40
1.5
  9
$DIMDLI
 40
3.75
  9
$DIMRND
 40
0.0
  9
$DIMDLE
 40
0.0
  9
$DIMEXE
 40
1.5
  9
$DIMTP
 40
0.0
  9
$DIMTM
 40
0.0
  9
$DIMTXT
 40
3.2000000476837158
  9
$DIMCEN
 40
2.5
  9
$DIMTSZ
 40
0.0
  9
$DIMTOL
 70
               0
  9
$DIMLIM
 70
               0
  9
$DIMTIH
 70
               0
  9
$DIMTOH
 70
               0
  9
$DIMSE1
 70
               0
  9
$DIMSE2
 70
               0
  9
$DIMTAD
 70
               1
  9
$DIMZIN
 70
               8
  9
$DIMBLK
  1

  9
$DIMASO
 70
               1
  9
$DIMSHO
 70
               1
  9
$DIMPOST
  1

  9
$DIMAPOST
  1

  9
$DIMALT
 70
               0
  9
$DIMALTD
 70
               4
  9
$DIMALTF
 40
0.03937007874016
  9
$DIMLFAC
 40
1.0
  9
$DIMTOFL
 70
               1
  9
$DIMTVP
 40
0.0
  9
$DIMTIX
 70
               0
  9
$DIMSOXD
 70
               0
  9
$DIMSAH
 70
               0
  9
$DIMBLK1
  1

  9
$DIMBLK2
  1

  9
$DIMSTYLE
  2
MXDIMSTYLE
  9
$DIMCLRD
 70
               0
  9
$DIMCLRE
 70
               0
  9
$DIMCLRT
 70
               0
  9
$DIMTFAC
 40
1.0
  9
$DIMGAP
 40
1.0
  9
$DIMJUST
 70
               0
  9
$DIMSD1
 70
               0
  9
$DIMSD2
 70
               0
  9
$DIMTOLJ
 70
               1
  9
$DIMTZIN
 70
               0
  9
$DIMALTZ
 70
               0
  9
$DIMALTTZ
 70
               0
  9
$DIMFIT
 70
               3
  9
$DIMUPT
 70
               1
  9
$DIMUNIT
 70
               2
  9
$DIMDEC
 70
               4
  9
$DIMTDEC
 70
               4
  9
$DIMALTU
 70
               2
  9
$DIMALTTD
 70
               4
  9
$DIMTXSTY
  7
MX_NOTE_STANDARD
  9
$DIMAUNIT
 70
               0
  9
$LUNITS
 70
               2
  9
$LUPREC
 70
               4
  9
$SKETCHINC
 40
0.1
  9
$FILLETRAD
 40
0.0
  9
$AUNITS
 70
               0
  9
$AUPREC
 70
               0
  9
$MENU
  1
acad
  9
$ELEVATION
 40
0.0
  9
$PELEVATION
 40
0.0
  9
$THICKNESS
 40
0.0
  9
$LIMCHECK
 70
               0
  9
$BLIPMODE
 70
               1
  9
$CHAMFERA
 40
0.0
  9
$CHAMFERB
 40
0.0
  9
$CHAMFERC
 40
0.0
  9
$CHAMFERD
 40
0.0
  9
$SKPOLY
 70
               0
  9
$TDCREATE
 40
2453378.356608796
  9
$TDUPDATE
 40
2453378.356608796
  9
$TDINDWG
 40
0.0000000000
  9
$TDUSRTIMER
 40
0.0000000000
  9
$USRTIMER
 70
               1
  9
$ANGBASE
 50
0.0
  9
$ANGDIR
 70
               0
  9
$PDMODE
 70
               0
  9
$PDSIZE
 40
0.0
  9
$PLINEWID
 40
0.0
  9
$COORDS
 70
               1
  9
$SPLFRAME
 70
               0
  9
$SPLINETYPE
 70
               6
  9
$SPLINESEGS
 70
               8
  9
$ATTDIA
 70
               0
  9
$ATTREQ
 70
               1
  9
$HANDLING
 70
               1
  9
$HANDSEED
  5
6D3
  9
$SURFTAB1
 70
               6
  9
$SURFTAB2
 70
               6
  9
$SURFTYPE
 70
               6
  9
$SURFU
 70
               6
  9
$SURFV
 70
               6
  9
$UCSNAME
  2

  9
$UCSORG
 10
0.0
 20
0.0
 30
0.0
  9
$UCSXDIR
 10
1.0
 20
0.0
 30
0.0
  9
$UCSYDIR
 10
0.0
 20
1.0
 30
0.0
  9
$PUCSNAME
  2

  9
$PUCSORG
 10
0.0
 20
0.0
 30
0.0
  9
$PUCSXDIR
 10
1.0
 20
0.0
 30
0.0
  9
$PUCSYDIR
 10
0.0
 20
1.0
 30
0.0
  9
$USERI1
 70
               0
  9
$USERI2
 70
               0
  9
$USERI3
 70
               0
  9
$USERI4
 70
               0
  9
$USERI5
 70
               0
  9
$USERR1
 40
0.0
  9
$USERR2
 40
0.0
  9
$USERR3
 40
0.0
  9
$USERR4
 40
0.0
  9
$USERR5
 40
0.0
  9
$WORLDVIEW
 70
               1
  9
$SHADEDGE
 70
               3
  9
$SHADEDIF
 70
              70
  9
$TILEMODE
 70
               1
  9
$MAXACTVP
 70
              16
  9
$PINSBASE
 10
0.0
 20
0.0
 30
0.0
  9
$PLIMCHECK
 70
               0
  9
$PEXTMIN
 10
1.0000000000000000E+20
 20
1.0000000000000000E+20
 30
1.0000000000000000E+20
  9
$PEXTMAX
 10
-1.0000000000000000E+20
 20
-1.0000000000000000E+20
 30
-1.0000000000000000E+20
  9
$PLIMMIN
 10
0.0
 20
0.0
  9
$PLIMMAX
 10
12.0
 20
9.0
  9
$UNITMODE
 70
               0
  9
$VISRETAIN
 70
               0
  9
$PLINEGEN
 70
               1
  9
$PSLTSCALE
 70
               0
  9
$TREEDEPTH
 70
            3020
  9
$PICKSTYLE
 70
               1
  9
$CMLSTYLE
  2
Standard
  9
$CMLJUST
 70
               0
  9
$CMLSCALE
 40
1.0
  9
$SAVEIMAGES
 70
               0
  0
ENDSEC
  0
SECTION
  2
CLASSES
  0
CLASS
  1
LWPOLYLINE
  2
AcDbPolyline
  3
"AutoCAD"
 90
        0
280
               0
281
               1
  0
CLASS
  1
IMAGE
  2
AcDbRasterImage
  3
ISM
 90
      127
280
               0
281
               1
  0
CLASS
  1
OLE2FRAME
  2
AcDbOle2Frame
  3
""
 90
        0
280
               0
281
               1
  0
CLASS
  1
HATCH
  2
AcDbHatch
  3
"ACAD_SEDONA"
 90
        0
280
               0
281
               1
  0
CLASS
  1
DICTIONARYVAR
  2
AcDbDictionaryVar
  3
"AutoCAD"
 90
        0
280
               0
281
               0
  0
CLASS
  1
RASTERVARIABLES
  2
AcDbRasterVariables
  3
ISM
 90
        0
280
               0
281
               0
  0
CLASS
  1
IMAGEDEF
  2
AcDbRasterImageDef
  3
ISM
 90
        0
280
               0
281
               0
  0
CLASS
  1
IMAGEDEF_REACTOR
  2
AcDbRasterImageDefReactor
  3
ISM
 90
        1
280
               0
281
               0
  0
CLASS
  1
IDBUFFER
  2
AcDbIdBuffer
  3
"Acad"
 90
        0
280
               0
281
               0
  0
CLASS
  1
SPATIAL_FILTER
  2
AcDbSpatialFilter
  3
"Acad"
 90
        0
280
               0
281
               0
  0
CLASS
  1
XRECORD
  2
AcDbXrecord
  3
"<Built In>"
 90
        0
280
               0
281
               0
  0
CLASS
  1
SORTENTSTABLE
  2
AcDbSortentsTable
  3
"AutoCAD"
 90
        0
280
               0
281
               0
  0
CLASS
  1
LAYER_INDEX
  2
AcDbLayerIndex
  3
"Acad"
 90
        0
280
               0
281
               0
  0
CLASS
  1
SPATIAL_INDEX
  2
AcDbSpatialIndex
  3
"Acad"
 90
        0
280
               0
281
               0
  0
CLASS
  1
OBJECT_PTR
  2
CAseDLPNTableRecord
  3
"ASE-LPNTableRecord"
 90
        1
280
               0
281
               0
  0
CLASS
  1
LAYOUT
  2
AcDbLayout
  3
"AutoCAD 2000"
 90
        1
280
               0
281
               0
  0
CLASS
  1
PLOTSETTINGS
  2
AcDbPlotSettings
  3
"AutoCAD 2000"
 90
        1
280
               0
281
               0
  0
CLASS
  1
ACDBDICTIONARYWDFLT
  2
AcDbDictionaryWithDefault
  3
"AutoCAD 2000"
 90
        1
280
               0
281
               0
  0
CLASS
  1
ACDBPLACEHOLDER
  2
AcDbPlaceHolder
  3
"AutoCAD 2000"
 90
        1
280
               0
281
               0
  0
ENDSEC
  0
SECTION
  2
TABLES
  0
TABLE
  2
VPORT
  5
7
100
AcDbSymbolTable
 70
               1
  0
VPORT
  5
15
100
AcDbSymbolTableRecord
100
AcDbViewportTableRecord
  2
*ACTIVE
 70
               0
 10
0.0
 20
0.0
 11
1.0
 21
1.0
 12
2.1909528531206206
 22
0.25
 13
0.0
 23
0.0
 14
1.0
 24
1.0
 15
0.0
 25
0.0
 16
0.0
 26
0.0
 36
1.0
 17
0.0
 27
0.0
 37
0.0
 40
394.40500000000003
 41
1.7320508075688772
 42
50.0
 43
0.0
 44
0.0
 50
0.0
 51
0.0
 71
               0
 72
             100
 73
               1
 74
               1
 75
               0
 76
               0
 77
               0
 78
               0
  0
ENDTAB
  0
TABLE
  2
LTYPE
  5
4
100
AcDbSymbolTable
 70
               6
  0
LTYPE
  5
11
100
AcDbSymbolTableRecord
100
AcDbLinetypeTableRecord
  2
BYBLOCK
 70
              64
  3

 72
              65
 73
               0
 40
0.0
  0
LTYPE
  5
12
100
AcDbSymbolTableRecord
100
AcDbLinetypeTableRecord
  2
BYLAYER
 70
              64
  3

 72
              65
 73
               0
 40
0.0
  0
LTYPE
  5
13
100
AcDbSymbolTableRecord
100
AcDbLinetypeTableRecord
  2
CONTINUOUS
 70
              64
  3
Solid line
 72
              65
 73
               0
 40
0.0
  0
LTYPE
  5
53
100
AcDbSymbolTableRecord
100
AcDbLinetypeTableRecord
  2
CENTER
 70
              64
  3
Center ____ _ ____ _ ____ _ ____ _ ____ _ ____
 72
              65
 73
               4
 40
26.0
 49
20.0
 74
               0
 49
-2.0
 74
               0
 49
2.0
 74
               0
 49
-2.0
 74
               0
  0
LTYPE
  5
5C
100
AcDbSymbolTableRecord
100
AcDbLinetypeTableRecord
  2
PHANTOM
 70
              64
  3
Phantom ______  __  __  ______  __  __  ______
 72
              65
 73
               6
 40
30.0
 49
20.0
 74
               0
 49
-2.0
 74
               0
 49
2.0
 74
               0
 49
-2.0
 74
               0
 49
2.0
 74
               0
 49
-2.0
 74
               0
  0
LTYPE
  5
10F
100
AcDbSymbolTableRecord
100
AcDbLinetypeTableRecord
  2
DASHED
 70
              64
  3
Dashed __ __ __ __ __ __ __ __ __ __ __ __ __ _
 72
              65
 73
               2
 40
4.0
 49
2.0
 74
               0
 49
-2.0
 74
               0
  0
ENDTAB
  0
TABLE
  2
LAYER
  5
2
100
AcDbSymbolTable
 70
               2
  0
LAYER
  5
14
100
AcDbSymbolTableRecord
100
AcDbLayerTableRecord
  2
0
 70
               0
 62
               7
  6
CONTINUOUS
  0
LAYER
  5
1D
100
AcDbSymbolTableRecord
100
AcDbLayerTableRecord
  2
DEFPOINTS
 70
               0
 62
               7
  6
CONTINUOUS
  0
ENDTAB
  0
TABLE
  2
STYLE
  5
3
100
AcDbSymbolTable
 70
               1
  0
STYLE
  5
17
100
AcDbSymbolTableRecord
100
AcDbTextStyleTableRecord
  2
MX_NOTE_STANDARD
 70
               0
 40
0.0
 41
1.0
 50
0.0
 71
               0
 42
3.2000000476837158
  3
txt.shx
  4
extfont.shx
  0
ENDTAB
  0
TABLE
  2
VIEW
  5
5
100
AcDbSymbolTable
 70
               0
  0
ENDTAB
  0
TABLE
  2
UCS
  5
6
100
AcDbSymbolTable
 70
               0
  0
ENDTAB
  0
TABLE
  2
APPID
  5
8
100
AcDbSymbolTable
 70
               1
  0
APPID
  5
16
100
AcDbSymbolTableRecord
100
AcDbRegAppTableRecord
  2
ACAD
 70
               0
  0
ENDTAB
  0
TABLE
  2
DIMSTYLE
  5
9
100
AcDbSymbolTable
 70
               1
  0
DIMSTYLE
105
18
100
AcDbSymbolTableRecord
100
AcDbDimStyleTableRecord
  2
MXDIMSTYLE
 70
               0
  3

  4

  5

  6

  7

 40
1.0
 41
2.5
 42
1.5
 43
3.75
 44
1.5
 45
0.0
 46
0.0
 47
0.0
 48
0.0
 71
               0
 72
               0
 73
               0
 74
               0
 75
               0
 76
               0
 77
               1
 78
               8
140
3.2000000476837158
141
2.5
142
0.0
143
0.03937007874016
144
1.0
145
0.0
146
1.0
147
1.0
170
               0
171
               4
172
               1
173
               0
174
               0
175
               0
176
               0
177
               0
178
               0
270
               2
271
               4
272
               4
273
               2
274
               4
275
               0
280
               0
281
               0
282
               0
283
               1
284
               0
285
               0
286
               0
287
               3
288
               1
340
17
  0
ENDTAB
  0
TABLE
  2
BLOCK_RECORD
  5
1
100
AcDbSymbolTable
 70
               0
  0
BLOCK_RECORD
  5
A
100
AcDbSymbolTableRecord
100
AcDbBlockTableRecord
  2
*MODEL_SPACE
  0
BLOCK_RECORD
  5
B
100
AcDbSymbolTableRecord
100
AcDbBlockTableRecord
  2
*PAPER_SPACE
  0
ENDTAB
  0
ENDSEC
  0
SECTION
  2
BLOCKS
  0
BLOCK
  5
D
100
AcDbEntity
  8
0
100
AcDbBlockBegin
  2
*MODEL_SPACE
 70
               0
 10
0.0
 20
0.0
 30
0.0
  3
*MODEL_SPACE
  1

  0
ENDBLK
  5
E
100
AcDbEntity
  8
0
100
AcDbBlockEnd
  0
BLOCK
  5
F
100
AcDbEntity
 67
               1
  8
0
100
AcDbBlockBegin
  2
*PAPER_SPACE
 70
               0
 10
0.0
 20
0.0
 30
0.0
  3
*PAPER_SPACE
  1

  0
ENDBLK
  5
10
100
AcDbEntity
 67
               1
  8
0
100
AcDbBlockEnd
  0
ENDSEC
  0
SECTION
  2
ENTITIES
  0
LINE
  5
1E
100
AcDbEntity
  8
0
  6
CONTINUOUS
 62
               7
100
AcDbLine
 10
-281.25
 20
-195.0
 30
0.0
 11
282.099853515625
 21
-195.0
 31
0.0
  0
LINE
  5
1F
100
AcDbEntity
  8
0
  6
CONTINUOUS
 62
               7
100
AcDbLine
 10
-281.25
 20
195.5
 30
0.0
 11
-281.25
 21
-195.0
 31
0.0
  0
LINE
  5
20
100
AcDbEntity
  8
0
  6
CONTINUOUS
 62
               7
100
AcDbLine
 10
-281.25
 20
195.5
 30
0.0
 11
282.099853515625
 21
195.5
 31
0.0
  0
LINE
  5
21
100
AcDbEntity
  8
0
  6
CONTINUOUS
 62
               7
100
AcDbLine
 10
282.099853515625
 20
195.5
 30
0.0
 11
282.099853515625
 21
-195.0
 31
0.0
  0
LINE
  5
22
100
AcDbEntity
  8
0
  6
CONTINUOUS
 62
               7
100
AcDbLine
 10
162.0999755859375
 20
195.5
 30
0.0
 11
162.0999755859375
 21
175.5
 31
0.0
  0
LINE
  5
23
100
AcDbEntity
  8
0
  6
CONTINUOUS
 62
               7
100
AcDbLine
 10
162.0999755859375
 20
175.5
 30
0.0
 11
282.099853515625
 21
175.5
 31
0.0
  0
MTEXT
  5
24
100
AcDbEntity
  8
0
  6
CONTINUOUS
 62
               7
100
AcDbMText
 10
198.27702406779611
 20
185.5
 30
0.0
 40
6.3000001907348633
 41
0.0
 71
               4
 72
               1
  1
\W1.311;\A1;Ver. 1.0
  0
MTEXT
  5
25
100
AcDbEntity
  8
0
  6
CONTINUOUS
 62
               7
100
AcDbMText
 10
170.28099805280428
 20
-185.0
 30
0.0
 40
9.0
 41
0.0
 71
               4
 72
               1
  1
\W1.121;\A1;KOGANEI CORP.
  0
LINE
  5
26
100
AcDbEntity
  8
0
  6
CONTINUOUS
 62
               7
100
AcDbLine
 10
162.0999755859375
 20
-175.0
 30
0.0
 11
282.099853515625
 21
-175.0
 31
0.0
  0
LINE
  5
27
100
AcDbEntity
  8
0
  6
CONTINUOUS
 62
               7
100
AcDbLine
 10
162.0999755859375
 20
-175.0
 30
0.0
 11
162.0999755859375
 21
-195.0
 31
0.0
  0
LINE
  5
28
100
AcDbEntity
  8
0
  6
CONTINUOUS
 62
               7
100
AcDbLine
 10
-161.25
 20
195.5
 30
0.0
 11
-161.25
 21
175.5
 31
0.0
  0
LINE
  5
29
100
AcDbEntity
  8
0
  6
CONTINUOUS
 62
               7
100
AcDbLine
 10
-281.25
 20
175.5
 30
0.0
 11
-161.25
 21
175.5
 31
0.0
  0
LINE
  5
2A
100
AcDbEntity
  8
0
  6
CONTINUOUS
 62
               7
100
AcDbLine
 10
-281.25
 20
-38.799999999999983
 30
0.0
 11
282.099853515625
 21
-38.799999999999983
 31
0.0
  0
MTEXT
  5
2B
100
AcDbEntity
  8
0
  6
CONTINUOUS
 62
               7
100
AcDbMText
 10
-268.2882353765595
 20
-53.799999999999983
 30
0.0
 40
6.3000001907348633
 41
0.0
 71
               4
 72
               1
  1
\W1.059;\A1;MODEL:JE12A6-25-GL
  0
MTEXT
  5
2C
100
AcDbEntity
  8
0
  6
CONTINUOUS
 62
               7
100
AcDbMText
 10
13.386691381253012
 20
160.5
 30
0.0
 40
6.3000001907348633
 41
0.0
 71
               4
 72
               1
  1
\W1.059;\A1;MODEL:JE12A6-25-PS
  0
MTEXT
  5
2D
100
AcDbEntity
  8
0
  6
CONTINUOUS
 62
               7
100
AcDbMText
 10
51.152559329728497
 20
140.5
 30
0.0
 40
6.3000001907348633
 41
0.0
 71
               4
 72
               1
  1
\W1.026;\A1;JE12SA6-25-PS
  0
MTEXT
  5
2E
100
AcDbEntity
  8
0
  6
CONTINUOUS
 62
               7
100
AcDbMText
 10
51.152559329728497
 20
150.5
 30
0.0
 40
6.3000001907348633
 41
0.0
 71
               4
 72
               1
  1
\W1.026;\A1;JE12LA6-25-PS
  0
LINE
  5
2F
100
AcDbEntity
  8
0
  6
CONTINUOUS
 62
               7
100
AcDbLine
 10
0.4249267578125
 20
-38.799999999999983
 30
0.0
 11
0.4249267578125
 21
195.5
 31
0.0
  0
MTEXT
  5
30
100
AcDbEntity
  8
0
  6
CONTINUOUS
 62
               7
100
AcDbMText
 10
-268.2882353765595
 20
160.5
 30
0.0
 40
6.3000001907348633
 41
0.0
 71
               4
 72
               1
  1
\W1.059;\A1;MODEL:JE12A6-25-PL
  0
MTEXT
  5
31
100
AcDbEntity
  8
0
  6
CONTINUOUS
 62
               7
100
AcDbMText
 10
-257.88333446177035
 20
185.5
 30
0.0
 40
6.3000001907348633
 41
0.0
 71
               4
 72
               1
  1
\W1.111;\A1;JC･JE SERIES
  0
MTEXT
  5
32
100
AcDbEntity
  8
0
  6
CONTINUOUS
 62
               7
100
AcDbMText
 10
-230.52236742808401
 20
150.5
 30
0.0
 40
6.3000001907348633
 41
0.0
 71
               4
 72
               1
  1
\W1.026;\A1;JE12LA6-25-PL
  0
MTEXT
  5
33
100
AcDbEntity
  8
0
  6
CONTINUOUS
 62
               7
100
AcDbMText
 10
-230.52236742808401
 20
140.5
 30
0.0
 40
6.3000001907348633
 41
0.0
 71
               4
 72
               1
  1
\W1.026;\A1;JE12SA6-25-PL
  0
MTEXT
  5
34
100
AcDbEntity
  8
0
  6
CONTINUOUS
 62
               7
100
AcDbMText
 10
107.21656894683839
 20
-53.799999999999983
 30
0.0
 40
6.3000001907348633
 41
0.0
 71
               4
 72
               1
  1
\A1;-84
  0
LINE
  5
35
100
AcDbEntity
  8
0
  6
CONTINUOUS
 62
               7
100
AcDbLine
 10
94.316569010416686
 20
-195.0
 30
0.0
 11
94.316569010416686
 21
-38.800000011920929
 31
0.0
  0
LINE
  5
36
100
AcDbEntity
  8
0
  6
CONTINUOUS
 62
               7
100
AcDbLine
 10
218.10537251497766
 20
-101.20255047948893
 30
0.0
 11
228.20537251497763
 21
-101.20255047948893
 31
0.0
  0
LINE
  5
37
100
AcDbEntity
  8
0
  6
CONTINUOUS
 62
               7
100
AcDbLine
 10
228.20537251497763
 20
-100.90255047948898
 30
0.0
 11
228.40537251497764
 21
-100.70255047948893
 31
0.0
  0
LINE
  5
38
100
AcDbEntity
  8
0
  6
CONTINUOUS
 62
               7
100
AcDbLine
 10
218.10537251497766
 20
-100.90255047948898
 30
0.0
 11
217.90537251497764
 21
-100.70255047948893
 31
0.0
  0
LINE
  5
39
100
AcDbEntity
  8
0
  6
CONTINUOUS
 62
               7
100
AcDbLine
 10
218.10537251497766
 20
-100.90255047948898
 30
0.0
 11
218.10537251497766
 21
-101.20255047948893
 31
0.0
  0
LINE
  5
3A
100
AcDbEntity
  8
0
  6
CONTINUOUS
 62
               7
100
AcDbLine
 10
228.20537251497763
 20
-100.90255047948898
 30
0.0
 11
228.20537251497763
 21
-101.20255047948893
 31
0.0
  0
LINE
  5
3B
100
AcDbEntity
  8
0
  6
CONTINUOUS
 62
               7
100
AcDbLine
 10
228.85537251497763
 20
-100.70255047948893
 30
0.0
 11
229.15537251497764
 21
-101.00255047948895
 31
0.0
  0
LINE
  5
3C
100
AcDbEntity
  8
0
  6
CONTINUOUS
 62
               7
100
AcDbLine
 10
217.45537251497763
 20
-100.70255047948893
 30
0.0
 11
217.15537251497764
 21
-101.00255047948895
 31
0.0
  0
LINE
  5
3D
100
AcDbEntity
  8
0
  6
CONTINUOUS
 62
               7
100
AcDbLine
 10
217.45537251497763
 20
-100.70255047948893
 30
0.0
 11
217.90537251497764
 21
-100.70255047948893
 31
0.0
  0
LINE
  5
3E
100
AcDbEntity
  8
0
  6
CONTINUOUS
 62
               7
100
AcDbLine
 10
228.40537251497764
 20
-100.70255047948893
 30
0.0
 11
228.85537251497763
 21
-100.70255047948893
 31
0.0
  0
LINE
  5
3F
100
AcDbEntity
  8
0
  6
CONTINUOUS
 62
               7
100
AcDbLine
 10
217.25537251142558
 20
-114.70255047948893
 30
0.0
 11
217.15537251497761
 21
-114.80255047593687
 31
0.0
  0
LINE
  5
40
100
AcDbEntity
  8
0
  6
CONTINUOUS
 62
               7
100
AcDbLine
 10
229.15537251497764
 20
-114.80255047948896
 30
0.0
 11
229.05537251497762
 21
-114.70255047948893
 31
0.0
  0
LINE
  5
41
100
AcDbEntity
  8
0
  6
CONTINUOUS
 62
               7
100
AcDbLine
 10
217.15537251497767
 20
-114.70255047948893
 30
0.0
 11
229.15537251497767
 21
-114.70255047948893
 31
0.0
  0
LINE
  5
42
100
AcDbEntity
  8
0
  6
CONTINUOUS
 62
               7
100
AcDbLine
 10
217.15537251497764
 20
-123.07385105467796
 30
0.0
 11
217.15537251497767
 21
-101.00255047948895
 31
0.0
  0
LINE
  5
43
100
AcDbEntity
  8
0
  6
CONTINUOUS
 62
               7
100
AcDbLine
 10
229.15537251497767
 20
-119.85846074550449
 30
0.0
 11
229.15537251497767
 21
-101.00255047948895
 31
0.0
  0
ARC
  5
44
100
AcDbEntity
  8
0
  6
CONTINUOUS
 62
               4
100
AcDbCircle
 10
218.88537251497763
 20
-99.490266746734221
 30
0.0
 40
0.5
100
AcDbArc
 50
179.99999999999963
 51
269.99999999999937
  0
ARC
  5
45
100
AcDbEntity
  8
0
  6
CONTINUOUS
 62
               4
100
AcDbCircle
 10
227.42537251497765
 20
-99.490266746734221
 30
0.0
 40
0.5
100
AcDbArc
 50
269.99999999999937
 51
0.0
  0
LINE
  5
46
100
AcDbEntity
  8
0
  6
CONTINUOUS
 62
               4
100
AcDbLine
 10
218.38537251497763
 20
-98.95902020202135
 30
0.0
 11
218.38537251497763
 21
-99.490266746734221
 31
0.0
  0
LINE
  5
47
100
AcDbEntity
  8
0
  6
CONTINUOUS
 62
               4
100
AcDbLine
 10
227.92537251497765
 20
-96.402784906228419
 30
0.0
 11
227.92537251497765
 21
-99.490266746734221
 31
0.0
  0
LINE
  5
48
100
AcDbEntity
  8
0
  6
CONTINUOUS
 62
               4
100
AcDbLine
 10
218.88537251497763
 20
-99.990266746734221
 30
0.0
 11
227.42537251497765
 21
-99.990266746734221
 31
0.0
  0
LINE
  5
49
100
AcDbEntity
  8
0
  6
CONTINUOUS
 62
               4
100
AcDbLine
 10
228.15537251497764
 20
-96.341156591969309
 30
0.0
 11
228.15537251497764
 21
-101.20255047948893
 31
0.0
  0
ARC
  5
4A
100
AcDbEntity
  8
0
  6
CONTINUOUS
 62
               4
100
AcDbCircle
 10
227.65566936284185
 20
-100.70284732735314
 30
0.0
 40
0.4997032403068001
100
AcDbArc
 50
269.96596353714654
 51
0.0340364628527164
  0
LINE
  5
4B
100
AcDbEntity
  8
0
  6
CONTINUOUS
 62
               4
100
AcDbLine
 10
218.15537251497764
 20
-99.020648516280517
 30
0.0
 11
218.15537251497764
 21
-101.20255047948893
 31
0.0
  0
ARC
  5
4C
100
AcDbEntity
  8
0
  6
CONTINUOUS
 62
               4
100
AcDbCircle
 10
218.65566953918378
 20
-100.70225345528286
 30
0.0
 40
0.5002971123771115
100
AcDbArc
 50
180.03401625554557
 51
269.96598374445358
  0
LINE
  5
4D
100
AcDbEntity
  8
0
  6
CONTINUOUS
 62
               7
100
AcDbLine
 10
131.7555477794908
 20
-114.70255048375833
 30
0.0
 11
149.65554777949077
 21
-114.70255048375833
 31
0.0
  0
LINE
  5
4E
100
AcDbEntity
  8
0
  6
CONTINUOUS
 62
               7
100
AcDbLine
 10
131.95554777949079
 20
-100.70255048375839
 30
0.0
 11
131.65554777949077
 21
-101.0025504837584
 31
0.0
  0
LINE
  5
4F
100
AcDbEntity
  8
0
  6
CONTINUOUS
 62
               7
100
AcDbLine
 10
131.6555477794908
 20
-114.80255048375835
 30
0.0
 11
131.7555477794908
 21
-114.70255048375839
 31
0.0
  0
LINE
  5
50
100
AcDbEntity
  8
0
  6
CONTINUOUS
 62
               7
100
AcDbLine
 10
131.95554777949079
 20
-100.70255048375839
 30
0.0
 11
149.6555477794908
 21
-100.70255048375839
 31
0.0
  0
LINE
  5
51
100
AcDbEntity
  8
0
  6
CONTINUOUS
 62
               7
100
AcDbLine
 10
149.6555477794908
 20
-116.13426794123643
 30
0.0
 11
149.6555477794908
 21
-100.70255048375839
 31
0.0
  0
LINE
  5
52
100
AcDbEntity
  8
0
  6
CONTINUOUS
 62
               7
100
AcDbLine
 10
131.65554777949077
 20
-120.95735340499664
 30
0.0
 11
131.65554777949077
 21
-101.00255048375834
 31
0.0
  0
LINE
  5
54
100
AcDbEntity
  8
0
  6
CENTER
 62
               2
100
AcDbLine
 10
140.65554777949077
 20
-76.073299737922014
 30
0.0
 11
140.65554777949077
 21
-133.20133035905843
 31
0.0
  0
LINE
  5
55
100
AcDbEntity
  8
0
  6
CONTINUOUS
 62
               4
100
AcDbLine
 10
147.65554777949077
 20
-100.70255048375839
 30
0.0
 11
147.65554777949077
 21
-92.884912979062449
 31
0.0
  0
LINE
  5
56
100
AcDbEntity
  8
0
  6
CONTINUOUS
 62
               4
100
AcDbLine
 10
133.65554777949077
 20
-96.636201673098185
 30
0.0
 11
133.65554777949077
 21
-100.70255048375839
 31
0.0
  0
LINE
  5
57
100
AcDbEntity
  8
0
  6
CONTINUOUS
 62
               4
100
AcDbLine
 10
150.65555059601755
 20
-101.20255078893416
 30
0.0
 11
150.65555059601755
 21
-92.081064647082997
 31
0.0
  0
LINE
  5
58
100
AcDbEntity
  8
0
  6
CONTINUOUS
 62
               4
100
AcDbLine
 10
150.65555059601755
 20
-101.20255078893416
 30
0.0
 11
152.96755059601756
 21
-100.12455078893419
 31
0.0
  0
LINE
  5
59
100
AcDbEntity
  8
0
  6
CONTINUOUS
 62
               4
100
AcDbLine
 10
149.6555477794908
 20
-101.20255078893416
 30
0.0
 11
150.65555059601755
 21
-101.20255078893416
 31
0.0
  0
LINE
  5
5A
100
AcDbEntity
  8
0
  6
CONTINUOUS
 62
               4
100
AcDbLine
 10
153.25555059601757
 20
-91.384396746762093
 30
0.0
 11
153.25555059601757
 21
-99.670550788934179
 31
0.0
  0
ARC
  5
5B
100
AcDbEntity
  8
0
  6
CONTINUOUS
 62
               4
100
AcDbCircle
 10
152.75508615149957
 20
-99.671423564217889
 30
0.0
 40
0.5004652055472239
100
AcDbArc
 50
295.12116424320402
 51
0.0999197646782735
  0
LINE
  5
5D
100
AcDbEntity
  8
0
  6
PHANTOM
 62
               2
100
AcDbLine
 10
205.14270104813727
 20
-102.50738332719192
 30
0.0
 11
241.16804389840649
 21
-92.854421803407945
 31
0.0
  0
LINE
  5
5E
100
AcDbEntity
  8
0
  6
PHANTOM
 62
               2
100
AcDbLine
 10
117.15318741250189
 20
-101.05799580664024
 30
0.0
 11
166.10472187002293
 21
-87.941471680483176
 31
0.0
  0
LINE
  5
5F
100
AcDbEntity
  8
0
  6
PHANTOM
 62
               2
100
AcDbLine
 10
205.14270104813727
 20
-126.29263667315826
 30
0.0
 11
241.16804389840649
 21
-116.63967514937428
 31
0.0
  0
LINE
  5
60
100
AcDbEntity
  8
0
  6
PHANTOM
 62
               2
100
AcDbLine
 10
117.15318747210654
 20
-124.84324913770541
 30
0.0
 11
166.10472187002293
 21
-111.72672502751942
 31
0.0
  0
LINE
  5
61
100
AcDbEntity
  8
0
  6
CENTER
 62
             200
100
AcDbLine
 10
154.17061296756253
 20
-103.502550465902
 30
0.0
 11
148.45171886897498
 21
-103.502550465902
 31
0.0
  0
LINE
  5
62
100
AcDbEntity
  8
0
  6
CONTINUOUS
 62
               4
100
AcDbLine
 10
150.75554777949077
 20
-102.40255046590198
 30
0.0
 11
149.6555477794908
 21
-102.40255046590198
 31
0.0
  0
LINE
  5
63
100
AcDbEntity
  8
0
  6
CONTINUOUS
 62
               4
100
AcDbLine
 10
150.75554777949077
 20
-104.60255046590197
 30
0.0
 11
150.57553778359596
 21
-104.60255046590197
 31
0.0
  0
ARC
  5
64
100
AcDbEntity
  8
0
  6
CONTINUOUS
 62
               4
100
AcDbCircle
 10
152.75554777949077
 20
-107.87286986159677
 30
0.0
 40
0.5
100
AcDbArc
 50
270.00000000000023
 51
0.0
  0
ARC
  5
65
100
AcDbEntity
  8
0
  6
CONTINUOUS
 62
               4
100
AcDbCircle
 10
152.75554777949077
 20
-102.20255046590199
 30
0.0
 40
0.5
100
AcDbArc
 50
0.0
 51
89.999999999999815
  0
ARC
  5
66
100
AcDbEntity
  8
0
  6
CONTINUOUS
 62
               4
100
AcDbCircle
 10
150.85554777949079
 20
-101.80255046590196
 30
0.0
 40
0.1
100
AcDbArc
 50
89.999999999999815
 51
179.99999999999963
  0
ARC
  5
67
100
AcDbEntity
  8
0
  6
CONTINUOUS
 62
               4
100
AcDbCircle
 10
150.85554777949079
 20
-105.20255046590199
 30
0.0
 40
0.1
100
AcDbArc
 50
179.99999999999963
 51
269.99999999999937
  0
LINE
  5
68
100
AcDbEntity
  8
0
  6
CONTINUOUS
 62
               4
100
AcDbLine
 10
152.75554777949077
 20
-108.37286986159677
 30
0.0
 11
151.85554777949079
 21
-108.37286986159677
 31
0.0
  0
LINE
  5
69
100
AcDbEntity
  8
0
  6
CONTINUOUS
 62
               4
100
AcDbLine
 10
150.85554777949079
 20
-105.30255046590196
 30
0.0
 11
151.85554777949079
 21
-105.30255046590196
 31
0.0
  0
LINE
  5
6A
100
AcDbEntity
  8
0
  6
CONTINUOUS
 62
               4
100
AcDbLine
 10
153.25554777949077
 20
-107.87286986159677
 30
0.0
 11
153.25554777949077
 21
-102.20255046590199
 31
0.0
  0
LINE
  5
6B
100
AcDbEntity
  8
0
  6
CONTINUOUS
 62
               4
100
AcDbLine
 10
151.85554777949079
 20
-108.37286986159677
 30
0.0
 11
151.85554777949079
 21
-105.30255046590196
 31
0.0
  0
LINE
  5
6C
100
AcDbEntity
  8
0
  6
CONTINUOUS
 62
               4
100
AcDbLine
 10
150.85554777949079
 20
-101.70255046590199
 30
0.0
 11
152.75554777949077
 21
-101.70255046590199
 31
0.0
  0
LINE
  5
6D
100
AcDbEntity
  8
0
  6
CONTINUOUS
 62
               4
100
AcDbLine
 10
150.75554777949077
 20
-105.20255046590199
 30
0.0
 11
150.75554777949077
 21
-101.80255046590196
 31
0.0
  0
LINE
  5
6E
100
AcDbEntity
  8
0
  6
CONTINUOUS
 62
               4
100
AcDbLine
 10
153.25554780187531
 20
-107.58267747948071
 30
0.0
 11
152.65554777803345
 21
-107.58267747948071
 31
0.0
  0
LINE
  5
6F
100
AcDbEntity
  8
0
  6
CONTINUOUS
 62
               4
100
AcDbLine
 10
153.20939878644867
 20
-108.08267748208669
 30
0.0
 11
152.65554777803345
 21
-108.08267748208669
 31
0.0
  0
LINE
  5
70
100
AcDbEntity
  8
0
  6
CONTINUOUS
 62
               4
100
AcDbLine
 10
152.6555477794908
 20
-107.58267747948071
 30
0.0
 11
152.6555477794908
 21
-108.08267748208669
 31
0.0
  0
ARC
  5
71
100
AcDbEntity
  8
0
  6
CONTINUOUS
 62
               4
100
AcDbCircle
 10
150.27016589157307
 20
-104.5025504837584
 30
0.0
 40
0.3
100
AcDbArc
 50
2.8609771159547184
 51
89.999999999999815
  0
LINE
  5
72
100
AcDbEntity
  8
0
  6
CONTINUOUS
 62
               4
100
AcDbLine
 10
150.75554777949083
 20
-108.2045504837584
 30
0.0
 11
150.56979196655527
 21
-104.48757666691773
 31
0.0
  0
ARC
  5
73
100
AcDbEntity
  8
0
  6
CONTINUOUS
 62
               4
100
AcDbCircle
 10
150.32843289805169
 20
-113.94370473649064
 30
0.0
 40
0.1
100
AcDbArc
 50
269.99999999999937
 51
344.99999994881006
  0
ARC
  5
74
100
AcDbEntity
  8
0
  6
CONTINUOUS
 62
               4
100
AcDbCircle
 10
150.38202273672943
 20
-113.7437047364906
 30
0.0
 40
0.1
100
AcDbArc
 50
344.99999994881091
 51
89.999999999999801
  0
ARC
  5
75
100
AcDbEntity
  8
0
  6
CONTINUOUS
 62
               4
100
AcDbCircle
 10
150.4892024140849
 20
-113.34370473649062
 30
0.0
 40
0.1
100
AcDbArc
 50
269.99999999999937
 51
344.99999994880994
  0
ARC
  5
76
100
AcDbEntity
  8
0
  6
CONTINUOUS
 62
               4
100
AcDbCircle
 10
150.54279225276264
 20
-113.14370473649063
 30
0.0
 40
0.1
100
AcDbArc
 50
344.99999994881108
 51
89.999999999999801
  0
ARC
  5
77
100
AcDbEntity
  8
0
  6
CONTINUOUS
 62
               4
100
AcDbCircle
 10
150.64997193011811
 20
-112.7437047364906
 30
0.0
 40
0.1
100
AcDbArc
 50
269.99999999999937
 51
344.99999994881006
  0
ARC
  5
78
100
AcDbEntity
  8
0
  6
CONTINUOUS
 62
               4
100
AcDbCircle
 10
150.70356176879585
 20
-112.54370473649061
 30
0.0
 40
0.1
100
AcDbArc
 50
344.99999994881091
 51
89.999999999999801
  0
ARC
  5
79
100
AcDbEntity
  8
0
  6
CONTINUOUS
 62
               4
100
AcDbCircle
 10
150.81074144615133
 20
-112.14370473649063
 30
0.0
 40
0.1
100
AcDbArc
 50
269.99999999999937
 51
344.99999994880994
  0
ARC
  5
7A
100
AcDbEntity
  8
0
  6
CONTINUOUS
 62
               4
100
AcDbCircle
 10
150.86433128482906
 20
-111.94370473649064
 30
0.0
 40
0.1
100
AcDbArc
 50
344.99999994881108
 51
89.999999999999801
  0
ARC
  5
7B
100
AcDbEntity
  8
0
  6
CONTINUOUS
 62
               4
100
AcDbCircle
 10
150.97151096218454
 20
-111.54370473649061
 30
0.0
 40
0.1
100
AcDbArc
 50
269.99999999999937
 51
344.99999994881006
  0
ARC
  5
7C
100
AcDbEntity
  8
0
  6
CONTINUOUS
 62
               4
100
AcDbCircle
 10
151.02510080086228
 20
-111.34370473649062
 30
0.0
 40
0.1
100
AcDbArc
 50
344.99999994881091
 51
89.999999999999801
  0
LINE
  5
7D
100
AcDbEntity
  8
0
  6
CONTINUOUS
 62
               4
100
AcDbLine
 10
150.19811035916939
 20
-114.04370473649061
 30
0.0
 11
150.32843289897573
 21
-114.04370473649061
 31
0.0
  0
LINE
  5
7E
100
AcDbEntity
  8
0
  6
CONTINUOUS
 62
               4
100
AcDbLine
 10
150.30529003665578
 20
-113.64370473649063
 30
0.0
 11
150.38202273771896
 21
-113.64370473649063
 31
0.0
  0
LINE
  5
7F
100
AcDbEntity
  8
0
  6
CONTINUOUS
 62
               4
100
AcDbLine
 10
150.358879875399
 20
-113.44370473649064
 30
0.0
 11
150.4892024152054
 21
-113.44370473649064
 31
0.0
  0
LINE
  5
80
100
AcDbEntity
  8
0
  6
CONTINUOUS
 62
               4
100
AcDbLine
 10
150.46605955288544
 20
-113.04370473649061
 30
0.0
 11
150.54279225394856
 21
-113.04370473649061
 31
0.0
  0
LINE
  5
81
100
AcDbEntity
  8
0
  6
CONTINUOUS
 62
               4
100
AcDbLine
 10
150.51964939162866
 20
-112.84370473649062
 30
0.0
 11
150.649971931435
 21
-112.84370473649062
 31
0.0
  0
LINE
  5
82
100
AcDbEntity
  8
0
  6
CONTINUOUS
 62
               4
100
AcDbLine
 10
150.62682906911505
 20
-112.44370473649064
 30
0.0
 11
150.70356177017823
 21
-112.44370473649064
 31
0.0
  0
LINE
  5
83
100
AcDbEntity
  8
0
  6
CONTINUOUS
 62
               4
100
AcDbLine
 10
150.68041890785827
 20
-112.2437047364906
 30
0.0
 11
150.81074144766461
 21
-112.2437047364906
 31
0.0
  0
LINE
  5
84
100
AcDbEntity
  8
0
  6
CONTINUOUS
 62
               4
100
AcDbLine
 10
150.78759858534471
 20
-111.84370473649062
 30
0.0
 11
150.86433128640783
 21
-111.84370473649062
 31
0.0
  0
LINE
  5
85
100
AcDbEntity
  8
0
  6
CONTINUOUS
 62
               4
100
AcDbLine
 10
150.84118842408787
 20
-111.64370473649063
 30
0.0
 11
150.97151096389427
 21
-111.64370473649063
 31
0.0
  0
LINE
  5
86
100
AcDbEntity
  8
0
  6
CONTINUOUS
 62
               4
100
AcDbLine
 10
150.94836810157432
 20
-111.2437047364906
 30
0.0
 11
151.0251008026375
 21
-111.2437047364906
 31
0.0
  0
LINE
  5
87
100
AcDbEntity
  8
0
  6
CONTINUOUS
 62
               4
100
AcDbLine
 10
150.42502548065744
 20
-113.96958664108718
 30
0.0
 11
150.47861531933523
 21
-113.76958664108719
 31
0.0
  0
LINE
  5
88
100
AcDbEntity
  8
0
  6
CONTINUOUS
 62
               4
100
AcDbLine
 10
150.58579499669071
 20
-113.36958664108715
 30
0.0
 11
150.63938483536839
 21
-113.16958664108716
 31
0.0
  0
LINE
  5
89
100
AcDbEntity
  8
0
  6
CONTINUOUS
 62
               4
100
AcDbLine
 10
150.74656451272386
 20
-112.76958664108719
 30
0.0
 11
150.80015435140166
 21
-112.5695866410872
 31
0.0
  0
LINE
  5
8A
100
AcDbEntity
  8
0
  6
CONTINUOUS
 62
               4
100
AcDbLine
 10
150.90733402875713
 20
-112.16958664108716
 30
0.0
 11
150.96092386743481
 21
-111.96958664108718
 31
0.0
  0
LINE
  5
8B
100
AcDbEntity
  8
0
  6
CONTINUOUS
 62
               4
100
AcDbLine
 10
151.06810354479029
 20
-111.5695866410872
 30
0.0
 11
151.12169338346808
 21
-111.36958664108715
 31
0.0
  0
LINE
  5
8C
100
AcDbEntity
  8
0
  6
CONTINUOUS
 62
               4
100
AcDbLine
 10
150.21512744490786
 20
-113.98019611365953
 30
0.0
 11
151.04532550935431
 21
-110.88185476787248
 31
0.0
  0
ARC
  5
8D
100
AcDbEntity
  8
0
  6
CONTINUOUS
 62
               4
100
AcDbCircle
 10
150.75554777949083
 20
-110.80420898183615
 30
0.0
 40
0.3
100
AcDbArc
 50
344.99999159956064
 51
0.0
  0
ARC
  5
8E
100
AcDbEntity
  8
0
  6
CONTINUOUS
 62
               4
100
AcDbCircle
 10
149.9253496775795
 20
-113.90255048375838
 30
0.0
 40
0.3
100
AcDbArc
 50
269.99999999999937
 51
345.00001052269107
  0
LINE
  5
8F
100
AcDbEntity
  8
0
  6
CONTINUOUS
 62
               4
100
AcDbLine
 10
149.6555477794908
 20
-114.20255048375839
 30
0.0
 11
149.9253496775795
 21
-114.20255048375839
 31
0.0
  0
LINE
  5
90
100
AcDbEntity
  8
0
  6
CONTINUOUS
 62
               4
100
AcDbLine
 10
149.65554778192922
 20
-104.20255048375844
 30
0.0
 11
150.27016589157307
 21
-104.20255048375844
 31
0.0
  0
LINE
  5
91
100
AcDbEntity
  8
0
  6
CONTINUOUS
 62
               4
100
AcDbLine
 10
151.05554777949084
 20
-108.50455048375841
 30
0.0
 11
151.05554777949084
 21
-110.80420898183615
 31
0.0
  0
ARC
  5
92
100
AcDbEntity
  8
0
  6
CONTINUOUS
 62
               4
100
AcDbCircle
 10
150.75554777949083
 20
-108.50455048375841
 30
0.0
 40
0.3
100
AcDbArc
 50
0.0
 51
89.999999999999815
  0
LINE
  5
93
100
AcDbEntity
  8
0
  6
CONTINUOUS
 62
               4
100
AcDbLine
 10
217.85537251441278
 20
-114.20255048537538
 30
0.0
 11
228.4553725144128
 21
-114.20255048500115
 31
0.0
  0
LINE
  5
94
100
AcDbEntity
  8
0
  6
CONTINUOUS
 62
               4
100
AcDbLine
 10
226.34819283460058
 20
-107.43267748125236
 30
0.0
 11
224.96255218964862
 21
-108.23267748343417
 31
0.0
  0
LINE
  5
95
100
AcDbEntity
  8
0
  6
CONTINUOUS
 62
               4
100
AcDbLine
 10
226.34819283395518
 20
-107.43267748162496
 30
0.0
 11
224.26126062790905
 21
-103.81800486909583
 31
0.0
  0
ARC
  5
96
100
AcDbEntity
  8
0
  6
CONTINUOUS
 62
               4
100
AcDbCircle
 10
224.71255218891571
 20
-107.79966478196512
 30
0.0
 40
0.5
100
AcDbArc
 50
210.00000000202218
 51
300.00000008741563
  0
LINE
  5
97
100
AcDbEntity
  8
0
  6
CONTINUOUS
 62
               4
100
AcDbLine
 10
226.53120553582332
 20
-106.74966477972625
 30
0.0
 11
224.83854295912414
 21
-103.81788719705187
 31
0.0
  0
ARC
  5
98
100
AcDbEntity
  8
0
  6
CONTINUOUS
 62
               4
100
AcDbCircle
 10
223.15537251403504
 20
-103.50255046733189
 30
0.0
 40
1.6500000000000001
100
AcDbArc
 50
355.13616201929131
 51
244.86383791664005
  0
LINE
  5
99
100
AcDbEntity
  8
0
  6
CONTINUOUS
 62
               4
100
AcDbLine
 10
224.27953948703231
 20
-108.0496647819804
 30
0.0
 11
222.58687690818977
 21
-105.11788719559364
 31
0.0
  0
LINE
  5
9A
100
AcDbEntity
  8
0
  6
CONTINUOUS
 62
               4
100
AcDbLine
 10
226.08838521445176
 20
-107.58267748121132
 30
0.0
 11
222.80217595728828
 21
-101.89079608396503
 31
0.0
  0
LINE
  5
9B
100
AcDbEntity
  8
0
  6
CONTINUOUS
 62
               4
100
AcDbLine
 10
225.22235980904114
 20
-108.08267748365563
 30
0.0
 11
221.93615055132236
 21
-102.39079608544756
 31
0.0
  0
ARC
  5
9C
100
AcDbEntity
  8
0
  6
CONTINUOUS
 62
               4
100
AcDbCircle
 10
222.32706928705974
 20
-105.2678871956028
 30
0.0
 40
0.3
100
AcDbArc
 50
30.000000002022531
 51
64.863837916640307
  0
ARC
  5
9D
100
AcDbEntity
  8
0
  6
CONTINUOUS
 62
               4
100
AcDbCircle
 10
225.09835058025416
 20
-103.66788719704266
 30
0.0
 40
0.3
100
AcDbArc
 50
175.13616201929182
 51
210.00000000202243
  0
LINE
  5
9E
100
AcDbEntity
  8
0
  6
CONTINUOUS
 62
               4
100
AcDbLine
 10
224.96255218845633
 20
-108.23267748136905
 30
0.0
 11
222.87561998241017
 21
-104.61800486883996
 31
0.0
  0
ARC
  5
9F
100
AcDbEntity
  8
0
  6
CONTINUOUS
 62
               4
100
AcDbCircle
 10
223.15537251360513
 20
-103.50255046758006
 30
0.0
 40
1.1500000000000001
100
AcDbArc
 50
145.77146180160696
 51
255.92079019249044
  0
ARC
  5
A0
100
AcDbEntity
  8
0
  6
CONTINUOUS
 62
               4
100
AcDbCircle
 10
226.09819283393989
 20
-106.99966477974152
 30
0.0
 40
0.5
100
AcDbArc
 50
300.00000008741654
 51
30.000000002022595
  0
ARC
  5
A1
100
AcDbEntity
  8
0
  6
CONTINUOUS
 62
               4
100
AcDbCircle
 10
223.15537251403509
 20
-103.50255046733189
 30
0.0
 40
1.1500000000000001
100
AcDbArc
 50
344.07920981155343
 51
94.22853820243769
  0
ARC
  5
A2
100
AcDbEntity
  8
0
  6
CONTINUOUS
 62
               4
100
AcDbCircle
 10
228.4553725144022
 20
-113.9025504850012
 30
0.0
 40
0.3
100
AcDbArc
 50
270.00000000202203
 51
0.0000000020226292
  0
ARC
  5
A3
100
AcDbEntity
  8
0
  6
CONTINUOUS
 62
               4
100
AcDbCircle
 10
217.85537251440218
 20
-113.90255048537537
 30
0.0
 40
0.3
100
AcDbArc
 50
180.00000000202223
 51
270.00000000202203
  0
LINE
  5
A4
100
AcDbEntity
  8
0
  6
CONTINUOUS
 62
               4
100
AcDbLine
 10
228.75537250743375
 20
-110.8437047377228
 30
0.0
 11
217.55537251339419
 21
-110.84370473811821
 31
0.0
  0
ARC
  5
A5
100
AcDbEntity
  8
0
  6
CONTINUOUS
 62
               4
100
AcDbCircle
 10
226.455372514321
 20
-111.60255048507175
 30
0.0
 40
0.3
100
AcDbArc
 50
0.0000000020226547
 51
90.00000000202246
  0
ARC
  5
A6
100
AcDbEntity
  8
0
  6
CONTINUOUS
 62
               4
100
AcDbCircle
 10
219.855372514321
 20
-111.60255048530475
 30
0.0
 40
0.3
100
AcDbArc
 50
90.00000000202246
 51
180.00000000202226
  0
LINE
  5
A7
100
AcDbEntity
  8
0
  6
CONTINUOUS
 62
               4
100
AcDbLine
 10
225.45537251405975
 20
-104.20255048510718
 30
0.0
 11
227.75537251405979
 21
-104.20255048502598
 31
0.0
  0
LINE
  5
A8
100
AcDbEntity
  8
0
  6
CONTINUOUS
 62
               4
100
AcDbLine
 10
226.45537251431043
 20
-111.30255048507179
 30
0.0
 11
219.85537251431043
 21
-111.30255048530479
 31
0.0
  0
LINE
  5
A9
100
AcDbEntity
  8
0
  6
CONTINUOUS
 62
               4
100
AcDbLine
 10
226.75537251439962
 20
-113.82934537317885
 30
0.0
 11
226.75537251432101
 21
-111.60255048506116
 31
0.0
  0
LINE
  5
AA
100
AcDbEntity
  8
0
  6
CONTINUOUS
 62
               4
100
AcDbLine
 10
219.55537251439961
 20
-113.82934537343303
 30
0.0
 11
219.55537251432102
 21
-111.60255048531533
 31
0.0
  0
LINE
  5
AB
100
AcDbEntity
  8
0
  6
CONTINUOUS
 62
               4
100
AcDbLine
 10
228.75537251440221
 20
-113.90255048499061
 30
0.0
 11
228.75537251409509
 21
-105.20255048499068
 31
0.0
  0
LINE
  5
AC
100
AcDbEntity
  8
0
  6
CONTINUOUS
 62
               4
100
AcDbLine
 10
217.55537251440219
 20
-113.90255048538596
 30
0.0
 11
217.55537251409507
 21
-105.20255048538608
 31
0.0
  0
LINE
  5
AD
100
AcDbEntity
  8
0
  6
CONTINUOUS
 62
               4
100
AcDbLine
 10
220.85537251405975
 20
-104.20255048526958
 30
0.0
 11
218.55537251405974
 21
-104.20255048535078
 31
0.0
  0
LINE
  5
AE
100
AcDbEntity
  8
0
  6
CONTINUOUS
 62
               4
100
AcDbLine
 10
228.7553725192962
 20
-108.20455048499063
 30
0.0
 11
225.01126957961674
 21
-108.20455048512281
 31
0.0
  0
LINE
  5
AF
100
AcDbEntity
  8
0
  6
CONTINUOUS
 62
               4
100
AcDbLine
 10
217.55537250985608
 20
-111.24370473811818
 30
0.0
 11
228.75537250985607
 21
-111.24370473772278
 31
0.0
  0
LINE
  5
B0
100
AcDbEntity
  8
0
  6
CONTINUOUS
 62
               4
100
AcDbLine
 10
226.75537251432246
 20
-111.64370473779343
 30
0.0
 11
228.7553725098702
 21
-111.64370473772281
 31
0.0
  0
LINE
  5
B1
100
AcDbEntity
  8
0
  6
CONTINUOUS
 62
               4
100
AcDbLine
 10
226.75537251432954
 20
-111.84370473779342
 30
0.0
 11
228.75537250987728
 21
-111.8437047377228
 31
0.0
  0
LINE
  5
B2
100
AcDbEntity
  8
0
  6
CONTINUOUS
 62
               4
100
AcDbLine
 10
226.75537251434366
 20
-112.24370473779339
 30
0.0
 11
228.7553725098914
 21
-112.24370473772278
 31
0.0
  0
LINE
  5
B3
100
AcDbEntity
  8
0
  6
CONTINUOUS
 62
               4
100
AcDbLine
 10
226.75537251435071
 20
-112.44370473779344
 30
0.0
 11
228.75537250989845
 21
-112.44370473772283
 31
0.0
  0
LINE
  5
B4
100
AcDbEntity
  8
0
  6
CONTINUOUS
 62
               4
100
AcDbLine
 10
226.75537251436484
 20
-112.84370473779342
 30
0.0
 11
228.75537250991258
 21
-112.8437047377228
 31
0.0
  0
LINE
  5
B5
100
AcDbEntity
  8
0
  6
CONTINUOUS
 62
               4
100
AcDbLine
 10
226.75537251437189
 20
-113.04370473779341
 30
0.0
 11
228.75537250991962
 21
-113.04370473772279
 31
0.0
  0
LINE
  5
B6
100
AcDbEntity
  8
0
  6
CONTINUOUS
 62
               4
100
AcDbLine
 10
226.75537251438601
 20
-113.44370473779344
 30
0.0
 11
228.75537250993375
 21
-113.44370473772283
 31
0.0
  0
LINE
  5
B7
100
AcDbEntity
  8
0
  6
CONTINUOUS
 62
               4
100
AcDbLine
 10
226.75537251439309
 20
-113.64370473779343
 30
0.0
 11
228.75537250994083
 21
-113.64370473772281
 31
0.0
  0
LINE
  5
B8
100
AcDbEntity
  8
0
  6
CONTINUOUS
 62
               4
100
AcDbLine
 10
217.59065478372861
 20
-114.04370473811694
 30
0.0
 11
228.72009024381495
 21
-114.04370473772404
 31
0.0
  0
LINE
  5
B9
100
AcDbEntity
  8
0
  6
CONTINUOUS
 62
               4
100
AcDbLine
 10
219.55537251432244
 20
-111.6437047380476
 30
0.0
 11
217.55537251877467
 21
-111.64370473811822
 31
0.0
  0
LINE
  5
BA
100
AcDbEntity
  8
0
  6
CONTINUOUS
 62
               4
100
AcDbLine
 10
219.55537251432952
 20
-111.84370473804759
 30
0.0
 11
217.55537251878175
 21
-111.84370473811821
 31
0.0
  0
LINE
  5
BB
100
AcDbEntity
  8
0
  6
CONTINUOUS
 62
               4
100
AcDbLine
 10
219.55537251434365
 20
-112.24370473804757
 30
0.0
 11
217.55537251879588
 21
-112.24370473811818
 31
0.0
  0
LINE
  5
BC
100
AcDbEntity
  8
0
  6
CONTINUOUS
 62
               4
100
AcDbLine
 10
219.55537251435069
 20
-112.44370473804761
 30
0.0
 11
217.55537251880293
 21
-112.44370473811823
 31
0.0
  0
LINE
  5
BD
100
AcDbEntity
  8
0
  6
CONTINUOUS
 62
               4
100
AcDbLine
 10
219.55537251436482
 20
-112.84370473804759
 30
0.0
 11
217.55537251881705
 21
-112.84370473811821
 31
0.0
  0
LINE
  5
BE
100
AcDbEntity
  8
0
  6
CONTINUOUS
 62
               4
100
AcDbLine
 10
219.55537251437187
 20
-113.04370473804758
 30
0.0
 11
217.5553725188241
 21
-113.04370473811819
 31
0.0
  0
LINE
  5
BF
100
AcDbEntity
  8
0
  6
CONTINUOUS
 62
               4
100
AcDbLine
 10
219.55537251438599
 20
-113.44370473804761
 30
0.0
 11
217.55537251883823
 21
-113.44370473811823
 31
0.0
  0
LINE
  5
C0
100
AcDbEntity
  8
0
  6
CONTINUOUS
 62
               4
100
AcDbLine
 10
219.55537251439307
 20
-113.6437047380476
 30
0.0
 11
217.5553725188453
 21
-113.64370473811822
 31
0.0
  0
ARC
  5
C1
100
AcDbEntity
  8
0
  6
CONTINUOUS
 62
               4
100
AcDbCircle
 10
223.15537251411976
 20
-105.90255048518837
 30
0.0
 40
1.3
100
AcDbArc
 50
180.00000000202232
 51
295.58827457679422
  0
LINE
  5
C2
100
AcDbEntity
  8
0
  6
CONTINUOUS
 62
               4
100
AcDbLine
 10
221.85537251411978
 20
-105.9025504855763
 30
0.0
 11
221.85537251409508
 21
-105.20255048557625
 31
0.0
  0
ARC
  5
C3
100
AcDbEntity
  8
0
  6
CONTINUOUS
 62
               4
100
AcDbCircle
 10
220.85537251409508
 20
-105.20255048526958
 30
0.0
 40
1.0
100
AcDbArc
 50
0.000000002022731
 51
90.000000002022531
  0
ARC
  5
C4
100
AcDbEntity
  8
0
  6
CONTINUOUS
 62
               4
100
AcDbCircle
 10
225.45537251409507
 20
-105.20255048510718
 30
0.0
 40
1.0
100
AcDbArc
 50
90.000000002022531
 51
110.90095671103151
  0
ARC
  5
C5
100
AcDbEntity
  8
0
  6
CONTINUOUS
 62
               4
100
AcDbCircle
 10
227.75537251409509
 20
-105.20255048502598
 30
0.0
 40
1.0
100
AcDbArc
 50
0.000000002022731
 51
90.000000002022531
  0
ARC
  5
C6
100
AcDbEntity
  8
0
  6
CONTINUOUS
 62
               4
100
AcDbCircle
 10
218.55537251409507
 20
-105.20255048535078
 30
0.0
 40
1.0
100
AcDbArc
 50
90.000000002022531
 51
180.00000000202232
  0
LINE
  5
C7
100
AcDbEntity
  8
0
  6
CONTINUOUS
 62
               4
100
AcDbLine
 10
219.55537250994738
 20
-113.82934537343303
 30
0.0
 11
226.75537250994736
 21
-113.82934537317885
 31
0.0
  0
LINE
  5
C8
100
AcDbEntity
  8
0
  6
CONTINUOUS
 62
               4
100
AcDbLine
 10
224.41917944416659
 20
-108.20455048514371
 30
0.0
 11
217.55537251420103
 21
-108.20455048538598
 31
0.0
  0
LINE
  5
C9
100
AcDbEntity
  8
0
  6
CENTER
 62
             200
100
AcDbLine
 10
225.47030264975939
 20
-103.50255046725016
 30
0.0
 11
220.85537251403508
 21
-103.50255046781736
 31
0.0
  0
LINE
  5
CA
100
AcDbEntity
  8
0
  6
CENTER
 62
               2
100
AcDbLine
 10
223.15537251309243
 20
-76.802550786297317
 30
0.0
 11
223.15537251508351
 21
-133.20133036069109
 31
0.0
  0
LINE
  5
CB
100
AcDbEntity
  8
0
  6
CONTINUOUS
 62
             200
100
AcDbLine
 10
-5.2380759022310031
 20
-164.93494795059974
 30
0.0
 11
-6.682075902230963
 21
-162.43494795059968
 31
0.0
  0
LINE
  5
CC
100
AcDbEntity
  8
0
  6
CONTINUOUS
 62
             200
100
AcDbLine
 10
-4.7380759022310031
 20
-164.93494795059974
 30
0.0
 11
-6.182075902230963
 21
-162.43494795059968
 31
0.0
  0
LINE
  5
CD
100
AcDbEntity
  8
0
  6
CONTINUOUS
 62
               4
100
AcDbLine
 10
-9.1040759022309885
 20
-163.93413056778718
 30
0.0
 11
-12.604075902230989
 21
-163.93413056778718
 31
0.0
  0
LINE
  5
CE
100
AcDbEntity
  8
0
  6
CONTINUOUS
 62
               4
100
AcDbLine
 10
-9.1040759022309885
 20
-163.43413056778718
 30
0.0
 11
-12.604075902230989
 21
-163.43413056778718
 31
0.0
  0
LINE
  5
CF
100
AcDbEntity
  8
0
  6
CONTINUOUS
 62
               4
100
AcDbLine
 10
-3.6071747795534179
 20
-161.68494795059968
 30
0.0
 11
-3.6071747795534179
 21
-165.68494795059974
 31
0.0
  0
LINE
  5
D0
100
AcDbEntity
  8
0
  6
CONTINUOUS
 62
               4
100
AcDbLine
 10
-9.1040759022309885
 20
-164.33413056778716
 30
0.0
 11
-9.1040759022309885
 21
-163.0341305677872
 31
0.0
  0
LINE
  5
D1
100
AcDbEntity
  8
0
  6
CONTINUOUS
 62
               4
100
AcDbLine
 10
-5.5840759022310067
 20
-164.33494795059971
 30
0.0
 11
-9.1040759022309885
 21
-164.33494795059971
 31
0.0
  0
LINE
  5
D2
100
AcDbEntity
  8
0
  6
CONTINUOUS
 62
               4
100
AcDbLine
 10
-6.3340759022310067
 20
-163.0349479505997
 30
0.0
 11
-9.1040759022309885
 21
-163.0349479505997
 31
0.0
  0
LINE
  5
D3
100
AcDbEntity
  8
0
  6
CONTINUOUS
 62
               4
100
AcDbLine
 10
-3.6071747795534179
 20
-163.0349479505997
 30
0.0
 11
-5.8340759022310067
 21
-163.0349479505997
 31
0.0
  0
LINE
  5
D4
100
AcDbEntity
  8
0
  6
CONTINUOUS
 62
               4
100
AcDbLine
 10
-3.6071747795534179
 20
-164.33494795059971
 30
0.0
 11
-5.0840759022310067
 21
-164.33494795059971
 31
0.0
  0
LINE
  5
D5
100
AcDbEntity
  8
0
  6
CONTINUOUS
 62
               4
100
AcDbLine
 10
-12.604075902230989
 20
-163.93413056778718
 30
0.0
 11
-12.604075902230989
 21
-163.43413056778718
 31
0.0
  0
LINE
  5
D6
100
AcDbEntity
  8
0
  6
CONTINUOUS
 62
               4
100
AcDbLine
 10
5.2128280369734057
 20
-149.18494825150603
 30
0.0
 11
5.2128280369734057
 21
-170.5849479412625
 31
0.0
  0
LINE
  5
D7
100
AcDbEntity
  8
0
  6
CONTINUOUS
 62
               4
100
AcDbLine
 10
19.212828036973406
 20
-170.58494794633026
 30
0.0
 11
19.212828036973406
 21
-149.18494825150603
 31
0.0
  0
LINE
  5
D8
100
AcDbEntity
  8
0
  6
CONTINUOUS
 62
               4
100
AcDbLine
 10
0.1928252204465935
 20
-148.68694795059969
 30
0.0
 11
0.1908252204466123
 21
-167.18494795059974
 31
0.0
  0
LINE
  5
D9
100
AcDbEntity
  8
0
  6
CONTINUOUS
 62
               4
100
AcDbLine
 10
0.1928252204465935
 20
-148.68694795059969
 30
0.0
 11
-2.1191747795534184
 21
-149.76494795059972
 31
0.0
  0
LINE
  5
DA
100
AcDbEntity
  8
0
  6
CONTINUOUS
 62
               4
100
AcDbLine
 10
-2.4071747795534293
 20
-166.18494795059974
 30
0.0
 11
-3.1071747795534179
 21
-166.18494795059974
 31
0.0
  0
LINE
  5
DB
100
AcDbEntity
  8
0
  6
CONTINUOUS
 62
               4
100
AcDbLine
 10
-2.4071747795534293
 20
-161.18494795059968
 30
0.0
 11
-3.1071747795534179
 21
-161.18494795059968
 31
0.0
  0
LINE
  5
DC
100
AcDbEntity
  8
0
  6
CONTINUOUS
 62
               4
100
AcDbLine
 10
-2.4091747795534104
 20
-166.68494795059974
 30
0.0
 11
-2.4091747795534104
 21
-166.18494795059974
 31
0.0
  0
ARC
  5
DD
100
AcDbEntity
  8
0
  6
CONTINUOUS
 62
               4
100
AcDbCircle
 10
-1.9067103350354273
 20
-150.21807517531596
 30
0.0
 40
0.5004652055472239
100
AcDbArc
 50
115.12116424320362
 51
180.09991976467791
  0
ARC
  5
DE
100
AcDbEntity
  8
0
  6
CONTINUOUS
 62
               4
100
AcDbCircle
 10
-1.9092123035588031
 20
-166.68498547460513
 30
0.0
 40
0.4999624774027422
100
AcDbArc
 50
179.99569974300056
 51
270.00430025699842
  0
LINE
  5
DF
100
AcDbEntity
  8
0
  6
CONTINUOUS
 62
               4
100
AcDbLine
 10
5.2128280369734057
 20
-167.18494795059974
 30
0.0
 11
-1.9091747795534104
 21
-167.18494795059974
 31
0.0
  0
LINE
  5
E0
100
AcDbEntity
  8
0
  6
CONTINUOUS
 62
               4
100
AcDbLine
 10
-2.4071747795534293
 20
-166.18494795059974
 30
0.0
 11
-2.4071747795534293
 21
-150.21894795059967
 31
0.0
  0
LINE
  5
E1
100
AcDbEntity
  8
0
  6
CONTINUOUS
 62
               4
100
AcDbLine
 10
8.9128280369733943
 20
-170.58494794633037
 30
0.0
 11
8.9128280369733943
 21
-171.18494794633028
 31
0.0
  0
LINE
  5
E2
100
AcDbEntity
  8
0
  6
CONTINUOUS
 62
               4
100
AcDbLine
 10
5.8957328903151733
 20
-171.18494794633023
 30
0.0
 11
17.212830853500179
 21
-171.18494794633034
 31
0.0
  0
ARC
  5
E3
100
AcDbEntity
  8
0
  6
CONTINUOUS
 62
               4
100
AcDbCircle
 10
7.6969160422104324
 20
-170.58603595156728
 30
0.0
 40
0.5989129830170392
100
AcDbArc
 50
269.89591452477231
 51
0.1040854752270701
  0
ARC
  5
E4
100
AcDbEntity
  8
0
  6
CONTINUOUS
 62
               4
100
AcDbCircle
 10
5.8957328903152302
 20
-170.58504309298843
 30
0.0
 40
0.5999048608870732
100
AcDbArc
 50
179.99091272245337
 51
236.43994933325826
  0
LINE
  5
E5
100
AcDbEntity
  8
0
  6
CONTINUOUS
 62
               4
100
AcDbLine
 10
5.2128280369734625
 20
-170.58494794633037
 30
0.0
 11
8.9128280369733943
 21
-170.58494794633037
 31
0.0
  0
LINE
  5
E6
100
AcDbEntity
  8
0
  6
CONTINUOUS
 62
               4
100
AcDbLine
 10
17.212830853500179
 20
-171.18494794633034
 30
0.0
 11
17.212830853500179
 21
-169.58494794633032
 31
0.0
  0
LINE
  5
E7
100
AcDbEntity
  8
0
  6
CONTINUOUS
 62
               4
100
AcDbLine
 10
5.2128280369734057
 20
-169.58494794633032
 30
0.0
 11
17.212830853500179
 21
-169.58494794633032
 31
0.0
  0
LINE
  5
E8
100
AcDbEntity
  8
0
  6
CONTINUOUS
 62
               4
100
AcDbLine
 10
18.712828036973463
 20
-171.08494794633026
 30
0.0
 11
17.212828036973463
 21
-171.08494794633026
 31
0.0
  0
ARC
  5
E9
100
AcDbEntity
  8
0
  6
CONTINUOUS
 62
               4
100
AcDbCircle
 10
18.712828036973463
 20
-170.58494794633026
 30
0.0
 40
0.5
100
AcDbArc
 50
270.00000000000023
 51
0.0
  0
ARC
  5
EA
100
AcDbEntity
  8
0
  6
CONTINUOUS
 62
               4
100
AcDbCircle
 10
5.7128280369734625
 20
-170.58494794633026
 30
0.0
 40
0.5
100
AcDbArc
 50
179.99999999999963
 51
245.26960130313901
  0
ARC
  5
EB
100
AcDbEntity
  8
0
  6
CONTINUOUS
 62
               4
100
AcDbCircle
 10
5.8957328903152302
 20
-170.58504309298843
 30
0.0
 40
0.5999048608870732
100
AcDbArc
 50
236.43994933325826
 51
270.00908727754575
  0
LINE
  5
EC
100
AcDbEntity
  8
0
  6
CONTINUOUS
 62
               4
100
AcDbLine
 10
3.2128280369733773
 20
-148.68694795059969
 30
0.0
 11
0.1928252204465935
 21
-148.68694795059969
 31
0.0
  0
ARC
  5
ED
100
AcDbEntity
  8
0
  6
CONTINUOUS
 62
               4
100
AcDbCircle
 10
-3.1071747795534179
 20
-161.68494795059968
 30
0.0
 40
0.5
100
AcDbArc
 50
89.999999999999815
 51
179.99999999999963
  0
ARC
  5
EE
100
AcDbEntity
  8
0
  6
CONTINUOUS
 62
               4
100
AcDbCircle
 10
-3.1071747795534179
 20
-165.68494795059974
 30
0.0
 40
0.5
100
AcDbArc
 50
179.99999999999963
 51
269.99999999999937
  0
LINE
  5
EF
100
AcDbEntity
  8
0
  6
CENTER
 62
               2
100
AcDbLine
 10
30.412828036973394
 20
-126.18494825251737
 30
0.0
 11
30.412828036973394
 21
-138.18494825251736
 31
0.0
  0
LINE
  5
F0
100
AcDbEntity
  8
0
  6
CENTER
 62
               2
100
AcDbLine
 10
30.412828036973394
 20
-109.68494825251739
 30
0.0
 11
30.412828036973394
 21
-121.68494825251739
 31
0.0
  0
ARC
  5
F1
100
AcDbEntity
  8
0
  6
CONTINUOUS
 62
               7
100
AcDbCircle
 10
4.2127328903152659
 20
-123.48485311113981
 30
0.0
 40
0.5999048608870732
100
AcDbArc
 50
89.990912722453572
 51
180.00908727754597
  0
LINE
  5
F2
100
AcDbEntity
  8
0
  6
CONTINUOUS
 62
               7
100
AcDbLine
 10
3.6128280369734398
 20
-123.48485311113981
 30
0.0
 11
3.6128280369734398
 21
-125.28603626303502
 31
0.0
  0
ARC
  5
F3
100
AcDbEntity
  8
0
  6
CONTINUOUS
 62
               7
100
AcDbCircle
 10
4.2117400317364115
 20
-125.28603626303502
 30
0.0
 40
0.5989129830170392
100
AcDbArc
 50
179.89591452477256
 51
270.1040854752265
  0
LINE
  5
F4
100
AcDbEntity
  8
0
  6
CONTINUOUS
 62
               7
100
AcDbLine
 10
4.2128280369734057
 20
-122.73494825779801
 30
0.0
 11
4.2128280369734057
 21
-126.03494825779801
 31
0.0
  0
LINE
  5
F5
100
AcDbEntity
  8
0
  6
CONTINUOUS
 62
               7
100
AcDbLine
 10
4.2128280278383556
 20
-122.73494825779801
 30
0.0
 11
3.2128280369734057
 21
-122.73494825779801
 31
0.0
  0
LINE
  5
F6
100
AcDbEntity
  8
0
  6
CONTINUOUS
 62
               7
100
AcDbLine
 10
4.2128280278383556
 20
-126.03494825779801
 30
0.0
 11
3.2128280369734057
 21
-126.03494825779801
 31
0.0
  0
LINE
  5
F7
100
AcDbEntity
  8
0
  6
CONTINUOUS
 62
               7
100
AcDbLine
 10
3.2128280369733773
 20
-135.18494825352866
 30
0.0
 11
21.212828036973377
 21
-135.18494825352866
 31
0.0
  0
LINE
  5
F8
100
AcDbEntity
  8
0
  6
CONTINUOUS
 62
               7
100
AcDbLine
 10
21.112828036973383
 20
-96.18494825352866
 30
0.0
 11
3.2128280369734057
 21
-96.18494825352866
 31
0.0
  0
LINE
  5
F9
100
AcDbEntity
  8
0
  6
CONTINUOUS
 62
               7
100
AcDbLine
 10
20.912828036973394
 20
-82.184948253528745
 30
0.0
 11
21.212828036973406
 21
-82.484948253528728
 31
0.0
  0
LINE
  5
FA
100
AcDbEntity
  8
0
  6
CENTER
 62
               2
100
AcDbLine
 10
12.212828036973406
 20
-57.555697507692443
 30
0.0
 11
12.212828036973377
 21
-173.31301352160551
 31
0.0
  0
LINE
  5
FB
100
AcDbEntity
  8
0
  6
CONTINUOUS
 62
               7
100
AcDbLine
 10
21.212828036973377
 20
-96.284948253528739
 30
0.0
 11
21.112828036973383
 21
-96.184948253528745
 31
0.0
  0
LINE
  5
FC
100
AcDbEntity
  8
0
  6
CONTINUOUS
 62
               7
100
AcDbLine
 10
3.2128280369733773
 20
-149.18494825352857
 30
0.0
 11
3.2128280369733773
 21
-82.184948253528745
 31
0.0
  0
LINE
  5
FD
100
AcDbEntity
  8
0
  6
CONTINUOUS
 62
               7
100
AcDbLine
 10
20.912828036973394
 20
-82.184948253528745
 30
0.0
 11
3.2128280369733773
 21
-82.184948253528745
 31
0.0
  0
LINE
  5
FE
100
AcDbEntity
  8
0
  6
CONTINUOUS
 62
               7
100
AcDbLine
 10
38.912828036973394
 20
-139.18494825352866
 30
0.0
 11
38.912828036973394
 21
-92.184948251506086
 31
0.0
  0
LINE
  5
FF
100
AcDbEntity
  8
0
  6
CONTINUOUS
 62
               7
100
AcDbLine
 10
38.912828032334517
 20
-139.18494825352866
 30
0.0
 11
21.912828036973394
 21
-139.18494825352866
 31
0.0
  0
LINE
  5
100
100
AcDbEntity
  8
0
  6
CONTINUOUS
 62
               7
100
AcDbLine
 10
38.912828032334517
 20
-92.184948251506086
 30
0.0
 11
21.912828036973394
 21
-92.184948251506086
 31
0.0
  0
LINE
  5
101
100
AcDbEntity
  8
0
  6
CENTER
 62
               2
100
AcDbLine
 10
24.412828036973394
 20
-132.18494825251736
 30
0.0
 11
36.412828036973394
 21
-132.18494825251736
 31
0.0
  0
CIRCLE
  5
102
100
AcDbEntity
  8
0
  6
CONTINUOUS
 62
               2
100
AcDbCircle
 10
30.412828036973394
 20
-132.18494825251736
 30
0.0
 40
4.8639993667602539
  0
CIRCLE
  5
103
100
AcDbEntity
  8
0
  6
CONTINUOUS
 62
               7
100
AcDbCircle
 10
30.412828036973394
 20
-132.18494825251736
 30
0.0
 40
4.2779998779296875
  0
LINE
  5
104
100
AcDbEntity
  8
0
  6
CENTER
 62
               2
100
AcDbLine
 10
24.412828036973394
 20
-99.184948252517373
 30
0.0
 11
36.412828036973394
 21
-99.184948252517373
 31
0.0
  0
CIRCLE
  5
105
100
AcDbEntity
  8
0
  6
CONTINUOUS
 62
               2
100
AcDbCircle
 10
30.412828036973394
 20
-99.184948252517373
 30
0.0
 40
4.8639993667602539
  0
CIRCLE
  5
106
100
AcDbEntity
  8
0
  6
CONTINUOUS
 62
               7
100
AcDbCircle
 10
30.412828036973394
 20
-99.184948252517373
 30
0.0
 40
4.2779998779296875
  0
LINE
  5
107
100
AcDbEntity
  8
0
  6
CENTER
 62
               2
100
AcDbLine
 10
24.412828036973394
 20
-115.68494825251739
 30
0.0
 11
36.412828036973394
 21
-115.68494825251739
 31
0.0
  0
CIRCLE
  5
108
100
AcDbEntity
  8
0
  6
CONTINUOUS
 62
               2
100
AcDbCircle
 10
30.412828036973394
 20
-115.68494825251739
 30
0.0
 40
4.8639993667602539
  0
CIRCLE
  5
109
100
AcDbEntity
  8
0
  6
CONTINUOUS
 62
               7
100
AcDbCircle
 10
30.412828036973394
 20
-115.68494825251739
 30
0.0
 40
4.2779998779296875
  0
LINE
  5
10A
100
AcDbEntity
  8
0
  6
CENTER
 62
               2
100
AcDbLine
 10
30.412828036973394
 20
-93.184948252517373
 30
0.0
 11
30.412828036973394
 21
-105.18494825251737
 31
0.0
  0
LINE
  5
10B
100
AcDbEntity
  8
0
  6
CONTINUOUS
 62
               7
100
AcDbLine
 10
21.912828036973394
 20
-139.18494825400143
 30
0.0
 11
21.912828036973394
 21
-92.184948251506086
 31
0.0
  0
LINE
  5
10C
100
AcDbEntity
  8
0
  6
CONTINUOUS
 62
               7
100
AcDbLine
 10
21.212828036973377
 20
-96.68494825352866
 30
0.0
 11
21.912828036973394
 21
-96.68494825352866
 31
0.0
  0
LINE
  5
10D
100
AcDbEntity
  8
0
  6
CONTINUOUS
 62
               7
100
AcDbLine
 10
21.912828036973394
 20
-134.68494825352866
 30
0.0
 11
21.212828036973377
 21
-134.68494825352866
 31
0.0
  0
LINE
  5
10E
100
AcDbEntity
  8
0
  6
CONTINUOUS
 62
               7
100
AcDbLine
 10
21.212828036973406
 20
-148.88494825352856
 30
0.0
 11
21.212828036973377
 21
-82.484948253528728
 31
0.0
  0
LINE
  5
110
100
AcDbEntity
  8
0
  6
DASHED
 62
               2
100
AcDbLine
 10
21.212828036973377
 20
-88.984948253528728
 30
0.0
 11
19.612828036973383
 21
-88.984948253528728
 31
0.0
  0
LINE
  5
111
100
AcDbEntity
  8
0
  6
CENTER
 62
               2
100
AcDbLine
 10
18.795635685553265
 20
-87.984948253528728
 30
0.0
 11
22.077694091371342
 21
-87.984948253528742
 31
0.0
  0
LINE
  5
112
100
AcDbEntity
  8
0
  6
DASHED
 62
               2
100
AcDbLine
 10
21.212828036973377
 20
-86.984948253528728
 30
0.0
 11
19.612828036973383
 21
-86.984948253528728
 31
0.0
  0
LINE
  5
113
100
AcDbEntity
  8
0
  6
CONTINUOUS
 62
               7
100
AcDbLine
 10
20.912828036973366
 20
-149.18494825352857
 30
0.0
 11
3.2128280369733204
 21
-149.18494825352857
 31
0.0
  0
LINE
  5
114
100
AcDbEntity
  8
0
  6
CONTINUOUS
 62
               7
100
AcDbLine
 10
20.912828036973366
 20
-149.18494825352857
 30
0.0
 11
21.212828036973377
 21
-148.88494825352856
 31
0.0
  0
LINE
  5
115
100
AcDbEntity
  8
0
  6
DASHED
 62
               2
100
AcDbLine
 10
21.212828036973377
 20
-142.38494825150605
 30
0.0
 11
19.612828036973383
 21
-142.38494825150605
 31
0.0
  0
LINE
  5
116
100
AcDbEntity
  8
0
  6
CENTER
 62
               2
100
AcDbLine
 10
18.795635685553265
 20
-143.38494825150605
 30
0.0
 11
22.077694091371342
 21
-143.38494825150605
 31
0.0
  0
LINE
  5
117
100
AcDbEntity
  8
0
  6
DASHED
 62
               2
100
AcDbLine
 10
21.212828036973377
 20
-144.38494825150605
 30
0.0
 11
19.612828036973383
 21
-144.38494825150605
 31
0.0
  0
LINE
  5
118
100
AcDbEntity
  8
0
  6
CENTER
 62
               2
100
AcDbLine
 10
41.412828027904396
 20
-98.184948059759904
 30
0.0
 11
36.412828027904396
 21
-98.184948059759904
 31
0.0
  0
LINE
  5
119
100
AcDbEntity
  8
0
  6
CENTER
 62
               2
100
AcDbLine
 10
41.412828027904396
 20
-133.18494844527478
 30
0.0
 11
36.412828027904396
 21
-133.18494844527478
 31
0.0
  0
LINE
  5
11A
100
AcDbEntity
  8
0
  6
CONTINUOUS
 62
               4
100
AcDbLine
 10
-9.1040759022309885
 20
-67.435765937247609
 30
0.0
 11
-12.604075902230989
 21
-67.435765937247609
 31
0.0
  0
LINE
  5
11B
100
AcDbEntity
  8
0
  6
CONTINUOUS
 62
               4
100
AcDbLine
 10
-9.1040759022309885
 20
-67.935765937247609
 30
0.0
 11
-12.604075902230989
 21
-67.935765937247609
 31
0.0
  0
LINE
  5
11C
100
AcDbEntity
  8
0
  6
CONTINUOUS
 62
               4
100
AcDbLine
 10
-3.6071747795534179
 20
-69.684948554435081
 30
0.0
 11
-3.6071747795534179
 21
-65.684948554435053
 31
0.0
  0
LINE
  5
11D
100
AcDbEntity
  8
0
  6
CONTINUOUS
 62
               4
100
AcDbLine
 10
-9.1040759022309885
 20
-67.035765937247632
 30
0.0
 11
-9.1040759022309885
 21
-68.335765937247587
 31
0.0
  0
LINE
  5
11E
100
AcDbEntity
  8
0
  6
CONTINUOUS
 62
             200
100
AcDbLine
 10
-5.2380759022310031
 20
-66.434948554435053
 30
0.0
 11
-6.682075902230963
 21
-68.934948554435081
 31
0.0
  0
LINE
  5
11F
100
AcDbEntity
  8
0
  6
CONTINUOUS
 62
               4
100
AcDbLine
 10
-5.5840759022310067
 20
-67.034948554435076
 30
0.0
 11
-9.1040759022309885
 21
-67.034948554435076
 31
0.0
  0
LINE
  5
120
100
AcDbEntity
  8
0
  6
CONTINUOUS
 62
               4
100
AcDbLine
 10
-6.3340759022310067
 20
-68.334948554435087
 30
0.0
 11
-9.1040759022309885
 21
-68.334948554435087
 31
0.0
  0
LINE
  5
121
100
AcDbEntity
  8
0
  6
CONTINUOUS
 62
             200
100
AcDbLine
 10
-4.7380759022310031
 20
-66.434948554435053
 30
0.0
 11
-6.182075902230963
 21
-68.934948554435081
 31
0.0
  0
LINE
  5
122
100
AcDbEntity
  8
0
  6
CONTINUOUS
 62
               4
100
AcDbLine
 10
-3.6071747795534179
 20
-68.334948554435087
 30
0.0
 11
-5.8340759022310067
 21
-68.334948554435087
 31
0.0
  0
LINE
  5
123
100
AcDbEntity
  8
0
  6
CONTINUOUS
 62
               4
100
AcDbLine
 10
-3.6071747795534179
 20
-67.034948554435076
 30
0.0
 11
-5.0840759022310067
 21
-67.034948554435076
 31
0.0
  0
LINE
  5
124
100
AcDbEntity
  8
0
  6
CONTINUOUS
 62
               4
100
AcDbLine
 10
-12.604075902230989
 20
-67.435765937247609
 30
0.0
 11
-12.604075902230989
 21
-67.935765937247609
 31
0.0
  0
LINE
  5
125
100
AcDbEntity
  8
0
  6
CONTINUOUS
 62
               4
100
AcDbLine
 10
5.2128280369734057
 20
-82.184948253528745
 30
0.0
 11
5.2128280369734057
 21
-60.784948563772261
 31
0.0
  0
LINE
  5
126
100
AcDbEntity
  8
0
  6
CONTINUOUS
 62
               4
100
AcDbLine
 10
19.212828036973406
 20
-60.784948558704528
 30
0.0
 11
19.212828036973406
 21
-82.184948253528745
 31
0.0
  0
LINE
  5
127
100
AcDbEntity
  8
0
  6
CONTINUOUS
 62
               4
100
AcDbLine
 10
0.1928252204465935
 20
-82.682948554435072
 30
0.0
 11
0.1908252204466123
 21
-64.184948554435053
 31
0.0
  0
LINE
  5
128
100
AcDbEntity
  8
0
  6
CONTINUOUS
 62
               4
100
AcDbLine
 10
0.1928252204465935
 20
-82.682948554435072
 30
0.0
 11
-2.1191747795534184
 21
-81.604948554435069
 31
0.0
  0
LINE
  5
129
100
AcDbEntity
  8
0
  6
CONTINUOUS
 62
               4
100
AcDbLine
 10
-2.4071747795534293
 20
-65.184948554435053
 30
0.0
 11
-3.1071747795534179
 21
-65.184948554435053
 31
0.0
  0
LINE
  5
12A
100
AcDbEntity
  8
0
  6
CONTINUOUS
 62
               4
100
AcDbLine
 10
-2.4071747795534293
 20
-70.184948554435081
 30
0.0
 11
-3.1071747795534179
 21
-70.184948554435081
 31
0.0
  0
LINE
  5
12B
100
AcDbEntity
  8
0
  6
CONTINUOUS
 62
               4
100
AcDbLine
 10
-2.4091747795534104
 20
-64.684948554435053
 30
0.0
 11
-2.4091747795534104
 21
-65.184948554435053
 31
0.0
  0
ARC
  5
12C
100
AcDbEntity
  8
0
  6
CONTINUOUS
 62
               4
100
AcDbCircle
 10
-1.9067103350354273
 20
-81.1518213297188
 30
0.0
 40
0.5004652055472239
100
AcDbArc
 50
179.9000802353213
 51
244.87883575679555
  0
ARC
  5
12D
100
AcDbEntity
  8
0
  6
CONTINUOUS
 62
               4
100
AcDbCircle
 10
-1.9092123035588031
 20
-64.68491103042966
 30
0.0
 40
0.4999624774027422
100
AcDbArc
 50
89.995699743000799
 51
180.00430025699865
  0
LINE
  5
12E
100
AcDbEntity
  8
0
  6
CONTINUOUS
 62
               4
100
AcDbLine
 10
5.2128280369734057
 20
-64.184948554435053
 30
0.0
 11
-1.9091747795534104
 21
-64.184948554435053
 31
0.0
  0
LINE
  5
12F
100
AcDbEntity
  8
0
  6
CONTINUOUS
 62
               4
100
AcDbLine
 10
-2.4071747795534293
 20
-65.184948554435053
 30
0.0
 11
-2.4071747795534293
 21
-81.150948554435089
 31
0.0
  0
LINE
  5
130
100
AcDbEntity
  8
0
  6
CONTINUOUS
 62
               4
100
AcDbLine
 10
8.9128280369733943
 20
-60.784948558704414
 30
0.0
 11
8.9128280369733943
 21
-60.184948558704505
 31
0.0
  0
LINE
  5
131
100
AcDbEntity
  8
0
  6
CONTINUOUS
 62
               4
100
AcDbLine
 10
5.8957328903151733
 20
-60.184948558704534
 30
0.0
 11
17.212830853500179
 21
-60.184948558704448
 31
0.0
  0
ARC
  5
132
100
AcDbEntity
  8
0
  6
CONTINUOUS
 62
               4
100
AcDbCircle
 10
7.6969160422104324
 20
-60.783860553467505
 30
0.0
 40
0.5989129830170392
100
AcDbArc
 50
359.89591452477293
 51
90.104085475226867
  0
ARC
  5
133
100
AcDbEntity
  8
0
  6
CONTINUOUS
 62
               4
100
AcDbCircle
 10
5.8957328903152302
 20
-60.784853412046331
 30
0.0
 40
0.5999048608870732
100
AcDbArc
 50
123.56005066674096
 51
180.00908727754583
  0
LINE
  5
134
100
AcDbEntity
  8
0
  6
CONTINUOUS
 62
               4
100
AcDbLine
 10
5.2128280369734625
 20
-60.784948558704414
 30
0.0
 11
8.9128280369733943
 21
-60.784948558704414
 31
0.0
  0
LINE
  5
135
100
AcDbEntity
  8
0
  6
CONTINUOUS
 62
               4
100
AcDbLine
 10
17.212830853500179
 20
-60.184948558704448
 30
0.0
 11
17.212830853500179
 21
-61.784948558704443
 31
0.0
  0
LINE
  5
136
100
AcDbEntity
  8
0
  6
CONTINUOUS
 62
               4
100
AcDbLine
 10
5.2128280369734057
 20
-61.784948558704443
 30
0.0
 11
17.212830853500179
 21
-61.784948558704443
 31
0.0
  0
LINE
  5
137
100
AcDbEntity
  8
0
  6
CONTINUOUS
 62
               4
100
AcDbLine
 10
18.712828036973463
 20
-60.284948558704528
 30
0.0
 11
17.212828036973463
 21
-60.284948558704528
 31
0.0
  0
ARC
  5
138
100
AcDbEntity
  8
0
  6
CONTINUOUS
 62
               4
100
AcDbCircle
 10
18.712828036973463
 20
-60.784948558704528
 30
0.0
 40
0.5
100
AcDbArc
 50
0.0
 51
89.999999999999815
  0
ARC
  5
139
100
AcDbEntity
  8
0
  6
CONTINUOUS
 62
               4
100
AcDbCircle
 10
5.7128280369734625
 20
-60.784948558704528
 30
0.0
 40
0.5
100
AcDbArc
 50
114.73039869686018
 51
179.99999999999963
  0
ARC
  5
13A
100
AcDbEntity
  8
0
  6
CONTINUOUS
 62
               4
100
AcDbCircle
 10
5.8957328903152302
 20
-60.784853412046331
 30
0.0
 40
0.5999048608870732
100
AcDbArc
 50
89.99091272245343
 51
123.56005066674096
  0
LINE
  5
13B
100
AcDbEntity
  8
0
  6
CONTINUOUS
 62
               4
100
AcDbLine
 10
3.2128280369733773
 20
-82.682948554435072
 30
0.0
 11
0.1928252204465935
 21
-82.682948554435072
 31
0.0
  0
ARC
  5
13C
100
AcDbEntity
  8
0
  6
CONTINUOUS
 62
               4
100
AcDbCircle
 10
-3.1071747795534179
 20
-69.684948554435081
 30
0.0
 40
0.5
100
AcDbArc
 50
179.99999999999963
 51
269.99999999999937
  0
ARC
  5
13D
100
AcDbEntity
  8
0
  6
CONTINUOUS
 62
               4
100
AcDbCircle
 10
-3.1071747795534179
 20
-65.684948554435053
 30
0.0
 40
0.5
100
AcDbArc
 50
89.999999999999815
 51
179.99999999999963
  0
LINE
  5
13E
100
AcDbEntity
  8
0
  6
CONTINUOUS
 62
             200
100
AcDbLine
 10
-119.1696012676511
 20
-164.93494795059974
 30
0.0
 11
-117.72560126765114
 21
-162.43494795059974
 31
0.0
  0
LINE
  5
13F
100
AcDbEntity
  8
0
  6
CONTINUOUS
 62
             200
100
AcDbLine
 10
-118.6696012676511
 20
-164.93494795059974
 30
0.0
 11
-117.22560126765114
 21
-162.43494795059974
 31
0.0
  0
LINE
  5
140
100
AcDbEntity
  8
0
  6
CONTINUOUS
 62
               4
100
AcDbLine
 10
-129.12050520685551
 20
-149.18494825150606
 30
0.0
 11
-129.12050520685551
 21
-170.58494794126256
 31
0.0
  0
LINE
  5
141
100
AcDbEntity
  8
0
  6
CONTINUOUS
 62
               4
100
AcDbLine
 10
-143.12050520685551
 20
-170.58494794633026
 30
0.0
 11
-143.12050520685551
 21
-149.18494825150606
 31
0.0
  0
LINE
  5
142
100
AcDbEntity
  8
0
  6
CONTINUOUS
 62
               4
100
AcDbLine
 10
-124.1005023903287
 20
-148.68694795059974
 30
0.0
 11
-124.09850239032872
 21
-167.18494795059974
 31
0.0
  0
LINE
  5
143
100
AcDbEntity
  8
0
  6
CONTINUOUS
 62
               4
100
AcDbLine
 10
-124.1005023903287
 20
-148.68694795059974
 30
0.0
 11
-121.78850239032869
 21
-149.76494795059972
 31
0.0
  0
LINE
  5
144
100
AcDbEntity
  8
0
  6
CONTINUOUS
 62
               4
100
AcDbLine
 10
-114.80360126765112
 20
-163.93413056778718
 30
0.0
 11
-111.30360126765112
 21
-163.93413056778718
 31
0.0
  0
LINE
  5
145
100
AcDbEntity
  8
0
  6
CONTINUOUS
 62
               4
100
AcDbLine
 10
-114.80360126765112
 20
-163.43413056778718
 30
0.0
 11
-111.30360126765112
 21
-163.43413056778718
 31
0.0
  0
ARC
  5
146
100
AcDbEntity
  8
0
  6
CONTINUOUS
 62
               4
100
AcDbCircle
 10
-120.80050239032869
 20
-165.68494795059974
 30
0.0
 40
0.5
100
AcDbArc
 50
269.99999999999937
 51
0.0
  0
ARC
  5
147
100
AcDbEntity
  8
0
  6
CONTINUOUS
 62
               4
100
AcDbCircle
 10
-120.80050239032869
 20
-161.68494795059974
 30
0.0
 40
0.5
100
AcDbArc
 50
0.0
 51
89.999999999999815
  0
LINE
  5
148
100
AcDbEntity
  8
0
  6
CONTINUOUS
 62
               4
100
AcDbLine
 10
-121.50050239032868
 20
-166.18494795059974
 30
0.0
 11
-120.80050239032869
 21
-166.18494795059974
 31
0.0
  0
LINE
  5
149
100
AcDbEntity
  8
0
  6
CONTINUOUS
 62
               4
100
AcDbLine
 10
-120.30050239032869
 20
-161.68494795059974
 30
0.0
 11
-120.30050239032869
 21
-165.68494795059974
 31
0.0
  0
LINE
  5
14A
100
AcDbEntity
  8
0
  6
CONTINUOUS
 62
               4
100
AcDbLine
 10
-121.50050239032868
 20
-161.18494795059974
 30
0.0
 11
-120.80050239032869
 21
-161.18494795059974
 31
0.0
  0
LINE
  5
14B
100
AcDbEntity
  8
0
  6
CONTINUOUS
 62
               4
100
AcDbLine
 10
-114.80360126765112
 20
-164.33413056778716
 30
0.0
 11
-114.80360126765112
 21
-163.0341305677872
 31
0.0
  0
LINE
  5
14C
100
AcDbEntity
  8
0
  6
CONTINUOUS
 62
               4
100
AcDbLine
 10
-118.3236012676511
 20
-164.33494795059971
 30
0.0
 11
-114.80360126765112
 21
-164.33494795059971
 31
0.0
  0
LINE
  5
14D
100
AcDbEntity
  8
0
  6
CONTINUOUS
 62
               4
100
AcDbLine
 10
-117.5736012676511
 20
-163.0349479505997
 30
0.0
 11
-114.80360126765112
 21
-163.0349479505997
 31
0.0
  0
LINE
  5
14E
100
AcDbEntity
  8
0
  6
CONTINUOUS
 62
               4
100
AcDbLine
 10
-121.4985023903287
 20
-166.68494795059974
 30
0.0
 11
-121.4985023903287
 21
-166.18494795059974
 31
0.0
  0
ARC
  5
14F
100
AcDbEntity
  8
0
  6
CONTINUOUS
 62
               4
100
AcDbCircle
 10
-122.00096683484668
 20
-150.21807517531602
 30
0.0
 40
0.5004652055472239
100
AcDbArc
 50
359.90008023532084
 51
64.878835756795922
  0
ARC
  5
150
100
AcDbEntity
  8
0
  6
CONTINUOUS
 62
               4
100
AcDbCircle
 10
-121.9984648663233
 20
-166.68498547460513
 30
0.0
 40
0.4999624774027422
100
AcDbArc
 50
269.99569974300039
 51
0.0043002569990523
  0
LINE
  5
151
100
AcDbEntity
  8
0
  6
CONTINUOUS
 62
               4
100
AcDbLine
 10
-129.12050520685551
 20
-167.18494795059974
 30
0.0
 11
-121.9985023903287
 21
-167.18494795059974
 31
0.0
  0
LINE
  5
152
100
AcDbEntity
  8
0
  6
CONTINUOUS
 62
               4
100
AcDbLine
 10
-120.30050239032869
 20
-163.0349479505997
 30
0.0
 11
-118.0736012676511
 21
-163.0349479505997
 31
0.0
  0
LINE
  5
153
100
AcDbEntity
  8
0
  6
CONTINUOUS
 62
               4
100
AcDbLine
 10
-120.30050239032869
 20
-164.33494795059971
 30
0.0
 11
-118.8236012676511
 21
-164.33494795059971
 31
0.0
  0
LINE
  5
154
100
AcDbEntity
  8
0
  6
CONTINUOUS
 62
               4
100
AcDbLine
 10
-127.12050520685548
 20
-148.68694795059974
 30
0.0
 11
-124.1005023903287
 21
-148.68694795059974
 31
0.0
  0
LINE
  5
155
100
AcDbEntity
  8
0
  6
CONTINUOUS
 62
               4
100
AcDbLine
 10
-111.30360126765112
 20
-163.93413056778718
 30
0.0
 11
-111.30360126765112
 21
-163.43413056778718
 31
0.0
  0
ARC
  5
156
100
AcDbEntity
  8
0
  6
CONTINUOUS
 62
               4
100
AcDbCircle
 10
-142.43760035351369
 20
-170.58504309298849
 30
0.0
 40
0.5999048608870732
100
AcDbArc
 50
236.43994933325826
 51
270.00908727754575
  0
ARC
  5
157
100
AcDbEntity
  8
0
  6
CONTINUOUS
 62
               4
100
AcDbCircle
 10
-142.62050520685546
 20
-170.58494794633026
 30
0.0
 40
0.5
100
AcDbArc
 50
179.99999999999963
 51
245.26960130313901
  0
ARC
  5
158
100
AcDbEntity
  8
0
  6
CONTINUOUS
 62
               4
100
AcDbCircle
 10
-129.62050520685546
 20
-170.58494794633026
 30
0.0
 40
0.5
100
AcDbArc
 50
270.00000000000023
 51
0.0
  0
LINE
  5
159
100
AcDbEntity
  8
0
  6
CONTINUOUS
 62
               4
100
AcDbLine
 10
-129.62050520685546
 20
-171.08494794633026
 30
0.0
 11
-131.12050520685546
 21
-171.08494794633026
 31
0.0
  0
LINE
  5
15A
100
AcDbEntity
  8
0
  6
CONTINUOUS
 62
               4
100
AcDbLine
 10
-143.12050520685551
 20
-169.58494794633037
 30
0.0
 11
-131.12050239032874
 21
-169.58494794633037
 31
0.0
  0
LINE
  5
15B
100
AcDbEntity
  8
0
  6
CONTINUOUS
 62
               4
100
AcDbLine
 10
-131.12050239032874
 20
-171.18494794633034
 30
0.0
 11
-131.12050239032874
 21
-169.58494794633037
 31
0.0
  0
LINE
  5
15C
100
AcDbEntity
  8
0
  6
CONTINUOUS
 62
               4
100
AcDbLine
 10
-143.12050520685546
 20
-170.58494794633037
 30
0.0
 11
-139.42050520685552
 21
-170.58494794633037
 31
0.0
  0
ARC
  5
15D
100
AcDbEntity
  8
0
  6
CONTINUOUS
 62
               4
100
AcDbCircle
 10
-142.43760035351369
 20
-170.58504309298849
 30
0.0
 40
0.5999048608870732
100
AcDbArc
 50
179.99091272245337
 51
236.43994933325826
  0
ARC
  5
15E
100
AcDbEntity
  8
0
  6
CONTINUOUS
 62
               4
100
AcDbCircle
 10
-140.63641720161849
 20
-170.58603595156728
 30
0.0
 40
0.5989129830170392
100
AcDbArc
 50
269.89591452477231
 51
0.1040854752270701
  0
LINE
  5
15F
100
AcDbEntity
  8
0
  6
CONTINUOUS
 62
               4
100
AcDbLine
 10
-142.43760035351374
 20
-171.18494794633028
 30
0.0
 11
-131.12050239032874
 21
-171.18494794633034
 31
0.0
  0
LINE
  5
160
100
AcDbEntity
  8
0
  6
CONTINUOUS
 62
               4
100
AcDbLine
 10
-139.42050520685552
 20
-170.58494794633037
 30
0.0
 11
-139.42050520685552
 21
-171.18494794633028
 31
0.0
  0
LINE
  5
161
100
AcDbEntity
  8
0
  6
CONTINUOUS
 62
               4
100
AcDbLine
 10
-121.50050239032868
 20
-166.18494795059974
 30
0.0
 11
-121.50050239032868
 21
-150.21894795059973
 31
0.0
  0
LINE
  5
162
100
AcDbEntity
  8
0
  6
CENTER
 62
               2
100
AcDbLine
 10
-154.32050520221662
 20
-113.4849482525174
 30
0.0
 11
-154.32050520221662
 21
-101.4849482525174
 31
0.0
  0
LINE
  5
163
100
AcDbEntity
  8
0
  6
CONTINUOUS
 62
               7
100
AcDbLine
 10
-128.12050520685551
 20
-108.63494824925931
 30
0.0
 11
-128.12050520685551
 21
-105.33494824925931
 31
0.0
  0
ARC
  5
164
100
AcDbEntity
  8
0
  6
CONTINUOUS
 62
               7
100
AcDbCircle
 10
-128.11941720161852
 20
-106.0838602440223
 30
0.0
 40
0.5989129830170392
100
AcDbArc
 50
359.89591452477219
 51
90.104085475226924
  0
LINE
  5
165
100
AcDbEntity
  8
0
  6
CONTINUOUS
 62
               7
100
AcDbLine
 10
-127.52050520685555
 20
-107.88504339591751
 30
0.0
 11
-127.52050520685555
 21
-106.0838602440223
 31
0.0
  0
ARC
  5
166
100
AcDbEntity
  8
0
  6
CONTINUOUS
 62
               7
100
AcDbCircle
 10
-128.12041006019737
 20
-107.88504339591751
 30
0.0
 40
0.5999048608870732
100
AcDbArc
 50
269.99091272245317
 51
0.0090872775463741
  0
LINE
  5
167
100
AcDbEntity
  8
0
  6
CONTINUOUS
 62
               7
100
AcDbLine
 10
-128.12050519772046
 20
-108.63494824925931
 30
0.0
 11
-127.12050520685551
 21
-108.63494824925931
 31
0.0
  0
LINE
  5
168
100
AcDbEntity
  8
0
  6
CONTINUOUS
 62
               7
100
AcDbLine
 10
-128.12050519772046
 20
-105.33494824925931
 30
0.0
 11
-127.12050520685551
 21
-105.33494824925931
 31
0.0
  0
LINE
  5
169
100
AcDbEntity
  8
0
  6
CENTER
 62
               2
100
AcDbLine
 10
-148.32050520221662
 20
-107.4849482525174
 30
0.0
 11
-160.32050520221662
 21
-107.4849482525174
 31
0.0
  0
LINE
  5
16A
100
AcDbEntity
  8
0
  6
CONTINUOUS
 62
               7
100
AcDbLine
 10
-145.12050520685548
 20
-96.684948253528646
 30
0.0
 11
-145.8205052068555
 21
-96.684948253528646
 31
0.0
  0
LINE
  5
16B
100
AcDbEntity
  8
0
  6
CONTINUOUS
 62
               7
100
AcDbLine
 10
-162.82050520221662
 20
-92.1849482515061
 30
0.0
 11
-145.8205052068555
 21
-92.1849482515061
 31
0.0
  0
LINE
  5
16C
100
AcDbEntity
  8
0
  6
CONTINUOUS
 62
               7
100
AcDbLine
 10
-144.8205052068555
 20
-82.184948253528717
 30
0.0
 11
-127.12050520685548
 21
-82.184948253528717
 31
0.0
  0
LINE
  5
16D
100
AcDbEntity
  8
0
  6
CONTINUOUS
 62
               7
100
AcDbLine
 10
-144.8205052068555
 20
-82.184948253528717
 30
0.0
 11
-145.12050520685551
 21
-82.484948253528728
 31
0.0
  0
LINE
  5
16E
100
AcDbEntity
  8
0
  6
CONTINUOUS
 62
               7
100
AcDbLine
 10
-145.02050520685549
 20
-96.184948253528646
 30
0.0
 11
-127.12050520685551
 21
-96.184948253528646
 31
0.0
  0
LINE
  5
16F
100
AcDbEntity
  8
0
  6
CONTINUOUS
 62
               7
100
AcDbLine
 10
-145.12050520685551
 20
-96.28494825352864
 30
0.0
 11
-145.02050520685549
 21
-96.184948253528646
 31
0.0
  0
LINE
  5
170
100
AcDbEntity
  8
0
  6
CENTER
 62
               2
100
AcDbLine
 10
-148.32050520221662
 20
-123.98494825251738
 30
0.0
 11
-160.32050520221662
 21
-123.98494825251738
 31
0.0
  0
CIRCLE
  5
171
100
AcDbEntity
  8
0
  6
CONTINUOUS
 62
               2
100
AcDbCircle
 10
-154.32050520221662
 20
-123.98494825251738
 30
0.0
 40
4.8639993667602539
  0
CIRCLE
  5
172
100
AcDbEntity
  8
0
  6
CONTINUOUS
 62
               7
100
AcDbCircle
 10
-154.32050520221662
 20
-123.98494825251738
 30
0.0
 40
4.2779998779296875
  0
LINE
  5
173
100
AcDbEntity
  8
0
  6
CONTINUOUS
 62
               7
100
AcDbLine
 10
-145.8205052068555
 20
-134.68494825352863
 30
0.0
 11
-145.12050520685551
 21
-134.68494825352863
 31
0.0
  0
LINE
  5
174
100
AcDbEntity
  8
0
  6
CONTINUOUS
 62
               7
100
AcDbLine
 10
-127.12050520685551
 20
-135.18494825352866
 30
0.0
 11
-145.12050520685551
 21
-135.18494825352863
 31
0.0
  0
LINE
  5
175
100
AcDbEntity
  8
0
  6
CONTINUOUS
 62
               7
100
AcDbLine
 10
-162.82050520221662
 20
-139.18494825352866
 30
0.0
 11
-145.8205052068555
 21
-139.18494825352866
 31
0.0
  0
LINE
  5
176
100
AcDbEntity
  8
0
  6
CONTINUOUS
 62
               7
100
AcDbLine
 10
-145.12050520685554
 20
-148.88494825352856
 30
0.0
 11
-145.12050520685548
 21
-82.484948253528728
 31
0.0
  0
LINE
  5
177
100
AcDbEntity
  8
0
  6
CENTER
 62
               2
100
AcDbLine
 10
-136.12050520685551
 20
-57.555697507692386
 30
0.0
 11
-136.12050520685551
 21
-173.31301352160546
 31
0.0
  0
LINE
  5
178
100
AcDbEntity
  8
0
  6
CONTINUOUS
 62
               7
100
AcDbLine
 10
-127.12050520685551
 20
-149.18494825352857
 30
0.0
 11
-127.12050520685548
 21
-82.184948253528717
 31
0.0
  0
LINE
  5
179
100
AcDbEntity
  8
0
  6
CONTINUOUS
 62
               7
100
AcDbLine
 10
-162.8205052068555
 20
-139.18494825352866
 30
0.0
 11
-162.8205052068555
 21
-92.1849482515061
 31
0.0
  0
LINE
  5
17A
100
AcDbEntity
  8
0
  6
CONTINUOUS
 62
               7
100
AcDbLine
 10
-145.82050520685553
 20
-139.18494825400143
 30
0.0
 11
-145.8205052068555
 21
-92.1849482515061
 31
0.0
  0
CIRCLE
  5
17B
100
AcDbEntity
  8
0
  6
CONTINUOUS
 62
               7
100
AcDbCircle
 10
-154.32050520221662
 20
-107.4849482525174
 30
0.0
 40
4.2779998779296875
  0
CIRCLE
  5
17C
100
AcDbEntity
  8
0
  6
CONTINUOUS
 62
               2
100
AcDbCircle
 10
-154.32050520221662
 20
-107.4849482525174
 30
0.0
 40
4.8639993667602539
  0
LINE
  5
17D
100
AcDbEntity
  8
0
  6
CENTER
 62
               2
100
AcDbLine
 10
-154.32050520221662
 20
-129.98494825251737
 30
0.0
 11
-154.32050520221662
 21
-117.98494825251738
 31
0.0
  0
LINE
  5
17E
100
AcDbEntity
  8
0
  6
CONTINUOUS
 62
               7
100
AcDbLine
 10
-144.8205052068555
 20
-149.18494825352857
 30
0.0
 11
-145.12050520685551
 21
-148.88494825352856
 31
0.0
  0
LINE
  5
17F
100
AcDbEntity
  8
0
  6
CONTINUOUS
 62
               7
100
AcDbLine
 10
-144.8205052068555
 20
-149.18494825352857
 30
0.0
 11
-127.12050520685546
 21
-149.18494825352857
 31
0.0
  0
LINE
  5
180
100
AcDbEntity
  8
0
  6
CENTER
 62
               2
100
AcDbLine
 10
-165.32050519314765
 20
-98.184948059759918
 30
0.0
 11
-160.32050519314765
 21
-98.184948059759918
 31
0.0
  0
LINE
  5
181
100
AcDbEntity
  8
0
  6
CENTER
 62
               2
100
AcDbLine
 10
-165.32050519314765
 20
-133.18494844527481
 30
0.0
 11
-160.32050519314765
 21
-133.18494844527481
 31
0.0
  0
LINE
  5
182
100
AcDbEntity
  8
0
  6
CONTINUOUS
 62
               4
100
AcDbLine
 10
-127.12050520685548
 20
-82.682948554435043
 30
0.0
 11
-124.1005023903287
 21
-82.682948554435043
 31
0.0
  0
LINE
  5
183
100
AcDbEntity
  8
0
  6
CONTINUOUS
 62
               4
100
AcDbLine
 10
-111.30360126765112
 20
-67.435765937247581
 30
0.0
 11
-111.30360126765112
 21
-67.935765937247581
 31
0.0
  0
ARC
  5
184
100
AcDbEntity
  8
0
  6
CONTINUOUS
 62
               4
100
AcDbCircle
 10
-142.43760035351369
 20
-60.784853412046303
 30
0.0
 40
0.5999048608870732
100
AcDbArc
 50
89.99091272245343
 51
123.56005066674096
  0
ARC
  5
185
100
AcDbEntity
  8
0
  6
CONTINUOUS
 62
               4
100
AcDbCircle
 10
-142.62050520685546
 20
-60.7849485587045
 30
0.0
 40
0.5
100
AcDbArc
 50
114.73039869686018
 51
179.99999999999963
  0
ARC
  5
186
100
AcDbEntity
  8
0
  6
CONTINUOUS
 62
               4
100
AcDbCircle
 10
-129.62050520685546
 20
-60.7849485587045
 30
0.0
 40
0.5
100
AcDbArc
 50
0.0
 51
89.999999999999815
  0
LINE
  5
187
100
AcDbEntity
  8
0
  6
CONTINUOUS
 62
               4
100
AcDbLine
 10
-129.62050520685546
 20
-60.2849485587045
 30
0.0
 11
-131.12050520685546
 21
-60.2849485587045
 31
0.0
  0
LINE
  5
188
100
AcDbEntity
  8
0
  6
CONTINUOUS
 62
               4
100
AcDbLine
 10
-143.12050520685551
 20
-61.784948558704414
 30
0.0
 11
-131.12050239032874
 21
-61.784948558704414
 31
0.0
  0
LINE
  5
189
100
AcDbEntity
  8
0
  6
CONTINUOUS
 62
               4
100
AcDbLine
 10
-131.12050239032874
 20
-60.18494855870442
 30
0.0
 11
-131.12050239032874
 21
-61.784948558704414
 31
0.0
  0
LINE
  5
18A
100
AcDbEntity
  8
0
  6
CONTINUOUS
 62
               4
100
AcDbLine
 10
-143.12050520685546
 20
-60.784948558704386
 30
0.0
 11
-139.42050520685552
 21
-60.784948558704386
 31
0.0
  0
ARC
  5
18B
100
AcDbEntity
  8
0
  6
CONTINUOUS
 62
               4
100
AcDbCircle
 10
-142.43760035351369
 20
-60.784853412046303
 30
0.0
 40
0.5999048608870732
100
AcDbArc
 50
123.56005066674096
 51
180.00908727754583
  0
ARC
  5
18C
100
AcDbEntity
  8
0
  6
CONTINUOUS
 62
               4
100
AcDbCircle
 10
-140.63641720161849
 20
-60.783860553467477
 30
0.0
 40
0.5989129830170392
100
AcDbArc
 50
359.89591452477293
 51
90.104085475226867
  0
LINE
  5
18D
100
AcDbEntity
  8
0
  6
CONTINUOUS
 62
               4
100
AcDbLine
 10
-142.43760035351374
 20
-60.184948558704505
 30
0.0
 11
-131.12050239032874
 21
-60.18494855870442
 31
0.0
  0
LINE
  5
18E
100
AcDbEntity
  8
0
  6
CONTINUOUS
 62
               4
100
AcDbLine
 10
-139.42050520685552
 20
-60.784948558704386
 30
0.0
 11
-139.42050520685552
 21
-60.184948558704477
 31
0.0
  0
LINE
  5
18F
100
AcDbEntity
  8
0
  6
CONTINUOUS
 62
               4
100
AcDbLine
 10
-121.50050239032868
 20
-65.184948554435024
 30
0.0
 11
-121.50050239032868
 21
-81.150948554435061
 31
0.0
  0
LINE
  5
190
100
AcDbEntity
  8
0
  6
CONTINUOUS
 62
               4
100
AcDbLine
 10
-120.30050239032869
 20
-67.034948554435047
 30
0.0
 11
-118.8236012676511
 21
-67.034948554435047
 31
0.0
  0
LINE
  5
191
100
AcDbEntity
  8
0
  6
CONTINUOUS
 62
               4
100
AcDbLine
 10
-120.30050239032869
 20
-68.334948554435059
 30
0.0
 11
-118.0736012676511
 21
-68.334948554435059
 31
0.0
  0
LINE
  5
192
100
AcDbEntity
  8
0
  6
CONTINUOUS
 62
               4
100
AcDbLine
 10
-129.12050520685551
 20
-64.184948554435024
 30
0.0
 11
-121.9985023903287
 21
-64.184948554435024
 31
0.0
  0
ARC
  5
193
100
AcDbEntity
  8
0
  6
CONTINUOUS
 62
               4
100
AcDbCircle
 10
-121.9984648663233
 20
-64.684911030429632
 30
0.0
 40
0.4999624774027422
100
AcDbArc
 50
359.99569974300096
 51
90.004300256998803
  0
ARC
  5
194
100
AcDbEntity
  8
0
  6
CONTINUOUS
 62
               4
100
AcDbCircle
 10
-122.00096683484668
 20
-81.151821329718771
 30
0.0
 40
0.5004652055472239
100
AcDbArc
 50
295.12116424320402
 51
0.0999197646782735
  0
LINE
  5
195
100
AcDbEntity
  8
0
  6
CONTINUOUS
 62
               4
100
AcDbLine
 10
-121.4985023903287
 20
-64.684948554435024
 30
0.0
 11
-121.4985023903287
 21
-65.184948554435024
 31
0.0
  0
LINE
  5
196
100
AcDbEntity
  8
0
  6
CONTINUOUS
 62
             200
100
AcDbLine
 10
-119.1696012676511
 20
-66.434948554435024
 30
0.0
 11
-117.72560126765114
 21
-68.934948554435053
 31
0.0
  0
LINE
  5
197
100
AcDbEntity
  8
0
  6
CONTINUOUS
 62
               4
100
AcDbLine
 10
-117.5736012676511
 20
-68.334948554435059
 30
0.0
 11
-114.80360126765112
 21
-68.334948554435059
 31
0.0
  0
LINE
  5
198
100
AcDbEntity
  8
0
  6
CONTINUOUS
 62
               4
100
AcDbLine
 10
-118.3236012676511
 20
-67.034948554435047
 30
0.0
 11
-114.80360126765112
 21
-67.034948554435047
 31
0.0
  0
LINE
  5
199
100
AcDbEntity
  8
0
  6
CONTINUOUS
 62
             200
100
AcDbLine
 10
-118.6696012676511
 20
-66.434948554435024
 30
0.0
 11
-117.22560126765114
 21
-68.934948554435053
 31
0.0
  0
LINE
  5
19A
100
AcDbEntity
  8
0
  6
CONTINUOUS
 62
               4
100
AcDbLine
 10
-114.80360126765112
 20
-67.035765937247604
 30
0.0
 11
-114.80360126765112
 21
-68.335765937247558
 31
0.0
  0
LINE
  5
19B
100
AcDbEntity
  8
0
  6
CONTINUOUS
 62
               4
100
AcDbLine
 10
-121.50050239032868
 20
-70.184948554435053
 30
0.0
 11
-120.80050239032869
 21
-70.184948554435053
 31
0.0
  0
LINE
  5
19C
100
AcDbEntity
  8
0
  6
CONTINUOUS
 62
               4
100
AcDbLine
 10
-120.30050239032869
 20
-69.684948554435053
 30
0.0
 11
-120.30050239032869
 21
-65.684948554435024
 31
0.0
  0
LINE
  5
19D
100
AcDbEntity
  8
0
  6
CONTINUOUS
 62
               4
100
AcDbLine
 10
-121.50050239032868
 20
-65.184948554435024
 30
0.0
 11
-120.80050239032869
 21
-65.184948554435024
 31
0.0
  0
ARC
  5
19E
100
AcDbEntity
  8
0
  6
CONTINUOUS
 62
               4
100
AcDbCircle
 10
-120.80050239032869
 20
-69.684948554435053
 30
0.0
 40
0.5
100
AcDbArc
 50
270.00000000000023
 51
0.0
  0
ARC
  5
19F
100
AcDbEntity
  8
0
  6
CONTINUOUS
 62
               4
100
AcDbCircle
 10
-120.80050239032869
 20
-65.684948554435024
 30
0.0
 40
0.5
100
AcDbArc
 50
0.0
 51
89.999999999999815
  0
LINE
  5
1A0
100
AcDbEntity
  8
0
  6
CONTINUOUS
 62
               4
100
AcDbLine
 10
-114.80360126765112
 20
-67.935765937247581
 30
0.0
 11
-111.30360126765112
 21
-67.935765937247581
 31
0.0
  0
LINE
  5
1A1
100
AcDbEntity
  8
0
  6
CONTINUOUS
 62
               4
100
AcDbLine
 10
-114.80360126765112
 20
-67.435765937247581
 30
0.0
 11
-111.30360126765112
 21
-67.435765937247581
 31
0.0
  0
LINE
  5
1A2
100
AcDbEntity
  8
0
  6
CONTINUOUS
 62
               4
100
AcDbLine
 10
-124.1005023903287
 20
-82.682948554435043
 30
0.0
 11
-121.78850239032869
 21
-81.60494855443504
 31
0.0
  0
LINE
  5
1A3
100
AcDbEntity
  8
0
  6
CONTINUOUS
 62
               4
100
AcDbLine
 10
-124.1005023903287
 20
-82.682948554435043
 30
0.0
 11
-124.09850239032872
 21
-64.184948554435024
 31
0.0
  0
LINE
  5
1A4
100
AcDbEntity
  8
0
  6
CONTINUOUS
 62
               4
100
AcDbLine
 10
-143.12050520685551
 20
-60.7849485587045
 30
0.0
 11
-143.12050520685551
 21
-82.184948253528717
 31
0.0
  0
LINE
  5
1A5
100
AcDbEntity
  8
0
  6
CONTINUOUS
 62
               4
100
AcDbLine
 10
-129.12050520685551
 20
-82.184948253528717
 30
0.0
 11
-129.12050520685551
 21
-60.784948563772232
 31
0.0
  0
LINE
  5
1A6
100
AcDbEntity
  8
0
  6
PHANTOM
 62
             200
100
AcDbLine
 10
-65.953856895487917
 20
-156.184948251506
 30
0.0
 11
-65.953856895487917
 21
-154.184948251506
 31
0.0
  0
LINE
  5
1A7
100
AcDbEntity
  8
0
  6
PHANTOM
 62
             200
100
AcDbLine
 10
-62.953856895487917
 20
-156.184948251506
 30
0.0
 11
-62.953856895487917
 21
-154.184948251506
 31
0.0
  0
LINE
  5
1A8
100
AcDbEntity
  8
0
  6
PHANTOM
 62
             200
100
AcDbLine
 10
-65.953856895487917
 20
-154.184948251506
 30
0.0
 11
-62.953856895487917
 21
-154.184948251506
 31
0.0
  0
LINE
  5
1A9
100
AcDbEntity
  8
0
  6
PHANTOM
 62
             200
100
AcDbLine
 10
-65.953856895487917
 20
-156.184948251506
 30
0.0
 11
-62.953856895487917
 21
-156.184948251506
 31
0.0
  0
ARC
  5
1AA
100
AcDbEntity
  8
0
  6
CONTINUOUS
 62
               4
100
AcDbCircle
 10
-68.723838584941078
 20
-166.68494825577545
 30
0.0
 40
0.5
100
AcDbArc
 50
179.99999999999963
 51
269.99999999999937
  0
ARC
  5
1AB
100
AcDbEntity
  8
0
  6
CONTINUOUS
 62
               4
100
AcDbCircle
 10
-60.183838584941057
 20
-166.68494825577545
 30
0.0
 40
0.5
100
AcDbArc
 50
270.00000000000023
 51
0.0
  0
ARC
  5
1AC
100
AcDbEntity
  8
0
  6
CONTINUOUS
 62
               4
100
AcDbCircle
 10
-68.723838584941078
 20
-150.39723198853022
 30
0.0
 40
0.5
100
AcDbArc
 50
89.999999999999815
 51
179.99999999999963
  0
ARC
  5
1AD
100
AcDbEntity
  8
0
  6
CONTINUOUS
 62
               4
100
AcDbCircle
 10
-60.183838584941057
 20
-150.39723198853022
 30
0.0
 40
0.5
100
AcDbArc
 50
0.0
 51
89.999999999999815
  0
LINE
  5
1AE
100
AcDbEntity
  8
0
  6
CONTINUOUS
 62
               4
100
AcDbLine
 10
-69.223838584941078
 20
-166.68494825577545
 30
0.0
 11
-69.223838584941078
 21
-150.39723198853022
 31
0.0
  0
LINE
  5
1AF
100
AcDbEntity
  8
0
  6
CONTINUOUS
 62
               4
100
AcDbLine
 10
-59.683838584941057
 20
-166.68494825577545
 30
0.0
 11
-59.683838584941043
 21
-150.39723198853022
 31
0.0
  0
LINE
  5
1B0
100
AcDbEntity
  8
0
  6
CONTINUOUS
 62
               4
100
AcDbLine
 10
-68.723838584941063
 20
-149.89723198853022
 30
0.0
 11
-60.183838584941043
 21
-149.89723198853022
 31
0.0
  0
LINE
  5
1B1
100
AcDbEntity
  8
0
  6
CONTINUOUS
 62
               4
100
AcDbLine
 10
-59.453838584941067
 20
-171.18494825577545
 30
0.0
 11
-59.453838584941053
 21
-148.68494825577545
 31
0.0
  0
ARC
  5
1B2
100
AcDbEntity
  8
0
  6
CONTINUOUS
 62
               4
100
AcDbCircle
 10
-60.249743438282891
 20
-170.58504340243366
 30
0.0
 40
0.5999048608870732
100
AcDbArc
 50
269.99091272245386
 51
0.0090872775462214
  0
ARC
  5
1B3
100
AcDbEntity
  8
0
  6
CONTINUOUS
 62
               4
100
AcDbCircle
 10
-59.953541737076861
 20
-166.68524510363966
 30
0.0
 40
0.4997032403068001
100
AcDbArc
 50
269.96596353714727
 51
0.0340364628526655
  0
ARC
  5
1B4
100
AcDbEntity
  8
0
  6
CONTINUOUS
 62
               4
100
AcDbCircle
 10
-59.953541737076847
 20
-149.18465140791125
 30
0.0
 40
0.4997032403068001
100
AcDbArc
 50
359.96596353714727
 51
90.034036462852669
  0
LINE
  5
1B5
100
AcDbEntity
  8
0
  6
CONTINUOUS
 62
               4
100
AcDbLine
 10
-69.453838584941067
 20
-171.18494825577545
 30
0.0
 11
-69.453838584941067
 21
-148.68494825577545
 31
0.0
  0
ARC
  5
1B6
100
AcDbEntity
  8
0
  6
CONTINUOUS
 62
               4
100
AcDbCircle
 10
-62.050926590178136
 20
-170.58603626101245
 30
0.0
 40
0.5989129830170392
100
AcDbArc
 50
179.89591452477256
 51
270.1040854752265
  0
CIRCLE
  5
1B7
100
AcDbEntity
  8
0
  6
CONTINUOUS
 62
               4
100
AcDbCircle
 10
-65.703244712870713
 20
-163.6849482557754
 30
0.0
 40
0.7250000000000001
  0
CIRCLE
  5
1B8
100
AcDbEntity
  8
0
  6
CONTINUOUS
 62
               4
100
AcDbCircle
 10
-63.203244712870728
 20
-163.68494825577545
 30
0.0
 40
0.7250000000000001
  0
LINE
  5
1B9
100
AcDbEntity
  8
0
  6
CONTINUOUS
 62
               4
100
AcDbLine
 10
-63.203838584941067
 20
-161.68494825577545
 30
0.0
 11
-65.703838584941053
 21
-161.68494825577545
 31
0.0
  0
LINE
  5
1BA
100
AcDbEntity
  8
0
  6
CONTINUOUS
 62
               4
100
AcDbLine
 10
-63.203838584941067
 20
-165.68494825577545
 30
0.0
 11
-65.703838584941053
 21
-165.68494825577545
 31
0.0
  0
ARC
  5
1BB
100
AcDbEntity
  8
0
  6
CONTINUOUS
 62
               4
100
AcDbCircle
 10
-65.703838584941053
 20
-163.68494825577545
 30
0.0
 40
2.0000000881710065
100
AcDbArc
 50
89.999999999999815
 51
269.99999999999937
  0
ARC
  5
1BC
100
AcDbEntity
  8
0
  6
CONTINUOUS
 62
               4
100
AcDbCircle
 10
-63.203838584941067
 20
-163.68494825577545
 30
0.0
 40
2.0000000881710065
100
AcDbArc
 50
270.00000000000023
 51
89.999999999999801
  0
ARC
  5
1BD
100
AcDbEntity
  8
0
  6
CONTINUOUS
 62
               4
100
AcDbCircle
 10
-68.953541560734919
 20
-166.68465123156932
 30
0.0
 40
0.5002971123771114
100
AcDbArc
 50
180.03401625554557
 51
269.96598374445352
  0
CIRCLE
  5
1BE
100
AcDbEntity
  8
0
  6
CONTINUOUS
 62
               4
100
AcDbCircle
 10
-65.703244712870713
 20
-163.6849482557754
 30
0.0
 40
0.25
  0
CIRCLE
  5
1BF
100
AcDbEntity
  8
0
  6
CONTINUOUS
 62
               4
100
AcDbCircle
 10
-63.203244712870728
 20
-163.68494825577545
 30
0.0
 40
0.25
  0
ARC
  5
1C0
100
AcDbEntity
  8
0
  6
CONTINUOUS
 62
               4
100
AcDbCircle
 10
-68.953838584941067
 20
-170.58494825577543
 30
0.0
 40
0.5
100
AcDbArc
 50
179.99999999999963
 51
269.99999999999937
  0
LINE
  5
1C1
100
AcDbEntity
  8
0
  6
CONTINUOUS
 62
               4
100
AcDbLine
 10
-62.653838584941113
 20
-171.08494825577543
 30
0.0
 11
-62.653838584941099
 21
-169.58494825577543
 31
0.0
  0
LINE
  5
1C2
100
AcDbEntity
  8
0
  6
CONTINUOUS
 62
               4
100
AcDbLine
 10
-62.653838584941113
 20
-171.08494825577543
 30
0.0
 11
-68.953838584941067
 21
-171.08494825577543
 31
0.0
  0
LINE
  5
1C3
100
AcDbEntity
  8
0
  6
CONTINUOUS
 62
               4
100
AcDbLine
 10
-59.953838584941067
 20
-167.18494825577545
 30
0.0
 11
-68.953838584941067
 21
-167.18494825577545
 31
0.0
  0
LINE
  5
1C4
100
AcDbEntity
  8
0
  6
CONTINUOUS
 62
               4
100
AcDbLine
 10
-59.453838584941067
 20
-169.58494825577543
 30
0.0
 11
-62.653838584941099
 21
-169.58494825577543
 31
0.0
  0
LINE
  5
1C5
100
AcDbEntity
  8
0
  6
CONTINUOUS
 62
               4
100
AcDbLine
 10
-59.453838584941067
 20
-171.18494825577545
 30
0.0
 11
-69.453838584941067
 21
-171.18494825577545
 31
0.0
  0
LINE
  5
1C6
100
AcDbEntity
  8
0
  6
CONTINUOUS
 62
               4
100
AcDbLine
 10
-59.453838584941053
 20
-170.58494825577543
 30
0.0
 11
-62.653838584941113
 21
-170.58494825577543
 31
0.0
  0
ARC
  5
1C7
100
AcDbEntity
  8
0
  6
CONTINUOUS
 62
               4
100
AcDbCircle
 10
-68.953541560734919
 20
-149.18524527998159
 30
0.0
 40
0.5002971123771115
100
AcDbArc
 50
90.034016255545609
 51
179.96598374445364
  0
ARC
  5
1C8
100
AcDbEntity
  8
0
  6
CONTINUOUS
 62
               7
100
AcDbCircle
 10
-59.65383858494107
 20
-124.38494824925928
 30
0.0
 40
1.6499999999999999
100
AcDbArc
 50
89.999999999999815
 51
269.99999999999937
  0
LINE
  5
1C9
100
AcDbEntity
  8
0
  6
CONTINUOUS
 62
               7
100
AcDbLine
 10
-59.653838584941084
 20
-122.73494824925929
 30
0.0
 11
-58.453838584941082
 21
-122.73494824925929
 31
0.0
  0
LINE
  5
1CA
100
AcDbEntity
  8
0
  6
CONTINUOUS
 62
               7
100
AcDbLine
 10
-59.653838584941084
 20
-126.0349482492593
 30
0.0
 11
-58.453838584941082
 21
-126.0349482492593
 31
0.0
  0
ARC
  5
1CB
100
AcDbEntity
  8
0
  6
CONTINUOUS
 62
               7
100
AcDbCircle
 10
-69.253838584941079
 20
-106.98494824925929
 30
0.0
 40
1.6499999999999999
100
AcDbArc
 50
269.99999999999937
 51
89.999999999999801
  0
LINE
  5
1CC
100
AcDbEntity
  8
0
  6
CONTINUOUS
 62
               7
100
AcDbLine
 10
-69.253838584941064
 20
-105.3349482492593
 30
0.0
 11
-70.453838584941053
 21
-105.33494824925928
 31
0.0
  0
LINE
  5
1CD
100
AcDbEntity
  8
0
  6
CONTINUOUS
 62
               7
100
AcDbLine
 10
-69.253838584941064
 20
-108.63494824925931
 30
0.0
 11
-70.453838584941053
 21
-108.6349482492593
 31
0.0
  0
LINE
  5
1CE
100
AcDbEntity
  8
0
  6
CONTINUOUS
 62
               7
100
AcDbLine
 10
-70.453838584941082
 20
-96.184948249259278
 30
0.0
 11
-58.453838584941082
 21
-96.184948249259293
 31
0.0
  0
LINE
  5
1CF
100
AcDbEntity
  8
0
  6
CONTINUOUS
 62
               7
100
AcDbLine
 10
-58.453838584941053
 20
-96.284948249259287
 30
0.0
 11
-58.553838584941076
 21
-96.184948249259293
 31
0.0
  0
LINE
  5
1D0
100
AcDbEntity
  8
0
  6
CONTINUOUS
 62
               7
100
AcDbLine
 10
-70.353838588493119
 20
-96.184948249259278
 30
0.0
 11
-70.453838584941082
 21
-96.284948245707213
 31
0.0
  0
CIRCLE
  5
1D1
100
AcDbEntity
  8
0
  6
CONTINUOUS
 62
               7
100
AcDbCircle
 10
-64.453838584941053
 20
-84.984948235672334
 30
0.0
 40
1.3999999999999997
  0
CIRCLE
  5
1D2
100
AcDbEntity
  8
0
  6
CONTINUOUS
 62
               7
100
AcDbCircle
 10
-64.453838584941053
 20
-84.984948235672334
 30
0.0
 40
0.75
  0
CIRCLE
  5
1D3
100
AcDbEntity
  8
0
  6
CONTINUOUS
 62
               7
100
AcDbCircle
 10
-64.453838584941053
 20
-84.984948235672334
 30
0.0
 40
1.1000000000000001
  0
LINE
  5
1D4
100
AcDbEntity
  8
0
  6
CENTER
 62
               2
100
AcDbLine
 10
-64.453838584941053
 20
-58.28494855443504
 30
0.0
 11
-64.453838584941053
 21
-173.31301352160546
 31
0.0
  0
LINE
  5
1D5
100
AcDbEntity
  8
0
  6
CENTER
 62
               2
100
AcDbLine
 10
-62.1389084492167
 20
-84.984948235672334
 30
0.0
 11
-66.677782737616724
 21
-84.98494823567232
 31
0.0
  0
LINE
  5
1D6
100
AcDbEntity
  8
0
  6
CONTINUOUS
 62
               7
100
AcDbLine
 10
-70.453838584941082
 20
-135.18494824925932
 30
0.0
 11
-58.453838584941082
 21
-135.18494824925932
 31
0.0
  0
LINE
  5
1D7
100
AcDbEntity
  8
0
  6
CONTINUOUS
 62
               7
100
AcDbLine
 10
-59.203838584941053
 20
-82.184948249259307
 30
0.0
 11
-58.753838584941064
 21
-82.184948249259293
 31
0.0
  0
CIRCLE
  5
1D8
100
AcDbEntity
  8
0
  6
CONTINUOUS
 62
               7
100
AcDbCircle
 10
-64.453588584941059
 20
-84.984948249259304
 30
0.0
 40
1.1500000000000001
  0
LINE
  5
1D9
100
AcDbEntity
  8
0
  6
CONTINUOUS
 62
               7
100
AcDbLine
 10
-70.15383858494107
 20
-82.184948249259307
 30
0.0
 11
-69.703838584941053
 21
-82.184948249259307
 31
0.0
  0
LINE
  5
1DA
100
AcDbEntity
  8
0
  6
CONTINUOUS
 62
               7
100
AcDbLine
 10
-70.15383858494107
 20
-82.184948249259307
 30
0.0
 11
-70.453838584941053
 21
-82.484948249259304
 31
0.0
  0
LINE
  5
1DB
100
AcDbEntity
  8
0
  6
CONTINUOUS
 62
               7
100
AcDbLine
 10
-58.753838584941064
 20
-82.184948249259293
 30
0.0
 11
-58.453838584941082
 21
-82.484948249259304
 31
0.0
  0
LINE
  5
1DC
100
AcDbEntity
  8
0
  6
CONTINUOUS
 62
               7
100
AcDbLine
 10
-59.40383858494107
 20
-82.38494824925931
 30
0.0
 11
-59.40383858494107
 21
-82.684948249259307
 31
0.0
  0
LINE
  5
1DD
100
AcDbEntity
  8
0
  6
CONTINUOUS
 62
               7
100
AcDbLine
 10
-69.503838584941036
 20
-82.384948249259295
 30
0.0
 11
-69.503838584941036
 21
-82.684948249259307
 31
0.0
  0
LINE
  5
1DE
100
AcDbEntity
  8
0
  6
CONTINUOUS
 62
               7
100
AcDbLine
 10
-69.503838584941036
 20
-82.384948249259295
 30
0.0
 11
-69.703838584941053
 21
-82.184948249259307
 31
0.0
  0
LINE
  5
1DF
100
AcDbEntity
  8
0
  6
CONTINUOUS
 62
               7
100
AcDbLine
 10
-59.40383858494107
 20
-82.38494824925931
 30
0.0
 11
-59.203838584941053
 21
-82.184948249259307
 31
0.0
  0
LINE
  5
1E0
100
AcDbEntity
  8
0
  6
CONTINUOUS
 62
               7
100
AcDbLine
 10
-70.45383858494111
 20
-148.88494825779799
 30
0.0
 11
-70.453838584941082
 21
-107.88494824925918
 31
0.0
  0
LINE
  5
1E1
100
AcDbEntity
  8
0
  6
CONTINUOUS
 62
               7
100
AcDbLine
 10
-58.453838584941096
 20
-148.88494825779804
 30
0.0
 11
-58.453838584941082
 21
-125.28494824925939
 31
0.0
  0
LINE
  5
1E2
100
AcDbEntity
  8
0
  6
CONTINUOUS
 62
               7
100
AcDbLine
 10
-51.353838584941059
 20
-92.184948251506086
 30
0.0
 11
-58.454787071269237
 21
-92.184948251506086
 31
0.0
  0
LINE
  5
1E3
100
AcDbEntity
  8
0
  6
CENTER
 62
               2
100
AcDbLine
 10
-75.553838584941047
 20
-94.184948059759918
 30
0.0
 11
-75.553838584941062
 21
-103.00975467596108
 31
0.0
  0
LINE
  5
1E4
100
AcDbEntity
  8
0
  6
CENTER
 62
               2
100
AcDbLine
 10
-71.046518924252041
 20
-98.184948059759918
 30
0.0
 11
-79.838392454117127
 21
-98.184948059759918
 31
0.0
  0
LINE
  5
1E5
100
AcDbEntity
  8
0
  6
CENTER
 62
               2
100
AcDbLine
 10
-75.553838584941062
 20
-137.18494844527481
 30
0.0
 11
-75.553838584941047
 21
-128.36014182907365
 31
0.0
  0
LINE
  5
1E6
100
AcDbEntity
  8
0
  6
CENTER
 62
               2
100
AcDbLine
 10
-71.046518924252055
 20
-133.18494844527481
 30
0.0
 11
-79.838392454117127
 21
-133.18494844527481
 31
0.0
  0
LINE
  5
1E7
100
AcDbEntity
  8
0
  6
CONTINUOUS
 62
               7
100
AcDbLine
 10
-51.353838584941073
 20
-139.18494825352866
 30
0.0
 11
-51.353838584941059
 21
-92.184948251506086
 31
0.0
  0
LINE
  5
1E8
100
AcDbEntity
  8
0
  6
CONTINUOUS
 62
               7
100
AcDbLine
 10
-79.553838584941062
 20
-139.18494825352866
 30
0.0
 11
-79.553838584941047
 21
-92.184948251506086
 31
0.0
  0
CIRCLE
  5
1E9
100
AcDbEntity
  8
0
  6
CONTINUOUS
 62
               7
100
AcDbCircle
 10
-75.553838584941047
 20
-98.184948059759918
 30
0.0
 40
2.25
  0
CIRCLE
  5
1EA
100
AcDbEntity
  8
0
  6
CONTINUOUS
 62
               7
100
AcDbCircle
 10
-75.553838584941047
 20
-133.18494844527481
 30
0.0
 40
2.25
  0
LINE
  5
1EB
100
AcDbEntity
  8
0
  6
CONTINUOUS
 62
               7
100
AcDbLine
 10
-70.454787071269237
 20
-92.184948251506086
 30
0.0
 11
-79.55383858201094
 21
-92.184948251506071
 31
0.0
  0
LINE
  5
1EC
100
AcDbEntity
  8
0
  6
CONTINUOUS
 62
               7
100
AcDbLine
 10
-69.503838584941036
 20
-82.684948249259307
 30
0.0
 11
-59.40383858494107
 21
-82.684948249259307
 31
0.0
  0
LINE
  5
1ED
100
AcDbEntity
  8
0
  6
CONTINUOUS
 62
               7
100
AcDbLine
 10
-51.353838584941073
 20
-139.18494825352866
 30
0.0
 11
-58.453838584941096
 21
-139.18494825352866
 31
0.0
  0
CIRCLE
  5
1EE
100
AcDbEntity
  8
0
  6
CONTINUOUS
 62
               7
100
AcDbCircle
 10
-64.453838584941067
 20
-146.38494827138504
 30
0.0
 40
1.3999999999999997
  0
CIRCLE
  5
1EF
100
AcDbEntity
  8
0
  6
CONTINUOUS
 62
               7
100
AcDbCircle
 10
-64.453838584941067
 20
-146.38494827138504
 30
0.0
 40
0.75
  0
CIRCLE
  5
1F0
100
AcDbEntity
  8
0
  6
CONTINUOUS
 62
               7
100
AcDbCircle
 10
-64.453838584941067
 20
-146.38494827138504
 30
0.0
 40
1.1000000000000001
  0
LINE
  5
1F1
100
AcDbEntity
  8
0
  6
CENTER
 62
               2
100
AcDbLine
 10
-62.138908449216714
 20
-146.38494827138499
 30
0.0
 11
-66.677782737616823
 21
-146.38494827138499
 31
0.0
  0
LINE
  5
1F2
100
AcDbEntity
  8
0
  6
CONTINUOUS
 62
               7
100
AcDbLine
 10
-59.203838584941067
 20
-149.18494825779806
 30
0.0
 11
-58.75383858494105
 21
-149.18494825779806
 31
0.0
  0
CIRCLE
  5
1F3
100
AcDbEntity
  8
0
  6
CONTINUOUS
 62
               7
100
AcDbCircle
 10
-64.453588584941002
 20
-146.38494825779804
 30
0.0
 40
1.1500000000000001
  0
LINE
  5
1F4
100
AcDbEntity
  8
0
  6
CONTINUOUS
 62
               7
100
AcDbLine
 10
-70.153838584941141
 20
-149.18494825779806
 30
0.0
 11
-69.703838584941053
 21
-149.18494825779806
 31
0.0
  0
LINE
  5
1F5
100
AcDbEntity
  8
0
  6
CONTINUOUS
 62
               7
100
AcDbLine
 10
-70.153838584941141
 20
-149.18494825779806
 30
0.0
 11
-70.453838584941025
 21
-148.88494825779804
 31
0.0
  0
LINE
  5
1F6
100
AcDbEntity
  8
0
  6
CONTINUOUS
 62
               7
100
AcDbLine
 10
-58.75383858494105
 20
-149.18494825779806
 30
0.0
 11
-58.453838584941153
 21
-148.88494825779804
 31
0.0
  0
LINE
  5
1F7
100
AcDbEntity
  8
0
  6
CONTINUOUS
 62
               7
100
AcDbLine
 10
-59.40383858494117
 20
-148.98494825779807
 30
0.0
 11
-59.40383858494117
 21
-148.68494825779811
 31
0.0
  0
LINE
  5
1F8
100
AcDbEntity
  8
0
  6
CONTINUOUS
 62
               7
100
AcDbLine
 10
-69.503838584941022
 20
-148.98494825779801
 30
0.0
 11
-69.503838584941022
 21
-148.68494825779806
 31
0.0
  0
LINE
  5
1F9
100
AcDbEntity
  8
0
  6
CONTINUOUS
 62
               7
100
AcDbLine
 10
-69.503838584941022
 20
-148.98494825779801
 30
0.0
 11
-69.703838584941053
 21
-149.18494825779806
 31
0.0
  0
LINE
  5
1FA
100
AcDbEntity
  8
0
  6
CONTINUOUS
 62
               7
100
AcDbLine
 10
-59.40383858494117
 20
-148.98494825779807
 30
0.0
 11
-59.203838584941067
 21
-149.18494825779806
 31
0.0
  0
LINE
  5
1FB
100
AcDbEntity
  8
0
  6
CONTINUOUS
 62
               7
100
AcDbLine
 10
-69.503838584941022
 20
-148.68494825779806
 30
0.0
 11
-59.40383858494117
 21
-148.68494825779811
 31
0.0
  0
LINE
  5
1FC
100
AcDbEntity
  8
0
  6
CONTINUOUS
 62
               7
100
AcDbLine
 10
-70.45383858494111
 20
-139.18494825352866
 30
0.0
 11
-79.553838584941062
 21
-139.18494825352866
 31
0.0
  0
LINE
  5
1FD
100
AcDbEntity
  8
0
  6
CONTINUOUS
 62
               7
100
AcDbLine
 10
-58.453838584941082
 20
-123.4849482492592
 30
0.0
 11
-58.453838584941082
 21
-82.484948249259304
 31
0.0
  0
LINE
  5
1FE
100
AcDbEntity
  8
0
  6
CONTINUOUS
 62
               7
100
AcDbLine
 10
-70.453838584941082
 20
-106.08494824925938
 30
0.0
 11
-70.453838584941082
 21
-82.484948249259304
 31
0.0
  0
CIRCLE
  5
1FF
100
AcDbEntity
  8
0
  6
CONTINUOUS
 62
               7
100
AcDbCircle
 10
-59.653838584941013
 20
-124.38494824925928
 30
0.0
 40
1.5
  0
LINE
  5
200
100
AcDbEntity
  8
0
  6
CONTINUOUS
 62
               7
100
AcDbLine
 10
-58.946731803754517
 20
-125.09205503044585
 30
0.0
 11
-60.360945366127567
 21
-123.67784146807276
 31
0.0
  0
LINE
  5
201
100
AcDbEntity
  8
0
  6
CONTINUOUS
 62
               7
100
AcDbLine
 10
-60.360945366127581
 20
-125.09205503044582
 30
0.0
 11
-58.946731803754517
 21
-123.67784146807274
 31
0.0
  0
CIRCLE
  5
202
100
AcDbEntity
  8
0
  6
CONTINUOUS
 62
               7
100
AcDbCircle
 10
-69.253838584941022
 20
-106.98494824925929
 30
0.0
 40
1.5
  0
LINE
  5
203
100
AcDbEntity
  8
0
  6
CONTINUOUS
 62
               7
100
AcDbLine
 10
-68.546731803754511
 20
-107.69205503044584
 30
0.0
 11
-69.960945366127561
 21
-106.27784146807275
 31
0.0
  0
LINE
  5
204
100
AcDbEntity
  8
0
  6
CONTINUOUS
 62
               7
100
AcDbLine
 10
-69.960945366127561
 20
-107.69205503044584
 30
0.0
 11
-68.546731803754511
 21
-106.27784146807275
 31
0.0
  0
LINE
  5
205
100
AcDbEntity
  8
0
  6
CENTER
 62
             200
100
AcDbLine
 10
-52.858959062572438
 20
-99.184948252517373
 30
0.0
 11
-20.573838584941072
 21
-99.184948252517373
 31
0.0
  0
LINE
  5
206
100
AcDbEntity
  8
0
  6
DASHED
 62
             200
100
AcDbLine
 10
-42.353838584941073
 20
-107.18494825251737
 30
0.0
 11
-22.853838584941045
 21
-107.18494825251737
 31
0.0
  0
LINE
  5
207
100
AcDbEntity
  8
0
  6
DASHED
 62
             200
100
AcDbLine
 10
-42.353838584941073
 20
-91.184948252517373
 30
0.0
 11
-22.853838584941073
 21
-91.184948252517387
 31
0.0
  0
LINE
  5
208
100
AcDbEntity
  8
0
  6
DASHED
 62
             200
100
AcDbLine
 10
-22.353838584941073
 20
-91.684948252517373
 30
0.0
 11
-22.353838584941045
 21
-106.68494825251737
 31
0.0
  0
LINE
  5
209
100
AcDbEntity
  8
0
  6
DASHED
 62
             200
100
AcDbLine
 10
-49.353838584941045
 20
-91.10494825251736
 30
0.0
 11
-49.353838584941073
 21
-107.26494825251736
 31
0.0
  0
LINE
  5
20A
100
AcDbEntity
  8
0
  6
DASHED
 62
             200
100
AcDbLine
 10
-49.353838584941045
 20
-91.10494825251736
 30
0.0
 11
-42.353838584941045
 21
-91.10494825251736
 31
0.0
  0
LINE
  5
20B
100
AcDbEntity
  8
0
  6
DASHED
 62
             200
100
AcDbLine
 10
-49.353838584941059
 20
-95.144948252517381
 30
0.0
 11
-42.353838584941073
 21
-95.144948252517381
 31
0.0
  0
LINE
  5
20C
100
AcDbEntity
  8
0
  6
DASHED
 62
             200
100
AcDbLine
 10
-49.353838584941045
 20
-103.22494825251736
 30
0.0
 11
-42.353838584941073
 21
-103.22494825251736
 31
0.0
  0
LINE
  5
20D
100
AcDbEntity
  8
0
  6
DASHED
 62
             200
100
AcDbLine
 10
-49.353838584941073
 20
-107.26494825251736
 30
0.0
 11
-42.353838584941073
 21
-107.26494825251736
 31
0.0
  0
LINE
  5
20E
100
AcDbEntity
  8
0
  6
DASHED
 62
             200
100
AcDbLine
 10
-42.353838584941045
 20
-91.10494825251736
 30
0.0
 11
-42.353838584941073
 21
-107.26494825251736
 31
0.0
  0
LINE
  5
20F
100
AcDbEntity
  8
0
  6
DASHED
 62
             200
100
AcDbLine
 10
-27.353838584941045
 20
-91.184948252517373
 30
0.0
 11
-27.353838584941073
 21
-98.184948252517373
 31
0.0
  0
LINE
  5
210
100
AcDbEntity
  8
0
  6
DASHED
 62
             200
100
AcDbLine
 10
-40.353838584941073
 20
-91.184948252517373
 30
0.0
 11
-40.353838584941045
 21
-97.184948252517373
 31
0.0
  0
LINE
  5
211
100
AcDbEntity
  8
0
  6
DASHED
 62
             200
100
AcDbLine
 10
-24.353838584941045
 20
-91.184948252517373
 30
0.0
 11
-24.353838584941073
 21
-107.18494825251737
 31
0.0
  0
LINE
  5
212
100
AcDbEntity
  8
0
  6
DASHED
 62
             200
100
AcDbLine
 10
-27.353838584941073
 20
-98.184948252517373
 30
0.0
 11
-30.853838584941045
 21
-97.924948252517382
 31
0.0
  0
LINE
  5
213
100
AcDbEntity
  8
0
  6
DASHED
 62
             200
100
AcDbLine
 10
-27.353838584941073
 20
-100.18494825251737
 30
0.0
 11
-30.853838584941045
 21
-100.44494825251736
 31
0.0
  0
LINE
  5
214
100
AcDbEntity
  8
0
  6
DASHED
 62
             200
100
AcDbLine
 10
-36.853838584941073
 20
-91.184948252517373
 30
0.0
 11
-36.853838584941045
 21
-97.454948252517383
 31
0.0
  0
LINE
  5
215
100
AcDbEntity
  8
0
  6
DASHED
 62
             200
100
AcDbLine
 10
-30.853838584941073
 20
-91.184948252517373
 30
0.0
 11
-30.853838584941045
 21
-97.924948252517382
 31
0.0
  0
LINE
  5
216
100
AcDbEntity
  8
0
  6
DASHED
 62
             200
100
AcDbLine
 10
-32.103838584941073
 20
-91.184948252517373
 30
0.0
 11
-32.103838584941045
 21
-97.824948252517359
 31
0.0
  0
LINE
  5
217
100
AcDbEntity
  8
0
  6
DASHED
 62
             200
100
AcDbLine
 10
-35.603838584941073
 20
-91.184948252517373
 30
0.0
 11
-35.603838584941073
 21
-97.554948252517377
 31
0.0
  0
LINE
  5
218
100
AcDbEntity
  8
0
  6
DASHED
 62
             200
100
AcDbLine
 10
-40.353838584941045
 20
-101.18494825251737
 30
0.0
 11
-40.353838584941045
 21
-107.18494825251737
 31
0.0
  0
LINE
  5
219
100
AcDbEntity
  8
0
  6
DASHED
 62
             200
100
AcDbLine
 10
-36.853838584941045
 20
-100.91494825251736
 30
0.0
 11
-36.853838584941045
 21
-107.18494825251737
 31
0.0
  0
LINE
  5
21A
100
AcDbEntity
  8
0
  6
DASHED
 62
             200
100
AcDbLine
 10
-35.603838584941073
 20
-100.81494825251737
 30
0.0
 11
-35.603838584941045
 21
-107.18494825251737
 31
0.0
  0
LINE
  5
21B
100
AcDbEntity
  8
0
  6
DASHED
 62
             200
100
AcDbLine
 10
-32.103838584941073
 20
-100.54494825251739
 30
0.0
 11
-32.103838584941045
 21
-107.18494825251737
 31
0.0
  0
LINE
  5
21C
100
AcDbEntity
  8
0
  6
DASHED
 62
             200
100
AcDbLine
 10
-27.353838584941073
 20
-100.18494825251737
 30
0.0
 11
-27.353838584941045
 21
-107.18494825251737
 31
0.0
  0
LINE
  5
21D
100
AcDbEntity
  8
0
  6
DASHED
 62
             200
100
AcDbLine
 10
-30.853838584941045
 20
-100.44494825251736
 30
0.0
 11
-30.853838584941045
 21
-107.18494825251737
 31
0.0
  0
LINE
  5
21E
100
AcDbEntity
  8
0
  6
DASHED
 62
             200
100
AcDbLine
 10
-36.853838584941045
 20
-97.454948252517383
 30
0.0
 11
-40.353838584941045
 21
-97.184948252517373
 31
0.0
  0
LINE
  5
21F
100
AcDbEntity
  8
0
  6
DASHED
 62
             200
100
AcDbLine
 10
-36.853838584941045
 20
-100.91494825251736
 30
0.0
 11
-40.353838584941045
 21
-101.18494825251737
 31
0.0
  0
LINE
  5
220
100
AcDbEntity
  8
0
  6
DASHED
 62
             200
100
AcDbLine
 10
-32.103838584941073
 20
-100.54494825251739
 30
0.0
 11
-35.603838584941073
 21
-100.81494825251737
 31
0.0
  0
LINE
  5
221
100
AcDbEntity
  8
0
  6
DASHED
 62
             200
100
AcDbLine
 10
-32.103838584941045
 20
-97.824948252517359
 30
0.0
 11
-35.603838584941073
 21
-97.554948252517377
 31
0.0
  0
LINE
  5
222
100
AcDbEntity
  8
0
  6
DASHED
 62
             200
100
AcDbLine
 10
-40.353838584941073
 20
-93.184948252517373
 30
0.0
 11
-36.853838584941045
 21
-93.054948252517377
 31
0.0
  0
LINE
  5
223
100
AcDbEntity
  8
0
  6
DASHED
 62
             200
100
AcDbLine
 10
-40.353838584941045
 20
-105.18494825251737
 30
0.0
 11
-36.853838584941073
 21
-105.31494825251737
 31
0.0
  0
LINE
  5
224
100
AcDbEntity
  8
0
  6
DASHED
 62
             200
100
AcDbLine
 10
-35.603838584941045
 20
-105.36494825251738
 30
0.0
 11
-32.103838584941073
 21
-105.49494825251737
 31
0.0
  0
LINE
  5
225
100
AcDbEntity
  8
0
  6
DASHED
 62
             200
100
AcDbLine
 10
-30.853838584941073
 20
-105.54494825251739
 30
0.0
 11
-27.353838584941045
 21
-105.68494825251737
 31
0.0
  0
LINE
  5
226
100
AcDbEntity
  8
0
  6
DASHED
 62
             200
100
AcDbLine
 10
-35.603838584941073
 20
-93.004948252517366
 30
0.0
 11
-32.103838584941073
 21
-92.87494825251737
 31
0.0
  0
LINE
  5
227
100
AcDbEntity
  8
0
  6
DASHED
 62
             200
100
AcDbLine
 10
-30.853838584941073
 20
-92.824948252517359
 30
0.0
 11
-27.353838584941045
 21
-92.684948252517373
 31
0.0
  0
LINE
  5
228
100
AcDbEntity
  8
0
  6
DASHED
 62
             200
100
AcDbLine
 10
-51.353838584941059
 20
-94.326766434335568
 30
0.0
 11
-49.353838584941073
 21
-94.264948252517371
 31
0.0
  0
LINE
  5
229
100
AcDbEntity
  8
0
  6
DASHED
 62
             200
100
AcDbLine
 10
-51.353838584941059
 20
-104.04313007069918
 30
0.0
 11
-49.353838584941073
 21
-104.10494825251736
 31
0.0
  0
ARC
  5
22A
100
AcDbEntity
  8
0
  6
DASHED
 62
             200
100
AcDbCircle
 10
-22.853838584941045
 20
-91.684948252517373
 30
0.0
 40
0.5
100
AcDbArc
 50
0.0
 51
89.999999999999815
  0
ARC
  5
22B
100
AcDbEntity
  8
0
  6
DASHED
 62
             200
100
AcDbCircle
 10
-22.853838584941045
 20
-106.68494825251737
 30
0.0
 40
0.5
100
AcDbArc
 50
269.99999999999937
 51
0.0
  0
LINE
  5
22C
100
AcDbEntity
  8
0
  6
CENTER
 62
             200
100
AcDbLine
 10
-52.858959062572438
 20
-132.18494825251736
 30
0.0
 11
-20.573838584941043
 21
-132.18494825251736
 31
0.0
  0
LINE
  5
22D
100
AcDbEntity
  8
0
  6
DASHED
 62
             200
100
AcDbLine
 10
-42.353838584941045
 20
-140.18494825251736
 30
0.0
 11
-22.853838584941073
 21
-140.18494825251736
 31
0.0
  0
LINE
  5
22E
100
AcDbEntity
  8
0
  6
DASHED
 62
             200
100
AcDbLine
 10
-42.353838584941073
 20
-124.18494825251737
 30
0.0
 11
-22.853838584941045
 21
-124.18494825251737
 31
0.0
  0
LINE
  5
22F
100
AcDbEntity
  8
0
  6
DASHED
 62
             200
100
AcDbLine
 10
-22.353838584941045
 20
-124.68494825251737
 30
0.0
 11
-22.353838584941045
 21
-139.68494825251736
 31
0.0
  0
LINE
  5
230
100
AcDbEntity
  8
0
  6
DASHED
 62
             200
100
AcDbLine
 10
-49.353838584941059
 20
-124.10494825251736
 30
0.0
 11
-49.353838584941045
 21
-140.26494825251734
 31
0.0
  0
LINE
  5
231
100
AcDbEntity
  8
0
  6
DASHED
 62
             200
100
AcDbLine
 10
-49.353838584941059
 20
-124.10494825251736
 30
0.0
 11
-42.353838584941045
 21
-124.10494825251736
 31
0.0
  0
LINE
  5
232
100
AcDbEntity
  8
0
  6
DASHED
 62
             200
100
AcDbLine
 10
-49.353838584941045
 20
-128.14494825251739
 30
0.0
 11
-42.353838584941045
 21
-128.14494825251739
 31
0.0
  0
LINE
  5
233
100
AcDbEntity
  8
0
  6
DASHED
 62
             200
100
AcDbLine
 10
-49.353838584941059
 20
-136.22494825251738
 30
0.0
 11
-42.353838584941073
 21
-136.22494825251738
 31
0.0
  0
LINE
  5
234
100
AcDbEntity
  8
0
  6
DASHED
 62
             200
100
AcDbLine
 10
-49.353838584941045
 20
-140.26494825251734
 30
0.0
 11
-42.353838584941073
 21
-140.26494825251734
 31
0.0
  0
LINE
  5
235
100
AcDbEntity
  8
0
  6
DASHED
 62
             200
100
AcDbLine
 10
-42.353838584941045
 20
-124.10494825251736
 30
0.0
 11
-42.353838584941073
 21
-140.26494825251734
 31
0.0
  0
LINE
  5
236
100
AcDbEntity
  8
0
  6
DASHED
 62
             200
100
AcDbLine
 10
-27.353838584941045
 20
-124.18494825251737
 30
0.0
 11
-27.353838584941045
 21
-131.18494825251736
 31
0.0
  0
LINE
  5
237
100
AcDbEntity
  8
0
  6
DASHED
 62
             200
100
AcDbLine
 10
-40.353838584941045
 20
-124.18494825251737
 30
0.0
 11
-40.353838584941045
 21
-130.18494825251736
 31
0.0
  0
LINE
  5
238
100
AcDbEntity
  8
0
  6
DASHED
 62
             200
100
AcDbLine
 10
-24.353838584941073
 20
-124.18494825251737
 30
0.0
 11
-24.353838584941073
 21
-140.18494825251736
 31
0.0
  0
LINE
  5
239
100
AcDbEntity
  8
0
  6
DASHED
 62
             200
100
AcDbLine
 10
-27.353838584941045
 20
-131.18494825251736
 30
0.0
 11
-30.853838584941073
 21
-130.92494825251737
 31
0.0
  0
LINE
  5
23A
100
AcDbEntity
  8
0
  6
DASHED
 62
             200
100
AcDbLine
 10
-27.353838584941045
 20
-133.18494825251736
 30
0.0
 11
-30.853838584941045
 21
-133.44494825251735
 31
0.0
  0
LINE
  5
23B
100
AcDbEntity
  8
0
  6
DASHED
 62
             200
100
AcDbLine
 10
-36.853838584941045
 20
-124.18494825251736
 30
0.0
 11
-36.853838584941073
 21
-130.4549482525174
 31
0.0
  0
LINE
  5
23C
100
AcDbEntity
  8
0
  6
DASHED
 62
             200
100
AcDbLine
 10
-30.853838584941045
 20
-124.18494825251737
 30
0.0
 11
-30.853838584941073
 21
-130.92494825251737
 31
0.0
  0
LINE
  5
23D
100
AcDbEntity
  8
0
  6
DASHED
 62
             200
100
AcDbLine
 10
-32.103838584941045
 20
-124.18494825251737
 30
0.0
 11
-32.103838584941073
 21
-130.82494825251734
 31
0.0
  0
LINE
  5
23E
100
AcDbEntity
  8
0
  6
DASHED
 62
             200
100
AcDbLine
 10
-35.603838584941045
 20
-124.18494825251737
 30
0.0
 11
-35.603838584941073
 21
-130.55494825251736
 31
0.0
  0
LINE
  5
23F
100
AcDbEntity
  8
0
  6
DASHED
 62
             200
100
AcDbLine
 10
-40.353838584941073
 20
-134.18494825251736
 30
0.0
 11
-40.353838584941073
 21
-140.18494825251736
 31
0.0
  0
LINE
  5
240
100
AcDbEntity
  8
0
  6
DASHED
 62
             200
100
AcDbLine
 10
-36.853838584941045
 20
-133.91494825251738
 30
0.0
 11
-36.853838584941073
 21
-140.18494825251736
 31
0.0
  0
LINE
  5
241
100
AcDbEntity
  8
0
  6
DASHED
 62
             200
100
AcDbLine
 10
-35.603838584941073
 20
-133.81494825251735
 30
0.0
 11
-35.603838584941073
 21
-140.18494825251736
 31
0.0
  0
LINE
  5
242
100
AcDbEntity
  8
0
  6
DASHED
 62
             200
100
AcDbLine
 10
-32.103838584941045
 20
-133.54494825251737
 30
0.0
 11
-32.103838584941073
 21
-140.18494825251736
 31
0.0
  0
LINE
  5
243
100
AcDbEntity
  8
0
  6
DASHED
 62
             200
100
AcDbLine
 10
-27.353838584941045
 20
-133.18494825251736
 30
0.0
 11
-27.353838584941073
 21
-140.18494825251736
 31
0.0
  0
LINE
  5
244
100
AcDbEntity
  8
0
  6
DASHED
 62
             200
100
AcDbLine
 10
-30.853838584941045
 20
-133.44494825251735
 30
0.0
 11
-30.853838584941045
 21
-140.18494825251736
 31
0.0
  0
LINE
  5
245
100
AcDbEntity
  8
0
  6
DASHED
 62
             200
100
AcDbLine
 10
-36.853838584941073
 20
-130.4549482525174
 30
0.0
 11
-40.353838584941045
 21
-130.18494825251736
 31
0.0
  0
LINE
  5
246
100
AcDbEntity
  8
0
  6
DASHED
 62
             200
100
AcDbLine
 10
-36.853838584941045
 20
-133.91494825251738
 30
0.0
 11
-40.353838584941073
 21
-134.18494825251736
 31
0.0
  0
LINE
  5
247
100
AcDbEntity
  8
0
  6
DASHED
 62
             200
100
AcDbLine
 10
-32.103838584941045
 20
-133.54494825251737
 30
0.0
 11
-35.603838584941073
 21
-133.81494825251735
 31
0.0
  0
LINE
  5
248
100
AcDbEntity
  8
0
  6
DASHED
 62
             200
100
AcDbLine
 10
-32.103838584941073
 20
-130.82494825251734
 30
0.0
 11
-35.603838584941073
 21
-130.55494825251736
 31
0.0
  0
LINE
  5
249
100
AcDbEntity
  8
0
  6
DASHED
 62
             200
100
AcDbLine
 10
-40.353838584941045
 20
-126.18494825251737
 30
0.0
 11
-36.853838584941073
 21
-126.05494825251738
 31
0.0
  0
LINE
  5
24A
100
AcDbEntity
  8
0
  6
DASHED
 62
             200
100
AcDbLine
 10
-40.353838584941073
 20
-138.18494825251736
 30
0.0
 11
-36.853838584941045
 21
-138.31494825251735
 31
0.0
  0
LINE
  5
24B
100
AcDbEntity
  8
0
  6
DASHED
 62
             200
100
AcDbLine
 10
-35.603838584941073
 20
-138.36494825251737
 30
0.0
 11
-32.103838584941073
 21
-138.49494825251736
 31
0.0
  0
LINE
  5
24C
100
AcDbEntity
  8
0
  6
DASHED
 62
             200
100
AcDbLine
 10
-30.853838584941073
 20
-138.54494825251737
 30
0.0
 11
-27.353838584941045
 21
-138.68494825251736
 31
0.0
  0
LINE
  5
24D
100
AcDbEntity
  8
0
  6
DASHED
 62
             200
100
AcDbLine
 10
-35.603838584941045
 20
-126.00494825251737
 30
0.0
 11
-32.103838584941073
 21
-125.87494825251737
 31
0.0
  0
LINE
  5
24E
100
AcDbEntity
  8
0
  6
DASHED
 62
             200
100
AcDbLine
 10
-30.853838584941045
 20
-125.82494825251736
 30
0.0
 11
-27.353838584941073
 21
-125.68494825251737
 31
0.0
  0
LINE
  5
24F
100
AcDbEntity
  8
0
  6
DASHED
 62
             200
100
AcDbLine
 10
-51.353838584941059
 20
-127.32676643433557
 30
0.0
 11
-49.353838584941059
 21
-127.26494825251739
 31
0.0
  0
LINE
  5
250
100
AcDbEntity
  8
0
  6
DASHED
 62
             200
100
AcDbLine
 10
-51.353838584941073
 20
-137.04313007069919
 30
0.0
 11
-49.353838584941059
 21
-137.10494825251737
 31
0.0
  0
ARC
  5
251
100
AcDbEntity
  8
0
  6
DASHED
 62
             200
100
AcDbCircle
 10
-22.853838584941073
 20
-124.68494825251737
 30
0.0
 40
0.5
100
AcDbArc
 50
0.0
 51
89.999999999999815
  0
ARC
  5
252
100
AcDbEntity
  8
0
  6
DASHED
 62
             200
100
AcDbCircle
 10
-22.853838584941045
 20
-139.68494825251736
 30
0.0
 40
0.5
100
AcDbArc
 50
269.99999999999937
 51
0.0
  0
LINE
  5
253
100
AcDbEntity
  8
0
  6
CONTINUOUS
 62
               4
100
AcDbLine
 10
-59.953838584941053
 20
-64.184948249259307
 30
0.0
 11
-68.953838584941053
 21
-64.184948249259307
 31
0.0
  0
LINE
  5
254
100
AcDbEntity
  8
0
  6
CONTINUOUS
 62
               4
100
AcDbLine
 10
-59.453838584941053
 20
-61.784948249259322
 30
0.0
 11
-62.653838584941099
 21
-61.78494824925933
 31
0.0
  0
LINE
  5
255
100
AcDbEntity
  8
0
  6
CONTINUOUS
 62
               4
100
AcDbLine
 10
-59.453838584941039
 20
-60.184948249259307
 30
0.0
 11
-69.453838584941053
 21
-60.184948249259307
 31
0.0
  0
LINE
  5
256
100
AcDbEntity
  8
0
  6
CONTINUOUS
 62
               4
100
AcDbLine
 10
-59.453838584941053
 20
-60.784948249259315
 30
0.0
 11
-62.653838584941099
 21
-60.784948249259322
 31
0.0
  0
ARC
  5
257
100
AcDbEntity
  8
0
  6
CONTINUOUS
 62
               4
100
AcDbCircle
 10
-68.953541560734919
 20
-82.184651225053187
 30
0.0
 40
0.5002971123771115
100
AcDbArc
 50
180.03401625554557
 51
269.96598374445358
  0
LINE
  5
258
100
AcDbEntity
  8
0
  6
PHANTOM
 62
             200
100
AcDbLine
 10
-65.953856895487917
 20
-75.184948253528788
 30
0.0
 11
-65.953856895487917
 21
-77.184948253528788
 31
0.0
  0
LINE
  5
259
100
AcDbEntity
  8
0
  6
PHANTOM
 62
             200
100
AcDbLine
 10
-62.953856895487917
 20
-75.184948253528773
 30
0.0
 11
-62.953856895487917
 21
-77.184948253528788
 31
0.0
  0
LINE
  5
25A
100
AcDbEntity
  8
0
  6
PHANTOM
 62
             200
100
AcDbLine
 10
-65.953856895487917
 20
-77.184948253528788
 30
0.0
 11
-62.953856895487917
 21
-77.184948253528788
 31
0.0
  0
LINE
  5
25B
100
AcDbEntity
  8
0
  6
PHANTOM
 62
             200
100
AcDbLine
 10
-65.953856895487917
 20
-75.184948253528788
 30
0.0
 11
-62.953856895487917
 21
-75.184948253528773
 31
0.0
  0
LINE
  5
25C
100
AcDbEntity
  8
0
  6
CONTINUOUS
 62
               4
100
AcDbLine
 10
-62.653838584941099
 20
-60.28494824925933
 30
0.0
 11
-68.953838584941053
 21
-60.28494824925933
 31
0.0
  0
LINE
  5
25D
100
AcDbEntity
  8
0
  6
CONTINUOUS
 62
               4
100
AcDbLine
 10
-62.653838584941099
 20
-60.28494824925933
 30
0.0
 11
-62.653838584941099
 21
-61.78494824925933
 31
0.0
  0
ARC
  5
25E
100
AcDbEntity
  8
0
  6
CONTINUOUS
 62
               4
100
AcDbCircle
 10
-68.953838584941053
 20
-60.78494824925933
 30
0.0
 40
0.5
100
AcDbArc
 50
89.999999999999815
 51
179.99999999999963
  0
CIRCLE
  5
25F
100
AcDbEntity
  8
0
  6
CONTINUOUS
 62
               4
100
AcDbCircle
 10
-63.203244712870713
 20
-67.684948249259307
 30
0.0
 40
0.25
  0
CIRCLE
  5
260
100
AcDbEntity
  8
0
  6
CONTINUOUS
 62
               4
100
AcDbCircle
 10
-65.703244712870713
 20
-67.684948249259307
 30
0.0
 40
0.25
  0
ARC
  5
261
100
AcDbEntity
  8
0
  6
CONTINUOUS
 62
               4
100
AcDbCircle
 10
-68.953541560734919
 20
-64.685245273465441
 30
0.0
 40
0.5002971123771114
100
AcDbArc
 50
90.034016255545609
 51
179.96598374445358
  0
ARC
  5
262
100
AcDbEntity
  8
0
  6
CONTINUOUS
 62
               4
100
AcDbCircle
 10
-63.203838584941053
 20
-67.684948249259307
 30
0.0
 40
2.0000000881710065
100
AcDbArc
 50
269.99999999999937
 51
89.999999999999801
  0
ARC
  5
263
100
AcDbEntity
  8
0
  6
CONTINUOUS
 62
               4
100
AcDbCircle
 10
-65.703838584941053
 20
-67.684948249259307
 30
0.0
 40
2.0000000881710065
100
AcDbArc
 50
89.999999999999815
 51
269.99999999999937
  0
LINE
  5
264
100
AcDbEntity
  8
0
  6
CONTINUOUS
 62
               4
100
AcDbLine
 10
-63.203838584941053
 20
-65.684948249259293
 30
0.0
 11
-65.703838584941039
 21
-65.684948249259307
 31
0.0
  0
LINE
  5
265
100
AcDbEntity
  8
0
  6
CONTINUOUS
 62
               4
100
AcDbLine
 10
-63.203838584941053
 20
-69.684948249259307
 30
0.0
 11
-65.703838584941053
 21
-69.684948249259293
 31
0.0
  0
CIRCLE
  5
266
100
AcDbEntity
  8
0
  6
CONTINUOUS
 62
               4
100
AcDbCircle
 10
-63.203244712870713
 20
-67.684948249259307
 30
0.0
 40
0.7250000000000001
  0
CIRCLE
  5
267
100
AcDbEntity
  8
0
  6
CONTINUOUS
 62
               4
100
AcDbCircle
 10
-65.703244712870713
 20
-67.684948249259307
 30
0.0
 40
0.7250000000000001
  0
ARC
  5
268
100
AcDbEntity
  8
0
  6
CONTINUOUS
 62
               4
100
AcDbCircle
 10
-62.050926590178136
 20
-60.783860244022307
 30
0.0
 40
0.5989129830170392
100
AcDbArc
 50
89.895914524772735
 51
180.10408547522667
  0
LINE
  5
269
100
AcDbEntity
  8
0
  6
CONTINUOUS
 62
               4
100
AcDbLine
 10
-69.453838584941053
 20
-60.184948249259307
 30
0.0
 11
-69.453838584941053
 21
-82.684948249259307
 31
0.0
  0
ARC
  5
26A
100
AcDbEntity
  8
0
  6
CONTINUOUS
 62
               4
100
AcDbCircle
 10
-59.953541737076847
 20
-82.185245097123513
 30
0.0
 40
0.4997032403068001
100
AcDbArc
 50
269.96596353714654
 51
0.0340364628527164
  0
ARC
  5
26B
100
AcDbEntity
  8
0
  6
CONTINUOUS
 62
               4
100
AcDbCircle
 10
-59.953541737076847
 20
-64.684651401395115
 30
0.0
 40
0.4997032403068001
100
AcDbArc
 50
359.96596353714654
 51
90.034036462852711
  0
ARC
  5
26C
100
AcDbEntity
  8
0
  6
CONTINUOUS
 62
               4
100
AcDbCircle
 10
-60.249743438282877
 20
-60.784853102601133
 30
0.0
 40
0.5999048608870732
100
AcDbArc
 50
359.99091272245295
 51
90.009087277546172
  0
LINE
  5
26D
100
AcDbEntity
  8
0
  6
CONTINUOUS
 62
               4
100
AcDbLine
 10
-59.453838584941039
 20
-60.184948249259307
 30
0.0
 11
-59.453838584941053
 21
-82.684948249259293
 31
0.0
  0
LINE
  5
26E
100
AcDbEntity
  8
0
  6
CONTINUOUS
 62
               4
100
AcDbLine
 10
-68.723838584941063
 20
-81.472664516504565
 30
0.0
 11
-60.183838584941043
 21
-81.472664516504565
 31
0.0
  0
LINE
  5
26F
100
AcDbEntity
  8
0
  6
CONTINUOUS
 62
               4
100
AcDbLine
 10
-59.683838584941029
 20
-64.684948249259307
 30
0.0
 11
-59.683838584941043
 21
-80.972664516504565
 31
0.0
  0
LINE
  5
270
100
AcDbEntity
  8
0
  6
CONTINUOUS
 62
               4
100
AcDbLine
 10
-69.223838584941063
 20
-64.684948249259293
 30
0.0
 11
-69.223838584941063
 21
-80.972664516504565
 31
0.0
  0
ARC
  5
271
100
AcDbEntity
  8
0
  6
CONTINUOUS
 62
               4
100
AcDbCircle
 10
-60.183838584941043
 20
-80.972664516504565
 30
0.0
 40
0.5
100
AcDbArc
 50
269.99999999999937
 51
0.0
  0
ARC
  5
272
100
AcDbEntity
  8
0
  6
CONTINUOUS
 62
               4
100
AcDbCircle
 10
-68.723838584941063
 20
-80.972664516504565
 30
0.0
 40
0.5
100
AcDbArc
 50
179.99999999999963
 51
269.99999999999937
  0
ARC
  5
273
100
AcDbEntity
  8
0
  6
CONTINUOUS
 62
               4
100
AcDbCircle
 10
-60.183838584941029
 20
-64.684948249259307
 30
0.0
 40
0.5
100
AcDbArc
 50
0.0
 51
89.999999999999815
  0
ARC
  5
274
100
AcDbEntity
  8
0
  6
CONTINUOUS
 62
               4
100
AcDbCircle
 10
-68.723838584941063
 20
-64.684948249259307
 30
0.0
 40
0.5
100
AcDbArc
 50
89.999999999999815
 51
179.99999999999963
  0
LINE
  5
275
100
AcDbEntity
  8
0
  6
CONTINUOUS
 62
               4
100
AcDbLine
 10
196.78589191965028
 20
8.654944326373851
 30
0.0
 11
196.68690202071701
 21
8.654944326373851
 31
0.0
  0
LINE
  5
276
100
AcDbEntity
  8
0
  6
CONTINUOUS
 62
               4
100
AcDbLine
 10
196.78589191965028
 20
9.8569645277072198
 30
0.0
 11
196.68690202071701
 21
9.9559544266405453
 31
0.0
  0
LINE
  5
277
100
AcDbEntity
  8
0
  6
CONTINUOUS
 62
               4
100
AcDbLine
 10
199.93942727138364
 20
-10.612732430292823
 30
0.0
 11
199.93942727138364
 21
-6.0450556652261582
 31
0.0
  0
LINE
  5
278
100
AcDbEntity
  8
0
  6
CONTINUOUS
 62
               4
100
AcDbLine
 10
198.63841717111694
 20
-13.540005155892828
 30
0.0
 11
198.63841717111694
 21
-10.209702127492818
 31
0.0
  0
LINE
  5
279
100
AcDbEntity
  8
0
  6
CONTINUOUS
 62
               4
100
AcDbLine
 10
199.93942727138364
 20
-13.540005155892828
 30
0.0
 11
199.93942727138364
 21
-10.959197076559491
 31
0.0
  0
LINE
  5
27A
100
AcDbEntity
  8
0
  6
CONTINUOUS
 62
               4
100
AcDbLine
 10
199.93942727138364
 20
-13.540005155892828
 30
0.0
 11
198.63841717111694
 21
-13.540005155892828
 31
0.0
  0
LINE
  5
27B
100
AcDbEntity
  8
0
  6
CONTINUOUS
 62
               4
100
AcDbLine
 10
199.53639696858369
 20
-17.040005153892849
 30
0.0
 11
199.53639696858369
 21
-13.540005155892828
 31
0.0
  0
LINE
  5
27C
100
AcDbEntity
  8
0
  6
CONTINUOUS
 62
               4
100
AcDbLine
 10
199.041447473917
 20
-17.040005153892849
 30
0.0
 11
199.041447473917
 21
-13.540005155892828
 31
0.0
  0
LINE
  5
27D
100
AcDbEntity
  8
0
  6
CONTINUOUS
 62
               4
100
AcDbLine
 10
198.63841717111694
 20
-9.8632374812261503
 30
0.0
 11
198.63841717111694
 21
-6.0450556652261582
 31
0.0
  0
LINE
  5
27E
100
AcDbEntity
  8
0
  6
CONTINUOUS
 62
               4
100
AcDbLine
 10
201.78488181578365
 20
-6.0470758829593763
 30
0.0
 11
201.78488181578365
 21
-5.0430354794927155
 31
0.0
  0
LINE
  5
27F
100
AcDbEntity
  8
0
  6
CONTINUOUS
 62
               4
100
AcDbLine
 10
201.78488181578365
 20
-0.0420253656261309
 30
0.0
 11
201.78488181578365
 21
1.958984734240488
 31
0.0
  0
LINE
  5
280
100
AcDbEntity
  8
0
  6
CONTINUOUS
 62
               4
100
AcDbLine
 10
201.28993232111696
 20
-5.0430354794927155
 30
0.0
 11
201.28993232111696
 21
-0.0420253656261309
 31
0.0
  0
LINE
  5
281
100
AcDbEntity
  8
0
  6
CONTINUOUS
 62
               4
100
AcDbLine
 10
201.78488181578365
 20
21.452924117040624
 30
0.0
 11
201.78488181578365
 21
1.958984734240488
 31
0.0
  0
ARC
  5
282
100
AcDbEntity
  8
0
  6
CONTINUOUS
 62
               4
100
AcDbCircle
 10
197.29189925754787
 20
18.803439619548868
 30
0.0
 40
0.5060324378497572
100
AcDbArc
 50
115.28139190005253
 51
179.42932783011443
  0
ARC
  5
283
100
AcDbEntity
  8
0
  6
CONTINUOUS
 62
               4
100
AcDbCircle
 10
197.28609819583829
 20
2.4592156022568759
 30
0.0
 40
0.5002341568128574
100
AcDbArc
 50
180.6049287534631
 51
270.20776371315344
  0
ARC
  5
284
100
AcDbEntity
  8
0
  6
CONTINUOUS
 62
               4
100
AcDbCircle
 10
195.99203619702513
 20
9.6538505539323012
 30
0.0
 40
0.3021474965435785
100
AcDbArc
 50
90.973632984511639
 51
179.02636701548775
  0
ARC
  5
285
100
AcDbEntity
  8
0
  6
CONTINUOUS
 62
               4
100
AcDbCircle
 10
197.18994537425016
 20
2.9586523835959895
 30
0.0
 40
0.5030505883944908
100
AcDbArc
 50
180.30728929118945
 51
216.56260835465233
  0
ARC
  5
286
100
AcDbEntity
  8
0
  6
CONTINUOUS
 62
               4
100
AcDbCircle
 10
197.28801119241899
 20
1.5524779745468038
 30
0.0
 40
0.4029462287748787
100
AcDbArc
 50
0.4943309171552727
 51
169.39117201772518
  0
LINE
  5
287
100
AcDbEntity
  8
0
  6
CONTINUOUS
 62
               4
100
AcDbLine
 10
196.68690202071701
 20
9.9559544266405453
 30
0.0
 11
195.98690202111703
 21
9.9559544266405453
 31
0.0
  0
LINE
  5
288
100
AcDbEntity
  8
0
  6
CONTINUOUS
 62
               4
100
AcDbLine
 10
195.689932324317
 20
0.556964517307307
 30
0.0
 11
195.689932324317
 21
9.6589847298405118
 31
0.0
  0
LINE
  5
289
100
AcDbEntity
  8
0
  6
CONTINUOUS
 62
               4
100
AcDbLine
 10
197.69094242418367
 20
0.4599948361071427
 30
0.0
 11
197.386902020317
 21
0.1559544322405202
 31
0.0
  0
LINE
  5
28A
100
AcDbEntity
  8
0
  6
CONTINUOUS
 62
               4
100
AcDbLine
 10
201.78488181578365
 20
-0.0420253656261309
 30
0.0
 11
201.28993232111696
 21
-0.0420253656261309
 31
0.0
  0
LINE
  5
28B
100
AcDbEntity
  8
0
  6
CONTINUOUS
 62
               4
100
AcDbLine
 10
201.78488181578365
 20
-5.0430354794927155
 30
0.0
 11
201.28993232111696
 21
-5.0430354794927155
 31
0.0
  0
LINE
  5
28C
100
AcDbEntity
  8
0
  6
CONTINUOUS
 62
               4
100
AcDbLine
 10
197.69094242418367
 20
-6.0470758829593763
 30
0.0
 11
197.386902020317
 21
-5.743035479092697
 31
0.0
  0
LINE
  5
28D
100
AcDbEntity
  8
0
  6
CONTINUOUS
 62
               4
100
AcDbLine
 10
197.386902020317
 20
-5.743035479092697
 30
0.0
 11
197.386902020317
 21
0.1559544322405202
 31
0.0
  0
LINE
  5
28E
100
AcDbEntity
  8
0
  6
CONTINUOUS
 62
               4
100
AcDbLine
 10
197.69094242418367
 20
-6.0470758829593763
 30
0.0
 11
197.69094242418367
 21
1.555954431434543
 31
0.0
  0
LINE
  5
28F
100
AcDbEntity
  8
0
  6
CONTINUOUS
 62
               4
100
AcDbLine
 10
196.68690202071701
 20
2.955954430640503
 30
0.0
 11
196.68690202071701
 21
8.654944326373851
 31
0.0
  0
LINE
  5
290
100
AcDbEntity
  8
0
  6
CONTINUOUS
 62
               4
100
AcDbLine
 10
196.89195252565031
 20
1.6246412843739506
 30
0.0
 11
195.78892222325027
 21
-4.6374991033022184
 31
0.0
  0
LINE
  5
291
100
AcDbEntity
  8
0
  6
CONTINUOUS
 62
               4
100
AcDbLine
 10
195.78892222325027
 20
-6.0470758829593763
 30
0.0
 11
194.79195252685037
 21
-6.0470758829593763
 31
0.0
  0
LINE
  5
292
100
AcDbEntity
  8
0
  6
CONTINUOUS
 62
               4
100
AcDbLine
 10
195.78892222325027
 20
-6.0470758829593763
 30
0.0
 11
195.78892222325027
 21
-4.632934469626008
 31
0.0
  0
LINE
  5
293
100
AcDbEntity
  8
0
  6
CONTINUOUS
 62
               4
100
AcDbLine
 10
195.689932324317
 20
0.556964517307307
 30
0.0
 11
194.79195252685037
 21
-4.5480859848260309
 31
0.0
  0
LINE
  5
294
100
AcDbEntity
  8
0
  6
CONTINUOUS
 62
               4
100
AcDbLine
 10
194.79195252685037
 20
-6.0470758829593763
 30
0.0
 11
194.79195252685037
 21
-4.5480859848260309
 31
0.0
  0
LINE
  5
295
100
AcDbEntity
  8
0
  6
CONTINUOUS
 62
               4
100
AcDbLine
 10
198.39094242378366
 20
-6.0470758829593763
 30
0.0
 11
198.39094242378366
 21
1.958984734240488
 31
0.0
  0
LINE
  5
296
100
AcDbEntity
  8
0
  6
CONTINUOUS
 62
               4
100
AcDbLine
 10
200.18690201871703
 20
-6.0470758829593763
 30
0.0
 11
200.18690201871703
 21
1.958984734240488
 31
0.0
  0
LINE
  5
297
100
AcDbEntity
  8
0
  6
CONTINUOUS
 62
               4
100
AcDbLine
 10
201.78488181578365
 20
-6.0470758829593763
 30
0.0
 11
197.69094242418367
 21
-6.0470758829593763
 31
0.0
  0
LINE
  5
298
100
AcDbEntity
  8
0
  6
CONTINUOUS
 62
               4
100
AcDbLine
 10
201.78488181578365
 20
21.452924117040624
 30
0.0
 11
197.07579090938367
 21
19.261004926373886
 31
0.0
  0
LINE
  5
299
100
AcDbEntity
  8
0
  6
CONTINUOUS
 62
               4
100
AcDbLine
 10
196.78589191965028
 20
2.4539342289071726
 30
0.0
 11
196.78589191965028
 21
18.808479674107275
 31
0.0
  0
LINE
  5
29A
100
AcDbEntity
  8
0
  6
CONTINUOUS
 62
               4
100
AcDbLine
 10
204.78993231911699
 20
1.958984734240488
 30
0.0
 11
197.28791212138361
 21
1.958984734240488
 31
0.0
  0
LINE
  5
29B
100
AcDbEntity
  8
0
  6
CONTINUOUS
 62
               4
100
AcDbLine
 10
216.78993231511703
 20
0.552924117040476
 30
0.0
 11
204.78993231911699
 21
0.552924117040476
 31
0.0
  0
LINE
  5
29C
100
AcDbEntity
  8
0
  6
CONTINUOUS
 62
               4
100
AcDbLine
 10
216.78993231511703
 20
-1.0470758829594899
 30
0.0
 11
216.78993231511703
 21
0.552924117040476
 31
0.0
  0
ARC
  5
29D
100
AcDbEntity
  8
0
  6
CONTINUOUS
 62
               4
100
AcDbCircle
 10
218.28993231111696
 20
-0.4470758829595241
 30
0.0
 40
0.5
100
AcDbArc
 50
269.99999999999937
 51
0.0
  0
ARC
  5
29E
100
AcDbEntity
  8
0
  6
CONTINUOUS
 62
               4
100
AcDbCircle
 10
205.28993231911699
 20
-0.4470758829595241
 30
0.0
 40
0.5
100
AcDbArc
 50
179.99999999999963
 51
266.08041410034838
  0
ARC
  5
29F
100
AcDbEntity
  8
0
  6
CONTINUOUS
 62
               4
100
AcDbCircle
 10
205.58884439998877
 20
-0.4481638880876915
 30
0.0
 40
0.5989129231257409
100
AcDbArc
 50
179.89591452477254
 51
270.10408547522644
  0
ARC
  5
2A0
100
AcDbEntity
  8
0
  6
CONTINUOUS
 62
               4
100
AcDbCircle
 10
217.99002737176562
 20
-0.4471710296081426
 30
0.0
 40
0.5999048008965869
100
AcDbArc
 50
269.990912722453
 51
303.75258212960529
  0
LINE
  5
2A1
100
AcDbEntity
  8
0
  6
CONTINUOUS
 62
               4
100
AcDbLine
 10
217.989932225117
 20
-1.0470758829594899
 30
0.0
 11
205.58993240511694
 21
-1.0470758829594899
 31
0.0
  0
LINE
  5
2A2
100
AcDbEntity
  8
0
  6
CONTINUOUS
 62
               4
100
AcDbLine
 10
218.28993231111696
 20
-0.9470758829595241
 30
0.0
 11
216.78993231511703
 21
-0.9470758829595241
 31
0.0
  0
LINE
  5
2A3
100
AcDbEntity
  8
0
  6
CONTINUOUS
 62
               4
100
AcDbLine
 10
207.48993231511696
 20
-0.4470758829595241
 30
0.0
 11
204.78993231911699
 21
-0.4470758829595241
 31
0.0
  0
LINE
  5
2A4
100
AcDbEntity
  8
0
  6
CONTINUOUS
 62
               4
100
AcDbLine
 10
207.48993231511696
 20
-1.0470758829594899
 30
0.0
 11
207.48993231511696
 21
-0.4470758829595241
 31
0.0
  0
LINE
  5
2A5
100
AcDbEntity
  8
0
  6
CONTINUOUS
 62
               4
100
AcDbLine
 10
202.78993231511694
 20
21.452924117040538
 30
0.0
 11
201.7899294985902
 21
21.452924117040538
 31
0.0
  0
LINE
  5
2A6
100
AcDbEntity
  8
0
  6
CONTINUOUS
 62
               4
100
AcDbLine
 10
218.78993231511697
 20
-0.4470758829594672
 30
0.0
 11
218.78993231511697
 21
20.952923811864736
 31
0.0
  0
LINE
  5
2A7
100
AcDbEntity
  8
0
  6
CONTINUOUS
 62
               4
100
AcDbLine
 10
204.78993231511697
 20
20.952923811864736
 30
0.0
 11
204.78993231511697
 21
-0.4470758778917343
 31
0.0
  0
LINE
  5
2A8
100
AcDbEntity
  8
0
  6
CONTINUOUS
 62
               4
100
AcDbLine
 10
199.53639696858369
 20
-17.040005153892849
 30
0.0
 11
199.041447473917
 21
-17.040005153892849
 31
0.0
  0
LINE
  5
2A9
100
AcDbEntity
  8
0
  6
CENTER
 62
               2
100
AcDbLine
 10
229.98993231511696
 20
43.952923810853392
 30
0.0
 11
229.98993231511696
 21
31.952923810853392
 31
0.0
  0
LINE
  5
2AA
100
AcDbEntity
  8
0
  6
CENTER
 62
               2
100
AcDbLine
 10
229.98993231511696
 20
60.452923810853378
 30
0.0
 11
229.98993231511696
 21
48.452923810853378
 31
0.0
  0
ARC
  5
2AB
100
AcDbEntity
  8
0
  6
CONTINUOUS
 62
               7
100
AcDbCircle
 10
203.78983716845883
 20
46.653018952230951
 30
0.0
 40
0.5999048608870732
100
AcDbArc
 50
89.990912722453572
 51
180.00908727754597
  0
LINE
  5
2AC
100
AcDbEntity
  8
0
  6
CONTINUOUS
 62
               7
100
AcDbLine
 10
203.18993231511701
 20
46.653018952230951
 30
0.0
 11
203.18993231511701
 21
44.851835800335749
 31
0.0
  0
ARC
  5
2AD
100
AcDbEntity
  8
0
  6
CONTINUOUS
 62
               7
100
AcDbCircle
 10
203.78884430987998
 20
44.851835800335749
 30
0.0
 40
0.5989129830170392
100
AcDbArc
 50
179.89591452477256
 51
270.1040854752265
  0
LINE
  5
2AE
100
AcDbEntity
  8
0
  6
CONTINUOUS
 62
               7
100
AcDbLine
 10
203.78993231511697
 20
47.402923805572755
 30
0.0
 11
203.78993231511697
 21
44.102923805572757
 31
0.0
  0
LINE
  5
2AF
100
AcDbEntity
  8
0
  6
CONTINUOUS
 62
               7
100
AcDbLine
 10
203.78993230598192
 20
47.402923805572755
 30
0.0
 11
202.78993231511697
 21
47.402923805572755
 31
0.0
  0
LINE
  5
2B0
100
AcDbEntity
  8
0
  6
CONTINUOUS
 62
               7
100
AcDbLine
 10
203.78993230598192
 20
44.102923805572757
 30
0.0
 11
202.78993231511697
 21
44.102923805572757
 31
0.0
  0
LINE
  5
2B1
100
AcDbEntity
  8
0
  6
CONTINUOUS
 62
               7
100
AcDbLine
 10
202.78993231511694
 20
34.952923809842105
 30
0.0
 11
220.78993231511694
 21
34.952923809842105
 31
0.0
  0
LINE
  5
2B2
100
AcDbEntity
  8
0
  6
CONTINUOUS
 62
               7
100
AcDbLine
 10
220.68993231511695
 20
73.952923809842105
 30
0.0
 11
202.78993231511697
 21
73.952923809842105
 31
0.0
  0
LINE
  5
2B3
100
AcDbEntity
  8
0
  6
CONTINUOUS
 62
               7
100
AcDbLine
 10
220.48993231511696
 20
87.952923809842019
 30
0.0
 11
220.78993231511697
 21
87.652923809842036
 31
0.0
  0
LINE
  5
2B4
100
AcDbEntity
  8
0
  6
CENTER
 62
               2
100
AcDbLine
 10
211.78993231511697
 20
112.58217455567832
 30
0.0
 11
211.78993231511694
 21
-3.1751414582347337
 31
0.0
  0
LINE
  5
2B5
100
AcDbEntity
  8
0
  6
CONTINUOUS
 62
               7
100
AcDbLine
 10
220.78993231511694
 20
73.852923809842025
 30
0.0
 11
220.68993231511695
 21
73.952923809842019
 31
0.0
  0
LINE
  5
2B6
100
AcDbEntity
  8
0
  6
CONTINUOUS
 62
               7
100
AcDbLine
 10
202.78993231511694
 20
20.95292380984219
 30
0.0
 11
202.78993231511694
 21
87.952923809842019
 31
0.0
  0
LINE
  5
2B7
100
AcDbEntity
  8
0
  6
CONTINUOUS
 62
               7
100
AcDbLine
 10
220.48993231511696
 20
87.952923809842019
 30
0.0
 11
202.78993231511694
 21
87.952923809842019
 31
0.0
  0
LINE
  5
2B8
100
AcDbEntity
  8
0
  6
CONTINUOUS
 62
               7
100
AcDbLine
 10
238.48993231511696
 20
30.952923809842105
 30
0.0
 11
238.48993231511696
 21
77.952923811864679
 31
0.0
  0
LINE
  5
2B9
100
AcDbEntity
  8
0
  6
CONTINUOUS
 62
               7
100
AcDbLine
 10
238.48993231047808
 20
30.952923809842105
 30
0.0
 11
221.48993231511696
 21
30.952923809842105
 31
0.0
  0
LINE
  5
2BA
100
AcDbEntity
  8
0
  6
CONTINUOUS
 62
               7
100
AcDbLine
 10
238.48993231047808
 20
77.952923811864679
 30
0.0
 11
221.48993231511696
 21
77.952923811864679
 31
0.0
  0
LINE
  5
2BB
100
AcDbEntity
  8
0
  6
CENTER
 62
               2
100
AcDbLine
 10
223.98993231511696
 20
37.952923810853392
 30
0.0
 11
235.98993231511696
 21
37.952923810853392
 31
0.0
  0
CIRCLE
  5
2BC
100
AcDbEntity
  8
0
  6
CONTINUOUS
 62
               2
100
AcDbCircle
 10
229.98993231511696
 20
37.952923810853392
 30
0.0
 40
4.8639993667602539
  0
CIRCLE
  5
2BD
100
AcDbEntity
  8
0
  6
CONTINUOUS
 62
               7
100
AcDbCircle
 10
229.98993231511696
 20
37.952923810853392
 30
0.0
 40
4.2779998779296875
  0
LINE
  5
2BE
100
AcDbEntity
  8
0
  6
CENTER
 62
               2
100
AcDbLine
 10
223.98993231511696
 20
70.952923810853392
 30
0.0
 11
235.98993231511696
 21
70.952923810853392
 31
0.0
  0
CIRCLE
  5
2BF
100
AcDbEntity
  8
0
  6
CONTINUOUS
 62
               2
100
AcDbCircle
 10
229.98993231511696
 20
70.952923810853392
 30
0.0
 40
4.8639993667602539
  0
CIRCLE
  5
2C0
100
AcDbEntity
  8
0
  6
CONTINUOUS
 62
               7
100
AcDbCircle
 10
229.98993231511696
 20
70.952923810853392
 30
0.0
 40
4.2779998779296875
  0
LINE
  5
2C1
100
AcDbEntity
  8
0
  6
CENTER
 62
               2
100
AcDbLine
 10
223.98993231511696
 20
54.452923810853378
 30
0.0
 11
235.98993231511696
 21
54.452923810853378
 31
0.0
  0
CIRCLE
  5
2C2
100
AcDbEntity
  8
0
  6
CONTINUOUS
 62
               2
100
AcDbCircle
 10
229.98993231511696
 20
54.452923810853378
 30
0.0
 40
4.8639993667602539
  0
CIRCLE
  5
2C3
100
AcDbEntity
  8
0
  6
CONTINUOUS
 62
               7
100
AcDbCircle
 10
229.98993231511696
 20
54.452923810853378
 30
0.0
 40
4.2779998779296875
  0
LINE
  5
2C4
100
AcDbEntity
  8
0
  6
CENTER
 62
               2
100
AcDbLine
 10
229.98993231511696
 20
76.952923810853392
 30
0.0
 11
229.98993231511696
 21
64.952923810853392
 31
0.0
  0
LINE
  5
2C5
100
AcDbEntity
  8
0
  6
CONTINUOUS
 62
               7
100
AcDbLine
 10
221.48993231511696
 20
30.952923809369338
 30
0.0
 11
221.48993231511696
 21
77.952923811864679
 31
0.0
  0
LINE
  5
2C6
100
AcDbEntity
  8
0
  6
CONTINUOUS
 62
               7
100
AcDbLine
 10
220.78993231511694
 20
73.452923809842105
 30
0.0
 11
221.48993231511696
 21
73.452923809842105
 31
0.0
  0
LINE
  5
2C7
100
AcDbEntity
  8
0
  6
CONTINUOUS
 62
               7
100
AcDbLine
 10
221.48993231511696
 20
35.452923809842105
 30
0.0
 11
220.78993231511694
 21
35.452923809842105
 31
0.0
  0
LINE
  5
2C8
100
AcDbEntity
  8
0
  6
CONTINUOUS
 62
               7
100
AcDbLine
 10
220.78993231511697
 20
21.252923809842201
 30
0.0
 11
220.78993231511694
 21
87.652923809842036
 31
0.0
  0
LINE
  5
2C9
100
AcDbEntity
  8
0
  6
DASHED
 62
               2
100
AcDbLine
 10
220.78993231511694
 20
81.152923809842036
 30
0.0
 11
219.18993231511695
 21
81.152923809842036
 31
0.0
  0
LINE
  5
2CA
100
AcDbEntity
  8
0
  6
CENTER
 62
               2
100
AcDbLine
 10
218.37273996369683
 20
82.152923809842036
 30
0.0
 11
221.65479836951491
 21
82.152923809842022
 31
0.0
  0
LINE
  5
2CB
100
AcDbEntity
  8
0
  6
DASHED
 62
               2
100
AcDbLine
 10
220.78993231511694
 20
83.152923809842036
 30
0.0
 11
219.18993231511695
 21
83.152923809842036
 31
0.0
  0
LINE
  5
2CC
100
AcDbEntity
  8
0
  6
CONTINUOUS
 62
               7
100
AcDbLine
 10
220.48993231511693
 20
20.95292380984219
 30
0.0
 11
202.78993231511689
 21
20.95292380984219
 31
0.0
  0
LINE
  5
2CD
100
AcDbEntity
  8
0
  6
CONTINUOUS
 62
               7
100
AcDbLine
 10
220.48993231511693
 20
20.95292380984219
 30
0.0
 11
220.78993231511694
 21
21.252923809842201
 31
0.0
  0
LINE
  5
2CE
100
AcDbEntity
  8
0
  6
DASHED
 62
               2
100
AcDbLine
 10
220.78993231511694
 20
27.752923811864726
 30
0.0
 11
219.18993231511695
 21
27.752923811864726
 31
0.0
  0
LINE
  5
2CF
100
AcDbEntity
  8
0
  6
CENTER
 62
               2
100
AcDbLine
 10
218.37273996369683
 20
26.752923811864726
 30
0.0
 11
221.65479836951491
 21
26.752923811864733
 31
0.0
  0
LINE
  5
2D0
100
AcDbEntity
  8
0
  6
DASHED
 62
               2
100
AcDbLine
 10
220.78993231511694
 20
25.752923811864726
 30
0.0
 11
219.18993231511695
 21
25.752923811864726
 31
0.0
  0
LINE
  5
2D1
100
AcDbEntity
  8
0
  6
CENTER
 62
               2
100
AcDbLine
 10
240.98993230604796
 20
71.95292400361086
 30
0.0
 11
235.98993230604796
 21
71.95292400361086
 31
0.0
  0
LINE
  5
2D2
100
AcDbEntity
  8
0
  6
CENTER
 62
               2
100
AcDbLine
 10
240.98993230604796
 20
36.95292361809598
 30
0.0
 11
235.98993230604796
 21
36.95292361809598
 31
0.0
  0
ARC
  5
2D3
100
AcDbEntity
  8
0
  6
CONTINUOUS
 62
               4
100
AcDbCircle
 10
197.28801119241899
 20
107.35336964715995
 30
0.0
 40
0.4029462287748787
100
AcDbArc
 50
190.60882798227402
 51
359.50566908284389
  0
ARC
  5
2D4
100
AcDbEntity
  8
0
  6
CONTINUOUS
 62
               4
100
AcDbCircle
 10
197.18994537425016
 20
105.94719523811077
 30
0.0
 40
0.5030505883944908
100
AcDbArc
 50
143.43739164534688
 51
179.69271070880976
  0
ARC
  5
2D5
100
AcDbEntity
  8
0
  6
CONTINUOUS
 62
               4
100
AcDbCircle
 10
195.99203619702513
 20
99.251997067774454
 30
0.0
 40
0.3021474965435785
100
AcDbArc
 50
180.97363298451145
 51
269.02636701548755
  0
ARC
  5
2D6
100
AcDbEntity
  8
0
  6
CONTINUOUS
 62
               4
100
AcDbCircle
 10
197.28609819583829
 20
106.44663201944988
 30
0.0
 40
0.5002341568128574
100
AcDbArc
 50
89.792236286845736
 51
179.39507124653611
  0
ARC
  5
2D7
100
AcDbEntity
  8
0
  6
CONTINUOUS
 62
               4
100
AcDbCircle
 10
197.29189925754787
 20
90.102408002157887
 30
0.0
 40
0.5060324378497572
100
AcDbArc
 50
180.57067216988474
 51
244.71860809994666
  0
LINE
  5
2D8
100
AcDbEntity
  8
0
  6
CONTINUOUS
 62
               4
100
AcDbLine
 10
201.78488181578365
 20
87.452923504666131
 30
0.0
 11
201.78488181578365
 21
106.94686288746627
 31
0.0
  0
LINE
  5
2D9
100
AcDbEntity
  8
0
  6
CONTINUOUS
 62
               4
100
AcDbLine
 10
201.28993232111696
 20
113.94888310119947
 30
0.0
 11
201.28993232111696
 21
108.94787298733289
 31
0.0
  0
LINE
  5
2DA
100
AcDbEntity
  8
0
  6
CONTINUOUS
 62
               4
100
AcDbLine
 10
201.78488181578365
 20
108.94787298733289
 30
0.0
 11
201.78488181578365
 21
106.94686288746627
 31
0.0
  0
LINE
  5
2DB
100
AcDbEntity
  8
0
  6
CONTINUOUS
 62
               4
100
AcDbLine
 10
201.78488181578365
 20
114.95292350466613
 30
0.0
 11
201.78488181578365
 21
113.94888310119947
 31
0.0
  0
LINE
  5
2DC
100
AcDbEntity
  8
0
  6
CONTINUOUS
 62
               4
100
AcDbLine
 10
198.63841717111694
 20
118.76908510293291
 30
0.0
 11
198.63841717111694
 21
114.95090328693291
 31
0.0
  0
LINE
  5
2DD
100
AcDbEntity
  8
0
  6
CONTINUOUS
 62
             200
100
AcDbLine
 10
197.78993232311694
 20
118.27413560826628
 30
0.0
 11
200.78791211938363
 21
120.00645883959962
 31
0.0
  0
LINE
  5
2DE
100
AcDbEntity
  8
0
  6
CONTINUOUS
 62
             200
100
AcDbLine
 10
197.78993232311694
 20
118.62060025453295
 30
0.0
 11
200.78791211938363
 21
120.35292348586623
 31
0.0
  0
LINE
  5
2DF
100
AcDbEntity
  8
0
  6
CONTINUOUS
 62
               4
100
AcDbLine
 10
199.041447473917
 20
125.9458527755996
 30
0.0
 11
199.041447473917
 21
122.44585277759958
 31
0.0
  0
LINE
  5
2E0
100
AcDbEntity
  8
0
  6
CONTINUOUS
 62
               4
100
AcDbLine
 10
199.53639696858369
 20
125.9458527755996
 30
0.0
 11
199.53639696858369
 21
122.44585277759958
 31
0.0
  0
LINE
  5
2E1
100
AcDbEntity
  8
0
  6
CONTINUOUS
 62
               4
100
AcDbLine
 10
199.93942727138364
 20
122.44585277759958
 30
0.0
 11
198.63841717111694
 21
122.44585277759958
 31
0.0
  0
LINE
  5
2E2
100
AcDbEntity
  8
0
  6
CONTINUOUS
 62
               4
100
AcDbLine
 10
199.93942727138364
 20
122.44585277759958
 30
0.0
 11
199.93942727138364
 21
119.86504469826625
 31
0.0
  0
LINE
  5
2E3
100
AcDbEntity
  8
0
  6
CONTINUOUS
 62
               4
100
AcDbLine
 10
198.63841717111694
 20
122.44585277759958
 30
0.0
 11
198.63841717111694
 21
119.11554974919957
 31
0.0
  0
LINE
  5
2E4
100
AcDbEntity
  8
0
  6
CONTINUOUS
 62
               4
100
AcDbLine
 10
199.93942727138364
 20
119.51858005199958
 30
0.0
 11
199.93942727138364
 21
114.95090328693291
 31
0.0
  0
LINE
  5
2E5
100
AcDbEntity
  8
0
  6
CONTINUOUS
 62
               4
100
AcDbLine
 10
196.78589191965028
 20
99.048883093999535
 30
0.0
 11
196.68690202071701
 21
98.94989319506621
 31
0.0
  0
LINE
  5
2E6
100
AcDbEntity
  8
0
  6
CONTINUOUS
 62
               4
100
AcDbLine
 10
196.78589191965028
 20
100.2509032953329
 30
0.0
 11
196.68690202071701
 21
100.2509032953329
 31
0.0
  0
LINE
  5
2E7
100
AcDbEntity
  8
0
  6
CONTINUOUS
 62
               4
100
AcDbLine
 10
196.68690202071701
 20
98.94989319506621
 30
0.0
 11
195.98690202111703
 21
98.94989319506621
 31
0.0
  0
LINE
  5
2E8
100
AcDbEntity
  8
0
  6
CONTINUOUS
 62
               4
100
AcDbLine
 10
195.689932324317
 20
108.34888310439945
 30
0.0
 11
195.689932324317
 21
99.246862891866243
 31
0.0
  0
LINE
  5
2E9
100
AcDbEntity
  8
0
  6
CONTINUOUS
 62
               4
100
AcDbLine
 10
197.69094242418367
 20
108.44585278559961
 30
0.0
 11
197.386902020317
 21
108.74989318946623
 31
0.0
  0
LINE
  5
2EA
100
AcDbEntity
  8
0
  6
CONTINUOUS
 62
               4
100
AcDbLine
 10
201.78488181578365
 20
108.94787298733289
 30
0.0
 11
201.28993232111696
 21
108.94787298733289
 31
0.0
  0
LINE
  5
2EB
100
AcDbEntity
  8
0
  6
CONTINUOUS
 62
               4
100
AcDbLine
 10
201.78488181578365
 20
113.94888310119947
 30
0.0
 11
201.28993232111696
 21
113.94888310119947
 31
0.0
  0
LINE
  5
2EC
100
AcDbEntity
  8
0
  6
CONTINUOUS
 62
               4
100
AcDbLine
 10
197.69094242418367
 20
114.95292350466613
 30
0.0
 11
197.386902020317
 21
114.64888310079945
 31
0.0
  0
LINE
  5
2ED
100
AcDbEntity
  8
0
  6
CONTINUOUS
 62
               4
100
AcDbLine
 10
197.386902020317
 20
114.64888310079945
 30
0.0
 11
197.386902020317
 21
108.74989318946623
 31
0.0
  0
LINE
  5
2EE
100
AcDbEntity
  8
0
  6
CONTINUOUS
 62
               4
100
AcDbLine
 10
197.69094242418367
 20
114.95292350466613
 30
0.0
 11
197.69094242418367
 21
107.34989319027221
 31
0.0
  0
LINE
  5
2EF
100
AcDbEntity
  8
0
  6
CONTINUOUS
 62
               4
100
AcDbLine
 10
196.68690202071701
 20
105.94989319106625
 30
0.0
 11
196.68690202071701
 21
100.2509032953329
 31
0.0
  0
LINE
  5
2F0
100
AcDbEntity
  8
0
  6
CONTINUOUS
 62
               4
100
AcDbLine
 10
196.89195252565031
 20
107.2812063373328
 30
0.0
 11
195.78892222325027
 21
113.54334672500897
 31
0.0
  0
LINE
  5
2F1
100
AcDbEntity
  8
0
  6
CONTINUOUS
 62
               4
100
AcDbLine
 10
195.78892222325027
 20
114.95292350466613
 30
0.0
 11
194.79195252685037
 21
114.95292350466613
 31
0.0
  0
LINE
  5
2F2
100
AcDbEntity
  8
0
  6
CONTINUOUS
 62
               4
100
AcDbLine
 10
195.78892222325027
 20
114.95292350466613
 30
0.0
 11
195.78892222325027
 21
113.53878209133276
 31
0.0
  0
LINE
  5
2F3
100
AcDbEntity
  8
0
  6
CONTINUOUS
 62
               4
100
AcDbLine
 10
195.689932324317
 20
108.34888310439945
 30
0.0
 11
194.79195252685037
 21
113.45393360653279
 31
0.0
  0
LINE
  5
2F4
100
AcDbEntity
  8
0
  6
CONTINUOUS
 62
               4
100
AcDbLine
 10
194.79195252685037
 20
114.95292350466613
 30
0.0
 11
194.79195252685037
 21
113.45393360653279
 31
0.0
  0
LINE
  5
2F5
100
AcDbEntity
  8
0
  6
CONTINUOUS
 62
               4
100
AcDbLine
 10
198.39094242378366
 20
114.95292350466613
 30
0.0
 11
198.39094242378366
 21
106.94686288746627
 31
0.0
  0
LINE
  5
2F6
100
AcDbEntity
  8
0
  6
CONTINUOUS
 62
               4
100
AcDbLine
 10
200.18690201871703
 20
114.95292350466613
 30
0.0
 11
200.18690201871703
 21
106.94686288746627
 31
0.0
  0
LINE
  5
2F7
100
AcDbEntity
  8
0
  6
CONTINUOUS
 62
               4
100
AcDbLine
 10
201.78488181578365
 20
114.95292350466613
 30
0.0
 11
197.69094242418367
 21
114.95292350466613
 31
0.0
  0
LINE
  5
2F8
100
AcDbEntity
  8
0
  6
CONTINUOUS
 62
               4
100
AcDbLine
 10
201.78488181578365
 20
87.452923504666131
 30
0.0
 11
197.07579090938367
 21
89.644842695332869
 31
0.0
  0
LINE
  5
2F9
100
AcDbEntity
  8
0
  6
CONTINUOUS
 62
               4
100
AcDbLine
 10
196.78589191965028
 20
106.45191339279958
 30
0.0
 11
196.78589191965028
 21
90.09736794759948
 31
0.0
  0
LINE
  5
2FA
100
AcDbEntity
  8
0
  6
CONTINUOUS
 62
               4
100
AcDbLine
 10
204.78993231911699
 20
106.94686288746627
 30
0.0
 11
197.28791212138361
 21
106.94686288746627
 31
0.0
  0
LINE
  5
2FB
100
AcDbEntity
  8
0
  6
CONTINUOUS
 62
               4
100
AcDbLine
 10
216.78993231511703
 20
108.35292350466628
 30
0.0
 11
204.78993231911699
 21
108.35292350466628
 31
0.0
  0
LINE
  5
2FC
100
AcDbEntity
  8
0
  6
CONTINUOUS
 62
               4
100
AcDbLine
 10
216.78993231511703
 20
109.95292350466624
 30
0.0
 11
216.78993231511703
 21
108.35292350466628
 31
0.0
  0
ARC
  5
2FD
100
AcDbEntity
  8
0
  6
CONTINUOUS
 62
               4
100
AcDbCircle
 10
218.28993231111696
 20
109.35292350466628
 30
0.0
 40
0.5
100
AcDbArc
 50
0.0
 51
89.999999999999815
  0
ARC
  5
2FE
100
AcDbEntity
  8
0
  6
CONTINUOUS
 62
               4
100
AcDbCircle
 10
205.28993231911699
 20
109.35292350466628
 30
0.0
 40
0.5
100
AcDbArc
 50
93.919585899650798
 51
179.99999999999963
  0
ARC
  5
2FF
100
AcDbEntity
  8
0
  6
CONTINUOUS
 62
               4
100
AcDbCircle
 10
205.58884439998877
 20
109.35401150979445
 30
0.0
 40
0.5989129231257409
100
AcDbArc
 50
89.895914524772735
 51
180.10408547522667
  0
ARC
  5
300
100
AcDbEntity
  8
0
  6
CONTINUOUS
 62
               4
100
AcDbCircle
 10
217.99002737176562
 20
109.3530186513149
 30
0.0
 40
0.5999048008965869
100
AcDbArc
 50
56.247417870393882
 51
90.009087277546172
  0
LINE
  5
301
100
AcDbEntity
  8
0
  6
CONTINUOUS
 62
               4
100
AcDbLine
 10
217.989932225117
 20
109.95292350466624
 30
0.0
 11
205.58993240511694
 21
109.95292350466624
 31
0.0
  0
LINE
  5
302
100
AcDbEntity
  8
0
  6
CONTINUOUS
 62
               4
100
AcDbLine
 10
218.28993231111696
 20
109.85292350466628
 30
0.0
 11
216.78993231511703
 21
109.85292350466628
 31
0.0
  0
LINE
  5
303
100
AcDbEntity
  8
0
  6
CONTINUOUS
 62
               4
100
AcDbLine
 10
207.48993231511696
 20
109.35292350466628
 30
0.0
 11
204.78993231911699
 21
109.35292350466628
 31
0.0
  0
LINE
  5
304
100
AcDbEntity
  8
0
  6
CONTINUOUS
 62
               4
100
AcDbLine
 10
207.48993231511696
 20
109.95292350466624
 30
0.0
 11
207.48993231511696
 21
109.35292350466628
 31
0.0
  0
LINE
  5
305
100
AcDbEntity
  8
0
  6
CONTINUOUS
 62
               4
100
AcDbLine
 10
202.78993231511694
 20
87.452923504666217
 30
0.0
 11
201.7899294985902
 21
87.452923504666217
 31
0.0
  0
LINE
  5
306
100
AcDbEntity
  8
0
  6
CONTINUOUS
 62
               4
100
AcDbLine
 10
218.78993231511697
 20
109.35292350466622
 30
0.0
 11
218.78993231511697
 21
87.952923809842019
 31
0.0
  0
LINE
  5
307
100
AcDbEntity
  8
0
  6
CONTINUOUS
 62
               4
100
AcDbLine
 10
204.78993231511697
 20
87.952923809842019
 30
0.0
 11
204.78993231511697
 21
109.35292349959849
 31
0.0
  0
LINE
  5
308
100
AcDbEntity
  8
0
  6
CONTINUOUS
 62
               4
100
AcDbLine
 10
199.53639696858369
 20
125.9458527755996
 30
0.0
 11
199.041447473917
 21
125.9458527755996
 31
0.0
  0
LINE
  5
309
100
AcDbEntity
  8
0
  6
CONTINUOUS
 62
             200
100
AcDbLine
 10
197.78993232311694
 20
-9.7147526328261904
 30
0.0
 11
200.78791211938363
 21
-11.447075864159473
 31
0.0
  0
LINE
  5
30A
100
AcDbEntity
  8
0
  6
CONTINUOUS
 62
             200
100
AcDbLine
 10
197.78993232311694
 20
-9.3682879865595226
 30
0.0
 11
200.78791211938363
 21
-11.100611217892862
 31
0.0
  0
ARC
  5
30B
100
AcDbEntity
  8
0
  6
CONTINUOUS
 62
               4
100
AcDbCircle
 10
77.958520193986033
 20
1.5524779745467754
 30
0.0
 40
0.4029462287748787
100
AcDbArc
 50
10.608827982274413
 51
179.50566908284432
  0
ARC
  5
30C
100
AcDbEntity
  8
0
  6
CONTINUOUS
 62
               4
100
AcDbCircle
 10
78.056586012154867
 20
2.9586523835959611
 30
0.0
 40
0.5030505883944908
100
AcDbArc
 50
323.43739164534645
 51
359.69271070880933
  0
ARC
  5
30D
100
AcDbEntity
  8
0
  6
CONTINUOUS
 62
               4
100
AcDbCircle
 10
79.254495189379895
 20
9.6538505539322728
 30
0.0
 40
0.3021474965435785
100
AcDbArc
 50
0.9736329845118463
 51
89.026367015487978
  0
ARC
  5
30E
100
AcDbEntity
  8
0
  6
CONTINUOUS
 62
               4
100
AcDbCircle
 10
77.960433190566732
 20
2.4592156022568474
 30
0.0
 40
0.5002341568128574
100
AcDbArc
 50
269.79223628684531
 51
359.39507124653568
  0
ARC
  5
30F
100
AcDbEntity
  8
0
  6
CONTINUOUS
 62
               4
100
AcDbCircle
 10
77.954632128857156
 20
18.80343961954884
 30
0.0
 40
0.5060324378497572
100
AcDbArc
 50
0.570672169885155
 51
64.718608099947076
  0
LINE
  5
310
100
AcDbEntity
  8
0
  6
CONTINUOUS
 62
               4
100
AcDbLine
 10
73.461649570621375
 20
21.452924117040595
 30
0.0
 11
73.461649570621375
 21
1.9589847342404596
 31
0.0
  0
LINE
  5
311
100
AcDbEntity
  8
0
  6
CONTINUOUS
 62
               4
100
AcDbLine
 10
73.95659906528806
 20
-5.0430354794927439
 30
0.0
 11
73.95659906528806
 21
-0.0420253656261593
 31
0.0
  0
LINE
  5
312
100
AcDbEntity
  8
0
  6
CONTINUOUS
 62
               4
100
AcDbLine
 10
73.461649570621375
 20
-0.0420253656261593
 30
0.0
 11
73.461649570621375
 21
1.9589847342404596
 31
0.0
  0
LINE
  5
313
100
AcDbEntity
  8
0
  6
CONTINUOUS
 62
               4
100
AcDbLine
 10
73.461649570621375
 20
-6.0470758829594047
 30
0.0
 11
73.461649570621375
 21
-5.0430354794927439
 31
0.0
  0
LINE
  5
314
100
AcDbEntity
  8
0
  6
CONTINUOUS
 62
               4
100
AcDbLine
 10
76.608114215288083
 20
-9.8632374812261787
 30
0.0
 11
76.608114215288083
 21
-6.0450556652261866
 31
0.0
  0
LINE
  5
315
100
AcDbEntity
  8
0
  6
CONTINUOUS
 62
               4
100
AcDbLine
 10
76.205083912488021
 20
-17.040005153892878
 30
0.0
 11
76.205083912488021
 21
-13.540005155892857
 31
0.0
  0
LINE
  5
316
100
AcDbEntity
  8
0
  6
CONTINUOUS
 62
               4
100
AcDbLine
 10
75.710134417821337
 20
-17.040005153892878
 30
0.0
 11
75.710134417821337
 21
-13.540005155892857
 31
0.0
  0
LINE
  5
317
100
AcDbEntity
  8
0
  6
CONTINUOUS
 62
               4
100
AcDbLine
 10
75.307104115021389
 20
-13.540005155892857
 30
0.0
 11
76.608114215288083
 21
-13.540005155892857
 31
0.0
  0
LINE
  5
318
100
AcDbEntity
  8
0
  6
CONTINUOUS
 62
               4
100
AcDbLine
 10
75.307104115021389
 20
-13.540005155892857
 30
0.0
 11
75.307104115021389
 21
-10.959197076559519
 31
0.0
  0
LINE
  5
319
100
AcDbEntity
  8
0
  6
CONTINUOUS
 62
               4
100
AcDbLine
 10
76.608114215288083
 20
-13.540005155892857
 30
0.0
 11
76.608114215288083
 21
-10.209702127492847
 31
0.0
  0
LINE
  5
31A
100
AcDbEntity
  8
0
  6
CONTINUOUS
 62
               4
100
AcDbLine
 10
75.307104115021389
 20
-10.612732430292851
 30
0.0
 11
75.307104115021389
 21
-6.0450556652261866
 31
0.0
  0
LINE
  5
31B
100
AcDbEntity
  8
0
  6
CONTINUOUS
 62
               4
100
AcDbLine
 10
78.460639466754742
 20
9.8569645277071913
 30
0.0
 11
78.559629365688011
 21
9.9559544266405169
 31
0.0
  0
LINE
  5
31C
100
AcDbEntity
  8
0
  6
CONTINUOUS
 62
               4
100
AcDbLine
 10
78.460639466754742
 20
8.6549443263738226
 30
0.0
 11
78.559629365688011
 21
8.6549443263738226
 31
0.0
  0
LINE
  5
31D
100
AcDbEntity
  8
0
  6
CONTINUOUS
 62
               4
100
AcDbLine
 10
78.559629365688011
 20
9.9559544266405169
 30
0.0
 11
79.259629365287992
 21
9.9559544266405169
 31
0.0
  0
LINE
  5
31E
100
AcDbEntity
  8
0
  6
CONTINUOUS
 62
               4
100
AcDbLine
 10
79.556599062088026
 20
0.5569645173072786
 30
0.0
 11
79.556599062088026
 21
9.6589847298404834
 31
0.0
  0
LINE
  5
31F
100
AcDbEntity
  8
0
  6
CONTINUOUS
 62
               4
100
AcDbLine
 10
77.55558896222135
 20
0.4599948361071142
 30
0.0
 11
77.859629366088029
 21
0.1559544322404918
 31
0.0
  0
LINE
  5
320
100
AcDbEntity
  8
0
  6
CONTINUOUS
 62
               4
100
AcDbLine
 10
73.461649570621375
 20
-0.0420253656261593
 30
0.0
 11
73.95659906528806
 21
-0.0420253656261593
 31
0.0
  0
LINE
  5
321
100
AcDbEntity
  8
0
  6
CONTINUOUS
 62
               4
100
AcDbLine
 10
73.461649570621375
 20
-5.0430354794927439
 30
0.0
 11
73.95659906528806
 21
-5.0430354794927439
 31
0.0
  0
LINE
  5
322
100
AcDbEntity
  8
0
  6
CONTINUOUS
 62
               4
100
AcDbLine
 10
72.456599071288082
 20
21.45292411704051
 30
0.0
 11
73.456601887814827
 21
21.45292411704051
 31
0.0
  0
LINE
  5
323
100
AcDbEntity
  8
0
  6
CONTINUOUS
 62
               4
100
AcDbLine
 10
56.456599071288053
 20
-0.4470758829594956
 30
0.0
 11
56.456599071288053
 21
20.952923811864707
 31
0.0
  0
LINE
  5
324
100
AcDbEntity
  8
0
  6
CONTINUOUS
 62
               4
100
AcDbLine
 10
70.456599071288053
 20
20.952923811864707
 30
0.0
 11
70.456599071288053
 21
-0.4470758778917627
 31
0.0
  0
LINE
  5
325
100
AcDbEntity
  8
0
  6
CONTINUOUS
 62
               4
100
AcDbLine
 10
75.710134417821337
 20
-17.040005153892878
 30
0.0
 11
76.205083912488021
 21
-17.040005153892878
 31
0.0
  0
LINE
  5
326
100
AcDbEntity
  8
0
  6
CONTINUOUS
 62
               4
100
AcDbLine
 10
59.156599071288042
 20
-1.0470758829595184
 30
0.0
 11
59.156599071288042
 21
-0.4470758829595525
 31
0.0
  0
LINE
  5
327
100
AcDbEntity
  8
0
  6
CONTINUOUS
 62
               4
100
AcDbLine
 10
59.156599071288042
 20
-0.4470758829595525
 30
0.0
 11
56.456599075288068
 21
-0.4470758829595525
 31
0.0
  0
LINE
  5
328
100
AcDbEntity
  8
0
  6
CONTINUOUS
 62
               4
100
AcDbLine
 10
69.956599067288039
 20
-0.9470758829595525
 30
0.0
 11
68.45659907128811
 21
-0.9470758829595525
 31
0.0
  0
LINE
  5
329
100
AcDbEntity
  8
0
  6
CONTINUOUS
 62
               4
100
AcDbLine
 10
69.656598981288084
 20
-1.0470758829595184
 30
0.0
 11
57.256599161288023
 21
-1.0470758829595184
 31
0.0
  0
ARC
  5
32A
100
AcDbEntity
  8
0
  6
CONTINUOUS
 62
               4
100
AcDbCircle
 10
69.656694127936703
 20
-0.447171029608171
 30
0.0
 40
0.5999048008965869
100
AcDbArc
 50
269.990912722453
 51
303.75258212960529
  0
ARC
  5
32B
100
AcDbEntity
  8
0
  6
CONTINUOUS
 62
               4
100
AcDbCircle
 10
57.255511156159855
 20
-0.4481638880877199
 30
0.0
 40
0.5989129231257409
100
AcDbArc
 50
179.89591452477254
 51
270.10408547522644
  0
ARC
  5
32C
100
AcDbEntity
  8
0
  6
CONTINUOUS
 62
               4
100
AcDbCircle
 10
56.956599075288068
 20
-0.4470758829595525
 30
0.0
 40
0.5
100
AcDbArc
 50
179.99999999999963
 51
266.08041410034838
  0
ARC
  5
32D
100
AcDbEntity
  8
0
  6
CONTINUOUS
 62
               4
100
AcDbCircle
 10
69.956599067288039
 20
-0.4470758829595525
 30
0.0
 40
0.5
100
AcDbArc
 50
269.99999999999937
 51
0.0
  0
LINE
  5
32E
100
AcDbEntity
  8
0
  6
CONTINUOUS
 62
               4
100
AcDbLine
 10
68.45659907128811
 20
-1.0470758829595184
 30
0.0
 11
68.45659907128811
 21
0.5529241170404475
 31
0.0
  0
LINE
  5
32F
100
AcDbEntity
  8
0
  6
CONTINUOUS
 62
               4
100
AcDbLine
 10
68.45659907128811
 20
0.5529241170404475
 30
0.0
 11
56.456599075288068
 21
0.5529241170404475
 31
0.0
  0
LINE
  5
330
100
AcDbEntity
  8
0
  6
CONTINUOUS
 62
               4
100
AcDbLine
 10
70.456599067288039
 20
1.9589847342404596
 30
0.0
 11
77.958619265021412
 21
1.9589847342404596
 31
0.0
  0
LINE
  5
331
100
AcDbEntity
  8
0
  6
CONTINUOUS
 62
               4
100
AcDbLine
 10
78.460639466754742
 20
2.4539342289071442
 30
0.0
 11
78.460639466754742
 21
18.808479674107247
 31
0.0
  0
LINE
  5
332
100
AcDbEntity
  8
0
  6
CONTINUOUS
 62
               4
100
AcDbLine
 10
73.461649570621375
 20
21.452924117040595
 30
0.0
 11
78.170740477021354
 21
19.261004926373857
 31
0.0
  0
LINE
  5
333
100
AcDbEntity
  8
0
  6
CONTINUOUS
 62
               4
100
AcDbLine
 10
73.461649570621375
 20
-6.0470758829594047
 30
0.0
 11
77.55558896222135
 21
-6.0470758829594047
 31
0.0
  0
LINE
  5
334
100
AcDbEntity
  8
0
  6
CONTINUOUS
 62
               4
100
AcDbLine
 10
75.05962936768799
 20
-6.0470758829594047
 30
0.0
 11
75.05962936768799
 21
1.9589847342404596
 31
0.0
  0
LINE
  5
335
100
AcDbEntity
  8
0
  6
CONTINUOUS
 62
               4
100
AcDbLine
 10
76.855588962621368
 20
-6.0470758829594047
 30
0.0
 11
76.855588962621368
 21
1.9589847342404596
 31
0.0
  0
LINE
  5
336
100
AcDbEntity
  8
0
  6
CONTINUOUS
 62
               4
100
AcDbLine
 10
80.454578859554658
 20
-6.0470758829594047
 30
0.0
 11
80.454578859554658
 21
-4.5480859848260593
 31
0.0
  0
LINE
  5
337
100
AcDbEntity
  8
0
  6
CONTINUOUS
 62
               4
100
AcDbLine
 10
79.556599062088026
 20
0.5569645173072786
 30
0.0
 11
80.454578859554658
 21
-4.5480859848260593
 31
0.0
  0
LINE
  5
338
100
AcDbEntity
  8
0
  6
CONTINUOUS
 62
               4
100
AcDbLine
 10
79.457609163154757
 20
-6.0470758829594047
 30
0.0
 11
79.457609163154757
 21
-4.6329344696260364
 31
0.0
  0
LINE
  5
339
100
AcDbEntity
  8
0
  6
CONTINUOUS
 62
               4
100
AcDbLine
 10
79.457609163154757
 20
-6.0470758829594047
 30
0.0
 11
80.454578859554658
 21
-6.0470758829594047
 31
0.0
  0
LINE
  5
33A
100
AcDbEntity
  8
0
  6
CONTINUOUS
 62
               4
100
AcDbLine
 10
78.354578860754714
 20
1.6246412843739222
 30
0.0
 11
79.457609163154757
 21
-4.6374991033022468
 31
0.0
  0
LINE
  5
33B
100
AcDbEntity
  8
0
  6
CONTINUOUS
 62
               4
100
AcDbLine
 10
78.559629365688011
 20
2.9559544306404746
 30
0.0
 11
78.559629365688011
 21
8.6549443263738226
 31
0.0
  0
LINE
  5
33C
100
AcDbEntity
  8
0
  6
CONTINUOUS
 62
               4
100
AcDbLine
 10
77.55558896222135
 20
-6.0470758829594047
 30
0.0
 11
77.55558896222135
 21
1.5559544314345146
 31
0.0
  0
LINE
  5
33D
100
AcDbEntity
  8
0
  6
CONTINUOUS
 62
               4
100
AcDbLine
 10
77.859629366088029
 20
-5.7430354790927254
 30
0.0
 11
77.859629366088029
 21
0.1559544322404918
 31
0.0
  0
LINE
  5
33E
100
AcDbEntity
  8
0
  6
CONTINUOUS
 62
               4
100
AcDbLine
 10
77.55558896222135
 20
-6.0470758829594047
 30
0.0
 11
77.859629366088029
 21
-5.7430354790927254
 31
0.0
  0
LINE
  5
33F
100
AcDbEntity
  8
0
  6
CENTER
 62
               2
100
AcDbLine
 10
45.256599075926943
 20
56.652923810853366
 30
0.0
 11
45.256599075926943
 21
68.652923810853366
 31
0.0
  0
LINE
  5
340
100
AcDbEntity
  8
0
  6
CONTINUOUS
 62
               7
100
AcDbLine
 10
71.456599071288053
 20
61.502923814111455
 30
0.0
 11
71.456599071288053
 21
64.802923814111452
 31
0.0
  0
ARC
  5
341
100
AcDbEntity
  8
0
  6
CONTINUOUS
 62
               7
100
AcDbCircle
 10
71.457687076525048
 20
64.05401181934846
 30
0.0
 40
0.5989129830170392
100
AcDbArc
 50
359.89591452477219
 51
90.104085475226924
  0
LINE
  5
342
100
AcDbEntity
  8
0
  6
CONTINUOUS
 62
               7
100
AcDbLine
 10
72.056599071288019
 20
62.252828667453258
 30
0.0
 11
72.056599071288019
 21
64.05401181934846
 31
0.0
  0
ARC
  5
343
100
AcDbEntity
  8
0
  6
CONTINUOUS
 62
               7
100
AcDbCircle
 10
71.456694217946193
 20
62.252828667453258
 30
0.0
 40
0.5999048608870732
100
AcDbArc
 50
269.99091272245317
 51
0.0090872775463741
  0
LINE
  5
344
100
AcDbEntity
  8
0
  6
CONTINUOUS
 62
               7
100
AcDbLine
 10
71.456599080423103
 20
61.502923814111455
 30
0.0
 11
72.456599071288053
 21
61.502923814111455
 31
0.0
  0
LINE
  5
345
100
AcDbEntity
  8
0
  6
CONTINUOUS
 62
               7
100
AcDbLine
 10
71.456599080423103
 20
64.802923814111452
 30
0.0
 11
72.456599071288053
 21
64.802923814111452
 31
0.0
  0
LINE
  5
346
100
AcDbEntity
  8
0
  6
CENTER
 62
               2
100
AcDbLine
 10
51.256599075926943
 20
62.652923810853366
 30
0.0
 11
39.256599075926943
 21
62.652923810853366
 31
0.0
  0
LINE
  5
347
100
AcDbEntity
  8
0
  6
CONTINUOUS
 62
               7
100
AcDbLine
 10
54.456599071288082
 20
73.452923809842119
 30
0.0
 11
53.756599071288065
 21
73.452923809842119
 31
0.0
  0
LINE
  5
348
100
AcDbEntity
  8
0
  6
CONTINUOUS
 62
               7
100
AcDbLine
 10
36.756599075926943
 20
77.952923811864665
 30
0.0
 11
53.756599071288065
 21
77.952923811864665
 31
0.0
  0
LINE
  5
349
100
AcDbEntity
  8
0
  6
CONTINUOUS
 62
               7
100
AcDbLine
 10
54.756599071288065
 20
87.952923809842048
 30
0.0
 11
72.456599071288082
 21
87.952923809842048
 31
0.0
  0
LINE
  5
34A
100
AcDbEntity
  8
0
  6
CONTINUOUS
 62
               7
100
AcDbLine
 10
54.756599071288065
 20
87.952923809842048
 30
0.0
 11
54.456599071288053
 21
87.652923809842036
 31
0.0
  0
LINE
  5
34B
100
AcDbEntity
  8
0
  6
CONTINUOUS
 62
               7
100
AcDbLine
 10
54.556599071288076
 20
73.952923809842119
 30
0.0
 11
72.456599071288053
 21
73.952923809842119
 31
0.0
  0
LINE
  5
34C
100
AcDbEntity
  8
0
  6
CONTINUOUS
 62
               7
100
AcDbLine
 10
54.456599071288053
 20
73.852923809842125
 30
0.0
 11
54.556599071288076
 21
73.952923809842119
 31
0.0
  0
LINE
  5
34D
100
AcDbEntity
  8
0
  6
CENTER
 62
               2
100
AcDbLine
 10
51.256599075926943
 20
46.15292381085338
 30
0.0
 11
39.256599075926943
 21
46.15292381085338
 31
0.0
  0
CIRCLE
  5
34E
100
AcDbEntity
  8
0
  6
CONTINUOUS
 62
               2
100
AcDbCircle
 10
45.256599075926943
 20
46.15292381085338
 30
0.0
 40
4.8639993667602539
  0
CIRCLE
  5
34F
100
AcDbEntity
  8
0
  6
CONTINUOUS
 62
               7
100
AcDbCircle
 10
45.256599075926943
 20
46.15292381085338
 30
0.0
 40
4.2779998779296875
  0
LINE
  5
350
100
AcDbEntity
  8
0
  6
CONTINUOUS
 62
               7
100
AcDbLine
 10
53.756599071288065
 20
35.452923809842133
 30
0.0
 11
54.456599071288053
 21
35.452923809842133
 31
0.0
  0
LINE
  5
351
100
AcDbEntity
  8
0
  6
CONTINUOUS
 62
               7
100
AcDbLine
 10
72.456599071288053
 20
34.952923809842105
 30
0.0
 11
54.456599071288053
 21
34.952923809842133
 31
0.0
  0
LINE
  5
352
100
AcDbEntity
  8
0
  6
CONTINUOUS
 62
               7
100
AcDbLine
 10
36.756599075926943
 20
30.952923809842105
 30
0.0
 11
53.756599071288065
 21
30.952923809842105
 31
0.0
  0
LINE
  5
353
100
AcDbEntity
  8
0
  6
CONTINUOUS
 62
               7
100
AcDbLine
 10
54.456599071288025
 20
21.252923809842201
 30
0.0
 11
54.456599071288082
 21
87.652923809842036
 31
0.0
  0
LINE
  5
354
100
AcDbEntity
  8
0
  6
CENTER
 62
               2
100
AcDbLine
 10
63.456599071288053
 20
112.58217455567838
 30
0.0
 11
63.456599071288053
 21
-3.1751414582346911
 31
0.0
  0
LINE
  5
355
100
AcDbEntity
  8
0
  6
CONTINUOUS
 62
               7
100
AcDbLine
 10
72.456599071288053
 20
20.95292380984219
 30
0.0
 11
72.456599071288082
 21
87.952923809842048
 31
0.0
  0
LINE
  5
356
100
AcDbEntity
  8
0
  6
CONTINUOUS
 62
               7
100
AcDbLine
 10
36.756599071288065
 20
30.952923809842105
 30
0.0
 11
36.756599071288065
 21
77.952923811864665
 31
0.0
  0
LINE
  5
357
100
AcDbEntity
  8
0
  6
CONTINUOUS
 62
               7
100
AcDbLine
 10
53.756599071288036
 20
30.952923809369338
 30
0.0
 11
53.756599071288065
 21
77.952923811864665
 31
0.0
  0
CIRCLE
  5
358
100
AcDbEntity
  8
0
  6
CONTINUOUS
 62
               7
100
AcDbCircle
 10
45.256599075926943
 20
62.652923810853366
 30
0.0
 40
4.2779998779296875
  0
CIRCLE
  5
359
100
AcDbEntity
  8
0
  6
CONTINUOUS
 62
               2
100
AcDbCircle
 10
45.256599075926943
 20
62.652923810853366
 30
0.0
 40
4.8639993667602539
  0
LINE
  5
35A
100
AcDbEntity
  8
0
  6
CENTER
 62
               2
100
AcDbLine
 10
45.256599075926943
 20
40.15292381085338
 30
0.0
 11
45.256599075926943
 21
52.15292381085338
 31
0.0
  0
LINE
  5
35B
100
AcDbEntity
  8
0
  6
CONTINUOUS
 62
               7
100
AcDbLine
 10
54.756599071288065
 20
20.95292380984219
 30
0.0
 11
54.456599071288053
 21
21.252923809842201
 31
0.0
  0
LINE
  5
35C
100
AcDbEntity
  8
0
  6
CONTINUOUS
 62
               7
100
AcDbLine
 10
54.756599071288065
 20
20.95292380984219
 30
0.0
 11
72.45659907128811
 21
20.95292380984219
 31
0.0
  0
LINE
  5
35D
100
AcDbEntity
  8
0
  6
CENTER
 62
               2
100
AcDbLine
 10
34.256599084995912
 20
71.952924003610846
 30
0.0
 11
39.256599084995912
 21
71.952924003610846
 31
0.0
  0
LINE
  5
35E
100
AcDbEntity
  8
0
  6
CENTER
 62
               2
100
AcDbLine
 10
34.256599084995912
 20
36.952923618095966
 30
0.0
 11
39.256599084995912
 21
36.952923618095966
 31
0.0
  0
LINE
  5
35F
100
AcDbEntity
  8
0
  6
CONTINUOUS
 62
               4
100
AcDbLine
 10
75.710134417821337
 20
125.94585277559963
 30
0.0
 11
76.205083912488021
 21
125.94585277559963
 31
0.0
  0
LINE
  5
360
100
AcDbEntity
  8
0
  6
CONTINUOUS
 62
               4
100
AcDbLine
 10
70.456599071288053
 20
87.952923809842048
 30
0.0
 11
70.456599071288053
 21
109.35292349959852
 31
0.0
  0
LINE
  5
361
100
AcDbEntity
  8
0
  6
CONTINUOUS
 62
               4
100
AcDbLine
 10
56.456599071288053
 20
109.35292350466625
 30
0.0
 11
56.456599071288053
 21
87.952923809842048
 31
0.0
  0
LINE
  5
362
100
AcDbEntity
  8
0
  6
CONTINUOUS
 62
               4
100
AcDbLine
 10
72.456599071288082
 20
87.452923504666245
 30
0.0
 11
73.456601887814827
 21
87.452923504666245
 31
0.0
  0
LINE
  5
363
100
AcDbEntity
  8
0
  6
CONTINUOUS
 62
               4
100
AcDbLine
 10
59.156599071288042
 20
109.95292350466627
 30
0.0
 11
59.156599071288042
 21
109.35292350466631
 31
0.0
  0
LINE
  5
364
100
AcDbEntity
  8
0
  6
CONTINUOUS
 62
               4
100
AcDbLine
 10
59.156599071288042
 20
109.35292350466631
 30
0.0
 11
56.456599075288068
 21
109.35292350466631
 31
0.0
  0
LINE
  5
365
100
AcDbEntity
  8
0
  6
CONTINUOUS
 62
               4
100
AcDbLine
 10
69.956599067288039
 20
109.85292350466631
 30
0.0
 11
68.45659907128811
 21
109.85292350466631
 31
0.0
  0
LINE
  5
366
100
AcDbEntity
  8
0
  6
CONTINUOUS
 62
               4
100
AcDbLine
 10
69.656598981288084
 20
109.95292350466627
 30
0.0
 11
57.256599161288023
 21
109.95292350466627
 31
0.0
  0
ARC
  5
367
100
AcDbEntity
  8
0
  6
CONTINUOUS
 62
               4
100
AcDbCircle
 10
69.656694127936703
 20
109.35301865131493
 30
0.0
 40
0.5999048008965869
100
AcDbArc
 50
56.247417870393882
 51
90.009087277546172
  0
ARC
  5
368
100
AcDbEntity
  8
0
  6
CONTINUOUS
 62
               4
100
AcDbCircle
 10
57.255511156159855
 20
109.35401150979447
 30
0.0
 40
0.5989129231257409
100
AcDbArc
 50
89.895914524772735
 51
180.10408547522667
  0
ARC
  5
369
100
AcDbEntity
  8
0
  6
CONTINUOUS
 62
               4
100
AcDbCircle
 10
56.956599075288068
 20
109.35292350466631
 30
0.0
 40
0.5
100
AcDbArc
 50
93.919585899650798
 51
179.99999999999963
  0
ARC
  5
36A
100
AcDbEntity
  8
0
  6
CONTINUOUS
 62
               4
100
AcDbCircle
 10
69.956599067288039
 20
109.35292350466631
 30
0.0
 40
0.5
100
AcDbArc
 50
0.0
 51
89.999999999999815
  0
LINE
  5
36B
100
AcDbEntity
  8
0
  6
CONTINUOUS
 62
               4
100
AcDbLine
 10
68.45659907128811
 20
109.95292350466627
 30
0.0
 11
68.45659907128811
 21
108.35292350466631
 31
0.0
  0
LINE
  5
36C
100
AcDbEntity
  8
0
  6
CONTINUOUS
 62
               4
100
AcDbLine
 10
68.45659907128811
 20
108.35292350466631
 30
0.0
 11
56.456599075288068
 21
108.35292350466631
 31
0.0
  0
LINE
  5
36D
100
AcDbEntity
  8
0
  6
CONTINUOUS
 62
               4
100
AcDbLine
 10
70.456599067288039
 20
106.9468628874663
 30
0.0
 11
77.958619265021412
 21
106.9468628874663
 31
0.0
  0
LINE
  5
36E
100
AcDbEntity
  8
0
  6
CONTINUOUS
 62
               4
100
AcDbLine
 10
78.460639466754742
 20
106.45191339279961
 30
0.0
 11
78.460639466754742
 21
90.097367947599508
 31
0.0
  0
LINE
  5
36F
100
AcDbEntity
  8
0
  6
CONTINUOUS
 62
               4
100
AcDbLine
 10
73.461649570621375
 20
87.45292350466616
 30
0.0
 11
78.170740477021354
 21
89.644842695332898
 31
0.0
  0
LINE
  5
370
100
AcDbEntity
  8
0
  6
CONTINUOUS
 62
               4
100
AcDbLine
 10
73.461649570621375
 20
114.95292350466616
 30
0.0
 11
77.55558896222135
 21
114.95292350466616
 31
0.0
  0
LINE
  5
371
100
AcDbEntity
  8
0
  6
CONTINUOUS
 62
               4
100
AcDbLine
 10
75.05962936768799
 20
114.95292350466616
 30
0.0
 11
75.05962936768799
 21
106.9468628874663
 31
0.0
  0
LINE
  5
372
100
AcDbEntity
  8
0
  6
CONTINUOUS
 62
               4
100
AcDbLine
 10
76.855588962621368
 20
114.95292350466616
 30
0.0
 11
76.855588962621368
 21
106.9468628874663
 31
0.0
  0
LINE
  5
373
100
AcDbEntity
  8
0
  6
CONTINUOUS
 62
               4
100
AcDbLine
 10
80.454578859554658
 20
114.95292350466616
 30
0.0
 11
80.454578859554658
 21
113.45393360653281
 31
0.0
  0
LINE
  5
374
100
AcDbEntity
  8
0
  6
CONTINUOUS
 62
               4
100
AcDbLine
 10
79.556599062088026
 20
108.34888310439948
 30
0.0
 11
80.454578859554658
 21
113.45393360653281
 31
0.0
  0
LINE
  5
375
100
AcDbEntity
  8
0
  6
CONTINUOUS
 62
               4
100
AcDbLine
 10
79.457609163154757
 20
114.95292350466616
 30
0.0
 11
79.457609163154757
 21
113.53878209133279
 31
0.0
  0
LINE
  5
376
100
AcDbEntity
  8
0
  6
CONTINUOUS
 62
               4
100
AcDbLine
 10
79.457609163154757
 20
114.95292350466616
 30
0.0
 11
80.454578859554658
 21
114.95292350466616
 31
0.0
  0
LINE
  5
377
100
AcDbEntity
  8
0
  6
CONTINUOUS
 62
               4
100
AcDbLine
 10
78.354578860754714
 20
107.28120633733283
 30
0.0
 11
79.457609163154757
 21
113.543346725009
 31
0.0
  0
LINE
  5
378
100
AcDbEntity
  8
0
  6
CONTINUOUS
 62
               4
100
AcDbLine
 10
78.559629365688011
 20
105.94989319106628
 30
0.0
 11
78.559629365688011
 21
100.25090329533293
 31
0.0
  0
LINE
  5
379
100
AcDbEntity
  8
0
  6
CONTINUOUS
 62
               4
100
AcDbLine
 10
77.55558896222135
 20
114.95292350466616
 30
0.0
 11
77.55558896222135
 21
107.34989319027224
 31
0.0
  0
LINE
  5
37A
100
AcDbEntity
  8
0
  6
CONTINUOUS
 62
               4
100
AcDbLine
 10
77.859629366088029
 20
114.64888310079948
 30
0.0
 11
77.859629366088029
 21
108.74989318946626
 31
0.0
  0
LINE
  5
37B
100
AcDbEntity
  8
0
  6
CONTINUOUS
 62
               4
100
AcDbLine
 10
77.55558896222135
 20
114.95292350466616
 30
0.0
 11
77.859629366088029
 21
114.64888310079948
 31
0.0
  0
LINE
  5
37C
100
AcDbEntity
  8
0
  6
CONTINUOUS
 62
               4
100
AcDbLine
 10
73.461649570621375
 20
113.9488831011995
 30
0.0
 11
73.95659906528806
 21
113.9488831011995
 31
0.0
  0
LINE
  5
37D
100
AcDbEntity
  8
0
  6
CONTINUOUS
 62
               4
100
AcDbLine
 10
73.461649570621375
 20
108.94787298733291
 30
0.0
 11
73.95659906528806
 21
108.94787298733291
 31
0.0
  0
LINE
  5
37E
100
AcDbEntity
  8
0
  6
CONTINUOUS
 62
               4
100
AcDbLine
 10
77.55558896222135
 20
108.44585278559964
 30
0.0
 11
77.859629366088029
 21
108.74989318946626
 31
0.0
  0
LINE
  5
37F
100
AcDbEntity
  8
0
  6
CONTINUOUS
 62
               4
100
AcDbLine
 10
79.556599062088026
 20
108.34888310439948
 30
0.0
 11
79.556599062088026
 21
99.246862891866272
 31
0.0
  0
LINE
  5
380
100
AcDbEntity
  8
0
  6
CONTINUOUS
 62
               4
100
AcDbLine
 10
78.559629365688011
 20
98.949893195066238
 30
0.0
 11
79.259629365287992
 21
98.949893195066238
 31
0.0
  0
LINE
  5
381
100
AcDbEntity
  8
0
  6
CONTINUOUS
 62
               4
100
AcDbLine
 10
78.460639466754742
 20
100.25090329533293
 30
0.0
 11
78.559629365688011
 21
100.25090329533293
 31
0.0
  0
LINE
  5
382
100
AcDbEntity
  8
0
  6
CONTINUOUS
 62
               4
100
AcDbLine
 10
78.460639466754742
 20
99.048883093999564
 30
0.0
 11
78.559629365688011
 21
98.949893195066238
 31
0.0
  0
LINE
  5
383
100
AcDbEntity
  8
0
  6
CONTINUOUS
 62
               4
100
AcDbLine
 10
75.307104115021389
 20
119.51858005199961
 30
0.0
 11
75.307104115021389
 21
114.95090328693294
 31
0.0
  0
LINE
  5
384
100
AcDbEntity
  8
0
  6
CONTINUOUS
 62
               4
100
AcDbLine
 10
76.608114215288083
 20
122.44585277759961
 30
0.0
 11
76.608114215288083
 21
119.1155497491996
 31
0.0
  0
LINE
  5
385
100
AcDbEntity
  8
0
  6
CONTINUOUS
 62
               4
100
AcDbLine
 10
75.307104115021389
 20
122.44585277759961
 30
0.0
 11
75.307104115021389
 21
119.86504469826627
 31
0.0
  0
LINE
  5
386
100
AcDbEntity
  8
0
  6
CONTINUOUS
 62
               4
100
AcDbLine
 10
75.307104115021389
 20
122.44585277759961
 30
0.0
 11
76.608114215288083
 21
122.44585277759961
 31
0.0
  0
LINE
  5
387
100
AcDbEntity
  8
0
  6
CONTINUOUS
 62
               4
100
AcDbLine
 10
75.710134417821337
 20
125.94585277559963
 30
0.0
 11
75.710134417821337
 21
122.44585277759961
 31
0.0
  0
LINE
  5
388
100
AcDbEntity
  8
0
  6
CONTINUOUS
 62
               4
100
AcDbLine
 10
76.205083912488021
 20
125.94585277559963
 30
0.0
 11
76.205083912488021
 21
122.44585277759961
 31
0.0
  0
LINE
  5
389
100
AcDbEntity
  8
0
  6
CONTINUOUS
 62
             200
100
AcDbLine
 10
77.456599063288081
 20
118.62060025453297
 30
0.0
 11
74.45861926702139
 21
120.35292348586626
 31
0.0
  0
LINE
  5
38A
100
AcDbEntity
  8
0
  6
CONTINUOUS
 62
             200
100
AcDbLine
 10
77.456599063288081
 20
118.27413560826631
 30
0.0
 11
74.45861926702139
 21
120.00645883959965
 31
0.0
  0
LINE
  5
38B
100
AcDbEntity
  8
0
  6
CONTINUOUS
 62
               4
100
AcDbLine
 10
76.608114215288083
 20
118.76908510293293
 30
0.0
 11
76.608114215288083
 21
114.95090328693294
 31
0.0
  0
LINE
  5
38C
100
AcDbEntity
  8
0
  6
CONTINUOUS
 62
               4
100
AcDbLine
 10
73.461649570621375
 20
114.95292350466616
 30
0.0
 11
73.461649570621375
 21
113.9488831011995
 31
0.0
  0
LINE
  5
38D
100
AcDbEntity
  8
0
  6
CONTINUOUS
 62
               4
100
AcDbLine
 10
73.461649570621375
 20
108.94787298733291
 30
0.0
 11
73.461649570621375
 21
106.9468628874663
 31
0.0
  0
LINE
  5
38E
100
AcDbEntity
  8
0
  6
CONTINUOUS
 62
               4
100
AcDbLine
 10
73.95659906528806
 20
113.9488831011995
 30
0.0
 11
73.95659906528806
 21
108.94787298733291
 31
0.0
  0
LINE
  5
38F
100
AcDbEntity
  8
0
  6
CONTINUOUS
 62
               4
100
AcDbLine
 10
73.461649570621375
 20
87.45292350466616
 30
0.0
 11
73.461649570621375
 21
106.9468628874663
 31
0.0
  0
ARC
  5
390
100
AcDbEntity
  8
0
  6
CONTINUOUS
 62
               4
100
AcDbCircle
 10
77.954632128857156
 20
90.102408002157915
 30
0.0
 40
0.5060324378497572
100
AcDbArc
 50
295.28139190005214
 51
359.42932783011406
  0
ARC
  5
391
100
AcDbEntity
  8
0
  6
CONTINUOUS
 62
               4
100
AcDbCircle
 10
77.960433190566732
 20
106.44663201944991
 30
0.0
 40
0.5002341568128574
100
AcDbArc
 50
0.6049287534634878
 51
90.207763713153867
  0
ARC
  5
392
100
AcDbEntity
  8
0
  6
CONTINUOUS
 62
               4
100
AcDbCircle
 10
79.254495189379895
 20
99.251997067774482
 30
0.0
 40
0.3021474965435785
100
AcDbArc
 50
270.97363298451126
 51
359.02636701548732
  0
ARC
  5
393
100
AcDbEntity
  8
0
  6
CONTINUOUS
 62
               4
100
AcDbCircle
 10
78.056586012154867
 20
105.94719523811079
 30
0.0
 40
0.5030505883944908
100
AcDbArc
 50
0.3072892911898554
 51
36.562608354652731
  0
ARC
  5
394
100
AcDbEntity
  8
0
  6
CONTINUOUS
 62
               4
100
AcDbCircle
 10
77.958520193986033
 20
107.35336964715998
 30
0.0
 40
0.4029462287748787
100
AcDbArc
 50
180.49433091715488
 51
349.39117201772478
  0
LINE
  5
395
100
AcDbEntity
  8
0
  6
CONTINUOUS
 62
             200
100
AcDbLine
 10
77.456599063288081
 20
-9.3682879885820682
 30
0.0
 11
74.45861926702139
 21
-11.100611219915407
 31
0.0
  0
LINE
  5
396
100
AcDbEntity
  8
0
  6
CONTINUOUS
 62
             200
100
AcDbLine
 10
77.456599063288081
 20
-9.7147526348487361
 30
0.0
 11
74.45861926702139
 21
-11.447075866182018
 31
0.0
  0
ARC
  5
397
100
AcDbEntity
  8
0
  6
CONTINUOUS
 62
               4
100
AcDbCircle
 10
131.06126569320253
 20
2.4529238075954112
 30
0.0
 40
0.5
100
AcDbArc
 50
179.99999999999963
 51
269.99999999999937
  0
ARC
  5
398
100
AcDbEntity
  8
0
  6
CONTINUOUS
 62
               4
100
AcDbCircle
 10
139.1852656932025
 20
2.4529238075954112
 30
0.0
 40
0.5
100
AcDbArc
 50
270.00000000000023
 51
0.0
  0
ARC
  5
399
100
AcDbEntity
  8
0
  6
CONTINUOUS
 62
               4
100
AcDbCircle
 10
139.1852656932025
 20
18.626066648734465
 30
0.0
 40
0.5
100
AcDbArc
 50
0.0
 51
89.999999999999815
  0
ARC
  5
39A
100
AcDbEntity
  8
0
  6
CONTINUOUS
 62
               4
100
AcDbCircle
 10
131.06126569320253
 20
18.626066648734465
 30
0.0
 40
0.5
100
AcDbArc
 50
89.999999999999815
 51
179.99999999999963
  0
LINE
  5
39B
100
AcDbEntity
  8
0
  6
CONTINUOUS
 62
               4
100
AcDbLine
 10
130.56126569320253
 20
2.4529238075954112
 30
0.0
 11
130.56126569320253
 21
18.626066648734465
 31
0.0
  0
LINE
  5
39C
100
AcDbEntity
  8
0
  6
CONTINUOUS
 62
               4
100
AcDbLine
 10
139.6852656932025
 20
2.4529238075954112
 30
0.0
 11
139.6852656932025
 21
18.626066648734465
 31
0.0
  0
LINE
  5
39D
100
AcDbEntity
  8
0
  6
CONTINUOUS
 62
               4
100
AcDbLine
 10
131.06126569320253
 20
19.126066648734465
 30
0.0
 11
139.1852656932025
 21
19.126066648734465
 31
0.0
  0
LINE
  5
39E
100
AcDbEntity
  8
0
  6
CONTINUOUS
 62
               4
100
AcDbLine
 10
134.52324738265563
 20
-13.540005465338041
 30
0.0
 11
134.52324738265563
 21
-10.717076192404605
 31
0.0
  0
LINE
  5
39F
100
AcDbEntity
  8
0
  6
CONTINUOUS
 62
               4
100
AcDbLine
 10
133.22324738265561
 20
-10.037076192404598
 30
0.0
 11
133.22324738265561
 21
-6.0470761924045888
 31
0.0
  0
LINE
  5
3A0
100
AcDbEntity
  8
0
  6
CONTINUOUS
 62
               4
100
AcDbLine
 10
135.72324738265561
 20
-9.367076192404582
 30
0.0
 11
135.72324738265561
 21
-6.0470761924045888
 31
0.0
  0
LINE
  5
3A1
100
AcDbEntity
  8
0
  6
CONTINUOUS
 62
               4
100
AcDbLine
 10
137.02324738265563
 20
-9.0170761924045593
 30
0.0
 11
137.02324738265563
 21
-6.0470761924045888
 31
0.0
  0
LINE
  5
3A2
100
AcDbEntity
  8
0
  6
CONTINUOUS
 62
               4
100
AcDbLine
 10
133.62324738265565
 20
-17.040005463338062
 30
0.0
 11
133.62324738265565
 21
-13.540005465338041
 31
0.0
  0
LINE
  5
3A3
100
AcDbEntity
  8
0
  6
CONTINUOUS
 62
               4
100
AcDbLine
 10
134.12324738265565
 20
-17.040005463338062
 30
0.0
 11
134.12324738265565
 21
-13.540005465338041
 31
0.0
  0
LINE
  5
3A4
100
AcDbEntity
  8
0
  6
CONTINUOUS
 62
               4
100
AcDbLine
 10
135.72324738265561
 20
-13.540005465338041
 30
0.0
 11
135.72324738265561
 21
-10.397076192404612
 31
0.0
  0
LINE
  5
3A5
100
AcDbEntity
  8
0
  6
CONTINUOUS
 62
               4
100
AcDbLine
 10
137.02324738265563
 20
-13.540005465338041
 30
0.0
 11
137.02324738265563
 21
-10.047076192404589
 31
0.0
  0
ARC
  5
3A6
100
AcDbEntity
  8
0
  6
CONTINUOUS
 62
               4
100
AcDbCircle
 10
130.623242805133
 20
20.952928385118057
 30
0.0
 40
0.4999954224983215
100
AcDbArc
 50
89.999475449742633
 51
180.00052455025664
  0
ARC
  5
3A7
100
AcDbEntity
  8
0
  6
CONTINUOUS
 62
               4
100
AcDbCircle
 10
139.62324280490483
 20
2.452928385346226
 30
0.0
 40
0.5000045777717621
100
AcDbArc
 50
270.00052456679839
 51
359.99947543319996
  0
ARC
  5
3A8
100
AcDbEntity
  8
0
  6
CONTINUOUS
 62
               4
100
AcDbCircle
 10
130.62323670152423
 20
2.452913126464054
 30
0.0
 40
0.4999893189827007
100
AcDbArc
 50
179.99877600635489
 51
270.00122399364443
  0
LINE
  5
3A9
100
AcDbEntity
  8
0
  6
CONTINUOUS
 62
               4
100
AcDbLine
 10
131.37324738265565
 20
-6.0470761924045888
 30
0.0
 11
138.87324738265565
 21
-6.0470761924045888
 31
0.0
  0
LINE
  5
3AA
100
AcDbEntity
  8
0
  6
CONTINUOUS
 62
               4
100
AcDbLine
 10
138.87324738265565
 20
-6.0470761924045888
 30
0.0
 11
138.87324738265565
 21
1.9529238075954112
 31
0.0
  0
LINE
  5
3AB
100
AcDbEntity
  8
0
  6
CONTINUOUS
 62
               4
100
AcDbLine
 10
137.87324738265565
 20
-6.0470761924045888
 30
0.0
 11
137.87324738265565
 21
9.9529238075954112
 31
0.0
  0
LINE
  5
3AC
100
AcDbEntity
  8
0
  6
CONTINUOUS
 62
               4
100
AcDbLine
 10
132.37324738265565
 20
-4.5470761924045888
 30
0.0
 11
137.87324738265565
 21
-4.5470761924045888
 31
0.0
  0
LINE
  5
3AD
100
AcDbEntity
  8
0
  6
CONTINUOUS
 62
               4
100
AcDbLine
 10
131.37324738265565
 20
-6.0470761924045888
 30
0.0
 11
131.37324738265565
 21
1.9529238075954112
 31
0.0
  0
LINE
  5
3AE
100
AcDbEntity
  8
0
  6
CONTINUOUS
 62
               4
100
AcDbLine
 10
132.37324738265565
 20
-6.0470761924045888
 30
0.0
 11
132.37324738265565
 21
9.9529238075954112
 31
0.0
  0
LINE
  5
3AF
100
AcDbEntity
  8
0
  6
CONTINUOUS
 62
               4
100
AcDbLine
 10
137.87324738265565
 20
1.9529238075954112
 30
0.0
 11
139.62324738265565
 21
1.9529238075954112
 31
0.0
  0
LINE
  5
3B0
100
AcDbEntity
  8
0
  6
CONTINUOUS
 62
               4
100
AcDbLine
 10
132.37324738265565
 20
9.9529238075954112
 30
0.0
 11
137.87324738265565
 21
9.9529238075954112
 31
0.0
  0
LINE
  5
3B1
100
AcDbEntity
  8
0
  6
CONTINUOUS
 62
               4
100
AcDbLine
 10
139.62324738265565
 20
1.9529238075954112
 30
0.0
 11
140.12324738265565
 21
1.9529238075954112
 31
0.0
  0
LINE
  5
3B2
100
AcDbEntity
  8
0
  6
CONTINUOUS
 62
               4
100
AcDbLine
 10
130.62324738265565
 20
1.9529238075954112
 30
0.0
 11
132.37324738265565
 21
1.9529238075954112
 31
0.0
  0
LINE
  5
3B3
100
AcDbEntity
  8
0
  6
CONTINUOUS
 62
               4
100
AcDbLine
 10
130.12324738265565
 20
1.9529238075954112
 30
0.0
 11
130.62324738265565
 21
1.9529238075954112
 31
0.0
  0
LINE
  5
3B4
100
AcDbEntity
  8
0
  6
CONTINUOUS
 62
               4
100
AcDbLine
 10
130.12326569320251
 20
-1.0470761966740696
 30
0.0
 11
130.12326569320251
 21
21.45292380332593
 31
0.0
  0
LINE
  5
3B5
100
AcDbEntity
  8
0
  6
CONTINUOUS
 62
               4
100
AcDbLine
 10
140.12326569320251
 20
-0.4470761966740469
 30
0.0
 11
138.87324738265565
 21
-0.4470761966740469
 31
0.0
  0
LINE
  5
3B6
100
AcDbEntity
  8
0
  6
CONTINUOUS
 62
               4
100
AcDbLine
 10
140.12326569320251
 20
-1.0470761966740696
 30
0.0
 11
138.87324738265565
 21
-1.0470761966740696
 31
0.0
  0
LINE
  5
3B7
100
AcDbEntity
  8
0
  6
CONTINUOUS
 62
               4
100
AcDbLine
 10
140.12326569320251
 20
0.5529238033259531
 30
0.0
 11
138.87324738265565
 21
0.5529238033259531
 31
0.0
  0
LINE
  5
3B8
100
AcDbEntity
  8
0
  6
CONTINUOUS
 62
               4
100
AcDbLine
 10
131.37324738265565
 20
-0.9470761966740469
 30
0.0
 11
130.62326569320251
 21
-0.9470761966740469
 31
0.0
  0
ARC
  5
3B9
100
AcDbEntity
  8
0
  6
CONTINUOUS
 62
               4
100
AcDbCircle
 10
130.62326569320251
 20
-0.4470761966740469
 30
0.0
 40
0.5
100
AcDbArc
 50
179.99999999999963
 51
269.99999999999937
  0
ARC
  5
3BA
100
AcDbEntity
  8
0
  6
CONTINUOUS
 62
               4
100
AcDbCircle
 10
139.32736083986069
 20
-0.4471713433322435
 30
0.0
 40
0.5999048608870732
100
AcDbArc
 50
269.99091272245386
 51
0.0090872775462214
  0
LINE
  5
3BB
100
AcDbEntity
  8
0
  6
CONTINUOUS
 62
               4
100
AcDbLine
 10
130.12326572229171
 20
-1.0470761966740696
 30
0.0
 11
131.37324738265565
 21
-1.0470761966740696
 31
0.0
  0
LINE
  5
3BC
100
AcDbEntity
  8
0
  6
CONTINUOUS
 62
               4
100
AcDbLine
 10
140.12326569320251
 20
-1.0470761924047025
 30
0.0
 11
140.12326569320251
 21
21.452923807595297
 31
0.0
  0
ARC
  5
3BD
100
AcDbEntity
  8
0
  6
CONTINUOUS
 62
               4
100
AcDbCircle
 10
139.62356254106672
 20
20.953220655459504
 30
0.0
 40
0.4997032403068001
100
AcDbArc
 50
359.96596353714727
 51
90.034036462852669
  0
LINE
  5
3BE
100
AcDbEntity
  8
0
  6
CONTINUOUS
 62
               4
100
AcDbLine
 10
133.62324738265565
 20
-17.040005463338062
 30
0.0
 11
134.12324738265565
 21
-17.040005463338062
 31
0.0
  0
LINE
  5
3BF
100
AcDbEntity
  8
0
  6
CONTINUOUS
 62
               4
100
AcDbLine
 10
136.12324738265565
 20
-17.040005463338062
 30
0.0
 11
136.62324738265565
 21
-17.040005463338062
 31
0.0
  0
LINE
  5
3C0
100
AcDbEntity
  8
0
  6
CONTINUOUS
 62
               4
100
AcDbLine
 10
133.22324738265561
 20
-13.540005465338041
 30
0.0
 11
133.22324738265561
 21
-11.067076192404571
 31
0.0
  0
LINE
  5
3C1
100
AcDbEntity
  8
0
  6
CONTINUOUS
 62
               4
100
AcDbLine
 10
136.62324738265565
 20
-17.040005463338062
 30
0.0
 11
136.62324738265565
 21
-13.540005465338041
 31
0.0
  0
LINE
  5
3C2
100
AcDbEntity
  8
0
  6
CONTINUOUS
 62
               4
100
AcDbLine
 10
136.12324738265565
 20
-17.040005463338062
 30
0.0
 11
136.12324738265565
 21
-13.540005465338041
 31
0.0
  0
LINE
  5
3C3
100
AcDbEntity
  8
0
  6
CONTINUOUS
 62
               4
100
AcDbLine
 10
134.52324738265563
 20
-9.6870761924045752
 30
0.0
 11
134.52324738265563
 21
-6.0470761924045888
 31
0.0
  0
LINE
  5
3C4
100
AcDbEntity
  8
0
  6
CONTINUOUS
 62
               4
100
AcDbLine
 10
133.22324738265561
 20
-13.540005465338041
 30
0.0
 11
134.52324738265563
 21
-13.540005465338041
 31
0.0
  0
LINE
  5
3C5
100
AcDbEntity
  8
0
  6
CONTINUOUS
 62
               4
100
AcDbLine
 10
135.72324738265561
 20
-13.540005465338041
 30
0.0
 11
137.02324738265563
 21
-13.540005465338041
 31
0.0
  0
ARC
  5
3C6
100
AcDbEntity
  8
0
  6
CONTINUOUS
 62
               7
100
AcDbCircle
 10
139.9232656932025
 20
45.752923814111469
 30
0.0
 40
1.6499999999999999
100
AcDbArc
 50
89.999999999999815
 51
269.99999999999937
  0
LINE
  5
3C7
100
AcDbEntity
  8
0
  6
CONTINUOUS
 62
               7
100
AcDbLine
 10
139.9232656932025
 20
47.40292381411146
 30
0.0
 11
141.12326569320248
 21
47.40292381411146
 31
0.0
  0
LINE
  5
3C8
100
AcDbEntity
  8
0
  6
CONTINUOUS
 62
               7
100
AcDbLine
 10
139.9232656932025
 20
44.102923814111463
 30
0.0
 11
141.12326569320248
 21
44.102923814111463
 31
0.0
  0
ARC
  5
3C9
100
AcDbEntity
  8
0
  6
CONTINUOUS
 62
               7
100
AcDbCircle
 10
130.3232656932025
 20
63.15292381411146
 30
0.0
 40
1.6499999999999999
100
AcDbArc
 50
269.99999999999937
 51
89.999999999999801
  0
LINE
  5
3CA
100
AcDbEntity
  8
0
  6
CONTINUOUS
 62
               7
100
AcDbLine
 10
130.3232656932025
 20
64.802923814111466
 30
0.0
 11
129.12326569320251
 21
64.802923814111466
 31
0.0
  0
LINE
  5
3CB
100
AcDbEntity
  8
0
  6
CONTINUOUS
 62
               7
100
AcDbLine
 10
130.3232656932025
 20
61.502923814111462
 30
0.0
 11
129.12326569320251
 21
61.502923814111462
 31
0.0
  0
LINE
  5
3CC
100
AcDbEntity
  8
0
  6
CONTINUOUS
 62
               7
100
AcDbLine
 10
129.12326569320248
 20
73.952923814111472
 30
0.0
 11
141.12326569320248
 21
73.952923814111472
 31
0.0
  0
LINE
  5
3CD
100
AcDbEntity
  8
0
  6
CONTINUOUS
 62
               7
100
AcDbLine
 10
141.12326569320251
 20
73.852923814111477
 30
0.0
 11
141.02326569320249
 21
73.952923814111472
 31
0.0
  0
LINE
  5
3CE
100
AcDbEntity
  8
0
  6
CONTINUOUS
 62
               7
100
AcDbLine
 10
129.22326568965045
 20
73.952923814111472
 30
0.0
 11
129.12326569320248
 21
73.852923817663537
 31
0.0
  0
CIRCLE
  5
3CF
100
AcDbEntity
  8
0
  6
CONTINUOUS
 62
               7
100
AcDbCircle
 10
135.12326569320251
 20
85.15292382769843
 30
0.0
 40
1.3999999999999997
  0
CIRCLE
  5
3D0
100
AcDbEntity
  8
0
  6
CONTINUOUS
 62
               7
100
AcDbCircle
 10
135.12326569320251
 20
85.15292382769843
 30
0.0
 40
0.75
  0
CIRCLE
  5
3D1
100
AcDbEntity
  8
0
  6
CONTINUOUS
 62
               7
100
AcDbCircle
 10
135.12326569320251
 20
85.15292382769843
 30
0.0
 40
1.1000000000000001
  0
LINE
  5
3D2
100
AcDbEntity
  8
0
  6
CENTER
 62
               2
100
AcDbLine
 10
135.12326569320251
 20
115.85292350893572
 30
0.0
 11
135.12326569320251
 21
-7.1751414582346911
 31
0.0
  0
LINE
  5
3D3
100
AcDbEntity
  8
0
  6
CENTER
 62
               2
100
AcDbLine
 10
137.43819582892687
 20
85.15292382769843
 30
0.0
 11
132.89932154052684
 21
85.15292382769843
 31
0.0
  0
LINE
  5
3D4
100
AcDbEntity
  8
0
  6
CONTINUOUS
 62
               7
100
AcDbLine
 10
129.12326569320248
 20
34.952923814111458
 30
0.0
 11
141.12326569320248
 21
34.952923814111458
 31
0.0
  0
LINE
  5
3D5
100
AcDbEntity
  8
0
  6
CONTINUOUS
 62
               7
100
AcDbLine
 10
140.37326569320251
 20
87.952923814111458
 30
0.0
 11
140.8232656932025
 21
87.952923814111458
 31
0.0
  0
CIRCLE
  5
3D6
100
AcDbEntity
  8
0
  6
CONTINUOUS
 62
               7
100
AcDbCircle
 10
135.12351569320251
 20
85.15292381411146
 30
0.0
 40
1.1500000000000001
  0
LINE
  5
3D7
100
AcDbEntity
  8
0
  6
CONTINUOUS
 62
               7
100
AcDbLine
 10
129.4232656932025
 20
87.952923814111458
 30
0.0
 11
129.87326569320251
 21
87.952923814111458
 31
0.0
  0
LINE
  5
3D8
100
AcDbEntity
  8
0
  6
CONTINUOUS
 62
               7
100
AcDbLine
 10
129.4232656932025
 20
87.952923814111458
 30
0.0
 11
129.12326569320251
 21
87.65292381411146
 31
0.0
  0
LINE
  5
3D9
100
AcDbEntity
  8
0
  6
CONTINUOUS
 62
               7
100
AcDbLine
 10
140.8232656932025
 20
87.952923814111458
 30
0.0
 11
141.12326569320248
 21
87.65292381411146
 31
0.0
  0
LINE
  5
3DA
100
AcDbEntity
  8
0
  6
CONTINUOUS
 62
               7
100
AcDbLine
 10
140.1732656932025
 20
87.752923814111455
 30
0.0
 11
140.1732656932025
 21
87.452923814111458
 31
0.0
  0
LINE
  5
3DB
100
AcDbEntity
  8
0
  6
CONTINUOUS
 62
               7
100
AcDbLine
 10
130.07326569320253
 20
87.752923814111455
 30
0.0
 11
130.07326569320253
 21
87.452923814111458
 31
0.0
  0
LINE
  5
3DC
100
AcDbEntity
  8
0
  6
CONTINUOUS
 62
               7
100
AcDbLine
 10
130.07326569320253
 20
87.752923814111455
 30
0.0
 11
129.87326569320251
 21
87.952923814111458
 31
0.0
  0
LINE
  5
3DD
100
AcDbEntity
  8
0
  6
CONTINUOUS
 62
               7
100
AcDbLine
 10
140.1732656932025
 20
87.752923814111455
 30
0.0
 11
140.37326569320251
 21
87.952923814111458
 31
0.0
  0
LINE
  5
3DE
100
AcDbEntity
  8
0
  6
CONTINUOUS
 62
               7
100
AcDbLine
 10
129.12326569320246
 20
21.252923805572763
 30
0.0
 11
129.12326569320248
 21
62.252923814111561
 31
0.0
  0
LINE
  5
3DF
100
AcDbEntity
  8
0
  6
CONTINUOUS
 62
               7
100
AcDbLine
 10
141.12326569320248
 20
21.252923805572692
 30
0.0
 11
141.12326569320248
 21
44.852923814111378
 31
0.0
  0
LINE
  5
3E0
100
AcDbEntity
  8
0
  6
CONTINUOUS
 62
               7
100
AcDbLine
 10
148.22326569320251
 20
77.952923811864679
 30
0.0
 11
141.12231720687433
 21
77.952923811864679
 31
0.0
  0
LINE
  5
3E1
100
AcDbEntity
  8
0
  6
CENTER
 62
               2
100
AcDbLine
 10
124.02326569320252
 20
75.952924003610832
 30
0.0
 11
124.02326569320252
 21
67.128117387409688
 31
0.0
  0
LINE
  5
3E2
100
AcDbEntity
  8
0
  6
CENTER
 62
               2
100
AcDbLine
 10
128.53058535389152
 20
71.952924003610846
 30
0.0
 11
119.73871182402644
 21
71.952924003610846
 31
0.0
  0
LINE
  5
3E3
100
AcDbEntity
  8
0
  6
CENTER
 62
               2
100
AcDbLine
 10
124.02326569320252
 20
32.952923618095966
 30
0.0
 11
124.02326569320252
 21
41.777730234297124
 31
0.0
  0
LINE
  5
3E4
100
AcDbEntity
  8
0
  6
CENTER
 62
               2
100
AcDbLine
 10
128.53058535389152
 20
36.952923618095966
 30
0.0
 11
119.73871182402644
 21
36.952923618095966
 31
0.0
  0
LINE
  5
3E5
100
AcDbEntity
  8
0
  6
CONTINUOUS
 62
               7
100
AcDbLine
 10
148.22326569320251
 20
30.952923809842105
 30
0.0
 11
148.22326569320251
 21
77.952923811864679
 31
0.0
  0
LINE
  5
3E6
100
AcDbEntity
  8
0
  6
CONTINUOUS
 62
               7
100
AcDbLine
 10
120.02326569320252
 20
30.952923809842105
 30
0.0
 11
120.02326569320252
 21
77.952923811864679
 31
0.0
  0
CIRCLE
  5
3E7
100
AcDbEntity
  8
0
  6
CONTINUOUS
 62
               7
100
AcDbCircle
 10
124.02326569320252
 20
71.952924003610846
 30
0.0
 40
2.25
  0
CIRCLE
  5
3E8
100
AcDbEntity
  8
0
  6
CONTINUOUS
 62
               7
100
AcDbCircle
 10
124.02326569320252
 20
36.952923618095966
 30
0.0
 40
2.25
  0
LINE
  5
3E9
100
AcDbEntity
  8
0
  6
CONTINUOUS
 62
               7
100
AcDbLine
 10
129.12231720687433
 20
77.952923811864679
 30
0.0
 11
120.02326569613263
 21
77.952923811864679
 31
0.0
  0
LINE
  5
3EA
100
AcDbEntity
  8
0
  6
CONTINUOUS
 62
               7
100
AcDbLine
 10
130.07326569320253
 20
87.452923814111458
 30
0.0
 11
140.1732656932025
 21
87.452923814111458
 31
0.0
  0
LINE
  5
3EB
100
AcDbEntity
  8
0
  6
CONTINUOUS
 62
               7
100
AcDbLine
 10
148.22326569320251
 20
30.952923809842105
 30
0.0
 11
141.12326569320248
 21
30.952923809842105
 31
0.0
  0
CIRCLE
  5
3EC
100
AcDbEntity
  8
0
  6
CONTINUOUS
 62
               7
100
AcDbCircle
 10
135.12326569320251
 20
23.752923791985751
 30
0.0
 40
1.3999999999999997
  0
CIRCLE
  5
3ED
100
AcDbEntity
  8
0
  6
CONTINUOUS
 62
               7
100
AcDbCircle
 10
135.12326569320251
 20
23.752923791985751
 30
0.0
 40
0.75
  0
CIRCLE
  5
3EE
100
AcDbEntity
  8
0
  6
CONTINUOUS
 62
               7
100
AcDbCircle
 10
135.12326569320251
 20
23.752923791985751
 30
0.0
 40
1.1000000000000001
  0
LINE
  5
3EF
100
AcDbEntity
  8
0
  6
CENTER
 62
               2
100
AcDbLine
 10
137.43819582892687
 20
23.752923791985751
 30
0.0
 11
132.89932154052676
 21
23.752923791985751
 31
0.0
  0
LINE
  5
3F0
100
AcDbEntity
  8
0
  6
CONTINUOUS
 62
               7
100
AcDbLine
 10
140.37326569320251
 20
20.952923805572681
 30
0.0
 11
140.82326569320253
 21
20.952923805572681
 31
0.0
  0
CIRCLE
  5
3F1
100
AcDbEntity
  8
0
  6
CONTINUOUS
 62
               7
100
AcDbCircle
 10
135.12351569320256
 20
23.752923805572706
 30
0.0
 40
1.1500000000000001
  0
LINE
  5
3F2
100
AcDbEntity
  8
0
  6
CONTINUOUS
 62
               7
100
AcDbLine
 10
129.42326569320244
 20
20.952923805572709
 30
0.0
 11
129.87326569320251
 21
20.952923805572709
 31
0.0
  0
LINE
  5
3F3
100
AcDbEntity
  8
0
  6
CONTINUOUS
 62
               7
100
AcDbLine
 10
129.42326569320244
 20
20.952923805572709
 30
0.0
 11
129.12326569320254
 21
21.252923805572692
 31
0.0
  0
LINE
  5
3F4
100
AcDbEntity
  8
0
  6
CONTINUOUS
 62
               7
100
AcDbLine
 10
140.82326569320253
 20
20.952923805572681
 30
0.0
 11
141.12326569320243
 21
21.252923805572692
 31
0.0
  0
LINE
  5
3F5
100
AcDbEntity
  8
0
  6
CONTINUOUS
 62
               7
100
AcDbLine
 10
140.17326569320241
 20
21.152923805572669
 30
0.0
 11
140.17326569320241
 21
21.452923805572681
 31
0.0
  0
LINE
  5
3F6
100
AcDbEntity
  8
0
  6
CONTINUOUS
 62
               7
100
AcDbLine
 10
130.07326569320256
 20
21.152923805572698
 30
0.0
 11
130.07326569320256
 21
21.452923805572709
 31
0.0
  0
LINE
  5
3F7
100
AcDbEntity
  8
0
  6
CONTINUOUS
 62
               7
100
AcDbLine
 10
130.07326569320256
 20
21.152923805572698
 30
0.0
 11
129.87326569320251
 21
20.952923805572709
 31
0.0
  0
LINE
  5
3F8
100
AcDbEntity
  8
0
  6
CONTINUOUS
 62
               7
100
AcDbLine
 10
140.17326569320241
 20
21.152923805572669
 30
0.0
 11
140.37326569320251
 21
20.952923805572681
 31
0.0
  0
LINE
  5
3F9
100
AcDbEntity
  8
0
  6
CONTINUOUS
 62
               7
100
AcDbLine
 10
130.07326569320256
 20
21.452923805572709
 30
0.0
 11
140.17326569320241
 21
21.452923805572681
 31
0.0
  0
LINE
  5
3FA
100
AcDbEntity
  8
0
  6
CONTINUOUS
 62
               7
100
AcDbLine
 10
129.12326569320246
 20
30.952923809842105
 30
0.0
 11
120.02326569320252
 21
30.952923809842105
 31
0.0
  0
LINE
  5
3FB
100
AcDbEntity
  8
0
  6
CONTINUOUS
 62
               7
100
AcDbLine
 10
141.12326569320248
 20
46.65292381411156
 30
0.0
 11
141.12326569320248
 21
87.65292381411146
 31
0.0
  0
LINE
  5
3FC
100
AcDbEntity
  8
0
  6
CONTINUOUS
 62
               7
100
AcDbLine
 10
129.12326569320248
 20
64.052923814111381
 30
0.0
 11
129.12326569320248
 21
87.65292381411146
 31
0.0
  0
CIRCLE
  5
3FD
100
AcDbEntity
  8
0
  6
CONTINUOUS
 62
               7
100
AcDbCircle
 10
139.92326569320255
 20
45.752923814111469
 30
0.0
 40
1.5
  0
LINE
  5
3FE
100
AcDbEntity
  8
0
  6
CONTINUOUS
 62
               7
100
AcDbLine
 10
140.63037247438905
 20
45.045817032924916
 30
0.0
 11
139.216158912016
 21
46.460030595298015
 31
0.0
  0
LINE
  5
3FF
100
AcDbEntity
  8
0
  6
CONTINUOUS
 62
               7
100
AcDbLine
 10
139.216158912016
 20
45.045817032924923
 30
0.0
 11
140.63037247438905
 21
46.460030595298008
 31
0.0
  0
CIRCLE
  5
400
100
AcDbEntity
  8
0
  6
CONTINUOUS
 62
               7
100
AcDbCircle
 10
130.32326569320256
 20
63.152923814111475
 30
0.0
 40
1.5
  0
LINE
  5
401
100
AcDbEntity
  8
0
  6
CONTINUOUS
 62
               7
100
AcDbLine
 10
131.03037247438905
 20
62.445817032924914
 30
0.0
 11
129.616158912016
 21
63.860030595298014
 31
0.0
  0
LINE
  5
402
100
AcDbEntity
  8
0
  6
CONTINUOUS
 62
               7
100
AcDbLine
 10
129.616158912016
 20
62.445817032924921
 30
0.0
 11
131.03037247438905
 21
63.860030595298007
 31
0.0
  0
LINE
  5
403
100
AcDbEntity
  8
0
  6
CENTER
 62
             200
100
AcDbLine
 10
146.71814521557113
 20
70.952923810853392
 30
0.0
 11
179.00326569320251
 21
70.952923810853392
 31
0.0
  0
LINE
  5
404
100
AcDbEntity
  8
0
  6
DASHED
 62
             200
100
AcDbLine
 10
157.22326569320251
 20
62.952923810853392
 30
0.0
 11
176.72326569320251
 21
62.952923810853392
 31
0.0
  0
LINE
  5
405
100
AcDbEntity
  8
0
  6
DASHED
 62
             200
100
AcDbLine
 10
157.22326569320251
 20
78.952923810853392
 30
0.0
 11
176.72326569320251
 21
78.952923810853392
 31
0.0
  0
LINE
  5
406
100
AcDbEntity
  8
0
  6
DASHED
 62
             200
100
AcDbLine
 10
177.22326569320251
 20
78.452923810853392
 30
0.0
 11
177.22326569320251
 21
63.452923810853392
 31
0.0
  0
LINE
  5
407
100
AcDbEntity
  8
0
  6
DASHED
 62
             200
100
AcDbLine
 10
150.22326569320251
 20
79.032923810853404
 30
0.0
 11
150.22326569320251
 21
62.872923810853408
 31
0.0
  0
LINE
  5
408
100
AcDbEntity
  8
0
  6
DASHED
 62
             200
100
AcDbLine
 10
150.22326569320251
 20
79.032923810853404
 30
0.0
 11
157.22326569320251
 21
79.032923810853404
 31
0.0
  0
LINE
  5
409
100
AcDbEntity
  8
0
  6
DASHED
 62
             200
100
AcDbLine
 10
150.22326569320251
 20
74.992923810853384
 30
0.0
 11
157.22326569320251
 21
74.992923810853384
 31
0.0
  0
LINE
  5
40A
100
AcDbEntity
  8
0
  6
DASHED
 62
             200
100
AcDbLine
 10
150.22326569320251
 20
66.9129238108534
 30
0.0
 11
157.22326569320251
 21
66.9129238108534
 31
0.0
  0
LINE
  5
40B
100
AcDbEntity
  8
0
  6
DASHED
 62
             200
100
AcDbLine
 10
150.22326569320251
 20
62.872923810853408
 30
0.0
 11
157.22326569320251
 21
62.872923810853408
 31
0.0
  0
LINE
  5
40C
100
AcDbEntity
  8
0
  6
DASHED
 62
             200
100
AcDbLine
 10
157.22326569320251
 20
79.032923810853404
 30
0.0
 11
157.22326569320251
 21
62.872923810853408
 31
0.0
  0
LINE
  5
40D
100
AcDbEntity
  8
0
  6
DASHED
 62
             200
100
AcDbLine
 10
172.22326569320251
 20
78.952923810853392
 30
0.0
 11
172.22326569320251
 21
71.952923810853392
 31
0.0
  0
LINE
  5
40E
100
AcDbEntity
  8
0
  6
DASHED
 62
             200
100
AcDbLine
 10
159.22326569320251
 20
78.952923810853392
 30
0.0
 11
159.22326569320251
 21
72.952923810853392
 31
0.0
  0
LINE
  5
40F
100
AcDbEntity
  8
0
  6
DASHED
 62
             200
100
AcDbLine
 10
175.22326569320251
 20
78.952923810853392
 30
0.0
 11
175.22326569320251
 21
62.952923810853392
 31
0.0
  0
LINE
  5
410
100
AcDbEntity
  8
0
  6
DASHED
 62
             200
100
AcDbLine
 10
172.22326569320251
 20
71.952923810853392
 30
0.0
 11
168.72326569320251
 21
72.212923810853383
 31
0.0
  0
LINE
  5
411
100
AcDbEntity
  8
0
  6
DASHED
 62
             200
100
AcDbLine
 10
172.22326569320251
 20
69.952923810853392
 30
0.0
 11
168.72326569320251
 21
69.692923810853401
 31
0.0
  0
LINE
  5
412
100
AcDbEntity
  8
0
  6
DASHED
 62
             200
100
AcDbLine
 10
162.72326569320251
 20
78.952923810853392
 30
0.0
 11
162.72326569320251
 21
72.682923810853381
 31
0.0
  0
LINE
  5
413
100
AcDbEntity
  8
0
  6
DASHED
 62
             200
100
AcDbLine
 10
168.72326569320251
 20
78.952923810853392
 30
0.0
 11
168.72326569320251
 21
72.212923810853383
 31
0.0
  0
LINE
  5
414
100
AcDbEntity
  8
0
  6
DASHED
 62
             200
100
AcDbLine
 10
167.47326569320251
 20
78.952923810853392
 30
0.0
 11
167.47326569320251
 21
72.312923810853405
 31
0.0
  0
LINE
  5
415
100
AcDbEntity
  8
0
  6
DASHED
 62
             200
100
AcDbLine
 10
163.97326569320251
 20
78.952923810853392
 30
0.0
 11
163.97326569320251
 21
72.582923810853387
 31
0.0
  0
LINE
  5
416
100
AcDbEntity
  8
0
  6
DASHED
 62
             200
100
AcDbLine
 10
159.22326569320251
 20
68.952923810853392
 30
0.0
 11
159.22326569320251
 21
62.952923810853392
 31
0.0
  0
LINE
  5
417
100
AcDbEntity
  8
0
  6
DASHED
 62
             200
100
AcDbLine
 10
162.72326569320251
 20
69.222923810853402
 30
0.0
 11
162.72326569320251
 21
62.952923810853392
 31
0.0
  0
LINE
  5
418
100
AcDbEntity
  8
0
  6
DASHED
 62
             200
100
AcDbLine
 10
163.97326569320251
 20
69.322923810853396
 30
0.0
 11
163.97326569320251
 21
62.952923810853392
 31
0.0
  0
LINE
  5
419
100
AcDbEntity
  8
0
  6
DASHED
 62
             200
100
AcDbLine
 10
167.47326569320251
 20
69.592923810853378
 30
0.0
 11
167.47326569320251
 21
62.952923810853392
 31
0.0
  0
LINE
  5
41A
100
AcDbEntity
  8
0
  6
DASHED
 62
             200
100
AcDbLine
 10
172.22326569320251
 20
69.952923810853392
 30
0.0
 11
172.22326569320251
 21
62.952923810853392
 31
0.0
  0
LINE
  5
41B
100
AcDbEntity
  8
0
  6
DASHED
 62
             200
100
AcDbLine
 10
168.72326569320251
 20
69.692923810853401
 30
0.0
 11
168.72326569320251
 21
62.952923810853392
 31
0.0
  0
LINE
  5
41C
100
AcDbEntity
  8
0
  6
DASHED
 62
             200
100
AcDbLine
 10
162.72326569320251
 20
72.682923810853381
 30
0.0
 11
159.22326569320251
 21
72.952923810853392
 31
0.0
  0
LINE
  5
41D
100
AcDbEntity
  8
0
  6
DASHED
 62
             200
100
AcDbLine
 10
162.72326569320251
 20
69.222923810853402
 30
0.0
 11
159.22326569320251
 21
68.952923810853392
 31
0.0
  0
LINE
  5
41E
100
AcDbEntity
  8
0
  6
DASHED
 62
             200
100
AcDbLine
 10
167.47326569320251
 20
69.592923810853378
 30
0.0
 11
163.97326569320251
 21
69.322923810853396
 31
0.0
  0
LINE
  5
41F
100
AcDbEntity
  8
0
  6
DASHED
 62
             200
100
AcDbLine
 10
167.47326569320251
 20
72.312923810853405
 30
0.0
 11
163.97326569320251
 21
72.582923810853387
 31
0.0
  0
LINE
  5
420
100
AcDbEntity
  8
0
  6
DASHED
 62
             200
100
AcDbLine
 10
159.22326569320251
 20
76.952923810853392
 30
0.0
 11
162.72326569320251
 21
77.082923810853387
 31
0.0
  0
LINE
  5
421
100
AcDbEntity
  8
0
  6
DASHED
 62
             200
100
AcDbLine
 10
159.22326569320251
 20
64.952923810853392
 30
0.0
 11
162.72326569320251
 21
64.822923810853396
 31
0.0
  0
LINE
  5
422
100
AcDbEntity
  8
0
  6
DASHED
 62
             200
100
AcDbLine
 10
163.97326569320251
 20
64.772923810853385
 30
0.0
 11
167.47326569320251
 21
64.642923810853389
 31
0.0
  0
LINE
  5
423
100
AcDbEntity
  8
0
  6
DASHED
 62
             200
100
AcDbLine
 10
168.72326569320251
 20
64.592923810853378
 30
0.0
 11
172.22326569320251
 21
64.452923810853392
 31
0.0
  0
LINE
  5
424
100
AcDbEntity
  8
0
  6
DASHED
 62
             200
100
AcDbLine
 10
163.97326569320251
 20
77.132923810853399
 30
0.0
 11
167.47326569320251
 21
77.262923810853394
 31
0.0
  0
LINE
  5
425
100
AcDbEntity
  8
0
  6
DASHED
 62
             200
100
AcDbLine
 10
168.72326569320251
 20
77.312923810853405
 30
0.0
 11
172.22326569320251
 21
77.452923810853392
 31
0.0
  0
LINE
  5
426
100
AcDbEntity
  8
0
  6
DASHED
 62
             200
100
AcDbLine
 10
148.22326569320251
 20
75.811105629035197
 30
0.0
 11
150.22326569320251
 21
75.872923810853379
 31
0.0
  0
LINE
  5
427
100
AcDbEntity
  8
0
  6
DASHED
 62
             200
100
AcDbLine
 10
148.22326569320251
 20
66.094741992671587
 30
0.0
 11
150.22326569320251
 21
66.032923810853404
 31
0.0
  0
ARC
  5
428
100
AcDbEntity
  8
0
  6
DASHED
 62
             200
100
AcDbCircle
 10
176.72326569320251
 20
78.452923810853392
 30
0.0
 40
0.5
100
AcDbArc
 50
0.0
 51
89.999999999999815
  0
ARC
  5
429
100
AcDbEntity
  8
0
  6
DASHED
 62
             200
100
AcDbCircle
 10
176.72326569320251
 20
63.452923810853392
 30
0.0
 40
0.5
100
AcDbArc
 50
269.99999999999937
 51
0.0
  0
LINE
  5
42A
100
AcDbEntity
  8
0
  6
CENTER
 62
             200
100
AcDbLine
 10
146.71814521557113
 20
37.952923810853392
 30
0.0
 11
179.00326569320251
 21
37.952923810853392
 31
0.0
  0
LINE
  5
42B
100
AcDbEntity
  8
0
  6
DASHED
 62
             200
100
AcDbLine
 10
157.22326569320251
 20
29.952923810853392
 30
0.0
 11
176.72326569320251
 21
29.952923810853392
 31
0.0
  0
LINE
  5
42C
100
AcDbEntity
  8
0
  6
DASHED
 62
             200
100
AcDbLine
 10
157.22326569320251
 20
45.952923810853392
 30
0.0
 11
176.72326569320251
 21
45.952923810853392
 31
0.0
  0
LINE
  5
42D
100
AcDbEntity
  8
0
  6
DASHED
 62
             200
100
AcDbLine
 10
177.22326569320251
 20
45.452923810853392
 30
0.0
 11
177.22326569320251
 21
30.452923810853392
 31
0.0
  0
LINE
  5
42E
100
AcDbEntity
  8
0
  6
DASHED
 62
             200
100
AcDbLine
 10
150.22326569320251
 20
46.032923810853404
 30
0.0
 11
150.22326569320251
 21
29.872923810853408
 31
0.0
  0
LINE
  5
42F
100
AcDbEntity
  8
0
  6
DASHED
 62
             200
100
AcDbLine
 10
150.22326569320251
 20
46.032923810853404
 30
0.0
 11
157.22326569320251
 21
46.032923810853404
 31
0.0
  0
LINE
  5
430
100
AcDbEntity
  8
0
  6
DASHED
 62
             200
100
AcDbLine
 10
150.22326569320251
 20
41.992923810853384
 30
0.0
 11
157.22326569320251
 21
41.992923810853384
 31
0.0
  0
LINE
  5
431
100
AcDbEntity
  8
0
  6
DASHED
 62
             200
100
AcDbLine
 10
150.22326569320251
 20
33.9129238108534
 30
0.0
 11
157.22326569320251
 21
33.9129238108534
 31
0.0
  0
LINE
  5
432
100
AcDbEntity
  8
0
  6
DASHED
 62
             200
100
AcDbLine
 10
150.22326569320251
 20
29.872923810853408
 30
0.0
 11
157.22326569320251
 21
29.872923810853408
 31
0.0
  0
LINE
  5
433
100
AcDbEntity
  8
0
  6
DASHED
 62
             200
100
AcDbLine
 10
157.22326569320251
 20
46.032923810853404
 30
0.0
 11
157.22326569320251
 21
29.872923810853408
 31
0.0
  0
LINE
  5
434
100
AcDbEntity
  8
0
  6
DASHED
 62
             200
100
AcDbLine
 10
172.22326569320251
 20
45.952923810853392
 30
0.0
 11
172.22326569320251
 21
38.952923810853392
 31
0.0
  0
LINE
  5
435
100
AcDbEntity
  8
0
  6
DASHED
 62
             200
100
AcDbLine
 10
159.22326569320251
 20
45.952923810853392
 30
0.0
 11
159.22326569320251
 21
39.952923810853392
 31
0.0
  0
LINE
  5
436
100
AcDbEntity
  8
0
  6
DASHED
 62
             200
100
AcDbLine
 10
175.22326569320251
 20
45.952923810853392
 30
0.0
 11
175.22326569320251
 21
29.952923810853392
 31
0.0
  0
LINE
  5
437
100
AcDbEntity
  8
0
  6
DASHED
 62
             200
100
AcDbLine
 10
172.22326569320251
 20
38.952923810853392
 30
0.0
 11
168.72326569320251
 21
39.212923810853383
 31
0.0
  0
LINE
  5
438
100
AcDbEntity
  8
0
  6
DASHED
 62
             200
100
AcDbLine
 10
172.22326569320251
 20
36.952923810853392
 30
0.0
 11
168.72326569320251
 21
36.692923810853401
 31
0.0
  0
LINE
  5
439
100
AcDbEntity
  8
0
  6
DASHED
 62
             200
100
AcDbLine
 10
162.72326569320251
 20
45.952923810853392
 30
0.0
 11
162.72326569320251
 21
39.682923810853381
 31
0.0
  0
LINE
  5
43A
100
AcDbEntity
  8
0
  6
DASHED
 62
             200
100
AcDbLine
 10
168.72326569320251
 20
45.952923810853392
 30
0.0
 11
168.72326569320251
 21
39.212923810853383
 31
0.0
  0
LINE
  5
43B
100
AcDbEntity
  8
0
  6
DASHED
 62
             200
100
AcDbLine
 10
167.47326569320251
 20
45.952923810853392
 30
0.0
 11
167.47326569320251
 21
39.312923810853405
 31
0.0
  0
LINE
  5
43C
100
AcDbEntity
  8
0
  6
DASHED
 62
             200
100
AcDbLine
 10
163.97326569320251
 20
45.952923810853392
 30
0.0
 11
163.97326569320251
 21
39.582923810853387
 31
0.0
  0
LINE
  5
43D
100
AcDbEntity
  8
0
  6
DASHED
 62
             200
100
AcDbLine
 10
159.22326569320251
 20
35.952923810853392
 30
0.0
 11
159.22326569320251
 21
29.952923810853392
 31
0.0
  0
LINE
  5
43E
100
AcDbEntity
  8
0
  6
DASHED
 62
             200
100
AcDbLine
 10
162.72326569320251
 20
36.222923810853402
 30
0.0
 11
162.72326569320251
 21
29.952923810853392
 31
0.0
  0
LINE
  5
43F
100
AcDbEntity
  8
0
  6
DASHED
 62
             200
100
AcDbLine
 10
163.97326569320251
 20
36.322923810853396
 30
0.0
 11
163.97326569320251
 21
29.952923810853392
 31
0.0
  0
LINE
  5
440
100
AcDbEntity
  8
0
  6
DASHED
 62
             200
100
AcDbLine
 10
167.47326569320251
 20
36.592923810853378
 30
0.0
 11
167.47326569320251
 21
29.952923810853392
 31
0.0
  0
LINE
  5
441
100
AcDbEntity
  8
0
  6
DASHED
 62
             200
100
AcDbLine
 10
172.22326569320251
 20
36.952923810853392
 30
0.0
 11
172.22326569320251
 21
29.952923810853392
 31
0.0
  0
LINE
  5
442
100
AcDbEntity
  8
0
  6
DASHED
 62
             200
100
AcDbLine
 10
168.72326569320251
 20
36.692923810853401
 30
0.0
 11
168.72326569320251
 21
29.952923810853392
 31
0.0
  0
LINE
  5
443
100
AcDbEntity
  8
0
  6
DASHED
 62
             200
100
AcDbLine
 10
162.72326569320251
 20
39.682923810853381
 30
0.0
 11
159.22326569320251
 21
39.952923810853392
 31
0.0
  0
LINE
  5
444
100
AcDbEntity
  8
0
  6
DASHED
 62
             200
100
AcDbLine
 10
162.72326569320251
 20
36.222923810853402
 30
0.0
 11
159.22326569320251
 21
35.952923810853392
 31
0.0
  0
LINE
  5
445
100
AcDbEntity
  8
0
  6
DASHED
 62
             200
100
AcDbLine
 10
167.47326569320251
 20
36.592923810853378
 30
0.0
 11
163.97326569320251
 21
36.322923810853396
 31
0.0
  0
LINE
  5
446
100
AcDbEntity
  8
0
  6
DASHED
 62
             200
100
AcDbLine
 10
167.47326569320251
 20
39.312923810853405
 30
0.0
 11
163.97326569320251
 21
39.582923810853387
 31
0.0
  0
LINE
  5
447
100
AcDbEntity
  8
0
  6
DASHED
 62
             200
100
AcDbLine
 10
159.22326569320251
 20
43.952923810853392
 30
0.0
 11
162.72326569320251
 21
44.082923810853387
 31
0.0
  0
LINE
  5
448
100
AcDbEntity
  8
0
  6
DASHED
 62
             200
100
AcDbLine
 10
159.22326569320251
 20
31.952923810853392
 30
0.0
 11
162.72326569320251
 21
31.822923810853396
 31
0.0
  0
LINE
  5
449
100
AcDbEntity
  8
0
  6
DASHED
 62
             200
100
AcDbLine
 10
163.97326569320251
 20
31.772923810853385
 30
0.0
 11
167.47326569320251
 21
31.642923810853389
 31
0.0
  0
LINE
  5
44A
100
AcDbEntity
  8
0
  6
DASHED
 62
             200
100
AcDbLine
 10
168.72326569320251
 20
31.592923810853378
 30
0.0
 11
172.22326569320251
 21
31.452923810853392
 31
0.0
  0
LINE
  5
44B
100
AcDbEntity
  8
0
  6
DASHED
 62
             200
100
AcDbLine
 10
163.97326569320251
 20
44.132923810853399
 30
0.0
 11
167.47326569320251
 21
44.262923810853394
 31
0.0
  0
LINE
  5
44C
100
AcDbEntity
  8
0
  6
DASHED
 62
             200
100
AcDbLine
 10
168.72326569320251
 20
44.312923810853405
 30
0.0
 11
172.22326569320251
 21
44.452923810853392
 31
0.0
  0
LINE
  5
44D
100
AcDbEntity
  8
0
  6
DASHED
 62
             200
100
AcDbLine
 10
148.22326569320251
 20
42.811105629035197
 30
0.0
 11
150.22326569320251
 21
42.872923810853379
 31
0.0
  0
LINE
  5
44E
100
AcDbEntity
  8
0
  6
DASHED
 62
             200
100
AcDbLine
 10
148.22326569320251
 20
33.094741992671587
 30
0.0
 11
150.22326569320251
 21
33.032923810853404
 31
0.0
  0
ARC
  5
44F
100
AcDbEntity
  8
0
  6
DASHED
 62
             200
100
AcDbCircle
 10
176.72326569320251
 20
45.452923810853392
 30
0.0
 40
0.5
100
AcDbArc
 50
0.0
 51
89.999999999999815
  0
ARC
  5
450
100
AcDbEntity
  8
0
  6
DASHED
 62
             200
100
AcDbCircle
 10
176.72326569320251
 20
30.452923810853392
 30
0.0
 40
0.5
100
AcDbArc
 50
269.99999999999937
 51
0.0
  0
LINE
  5
451
100
AcDbEntity
  8
0
  6
CONTINUOUS
 62
               4
100
AcDbLine
 10
136.12324738265565
 20
125.94585308504482
 30
0.0
 11
136.62324738265565
 21
125.94585308504482
 31
0.0
  0
LINE
  5
452
100
AcDbEntity
  8
0
  6
CONTINUOUS
 62
               4
100
AcDbLine
 10
133.62324738265565
 20
125.94585308504482
 30
0.0
 11
134.12324738265565
 21
125.94585308504482
 31
0.0
  0
ARC
  5
453
100
AcDbEntity
  8
0
  6
CONTINUOUS
 62
               4
100
AcDbCircle
 10
139.62356254106672
 20
87.952626966247252
 30
0.0
 40
0.4997032403068001
100
AcDbArc
 50
269.96596353714654
 51
0.0340364628527164
  0
LINE
  5
454
100
AcDbEntity
  8
0
  6
CONTINUOUS
 62
               4
100
AcDbLine
 10
140.12326569320251
 20
109.95292381411146
 30
0.0
 11
140.12326569320251
 21
87.452923814111458
 31
0.0
  0
LINE
  5
455
100
AcDbEntity
  8
0
  6
CONTINUOUS
 62
               4
100
AcDbLine
 10
130.12326572229171
 20
109.95292381838082
 30
0.0
 11
131.37324738265565
 21
109.95292381838082
 31
0.0
  0
ARC
  5
456
100
AcDbEntity
  8
0
  6
CONTINUOUS
 62
               4
100
AcDbCircle
 10
139.32736083986069
 20
109.353018965039
 30
0.0
 40
0.5999048608870732
100
AcDbArc
 50
359.99091272245295
 51
90.009087277546172
  0
ARC
  5
457
100
AcDbEntity
  8
0
  6
CONTINUOUS
 62
               4
100
AcDbCircle
 10
130.62326569320251
 20
109.3529238183808
 30
0.0
 40
0.5
100
AcDbArc
 50
89.999999999999815
 51
179.99999999999963
  0
LINE
  5
458
100
AcDbEntity
  8
0
  6
CONTINUOUS
 62
               4
100
AcDbLine
 10
131.37324738265565
 20
109.8529238183808
 30
0.0
 11
130.62326569320251
 21
109.8529238183808
 31
0.0
  0
LINE
  5
459
100
AcDbEntity
  8
0
  6
CONTINUOUS
 62
               4
100
AcDbLine
 10
140.12326569320251
 20
108.3529238183808
 30
0.0
 11
138.87324738265565
 21
108.3529238183808
 31
0.0
  0
LINE
  5
45A
100
AcDbEntity
  8
0
  6
CONTINUOUS
 62
               4
100
AcDbLine
 10
140.12326569320251
 20
109.95292381838082
 30
0.0
 11
138.87324738265565
 21
109.95292381838082
 31
0.0
  0
LINE
  5
45B
100
AcDbEntity
  8
0
  6
CONTINUOUS
 62
               4
100
AcDbLine
 10
140.12326569320251
 20
109.3529238183808
 30
0.0
 11
138.87324738265565
 21
109.3529238183808
 31
0.0
  0
LINE
  5
45C
100
AcDbEntity
  8
0
  6
CONTINUOUS
 62
               4
100
AcDbLine
 10
130.12326569320251
 20
109.95292381838082
 30
0.0
 11
130.12326569320251
 21
87.452923818380825
 31
0.0
  0
LINE
  5
45D
100
AcDbEntity
  8
0
  6
CONTINUOUS
 62
               4
100
AcDbLine
 10
130.12324738265565
 20
106.95292381411134
 30
0.0
 11
130.62324738265565
 21
106.95292381411134
 31
0.0
  0
LINE
  5
45E
100
AcDbEntity
  8
0
  6
CONTINUOUS
 62
               4
100
AcDbLine
 10
130.62324738265565
 20
106.95292381411134
 30
0.0
 11
132.37324738265565
 21
106.95292381411134
 31
0.0
  0
LINE
  5
45F
100
AcDbEntity
  8
0
  6
CONTINUOUS
 62
               4
100
AcDbLine
 10
139.62324738265565
 20
106.95292381411134
 30
0.0
 11
140.12324738265565
 21
106.95292381411134
 31
0.0
  0
LINE
  5
460
100
AcDbEntity
  8
0
  6
CONTINUOUS
 62
               4
100
AcDbLine
 10
132.37324738265565
 20
98.952923814111344
 30
0.0
 11
137.87324738265565
 21
98.952923814111344
 31
0.0
  0
LINE
  5
461
100
AcDbEntity
  8
0
  6
CONTINUOUS
 62
               4
100
AcDbLine
 10
137.87324738265565
 20
106.95292381411134
 30
0.0
 11
139.62324738265565
 21
106.95292381411134
 31
0.0
  0
LINE
  5
462
100
AcDbEntity
  8
0
  6
CONTINUOUS
 62
               4
100
AcDbLine
 10
132.37324738265565
 20
114.95292381411134
 30
0.0
 11
132.37324738265565
 21
98.952923814111344
 31
0.0
  0
LINE
  5
463
100
AcDbEntity
  8
0
  6
CONTINUOUS
 62
               4
100
AcDbLine
 10
131.37324738265565
 20
114.95292381411134
 30
0.0
 11
131.37324738265565
 21
106.95292381411134
 31
0.0
  0
LINE
  5
464
100
AcDbEntity
  8
0
  6
CONTINUOUS
 62
               4
100
AcDbLine
 10
132.37324738265565
 20
113.45292381411134
 30
0.0
 11
137.87324738265565
 21
113.45292381411134
 31
0.0
  0
LINE
  5
465
100
AcDbEntity
  8
0
  6
CONTINUOUS
 62
               4
100
AcDbLine
 10
137.87324738265565
 20
114.95292381411134
 30
0.0
 11
137.87324738265565
 21
98.952923814111344
 31
0.0
  0
LINE
  5
466
100
AcDbEntity
  8
0
  6
CONTINUOUS
 62
               4
100
AcDbLine
 10
138.87324738265565
 20
114.95292381411134
 30
0.0
 11
138.87324738265565
 21
106.95292381411134
 31
0.0
  0
LINE
  5
467
100
AcDbEntity
  8
0
  6
CONTINUOUS
 62
               4
100
AcDbLine
 10
131.37324738265565
 20
114.95292381411134
 30
0.0
 11
138.87324738265565
 21
114.95292381411134
 31
0.0
  0
ARC
  5
468
100
AcDbEntity
  8
0
  6
CONTINUOUS
 62
               4
100
AcDbCircle
 10
130.62323670152423
 20
106.4529344952427
 30
0.0
 40
0.4999893189827007
100
AcDbArc
 50
89.998776006354774
 51
180.00122399364432
  0
ARC
  5
469
100
AcDbEntity
  8
0
  6
CONTINUOUS
 62
               4
100
AcDbCircle
 10
139.62324280490483
 20
106.45291923636053
 30
0.0
 40
0.5000045777717621
100
AcDbArc
 50
0.0005245667992071
 51
89.9994754332008
  0
ARC
  5
46A
100
AcDbEntity
  8
0
  6
CONTINUOUS
 62
               4
100
AcDbCircle
 10
130.623242805133
 20
87.952919236588698
 30
0.0
 40
0.4999954224983215
100
AcDbArc
 50
179.99947544974256
 51
270.00052455025656
  0
LINE
  5
46B
100
AcDbEntity
  8
0
  6
CONTINUOUS
 62
               4
100
AcDbLine
 10
137.02324738265563
 20
122.4458530870448
 30
0.0
 11
137.02324738265563
 21
118.95292381411134
 31
0.0
  0
LINE
  5
46C
100
AcDbEntity
  8
0
  6
CONTINUOUS
 62
               4
100
AcDbLine
 10
135.72324738265561
 20
122.4458530870448
 30
0.0
 11
135.72324738265561
 21
119.30292381411137
 31
0.0
  0
LINE
  5
46D
100
AcDbEntity
  8
0
  6
CONTINUOUS
 62
               4
100
AcDbLine
 10
134.12324738265565
 20
125.94585308504482
 30
0.0
 11
134.12324738265565
 21
122.4458530870448
 31
0.0
  0
LINE
  5
46E
100
AcDbEntity
  8
0
  6
CONTINUOUS
 62
               4
100
AcDbLine
 10
133.62324738265565
 20
125.94585308504482
 30
0.0
 11
133.62324738265565
 21
122.4458530870448
 31
0.0
  0
LINE
  5
46F
100
AcDbEntity
  8
0
  6
CONTINUOUS
 62
               4
100
AcDbLine
 10
137.02324738265563
 20
117.92292381411131
 30
0.0
 11
137.02324738265563
 21
114.95292381411134
 31
0.0
  0
LINE
  5
470
100
AcDbEntity
  8
0
  6
CONTINUOUS
 62
               4
100
AcDbLine
 10
135.72324738265561
 20
118.27292381411134
 30
0.0
 11
135.72324738265561
 21
114.95292381411134
 31
0.0
  0
LINE
  5
471
100
AcDbEntity
  8
0
  6
CONTINUOUS
 62
               4
100
AcDbLine
 10
133.22324738265561
 20
118.94292381411135
 30
0.0
 11
133.22324738265561
 21
114.95292381411134
 31
0.0
  0
LINE
  5
472
100
AcDbEntity
  8
0
  6
CONTINUOUS
 62
               4
100
AcDbLine
 10
134.52324738265563
 20
122.4458530870448
 30
0.0
 11
134.52324738265563
 21
119.62292381411136
 31
0.0
  0
LINE
  5
473
100
AcDbEntity
  8
0
  6
CONTINUOUS
 62
               4
100
AcDbLine
 10
133.22324738265561
 20
122.4458530870448
 30
0.0
 11
133.22324738265561
 21
119.97292381411133
 31
0.0
  0
LINE
  5
474
100
AcDbEntity
  8
0
  6
CONTINUOUS
 62
               4
100
AcDbLine
 10
136.62324738265565
 20
125.94585308504482
 30
0.0
 11
136.62324738265565
 21
122.4458530870448
 31
0.0
  0
LINE
  5
475
100
AcDbEntity
  8
0
  6
CONTINUOUS
 62
               4
100
AcDbLine
 10
136.12324738265565
 20
125.94585308504482
 30
0.0
 11
136.12324738265565
 21
122.4458530870448
 31
0.0
  0
LINE
  5
476
100
AcDbEntity
  8
0
  6
CONTINUOUS
 62
               4
100
AcDbLine
 10
134.52324738265563
 20
118.59292381411133
 30
0.0
 11
134.52324738265563
 21
114.95292381411134
 31
0.0
  0
LINE
  5
477
100
AcDbEntity
  8
0
  6
CONTINUOUS
 62
               4
100
AcDbLine
 10
133.22324738265561
 20
122.4458530870448
 30
0.0
 11
134.52324738265563
 21
122.4458530870448
 31
0.0
  0
LINE
  5
478
100
AcDbEntity
  8
0
  6
CONTINUOUS
 62
             200
100
AcDbLine
 10
131.37324738265565
 20
119.43292381411136
 30
0.0
 11
138.87324738265565
 21
117.42292381411131
 31
0.0
  0
LINE
  5
479
100
AcDbEntity
  8
0
  6
CONTINUOUS
 62
             200
100
AcDbLine
 10
131.37324738265565
 20
120.47292381411133
 30
0.0
 11
138.87324738265565
 21
118.46292381411133
 31
0.0
  0
LINE
  5
47A
100
AcDbEntity
  8
0
  6
CONTINUOUS
 62
               4
100
AcDbLine
 10
135.72324738265561
 20
122.4458530870448
 30
0.0
 11
137.02324738265563
 21
122.4458530870448
 31
0.0
  0
LINE
  5
47B
100
AcDbEntity
  8
0
  6
PHANTOM
 62
             200
100
AcDbLine
 10
136.62324738265565
 20
94.952923814111344
 30
0.0
 11
136.62324738265565
 21
92.952923814111344
 31
0.0
  0
LINE
  5
47C
100
AcDbEntity
  8
0
  6
PHANTOM
 62
             200
100
AcDbLine
 10
133.62324738265565
 20
94.952923814111344
 30
0.0
 11
133.62324738265565
 21
92.952923814111344
 31
0.0
  0
LINE
  5
47D
100
AcDbEntity
  8
0
  6
PHANTOM
 62
             200
100
AcDbLine
 10
133.62324738265565
 20
92.952923814111344
 30
0.0
 11
136.62324738265565
 21
92.952923814111344
 31
0.0
  0
LINE
  5
47E
100
AcDbEntity
  8
0
  6
PHANTOM
 62
             200
100
AcDbLine
 10
133.62324738265565
 20
94.952923814111344
 30
0.0
 11
136.62324738265565
 21
94.952923814111344
 31
0.0
  0
LINE
  5
47F
100
AcDbEntity
  8
0
  6
CONTINUOUS
 62
               4
100
AcDbLine
 10
131.06126569320253
 20
89.77978097297229
 30
0.0
 11
139.1852656932025
 21
89.77978097297229
 31
0.0
  0
LINE
  5
480
100
AcDbEntity
  8
0
  6
CONTINUOUS
 62
               4
100
AcDbLine
 10
139.6852656932025
 20
106.45292381411134
 30
0.0
 11
139.6852656932025
 21
90.27978097297229
 31
0.0
  0
LINE
  5
481
100
AcDbEntity
  8
0
  6
CONTINUOUS
 62
               4
100
AcDbLine
 10
130.56126569320253
 20
106.45292381411134
 30
0.0
 11
130.56126569320253
 21
90.27978097297229
 31
0.0
  0
ARC
  5
482
100
AcDbEntity
  8
0
  6
CONTINUOUS
 62
               4
100
AcDbCircle
 10
131.06126569320253
 20
90.27978097297229
 30
0.0
 40
0.5
100
AcDbArc
 50
179.99999999999963
 51
269.99999999999937
  0
ARC
  5
483
100
AcDbEntity
  8
0
  6
CONTINUOUS
 62
               4
100
AcDbCircle
 10
139.1852656932025
 20
90.27978097297229
 30
0.0
 40
0.5
100
AcDbArc
 50
270.00000000000023
 51
0.0
  0
ARC
  5
484
100
AcDbEntity
  8
0
  6
CONTINUOUS
 62
               4
100
AcDbCircle
 10
139.1852656932025
 20
106.45292381411134
 30
0.0
 40
0.5
100
AcDbArc
 50
0.0
 51
89.999999999999815
  0
ARC
  5
485
100
AcDbEntity
  8
0
  6
CONTINUOUS
 62
               4
100
AcDbCircle
 10
131.06126569320253
 20
106.45292381411134
 30
0.0
 40
0.5
100
AcDbArc
 50
89.999999999999815
 51
179.99999999999963
  0
LINE
  5
486
100
AcDbEntity
  8
0
  6
CONTINUOUS
 62
             200
100
AcDbLine
 10
131.37324738265565
 20
-11.567076194427173
 30
0.0
 11
138.87324738265565
 21
-9.5570761944271823
 31
0.0
  0
LINE
  5
487
100
AcDbEntity
  8
0
  6
CONTINUOUS
 62
             200
100
AcDbLine
 10
131.37324738265565
 20
-10.52707619442721
 30
0.0
 11
138.87324738265565
 21
-8.5170761944271618
 31
0.0
  0
LINE
  5
488
100
AcDbEntity
  8
0
  6
PHANTOM
 62
             200
100
AcDbLine
 10
133.62324738265565
 20
15.95292380759544
 30
0.0
 11
136.62324738265565
 21
15.95292380759544
 31
0.0
  0
LINE
  5
489
100
AcDbEntity
  8
0
  6
PHANTOM
 62
             200
100
AcDbLine
 10
133.62324738265565
 20
13.95292380759544
 30
0.0
 11
136.62324738265565
 21
13.95292380759544
 31
0.0
  0
LINE
  5
48A
100
AcDbEntity
  8
0
  6
PHANTOM
 62
             200
100
AcDbLine
 10
133.62324738265565
 20
13.95292380759544
 30
0.0
 11
133.62324738265565
 21
15.95292380759544
 31
0.0
  0
LINE
  5
48B
100
AcDbEntity
  8
0
  6
PHANTOM
 62
             200
100
AcDbLine
 10
136.62324738265565
 20
13.95292380759544
 30
0.0
 11
136.62324738265565
 21
15.95292380759544
 31
0.0
  0
LINE
  5
48C
100
AcDbEntity
  8
0
  6
DASHED
 62
             200
100
AcDbLine
 10
-124.65166106460998
 20
62.952923810853392
 30
0.0
 11
-105.15166106460998
 21
62.952923810853392
 31
0.0
  0
LINE
  5
48D
100
AcDbEntity
  8
0
  6
DASHED
 62
             200
100
AcDbLine
 10
-124.65166106460998
 20
78.952923810853392
 30
0.0
 11
-105.15166106460998
 21
78.952923810853392
 31
0.0
  0
LINE
  5
48E
100
AcDbEntity
  8
0
  6
DASHED
 62
             200
100
AcDbLine
 10
-109.65166106460998
 20
71.952923810853392
 30
0.0
 11
-113.15166106460998
 21
72.212923810853383
 31
0.0
  0
LINE
  5
48F
100
AcDbEntity
  8
0
  6
DASHED
 62
             200
100
AcDbLine
 10
-109.65166106460998
 20
69.952923810853392
 30
0.0
 11
-113.15166106460998
 21
69.692923810853401
 31
0.0
  0
LINE
  5
490
100
AcDbEntity
  8
0
  6
DASHED
 62
             200
100
AcDbLine
 10
-113.15166106460998
 20
64.592923810853378
 30
0.0
 11
-109.65166106460998
 21
64.452923810853392
 31
0.0
  0
LINE
  5
491
100
AcDbEntity
  8
0
  6
DASHED
 62
             200
100
AcDbLine
 10
-113.15166106460998
 20
77.312923810853405
 30
0.0
 11
-109.65166106460998
 21
77.452923810853392
 31
0.0
  0
LINE
  5
492
100
AcDbEntity
  8
0
  6
DASHED
 62
             200
100
AcDbLine
 10
-124.65166106460998
 20
29.952923810853392
 30
0.0
 11
-105.15166106460998
 21
29.952923810853392
 31
0.0
  0
LINE
  5
493
100
AcDbEntity
  8
0
  6
DASHED
 62
             200
100
AcDbLine
 10
-124.65166106460998
 20
45.952923810853392
 30
0.0
 11
-105.15166106460998
 21
45.952923810853392
 31
0.0
  0
LINE
  5
494
100
AcDbEntity
  8
0
  6
DASHED
 62
             200
100
AcDbLine
 10
-109.65166106460998
 20
38.952923810853392
 30
0.0
 11
-113.15166106460998
 21
39.212923810853383
 31
0.0
  0
LINE
  5
495
100
AcDbEntity
  8
0
  6
DASHED
 62
             200
100
AcDbLine
 10
-109.65166106460998
 20
36.952923810853392
 30
0.0
 11
-113.15166106460998
 21
36.692923810853401
 31
0.0
  0
LINE
  5
496
100
AcDbEntity
  8
0
  6
DASHED
 62
             200
100
AcDbLine
 10
-113.15166106460998
 20
31.592923810853378
 30
0.0
 11
-109.65166106460998
 21
31.452923810853392
 31
0.0
  0
LINE
  5
497
100
AcDbEntity
  8
0
  6
DASHED
 62
             200
100
AcDbLine
 10
-113.15166106460998
 20
44.312923810853405
 30
0.0
 11
-109.65166106460998
 21
44.452923810853392
 31
0.0
  0
LINE
  5
498
100
AcDbEntity
  8
0
  6
DASHED
 62
             200
100
AcDbLine
 10
-133.65166106460998
 20
33.094741992671587
 30
0.0
 11
-131.65166106460998
 21
33.032923810853404
 31
0.0
  0
LINE
  5
499
100
AcDbEntity
  8
0
  6
DASHED
 62
             200
100
AcDbLine
 10
-133.65166106460998
 20
42.811105629035197
 30
0.0
 11
-131.65166106460998
 21
42.872923810853379
 31
0.0
  0
LINE
  5
49A
100
AcDbEntity
  8
0
  6
DASHED
 62
             200
100
AcDbLine
 10
-117.90166106460998
 20
44.132923810853399
 30
0.0
 11
-114.40166106460998
 21
44.262923810853394
 31
0.0
  0
LINE
  5
49B
100
AcDbEntity
  8
0
  6
DASHED
 62
             200
100
AcDbLine
 10
-117.90166106460998
 20
31.772923810853385
 30
0.0
 11
-114.40166106460998
 21
31.642923810853389
 31
0.0
  0
LINE
  5
49C
100
AcDbEntity
  8
0
  6
DASHED
 62
             200
100
AcDbLine
 10
-122.65166106460998
 20
31.952923810853392
 30
0.0
 11
-119.15166106460998
 21
31.822923810853396
 31
0.0
  0
LINE
  5
49D
100
AcDbEntity
  8
0
  6
DASHED
 62
             200
100
AcDbLine
 10
-122.65166106460998
 20
43.952923810853392
 30
0.0
 11
-119.15166106460998
 21
44.082923810853387
 31
0.0
  0
LINE
  5
49E
100
AcDbEntity
  8
0
  6
DASHED
 62
             200
100
AcDbLine
 10
-114.40166106460998
 20
39.312923810853405
 30
0.0
 11
-117.90166106460998
 21
39.582923810853387
 31
0.0
  0
LINE
  5
49F
100
AcDbEntity
  8
0
  6
DASHED
 62
             200
100
AcDbLine
 10
-114.40166106460998
 20
36.592923810853378
 30
0.0
 11
-117.90166106460998
 21
36.322923810853396
 31
0.0
  0
LINE
  5
4A0
100
AcDbEntity
  8
0
  6
DASHED
 62
             200
100
AcDbLine
 10
-119.15166106460998
 20
36.222923810853402
 30
0.0
 11
-122.65166106460998
 21
35.952923810853392
 31
0.0
  0
LINE
  5
4A1
100
AcDbEntity
  8
0
  6
DASHED
 62
             200
100
AcDbLine
 10
-119.15166106460998
 20
39.682923810853381
 30
0.0
 11
-122.65166106460998
 21
39.952923810853392
 31
0.0
  0
LINE
  5
4A2
100
AcDbEntity
  8
0
  6
DASHED
 62
             200
100
AcDbLine
 10
-113.15166106460998
 20
36.692923810853401
 30
0.0
 11
-113.15166106460998
 21
29.952923810853392
 31
0.0
  0
LINE
  5
4A3
100
AcDbEntity
  8
0
  6
DASHED
 62
             200
100
AcDbLine
 10
-114.40166106460998
 20
36.592923810853378
 30
0.0
 11
-114.40166106460998
 21
29.952923810853392
 31
0.0
  0
LINE
  5
4A4
100
AcDbEntity
  8
0
  6
DASHED
 62
             200
100
AcDbLine
 10
-117.90166106460998
 20
36.322923810853396
 30
0.0
 11
-117.90166106460998
 21
29.952923810853392
 31
0.0
  0
LINE
  5
4A5
100
AcDbEntity
  8
0
  6
DASHED
 62
             200
100
AcDbLine
 10
-119.15166106460998
 20
36.222923810853402
 30
0.0
 11
-119.15166106460998
 21
29.952923810853392
 31
0.0
  0
LINE
  5
4A6
100
AcDbEntity
  8
0
  6
DASHED
 62
             200
100
AcDbLine
 10
-122.65166106460998
 20
35.952923810853392
 30
0.0
 11
-122.65166106460998
 21
29.952923810853392
 31
0.0
  0
LINE
  5
4A7
100
AcDbEntity
  8
0
  6
DASHED
 62
             200
100
AcDbLine
 10
-117.90166106460998
 20
45.952923810853392
 30
0.0
 11
-117.90166106460998
 21
39.582923810853387
 31
0.0
  0
LINE
  5
4A8
100
AcDbEntity
  8
0
  6
DASHED
 62
             200
100
AcDbLine
 10
-114.40166106460998
 20
45.952923810853392
 30
0.0
 11
-114.40166106460998
 21
39.312923810853405
 31
0.0
  0
LINE
  5
4A9
100
AcDbEntity
  8
0
  6
DASHED
 62
             200
100
AcDbLine
 10
-113.15166106460998
 20
45.952923810853392
 30
0.0
 11
-113.15166106460998
 21
39.212923810853383
 31
0.0
  0
LINE
  5
4AA
100
AcDbEntity
  8
0
  6
DASHED
 62
             200
100
AcDbLine
 10
-119.15166106460998
 20
45.952923810853392
 30
0.0
 11
-119.15166106460998
 21
39.682923810853381
 31
0.0
  0
LINE
  5
4AB
100
AcDbEntity
  8
0
  6
DASHED
 62
             200
100
AcDbLine
 10
-122.65166106460998
 20
45.952923810853392
 30
0.0
 11
-122.65166106460998
 21
39.952923810853392
 31
0.0
  0
LINE
  5
4AC
100
AcDbEntity
  8
0
  6
DASHED
 62
             200
100
AcDbLine
 10
-124.65166106460998
 20
46.032923810853404
 30
0.0
 11
-124.65166106460998
 21
29.872923810853408
 31
0.0
  0
LINE
  5
4AD
100
AcDbEntity
  8
0
  6
DASHED
 62
             200
100
AcDbLine
 10
-131.65166106460998
 20
29.872923810853408
 30
0.0
 11
-124.65166106460998
 21
29.872923810853408
 31
0.0
  0
LINE
  5
4AE
100
AcDbEntity
  8
0
  6
DASHED
 62
             200
100
AcDbLine
 10
-131.65166106460998
 20
33.9129238108534
 30
0.0
 11
-124.65166106460998
 21
33.9129238108534
 31
0.0
  0
LINE
  5
4AF
100
AcDbEntity
  8
0
  6
DASHED
 62
             200
100
AcDbLine
 10
-131.65166106460998
 20
41.992923810853384
 30
0.0
 11
-124.65166106460998
 21
41.992923810853384
 31
0.0
  0
LINE
  5
4B0
100
AcDbEntity
  8
0
  6
DASHED
 62
             200
100
AcDbLine
 10
-131.65166106460998
 20
46.032923810853404
 30
0.0
 11
-124.65166106460998
 21
46.032923810853404
 31
0.0
  0
LINE
  5
4B1
100
AcDbEntity
  8
0
  6
DASHED
 62
             200
100
AcDbLine
 10
-131.65166106460998
 20
46.032923810853404
 30
0.0
 11
-131.65166106460998
 21
29.872923810853408
 31
0.0
  0
LINE
  5
4B2
100
AcDbEntity
  8
0
  6
DASHED
 62
             200
100
AcDbLine
 10
-133.65166106460998
 20
66.094741992671587
 30
0.0
 11
-131.65166106460998
 21
66.032923810853404
 31
0.0
  0
LINE
  5
4B3
100
AcDbEntity
  8
0
  6
DASHED
 62
             200
100
AcDbLine
 10
-133.65166106460998
 20
75.811105629035197
 30
0.0
 11
-131.65166106460998
 21
75.872923810853379
 31
0.0
  0
LINE
  5
4B4
100
AcDbEntity
  8
0
  6
DASHED
 62
             200
100
AcDbLine
 10
-117.90166106460998
 20
77.132923810853399
 30
0.0
 11
-114.40166106460998
 21
77.262923810853394
 31
0.0
  0
LINE
  5
4B5
100
AcDbEntity
  8
0
  6
DASHED
 62
             200
100
AcDbLine
 10
-117.90166106460998
 20
64.772923810853385
 30
0.0
 11
-114.40166106460998
 21
64.642923810853389
 31
0.0
  0
LINE
  5
4B6
100
AcDbEntity
  8
0
  6
DASHED
 62
             200
100
AcDbLine
 10
-122.65166106460998
 20
64.952923810853392
 30
0.0
 11
-119.15166106460998
 21
64.822923810853396
 31
0.0
  0
LINE
  5
4B7
100
AcDbEntity
  8
0
  6
DASHED
 62
             200
100
AcDbLine
 10
-122.65166106460998
 20
76.952923810853392
 30
0.0
 11
-119.15166106460998
 21
77.082923810853387
 31
0.0
  0
LINE
  5
4B8
100
AcDbEntity
  8
0
  6
DASHED
 62
             200
100
AcDbLine
 10
-114.40166106460998
 20
72.312923810853405
 30
0.0
 11
-117.90166106460998
 21
72.582923810853387
 31
0.0
  0
LINE
  5
4B9
100
AcDbEntity
  8
0
  6
DASHED
 62
             200
100
AcDbLine
 10
-114.40166106460998
 20
69.592923810853378
 30
0.0
 11
-117.90166106460998
 21
69.322923810853396
 31
0.0
  0
LINE
  5
4BA
100
AcDbEntity
  8
0
  6
DASHED
 62
             200
100
AcDbLine
 10
-119.15166106460998
 20
69.222923810853402
 30
0.0
 11
-122.65166106460998
 21
68.952923810853392
 31
0.0
  0
LINE
  5
4BB
100
AcDbEntity
  8
0
  6
DASHED
 62
             200
100
AcDbLine
 10
-119.15166106460998
 20
72.682923810853381
 30
0.0
 11
-122.65166106460998
 21
72.952923810853392
 31
0.0
  0
LINE
  5
4BC
100
AcDbEntity
  8
0
  6
DASHED
 62
             200
100
AcDbLine
 10
-113.15166106460998
 20
69.692923810853401
 30
0.0
 11
-113.15166106460998
 21
62.952923810853392
 31
0.0
  0
LINE
  5
4BD
100
AcDbEntity
  8
0
  6
DASHED
 62
             200
100
AcDbLine
 10
-114.40166106460998
 20
69.592923810853378
 30
0.0
 11
-114.40166106460998
 21
62.952923810853392
 31
0.0
  0
LINE
  5
4BE
100
AcDbEntity
  8
0
  6
DASHED
 62
             200
100
AcDbLine
 10
-117.90166106460998
 20
69.322923810853396
 30
0.0
 11
-117.90166106460998
 21
62.952923810853392
 31
0.0
  0
LINE
  5
4BF
100
AcDbEntity
  8
0
  6
DASHED
 62
             200
100
AcDbLine
 10
-119.15166106460998
 20
69.222923810853402
 30
0.0
 11
-119.15166106460998
 21
62.952923810853392
 31
0.0
  0
LINE
  5
4C0
100
AcDbEntity
  8
0
  6
DASHED
 62
             200
100
AcDbLine
 10
-122.65166106460998
 20
68.952923810853392
 30
0.0
 11
-122.65166106460998
 21
62.952923810853392
 31
0.0
  0
LINE
  5
4C1
100
AcDbEntity
  8
0
  6
DASHED
 62
             200
100
AcDbLine
 10
-117.90166106460998
 20
78.952923810853392
 30
0.0
 11
-117.90166106460998
 21
72.582923810853387
 31
0.0
  0
LINE
  5
4C2
100
AcDbEntity
  8
0
  6
DASHED
 62
             200
100
AcDbLine
 10
-114.40166106460998
 20
78.952923810853392
 30
0.0
 11
-114.40166106460998
 21
72.312923810853405
 31
0.0
  0
LINE
  5
4C3
100
AcDbEntity
  8
0
  6
DASHED
 62
             200
100
AcDbLine
 10
-113.15166106460998
 20
78.952923810853392
 30
0.0
 11
-113.15166106460998
 21
72.212923810853383
 31
0.0
  0
LINE
  5
4C4
100
AcDbEntity
  8
0
  6
DASHED
 62
             200
100
AcDbLine
 10
-119.15166106460998
 20
78.952923810853392
 30
0.0
 11
-119.15166106460998
 21
72.682923810853381
 31
0.0
  0
LINE
  5
4C5
100
AcDbEntity
  8
0
  6
DASHED
 62
             200
100
AcDbLine
 10
-122.65166106460998
 20
78.952923810853392
 30
0.0
 11
-122.65166106460998
 21
72.952923810853392
 31
0.0
  0
LINE
  5
4C6
100
AcDbEntity
  8
0
  6
DASHED
 62
             200
100
AcDbLine
 10
-124.65166106460998
 20
79.032923810853404
 30
0.0
 11
-124.65166106460998
 21
62.872923810853408
 31
0.0
  0
LINE
  5
4C7
100
AcDbEntity
  8
0
  6
DASHED
 62
             200
100
AcDbLine
 10
-131.65166106460998
 20
62.872923810853408
 30
0.0
 11
-124.65166106460998
 21
62.872923810853408
 31
0.0
  0
LINE
  5
4C8
100
AcDbEntity
  8
0
  6
DASHED
 62
             200
100
AcDbLine
 10
-131.65166106460998
 20
66.9129238108534
 30
0.0
 11
-124.65166106460998
 21
66.9129238108534
 31
0.0
  0
LINE
  5
4C9
100
AcDbEntity
  8
0
  6
DASHED
 62
             200
100
AcDbLine
 10
-131.65166106460998
 20
74.992923810853384
 30
0.0
 11
-124.65166106460998
 21
74.992923810853384
 31
0.0
  0
LINE
  5
4CA
100
AcDbEntity
  8
0
  6
DASHED
 62
             200
100
AcDbLine
 10
-131.65166106460998
 20
79.032923810853404
 30
0.0
 11
-124.65166106460998
 21
79.032923810853404
 31
0.0
  0
LINE
  5
4CB
100
AcDbEntity
  8
0
  6
DASHED
 62
             200
100
AcDbLine
 10
-131.65166106460998
 20
79.032923810853404
 30
0.0
 11
-131.65166106460998
 21
62.872923810853408
 31
0.0
  0
LINE
  5
4CC
100
AcDbEntity
  8
0
  6
CONTINUOUS
 62
               7
100
AcDbLine
 10
-152.25876784579648
 20
62.445817032924921
 30
0.0
 11
-150.84455428342343
 21
63.860030595298007
 31
0.0
  0
LINE
  5
4CD
100
AcDbEntity
  8
0
  6
CONTINUOUS
 62
               7
100
AcDbLine
 10
-150.84455428342343
 20
62.445817032924914
 30
0.0
 11
-152.25876784579648
 21
63.860030595298014
 31
0.0
  0
CIRCLE
  5
4CE
100
AcDbEntity
  8
0
  6
CONTINUOUS
 62
               7
100
AcDbCircle
 10
-151.55166106460993
 20
63.152923814111475
 30
0.0
 40
1.5
  0
LINE
  5
4CF
100
AcDbEntity
  8
0
  6
CONTINUOUS
 62
               7
100
AcDbLine
 10
-142.65876784579649
 20
45.045817032924923
 30
0.0
 11
-141.24455428342344
 21
46.460030595298008
 31
0.0
  0
LINE
  5
4D0
100
AcDbEntity
  8
0
  6
CONTINUOUS
 62
               7
100
AcDbLine
 10
-141.24455428342344
 20
45.045817032924916
 30
0.0
 11
-142.65876784579649
 21
46.460030595298015
 31
0.0
  0
CIRCLE
  5
4D1
100
AcDbEntity
  8
0
  6
CONTINUOUS
 62
               7
100
AcDbCircle
 10
-141.95166106460994
 20
45.752923814111469
 30
0.0
 40
1.5
  0
LINE
  5
4D2
100
AcDbEntity
  8
0
  6
CONTINUOUS
 62
               7
100
AcDbLine
 10
-152.75166106461
 20
64.052923814111381
 30
0.0
 11
-152.75166106461
 21
87.65292381411146
 31
0.0
  0
LINE
  5
4D3
100
AcDbEntity
  8
0
  6
CONTINUOUS
 62
               7
100
AcDbLine
 10
-140.75166106461
 20
46.65292381411156
 30
0.0
 11
-140.75166106461
 21
87.65292381411146
 31
0.0
  0
LINE
  5
4D4
100
AcDbEntity
  8
0
  6
CONTINUOUS
 62
               7
100
AcDbLine
 10
-152.75166106461003
 20
30.952923809842105
 30
0.0
 11
-161.85166106460997
 21
30.952923809842105
 31
0.0
  0
LINE
  5
4D5
100
AcDbEntity
  8
0
  6
CONTINUOUS
 62
               7
100
AcDbLine
 10
-151.80166106460993
 20
21.452923805572709
 30
0.0
 11
-141.70166106461008
 21
21.452923805572681
 31
0.0
  0
LINE
  5
4D6
100
AcDbEntity
  8
0
  6
PHANTOM
 62
             200
100
AcDbLine
 10
-148.25166106460998
 20
13.950923805572714
 30
0.0
 11
-148.25166106460998
 21
15.950923805572714
 31
0.0
  0
LINE
  5
4D7
100
AcDbEntity
  8
0
  6
CONTINUOUS
 62
               4
100
AcDbLine
 10
-149.50166106460986
 20
1.9509238055726712
 30
0.0
 11
-151.25166106460986
 21
1.9509238055726712
 31
0.0
  0
ARC
  5
4D8
100
AcDbEntity
  8
0
  6
CONTINUOUS
 62
               4
100
AcDbCircle
 10
-151.25166564213251
 20
2.4509192280500542
 30
0.0
 40
0.4999954224983215
100
AcDbArc
 50
179.99947544974265
 51
270.00052455025656
  0
CIRCLE
  5
4D9
100
AcDbEntity
  8
0
  6
CONTINUOUS
 62
               4
100
AcDbCircle
 10
-148.00166106460986
 20
4.3509390643617394
 30
0.0
 40
0.8499675393104554
  0
LINE
  5
4DA
100
AcDbEntity
  8
0
  6
CONTINUOUS
 62
               4
100
AcDbLine
 10
-147.05166106460993
 20
3.2009238055726712
 30
0.0
 11
-148.95166106460991
 21
3.2009238055726712
 31
0.0
  0
LINE
  5
4DB
100
AcDbEntity
  8
0
  6
CONTINUOUS
 62
               4
100
AcDbLine
 10
-147.05166106460993
 20
5.3009238055726939
 30
0.0
 11
-148.95166106460991
 21
5.3009238055726939
 31
0.0
  0
LINE
  5
4DC
100
AcDbEntity
  8
0
  6
CONTINUOUS
 62
               4
100
AcDbLine
 10
-147.05166106460993
 20
3.4009238055726883
 30
0.0
 11
-148.95166106460991
 21
3.4009238055726883
 31
0.0
  0
LINE
  5
4DD
100
AcDbEntity
  8
0
  6
CONTINUOUS
 62
               4
100
AcDbLine
 10
-147.50166106460986
 20
5.6009238055726769
 30
0.0
 11
-148.50166106460986
 21
5.6009238055726769
 31
0.0
  0
LINE
  5
4DE
100
AcDbEntity
  8
0
  6
CONTINUOUS
 62
               4
100
AcDbLine
 10
-148.95166106460991
 20
3.2009238055726712
 30
0.0
 11
-148.95166106460991
 21
5.3009238055726939
 31
0.0
  0
LINE
  5
4DF
100
AcDbEntity
  8
0
  6
CONTINUOUS
 62
               4
100
AcDbLine
 10
-149.4616610646099
 20
2.8509238055726769
 30
0.0
 11
-149.16166106460989
 21
2.5509238055726939
 31
0.0
  0
LINE
  5
4E0
100
AcDbEntity
  8
0
  6
CONTINUOUS
 62
               4
100
AcDbLine
 10
-148.50166106460986
 20
5.3009238055726939
 30
0.0
 11
-148.50166106460986
 21
5.6009238055726769
 31
0.0
  0
LINE
  5
4E1
100
AcDbEntity
  8
0
  6
CONTINUOUS
 62
               4
100
AcDbLine
 10
-149.50166106460986
 20
5.3509238055726769
 30
0.0
 11
-149.50166106460986
 21
6.8509238055726769
 31
0.0
  0
LINE
  5
4E2
100
AcDbEntity
  8
0
  6
CONTINUOUS
 62
               4
100
AcDbLine
 10
-149.50166106460986
 20
5.3509238055726769
 30
0.0
 11
-150.50166106460986
 21
5.3509238055726769
 31
0.0
  0
LINE
  5
4E3
100
AcDbEntity
  8
0
  6
CONTINUOUS
 62
               4
100
AcDbLine
 10
-149.60166106460989
 20
5.4509238055726712
 30
0.0
 11
-150.60166106460989
 21
5.4509238055726712
 31
0.0
  0
LINE
  5
4E4
100
AcDbEntity
  8
0
  6
CONTINUOUS
 62
               4
100
AcDbLine
 10
-149.60166106460989
 20
3.4509238055726712
 30
0.0
 11
-150.60166106460989
 21
3.4509238055726712
 31
0.0
  0
LINE
  5
4E5
100
AcDbEntity
  8
0
  6
CONTINUOUS
 62
               4
100
AcDbLine
 10
-149.50166106460986
 20
3.5509238055726939
 30
0.0
 11
-150.50166106460986
 21
3.5509238055726939
 31
0.0
  0
LINE
  5
4E6
100
AcDbEntity
  8
0
  6
CONTINUOUS
 62
               4
100
AcDbLine
 10
-150.60166106460989
 20
3.4509238055726712
 30
0.0
 11
-150.60166106460989
 21
5.4509238055726712
 31
0.0
  0
LINE
  5
4E7
100
AcDbEntity
  8
0
  6
CONTINUOUS
 62
               4
100
AcDbLine
 10
-150.50166106460986
 20
5.3509238055726769
 30
0.0
 11
-150.50166106460986
 21
3.5509238055726939
 31
0.0
  0
LINE
  5
4E8
100
AcDbEntity
  8
0
  6
CONTINUOUS
 62
               4
100
AcDbLine
 10
-147.05166106460993
 20
3.2009238055726712
 30
0.0
 11
-147.05166106460993
 21
5.3009238055726939
 31
0.0
  0
LINE
  5
4E9
100
AcDbEntity
  8
0
  6
CONTINUOUS
 62
               4
100
AcDbLine
 10
-147.50166106460986
 20
5.3009238055726939
 30
0.0
 11
-147.50166106460986
 21
5.6009238055726769
 31
0.0
  0
LINE
  5
4EA
100
AcDbEntity
  8
0
  6
CONTINUOUS
 62
               4
100
AcDbLine
 10
-149.60166106460989
 20
1.9509238055726712
 30
0.0
 11
-149.60166106460989
 21
3.4509238055726712
 31
0.0
  0
LINE
  5
4EB
100
AcDbEntity
  8
0
  6
CONTINUOUS
 62
               4
100
AcDbLine
 10
-149.60166106460989
 20
5.4509238055726712
 30
0.0
 11
-149.60166106460989
 21
6.9509238055726712
 31
0.0
  0
LINE
  5
4EC
100
AcDbEntity
  8
0
  6
CONTINUOUS
 62
               4
100
AcDbLine
 10
-149.50166106460986
 20
-0.1490761944273231
 30
0.0
 11
-149.50166106460986
 21
3.5509238055726939
 31
0.0
  0
LINE
  5
4ED
100
AcDbEntity
  8
0
  6
CONTINUOUS
 62
               4
100
AcDbLine
 10
-144.55166106460993
 20
5.3009238055726939
 30
0.0
 11
-146.45166106460991
 21
5.3009238055726939
 31
0.0
  0
LINE
  5
4EE
100
AcDbEntity
  8
0
  6
CONTINUOUS
 62
               4
100
AcDbLine
 10
-145.00166106460992
 20
5.6009238055726769
 30
0.0
 11
-146.00166106460992
 21
5.6009238055726769
 31
0.0
  0
LINE
  5
4EF
100
AcDbEntity
  8
0
  6
CONTINUOUS
 62
               4
100
AcDbLine
 10
-143.00166106460992
 20
5.3509238055726769
 30
0.0
 11
-144.00166106460992
 21
5.3509238055726769
 31
0.0
  0
LINE
  5
4F0
100
AcDbEntity
  8
0
  6
CONTINUOUS
 62
               4
100
AcDbLine
 10
-142.9016610646099
 20
5.4509238055726712
 30
0.0
 11
-143.9016610646099
 21
5.4509238055726712
 31
0.0
  0
LINE
  5
4F1
100
AcDbEntity
  8
0
  6
CONTINUOUS
 62
               4
100
AcDbLine
 10
-143.9016610646099
 20
5.4509238055726712
 30
0.0
 11
-143.9016610646099
 21
6.9509238055726712
 31
0.0
  0
LINE
  5
4F2
100
AcDbEntity
  8
0
  6
CONTINUOUS
 62
               4
100
AcDbLine
 10
-145.00166106460992
 20
5.3009238055726939
 30
0.0
 11
-145.00166106460992
 21
5.6009238055726769
 31
0.0
  0
LINE
  5
4F3
100
AcDbEntity
  8
0
  6
CONTINUOUS
 62
               4
100
AcDbLine
 10
-144.00166106460992
 20
5.3509238055726769
 30
0.0
 11
-144.00166106460992
 21
6.8509238055726769
 31
0.0
  0
LINE
  5
4F4
100
AcDbEntity
  8
0
  6
CONTINUOUS
 62
               4
100
AcDbLine
 10
-146.45166106460991
 20
3.2009238055726712
 30
0.0
 11
-146.45166106460991
 21
5.3009238055726939
 31
0.0
  0
LINE
  5
4F5
100
AcDbEntity
  8
0
  6
CONTINUOUS
 62
               4
100
AcDbLine
 10
-146.00166106460992
 20
5.3009238055726939
 30
0.0
 11
-146.00166106460992
 21
5.6009238055726769
 31
0.0
  0
LINE
  5
4F6
100
AcDbEntity
  8
0
  6
CONTINUOUS
 62
               4
100
AcDbLine
 10
-144.00166106460992
 20
6.8509238055726769
 30
0.0
 11
-149.50166106460986
 21
6.8509238055726769
 31
0.0
  0
LINE
  5
4F7
100
AcDbEntity
  8
0
  6
CONTINUOUS
 62
               4
100
AcDbLine
 10
-143.9016610646099
 20
6.9509238055726712
 30
0.0
 11
-149.60166106460989
 21
6.9509238055726712
 31
0.0
  0
LINE
  5
4F8
100
AcDbEntity
  8
0
  6
PHANTOM
 62
             200
100
AcDbLine
 10
-145.25166106460992
 20
13.950923805572714
 30
0.0
 11
-145.25166106460992
 21
15.950923805572714
 31
0.0
  0
LINE
  5
4F9
100
AcDbEntity
  8
0
  6
PHANTOM
 62
             200
100
AcDbLine
 10
-145.25166106460992
 20
15.950923805572714
 30
0.0
 11
-148.25166106460998
 21
15.950923805572714
 31
0.0
  0
LINE
  5
4FA
100
AcDbEntity
  8
0
  6
PHANTOM
 62
             200
100
AcDbLine
 10
-145.25166106460992
 20
13.950923805572714
 30
0.0
 11
-148.25166106460998
 21
13.950923805572714
 31
0.0
  0
LINE
  5
4FB
100
AcDbEntity
  8
0
  6
CONTINUOUS
 62
               4
100
AcDbLine
 10
-144.00166106460992
 20
-0.1490761944273231
 30
0.0
 11
-144.00166106460992
 21
3.5509238055726939
 31
0.0
  0
LINE
  5
4FC
100
AcDbEntity
  8
0
  6
CONTINUOUS
 62
               4
100
AcDbLine
 10
-143.00166106460992
 20
3.5509238055726939
 30
0.0
 11
-144.00166106460992
 21
3.5509238055726939
 31
0.0
  0
LINE
  5
4FD
100
AcDbEntity
  8
0
  6
CONTINUOUS
 62
               4
100
AcDbLine
 10
-142.9016610646099
 20
3.4509238055726712
 30
0.0
 11
-143.9016610646099
 21
3.4509238055726712
 31
0.0
  0
LINE
  5
4FE
100
AcDbEntity
  8
0
  6
CONTINUOUS
 62
               4
100
AcDbLine
 10
-144.00166106460992
 20
2.8909238055726689
 30
0.0
 11
-144.3316610646099
 21
2.5509238055726939
 31
0.0
  0
LINE
  5
4FF
100
AcDbEntity
  8
0
  6
CONTINUOUS
 62
               4
100
AcDbLine
 10
-143.9016610646099
 20
1.9509238055726712
 30
0.0
 11
-143.9016610646099
 21
3.4509238055726712
 31
0.0
  0
LINE
  5
500
100
AcDbEntity
  8
0
  6
CONTINUOUS
 62
               4
100
AcDbLine
 10
-142.25166106460992
 20
1.9509238055726712
 30
0.0
 11
-144.00166106460992
 21
1.9509238055726712
 31
0.0
  0
LINE
  5
501
100
AcDbEntity
  8
0
  6
CONTINUOUS
 62
               4
100
AcDbLine
 10
-142.9016610646099
 20
3.4509238055726712
 30
0.0
 11
-142.9016610646099
 21
5.4509238055726712
 31
0.0
  0
LINE
  5
502
100
AcDbEntity
  8
0
  6
CONTINUOUS
 62
               4
100
AcDbLine
 10
-143.00166106460992
 20
5.3509238055726769
 30
0.0
 11
-143.00166106460992
 21
3.5509238055726939
 31
0.0
  0
LINE
  5
503
100
AcDbEntity
  8
0
  6
CONTINUOUS
 62
               4
100
AcDbLine
 10
-144.55166106460993
 20
3.2009238055726712
 30
0.0
 11
-144.55166106460993
 21
5.3009238055726939
 31
0.0
  0
ARC
  5
504
100
AcDbEntity
  8
0
  6
CONTINUOUS
 62
               4
100
AcDbCircle
 10
-142.25167174578323
 20
2.4509344867459788
 30
0.0
 40
0.5000106812873828
100
AcDbArc
 50
270.00122394615289
 51
359.99877605384523
  0
LINE
  5
505
100
AcDbEntity
  8
0
  6
CONTINUOUS
 62
               4
100
AcDbLine
 10
-144.55166106460993
 20
3.4009238055726883
 30
0.0
 11
-146.45166106460991
 21
3.4009238055726883
 31
0.0
  0
LINE
  5
506
100
AcDbEntity
  8
0
  6
CONTINUOUS
 62
               4
100
AcDbLine
 10
-144.55166106460993
 20
3.2009238055726712
 30
0.0
 11
-146.45166106460991
 21
3.2009238055726712
 31
0.0
  0
CIRCLE
  5
507
100
AcDbEntity
  8
0
  6
CONTINUOUS
 62
               4
100
AcDbCircle
 10
-145.50166106460992
 20
4.3509390643617394
 30
0.0
 40
0.8499675393104554
  0
LINE
  5
508
100
AcDbEntity
  8
0
  6
CONTINUOUS
 62
               4
100
AcDbLine
 10
-144.00166106460992
 20
-0.1490761944273231
 30
0.0
 11
-149.50166106460986
 21
-0.1490761944273231
 31
0.0
  0
LINE
  5
509
100
AcDbEntity
  8
0
  6
CONTINUOUS
 62
               4
100
AcDbLine
 10
-144.00166106460992
 20
0.8509238055726769
 30
0.0
 11
-149.50166106460986
 21
0.8509238055726769
 31
0.0
  0
LINE
  5
50A
100
AcDbEntity
  8
0
  6
CONTINUOUS
 62
               4
100
AcDbLine
 10
-144.00166106460992
 20
1.8509238055726769
 30
0.0
 11
-149.50166106460986
 21
1.8509238055726769
 31
0.0
  0
LINE
  5
50B
100
AcDbEntity
  8
0
  6
CONTINUOUS
 62
               4
100
AcDbLine
 10
-144.03166106460989
 20
2.8509238055726769
 30
0.0
 11
-149.4616610646099
 21
2.8509238055726769
 31
0.0
  0
LINE
  5
50C
100
AcDbEntity
  8
0
  6
CONTINUOUS
 62
               4
100
AcDbLine
 10
-144.3316610646099
 20
2.5509238055726939
 30
0.0
 11
-149.16166106460989
 21
2.5509238055726939
 31
0.0
  0
ARC
  5
50D
100
AcDbEntity
  8
0
  6
CONTINUOUS
 62
               4
100
AcDbCircle
 10
-151.25136404040384
 20
20.952626781366604
 30
0.0
 40
0.5002971123771115
100
AcDbArc
 50
90.034016255545509
 51
179.96598374445352
  0
ARC
  5
50E
100
AcDbEntity
  8
0
  6
CONTINUOUS
 62
               4
100
AcDbCircle
 10
-142.25136421674577
 20
20.953220653436887
 30
0.0
 40
0.4997032403068001
100
AcDbArc
 50
359.96596353714716
 51
90.034036462852569
  0
LINE
  5
50F
100
AcDbEntity
  8
0
  6
CONTINUOUS
 62
               4
100
AcDbLine
 10
-141.75166106460992
 20
-1.0470761944272908
 30
0.0
 11
-141.75166106460992
 21
21.452923805572709
 31
0.0
  0
LINE
  5
510
100
AcDbEntity
  8
0
  6
CONTINUOUS
 62
               4
100
AcDbLine
 10
-151.75166106460986
 20
-1.0470761944272908
 30
0.0
 11
-151.75166106460998
 21
21.452923805572681
 31
0.0
  0
ARC
  5
511
100
AcDbEntity
  8
0
  6
CONTINUOUS
 62
               4
100
AcDbCircle
 10
-149.15457305937289
 20
-0.4481641996643191
 30
0.0
 40
0.5989129830170392
100
AcDbArc
 50
269.89591452477248
 51
0.1040854752272227
  0
ARC
  5
512
100
AcDbEntity
  8
0
  6
CONTINUOUS
 62
               4
100
AcDbCircle
 10
-150.9557562112681
 20
-0.4471713410854648
 30
0.0
 40
0.5999048608870732
100
AcDbArc
 50
179.99091272245349
 51
270.00908727754586
  0
LINE
  5
513
100
AcDbEntity
  8
0
  6
CONTINUOUS
 62
               4
100
AcDbLine
 10
-151.75166106460986
 20
-0.4470761944272965
 30
0.0
 11
-148.55166106460993
 21
-0.4470761944272965
 31
0.0
  0
ARC
  5
514
100
AcDbEntity
  8
0
  6
CONTINUOUS
 62
               4
100
AcDbCircle
 10
-142.25166106460992
 20
-0.4450761944273154
 30
0.0
 40
0.5
100
AcDbArc
 50
269.99999999999949
 51
0.0000000000001018
  0
LINE
  5
515
100
AcDbEntity
  8
0
  6
CONTINUOUS
 62
               4
100
AcDbLine
 10
-148.55166106460987
 20
-0.9450761944273154
 30
0.0
 11
-148.55166106460987
 21
-0.1490761944273231
 31
0.0
  0
LINE
  5
516
100
AcDbEntity
  8
0
  6
CONTINUOUS
 62
               4
100
AcDbLine
 10
-148.55166106460987
 20
-0.9450761944273154
 30
0.0
 11
-142.25166106460992
 21
-0.9450761944273154
 31
0.0
  0
LINE
  5
517
100
AcDbEntity
  8
0
  6
CONTINUOUS
 62
               4
100
AcDbLine
 10
-151.75166106460986
 20
0.554923805572713
 30
0.0
 11
-149.50166106460986
 21
0.554923805572713
 31
0.0
  0
LINE
  5
518
100
AcDbEntity
  8
0
  6
CONTINUOUS
 62
               4
100
AcDbLine
 10
-151.75166106460986
 20
-1.0470761944272908
 30
0.0
 11
-141.75166106460992
 21
-1.0470761944272908
 31
0.0
  0
LINE
  5
519
100
AcDbEntity
  8
0
  6
CONTINUOUS
 62
               7
100
AcDbLine
 10
-141.70166106461008
 20
21.152923805572669
 30
0.0
 11
-141.50166106460998
 21
20.952923805572681
 31
0.0
  0
LINE
  5
51A
100
AcDbEntity
  8
0
  6
CONTINUOUS
 62
               7
100
AcDbLine
 10
-151.80166106460993
 20
21.152923805572698
 30
0.0
 11
-152.00166106460998
 21
20.952923805572709
 31
0.0
  0
LINE
  5
51B
100
AcDbEntity
  8
0
  6
CONTINUOUS
 62
               7
100
AcDbLine
 10
-151.80166106460993
 20
21.152923805572698
 30
0.0
 11
-151.80166106460993
 21
21.452923805572709
 31
0.0
  0
LINE
  5
51C
100
AcDbEntity
  8
0
  6
CONTINUOUS
 62
               7
100
AcDbLine
 10
-141.70166106461008
 20
21.152923805572669
 30
0.0
 11
-141.70166106461008
 21
21.452923805572681
 31
0.0
  0
LINE
  5
51D
100
AcDbEntity
  8
0
  6
CONTINUOUS
 62
               7
100
AcDbLine
 10
-141.05166106460996
 20
20.952923805572681
 30
0.0
 11
-140.75166106461006
 21
21.252923805572692
 31
0.0
  0
LINE
  5
51E
100
AcDbEntity
  8
0
  6
CONTINUOUS
 62
               7
100
AcDbLine
 10
-152.45166106461005
 20
20.952923805572709
 30
0.0
 11
-152.75166106460995
 21
21.252923805572692
 31
0.0
  0
LINE
  5
51F
100
AcDbEntity
  8
0
  6
CONTINUOUS
 62
               7
100
AcDbLine
 10
-152.45166106461005
 20
20.952923805572709
 30
0.0
 11
-152.00166106460998
 21
20.952923805572709
 31
0.0
  0
CIRCLE
  5
520
100
AcDbEntity
  8
0
  6
CONTINUOUS
 62
               7
100
AcDbCircle
 10
-146.75141106460993
 20
23.752923805572706
 30
0.0
 40
1.1500000000000001
  0
LINE
  5
521
100
AcDbEntity
  8
0
  6
CONTINUOUS
 62
               7
100
AcDbLine
 10
-141.50166106460998
 20
20.952923805572681
 30
0.0
 11
-141.05166106460996
 21
20.952923805572681
 31
0.0
  0
LINE
  5
522
100
AcDbEntity
  8
0
  6
CENTER
 62
               2
100
AcDbLine
 10
-144.43673092888562
 20
23.752923791985751
 30
0.0
 11
-148.97560521728573
 21
23.752923791985751
 31
0.0
  0
CIRCLE
  5
523
100
AcDbEntity
  8
0
  6
CONTINUOUS
 62
               7
100
AcDbCircle
 10
-146.75166106460998
 20
23.752923791985751
 30
0.0
 40
1.1000000000000001
  0
CIRCLE
  5
524
100
AcDbEntity
  8
0
  6
CONTINUOUS
 62
               7
100
AcDbCircle
 10
-146.75166106460998
 20
23.752923791985751
 30
0.0
 40
0.75
  0
CIRCLE
  5
525
100
AcDbEntity
  8
0
  6
CONTINUOUS
 62
               7
100
AcDbCircle
 10
-146.75166106460998
 20
23.752923791985751
 30
0.0
 40
1.3999999999999997
  0
ARC
  5
526
100
AcDbEntity
  8
0
  6
CONTINUOUS
 62
               4
100
AcDbCircle
 10
-142.68966106460999
 20
2.4509238141114338
 30
0.0
 40
0.5
100
AcDbArc
 50
270.00000000000023
 51
0.0
  0
LINE
  5
527
100
AcDbEntity
  8
0
  6
CONTINUOUS
 62
               4
100
AcDbLine
 10
-142.18966106460999
 20
2.4509238141114338
 30
0.0
 11
-142.18966106460999
 21
18.626066655250654
 31
0.0
  0
LINE
  5
528
100
AcDbEntity
  8
0
  6
CONTINUOUS
 62
               4
100
AcDbLine
 10
-150.81366106460999
 20
19.126066655250654
 30
0.0
 11
-142.68966106460999
 21
19.126066655250654
 31
0.0
  0
ARC
  5
529
100
AcDbEntity
  8
0
  6
CONTINUOUS
 62
               4
100
AcDbCircle
 10
-142.68966106460999
 20
18.626066655250654
 30
0.0
 40
0.5
100
AcDbArc
 50
0.0
 51
89.999999999999815
  0
ARC
  5
52A
100
AcDbEntity
  8
0
  6
CONTINUOUS
 62
               4
100
AcDbCircle
 10
-150.81366106461002
 20
18.626066655250654
 30
0.0
 40
0.5
100
AcDbArc
 50
89.999999999999815
 51
179.99999999999963
  0
LINE
  5
52B
100
AcDbEntity
  8
0
  6
CONTINUOUS
 62
               4
100
AcDbLine
 10
-151.31366106461002
 20
2.4509238141114338
 30
0.0
 11
-151.31366106461002
 21
18.626066655250654
 31
0.0
  0
ARC
  5
52C
100
AcDbEntity
  8
0
  6
CONTINUOUS
 62
               4
100
AcDbCircle
 10
-150.81366106461002
 20
2.4509238141114338
 30
0.0
 40
0.5
100
AcDbArc
 50
179.99999999999963
 51
269.99999999999937
  0
LINE
  5
52D
100
AcDbEntity
  8
0
  6
CONTINUOUS
 62
               7
100
AcDbLine
 10
-133.65166106460998
 20
30.952923809842105
 30
0.0
 11
-140.75166106461
 21
30.952923809842105
 31
0.0
  0
LINE
  5
52E
100
AcDbEntity
  8
0
  6
CONTINUOUS
 62
               7
100
AcDbLine
 10
-151.80166106460996
 20
87.452923814111458
 30
0.0
 11
-141.70166106460999
 21
87.452923814111458
 31
0.0
  0
LINE
  5
52F
100
AcDbEntity
  8
0
  6
PHANTOM
 62
             200
100
AcDbLine
 10
-145.25166106460998
 20
94.954923814111453
 30
0.0
 11
-145.25166106460998
 21
92.954923814111453
 31
0.0
  0
LINE
  5
530
100
AcDbEntity
  8
0
  6
CONTINUOUS
 62
               4
100
AcDbLine
 10
-144.00166106460998
 20
106.95492381411148
 30
0.0
 11
-142.25166106460998
 21
106.95492381411148
 31
0.0
  0
ARC
  5
531
100
AcDbEntity
  8
0
  6
CONTINUOUS
 62
               4
100
AcDbCircle
 10
-142.25165648708733
 20
106.4549283916341
 30
0.0
 40
0.4999954224983215
100
AcDbArc
 50
359.99947544974214
 51
90.000524550256856
  0
CIRCLE
  5
532
100
AcDbEntity
  8
0
  6
CONTINUOUS
 62
               4
100
AcDbCircle
 10
-145.50166106460998
 20
104.55490855532241
 30
0.0
 40
0.8499675393104554
  0
LINE
  5
533
100
AcDbEntity
  8
0
  6
CONTINUOUS
 62
               4
100
AcDbLine
 10
-146.45166106460997
 20
105.70492381411148
 30
0.0
 11
-144.55166106460999
 21
105.70492381411148
 31
0.0
  0
LINE
  5
534
100
AcDbEntity
  8
0
  6
CONTINUOUS
 62
               4
100
AcDbLine
 10
-146.45166106460997
 20
103.60492381411146
 30
0.0
 11
-144.55166106460999
 21
103.60492381411146
 31
0.0
  0
LINE
  5
535
100
AcDbEntity
  8
0
  6
CONTINUOUS
 62
               4
100
AcDbLine
 10
-146.45166106460997
 20
105.50492381411146
 30
0.0
 11
-144.55166106460999
 21
105.50492381411146
 31
0.0
  0
LINE
  5
536
100
AcDbEntity
  8
0
  6
CONTINUOUS
 62
               4
100
AcDbLine
 10
-146.00166106460998
 20
103.30492381411148
 30
0.0
 11
-145.00166106460998
 21
103.30492381411148
 31
0.0
  0
LINE
  5
537
100
AcDbEntity
  8
0
  6
CONTINUOUS
 62
               4
100
AcDbLine
 10
-144.55166106460999
 20
105.70492381411148
 30
0.0
 11
-144.55166106460999
 21
103.60492381411146
 31
0.0
  0
LINE
  5
538
100
AcDbEntity
  8
0
  6
CONTINUOUS
 62
               4
100
AcDbLine
 10
-144.04166106461
 20
106.05492381411148
 30
0.0
 11
-144.34166106460998
 21
106.35492381411146
 31
0.0
  0
LINE
  5
539
100
AcDbEntity
  8
0
  6
CONTINUOUS
 62
               4
100
AcDbLine
 10
-145.00166106460998
 20
103.60492381411146
 30
0.0
 11
-145.00166106460998
 21
103.30492381411148
 31
0.0
  0
LINE
  5
53A
100
AcDbEntity
  8
0
  6
CONTINUOUS
 62
               4
100
AcDbLine
 10
-144.00166106460998
 20
103.55492381411148
 30
0.0
 11
-144.00166106460998
 21
102.05492381411148
 31
0.0
  0
LINE
  5
53B
100
AcDbEntity
  8
0
  6
CONTINUOUS
 62
               4
100
AcDbLine
 10
-144.00166106460998
 20
103.55492381411148
 30
0.0
 11
-143.00166106460998
 21
103.55492381411148
 31
0.0
  0
LINE
  5
53C
100
AcDbEntity
  8
0
  6
CONTINUOUS
 62
               4
100
AcDbLine
 10
-143.90166106460998
 20
103.45492381411148
 30
0.0
 11
-142.90166106460998
 21
103.45492381411148
 31
0.0
  0
LINE
  5
53D
100
AcDbEntity
  8
0
  6
CONTINUOUS
 62
               4
100
AcDbLine
 10
-143.90166106460998
 20
105.45492381411148
 30
0.0
 11
-142.90166106460998
 21
105.45492381411148
 31
0.0
  0
LINE
  5
53E
100
AcDbEntity
  8
0
  6
CONTINUOUS
 62
               4
100
AcDbLine
 10
-144.00166106460998
 20
105.35492381411146
 30
0.0
 11
-143.00166106460998
 21
105.35492381411146
 31
0.0
  0
LINE
  5
53F
100
AcDbEntity
  8
0
  6
CONTINUOUS
 62
               4
100
AcDbLine
 10
-142.90166106460998
 20
105.45492381411148
 30
0.0
 11
-142.90166106460998
 21
103.45492381411148
 31
0.0
  0
LINE
  5
540
100
AcDbEntity
  8
0
  6
CONTINUOUS
 62
               4
100
AcDbLine
 10
-143.00166106460998
 20
103.55492381411148
 30
0.0
 11
-143.00166106460998
 21
105.35492381411146
 31
0.0
  0
LINE
  5
541
100
AcDbEntity
  8
0
  6
CONTINUOUS
 62
               4
100
AcDbLine
 10
-146.45166106460997
 20
105.70492381411148
 30
0.0
 11
-146.45166106460997
 21
103.60492381411146
 31
0.0
  0
LINE
  5
542
100
AcDbEntity
  8
0
  6
CONTINUOUS
 62
               4
100
AcDbLine
 10
-146.00166106460998
 20
103.60492381411146
 30
0.0
 11
-146.00166106460998
 21
103.30492381411148
 31
0.0
  0
LINE
  5
543
100
AcDbEntity
  8
0
  6
CONTINUOUS
 62
               4
100
AcDbLine
 10
-143.90166106460998
 20
106.95492381411148
 30
0.0
 11
-143.90166106460998
 21
105.45492381411148
 31
0.0
  0
LINE
  5
544
100
AcDbEntity
  8
0
  6
CONTINUOUS
 62
               4
100
AcDbLine
 10
-143.90166106460998
 20
103.45492381411148
 30
0.0
 11
-143.90166106460998
 21
101.95492381411148
 31
0.0
  0
LINE
  5
545
100
AcDbEntity
  8
0
  6
CONTINUOUS
 62
               4
100
AcDbLine
 10
-144.00166106460998
 20
109.05492381411148
 30
0.0
 11
-144.00166106460998
 21
105.35492381411146
 31
0.0
  0
LINE
  5
546
100
AcDbEntity
  8
0
  6
CONTINUOUS
 62
               4
100
AcDbLine
 10
-148.95166106460994
 20
103.60492381411146
 30
0.0
 11
-147.05166106460999
 21
103.60492381411146
 31
0.0
  0
LINE
  5
547
100
AcDbEntity
  8
0
  6
CONTINUOUS
 62
               4
100
AcDbLine
 10
-148.50166106460995
 20
103.30492381411148
 30
0.0
 11
-147.50166106460995
 21
103.30492381411148
 31
0.0
  0
LINE
  5
548
100
AcDbEntity
  8
0
  6
CONTINUOUS
 62
               4
100
AcDbLine
 10
-150.50166106460995
 20
103.55492381411148
 30
0.0
 11
-149.50166106460995
 21
103.55492381411148
 31
0.0
  0
LINE
  5
549
100
AcDbEntity
  8
0
  6
CONTINUOUS
 62
               4
100
AcDbLine
 10
-150.60166106460997
 20
103.45492381411148
 30
0.0
 11
-149.60166106460997
 21
103.45492381411148
 31
0.0
  0
LINE
  5
54A
100
AcDbEntity
  8
0
  6
CONTINUOUS
 62
               4
100
AcDbLine
 10
-149.60166106460997
 20
103.45492381411148
 30
0.0
 11
-149.60166106460997
 21
101.95492381411148
 31
0.0
  0
LINE
  5
54B
100
AcDbEntity
  8
0
  6
CONTINUOUS
 62
               4
100
AcDbLine
 10
-148.50166106460995
 20
103.60492381411146
 30
0.0
 11
-148.50166106460995
 21
103.30492381411148
 31
0.0
  0
LINE
  5
54C
100
AcDbEntity
  8
0
  6
CONTINUOUS
 62
               4
100
AcDbLine
 10
-149.50166106460995
 20
103.55492381411148
 30
0.0
 11
-149.50166106460995
 21
102.05492381411148
 31
0.0
  0
LINE
  5
54D
100
AcDbEntity
  8
0
  6
CONTINUOUS
 62
               4
100
AcDbLine
 10
-147.05166106460999
 20
105.70492381411148
 30
0.0
 11
-147.05166106460999
 21
103.60492381411146
 31
0.0
  0
LINE
  5
54E
100
AcDbEntity
  8
0
  6
CONTINUOUS
 62
               4
100
AcDbLine
 10
-147.50166106460995
 20
103.60492381411146
 30
0.0
 11
-147.50166106460995
 21
103.30492381411148
 31
0.0
  0
LINE
  5
54F
100
AcDbEntity
  8
0
  6
CONTINUOUS
 62
               4
100
AcDbLine
 10
-149.50166106460995
 20
102.05492381411148
 30
0.0
 11
-144.00166106460998
 21
102.05492381411148
 31
0.0
  0
LINE
  5
550
100
AcDbEntity
  8
0
  6
CONTINUOUS
 62
               4
100
AcDbLine
 10
-149.60166106460997
 20
101.95492381411148
 30
0.0
 11
-143.90166106460998
 21
101.95492381411148
 31
0.0
  0
LINE
  5
551
100
AcDbEntity
  8
0
  6
PHANTOM
 62
             200
100
AcDbLine
 10
-148.25166106460995
 20
94.954923814111453
 30
0.0
 11
-148.25166106460995
 21
92.954923814111453
 31
0.0
  0
LINE
  5
552
100
AcDbEntity
  8
0
  6
PHANTOM
 62
             200
100
AcDbLine
 10
-148.25166106460995
 20
92.954923814111453
 30
0.0
 11
-145.25166106460998
 21
92.954923814111453
 31
0.0
  0
LINE
  5
553
100
AcDbEntity
  8
0
  6
PHANTOM
 62
             200
100
AcDbLine
 10
-148.25166106460995
 20
94.954923814111453
 30
0.0
 11
-145.25166106460998
 21
94.954923814111453
 31
0.0
  0
LINE
  5
554
100
AcDbEntity
  8
0
  6
CONTINUOUS
 62
               4
100
AcDbLine
 10
-149.50166106460995
 20
109.05492381411148
 30
0.0
 11
-149.50166106460995
 21
105.35492381411146
 31
0.0
  0
LINE
  5
555
100
AcDbEntity
  8
0
  6
CONTINUOUS
 62
               4
100
AcDbLine
 10
-150.50166106460995
 20
105.35492381411146
 30
0.0
 11
-149.50166106460995
 21
105.35492381411146
 31
0.0
  0
LINE
  5
556
100
AcDbEntity
  8
0
  6
CONTINUOUS
 62
               4
100
AcDbLine
 10
-150.60166106460997
 20
105.45492381411148
 30
0.0
 11
-149.60166106460997
 21
105.45492381411148
 31
0.0
  0
LINE
  5
557
100
AcDbEntity
  8
0
  6
CONTINUOUS
 62
               4
100
AcDbLine
 10
-149.50166106460995
 20
106.01492381411148
 30
0.0
 11
-149.17166106460996
 21
106.35492381411146
 31
0.0
  0
LINE
  5
558
100
AcDbEntity
  8
0
  6
CONTINUOUS
 62
               4
100
AcDbLine
 10
-149.60166106460997
 20
106.95492381411148
 30
0.0
 11
-149.60166106460997
 21
105.45492381411148
 31
0.0
  0
LINE
  5
559
100
AcDbEntity
  8
0
  6
CONTINUOUS
 62
               4
100
AcDbLine
 10
-151.25166106460995
 20
106.95492381411148
 30
0.0
 11
-149.50166106460995
 21
106.95492381411148
 31
0.0
  0
LINE
  5
55A
100
AcDbEntity
  8
0
  6
CONTINUOUS
 62
               4
100
AcDbLine
 10
-150.60166106460997
 20
105.45492381411148
 30
0.0
 11
-150.60166106460997
 21
103.45492381411148
 31
0.0
  0
LINE
  5
55B
100
AcDbEntity
  8
0
  6
CONTINUOUS
 62
               4
100
AcDbLine
 10
-150.50166106460995
 20
103.55492381411148
 30
0.0
 11
-150.50166106460995
 21
105.35492381411146
 31
0.0
  0
LINE
  5
55C
100
AcDbEntity
  8
0
  6
CONTINUOUS
 62
               4
100
AcDbLine
 10
-148.95166106460994
 20
105.70492381411148
 30
0.0
 11
-148.95166106460994
 21
103.60492381411146
 31
0.0
  0
ARC
  5
55D
100
AcDbEntity
  8
0
  6
CONTINUOUS
 62
               4
100
AcDbCircle
 10
-151.25165038343664
 20
106.45491313293817
 30
0.0
 40
0.5000106812873828
100
AcDbArc
 50
90.001223946153161
 51
179.9987760538454
  0
LINE
  5
55E
100
AcDbEntity
  8
0
  6
CONTINUOUS
 62
               4
100
AcDbLine
 10
-148.95166106460994
 20
105.50492381411146
 30
0.0
 11
-147.05166106460999
 21
105.50492381411146
 31
0.0
  0
LINE
  5
55F
100
AcDbEntity
  8
0
  6
CONTINUOUS
 62
               4
100
AcDbLine
 10
-148.95166106460994
 20
105.70492381411148
 30
0.0
 11
-147.05166106460999
 21
105.70492381411148
 31
0.0
  0
CIRCLE
  5
560
100
AcDbEntity
  8
0
  6
CONTINUOUS
 62
               4
100
AcDbCircle
 10
-148.00166106460995
 20
104.55490855532241
 30
0.0
 40
0.8499675393104554
  0
LINE
  5
561
100
AcDbEntity
  8
0
  6
CONTINUOUS
 62
               4
100
AcDbLine
 10
-149.50166106460995
 20
109.05492381411148
 30
0.0
 11
-144.00166106460998
 21
109.05492381411148
 31
0.0
  0
LINE
  5
562
100
AcDbEntity
  8
0
  6
CONTINUOUS
 62
               4
100
AcDbLine
 10
-149.50166106460995
 20
108.05492381411148
 30
0.0
 11
-144.00166106460998
 21
108.05492381411148
 31
0.0
  0
LINE
  5
563
100
AcDbEntity
  8
0
  6
CONTINUOUS
 62
               4
100
AcDbLine
 10
-149.50166106460995
 20
107.05492381411148
 30
0.0
 11
-144.00166106460998
 21
107.05492381411148
 31
0.0
  0
LINE
  5
564
100
AcDbEntity
  8
0
  6
CONTINUOUS
 62
               4
100
AcDbLine
 10
-149.47166106460998
 20
106.05492381411148
 30
0.0
 11
-144.04166106461
 21
106.05492381411148
 31
0.0
  0
LINE
  5
565
100
AcDbEntity
  8
0
  6
CONTINUOUS
 62
               4
100
AcDbLine
 10
-149.17166106460996
 20
106.35492381411146
 30
0.0
 11
-144.34166106460998
 21
106.35492381411146
 31
0.0
  0
ARC
  5
566
100
AcDbEntity
  8
0
  6
CONTINUOUS
 62
               4
100
AcDbCircle
 10
-151.25136404040387
 20
87.953220838317563
 30
0.0
 40
0.5002971123771115
100
AcDbArc
 50
180.03401625554557
 51
269.96598374445358
  0
ARC
  5
567
100
AcDbEntity
  8
0
  6
CONTINUOUS
 62
               4
100
AcDbCircle
 10
-142.25136421674577
 20
87.952626966247252
 30
0.0
 40
0.4997032403068001
100
AcDbArc
 50
269.96596353714654
 51
0.0340364628527164
  0
LINE
  5
568
100
AcDbEntity
  8
0
  6
CONTINUOUS
 62
               4
100
AcDbLine
 10
-151.75166106460995
 20
109.95292381411144
 30
0.0
 11
-151.75166106460995
 21
87.452923814111458
 31
0.0
  0
LINE
  5
569
100
AcDbEntity
  8
0
  6
CONTINUOUS
 62
               4
100
AcDbLine
 10
-141.75166106460998
 20
109.95292381411144
 30
0.0
 11
-141.75166106460998
 21
87.452923814111458
 31
0.0
  0
ARC
  5
56A
100
AcDbEntity
  8
0
  6
CONTINUOUS
 62
               4
100
AcDbCircle
 10
-144.348749069847
 20
109.35401181934847
 30
0.0
 40
0.5989129830170392
100
AcDbArc
 50
89.895914524772735
 51
180.10408547522667
  0
ARC
  5
56B
100
AcDbEntity
  8
0
  6
CONTINUOUS
 62
               4
100
AcDbCircle
 10
-142.54756591795177
 20
109.35301896076962
 30
0.0
 40
0.5999048608870732
100
AcDbArc
 50
359.99091272245295
 51
90.009087277546172
  0
LINE
  5
56C
100
AcDbEntity
  8
0
  6
CONTINUOUS
 62
               4
100
AcDbLine
 10
-141.75166106460998
 20
109.35292381411145
 30
0.0
 11
-144.95166106460997
 21
109.35292381411145
 31
0.0
  0
ARC
  5
56D
100
AcDbEntity
  8
0
  6
CONTINUOUS
 62
               4
100
AcDbCircle
 10
-151.25166106460995
 20
109.35092381411147
 30
0.0
 40
0.5
100
AcDbArc
 50
89.999999999999815
 51
179.99999999999963
  0
LINE
  5
56E
100
AcDbEntity
  8
0
  6
CONTINUOUS
 62
               4
100
AcDbLine
 10
-144.95166106460999
 20
109.85092381411147
 30
0.0
 11
-144.95166106460999
 21
109.05492381411148
 31
0.0
  0
LINE
  5
56F
100
AcDbEntity
  8
0
  6
CONTINUOUS
 62
               4
100
AcDbLine
 10
-144.95166106460999
 20
109.85092381411147
 30
0.0
 11
-151.25166106460995
 21
109.85092381411147
 31
0.0
  0
LINE
  5
570
100
AcDbEntity
  8
0
  6
CONTINUOUS
 62
               4
100
AcDbLine
 10
-141.75166106460998
 20
108.35092381411144
 30
0.0
 11
-144.00166106460998
 21
108.35092381411144
 31
0.0
  0
LINE
  5
571
100
AcDbEntity
  8
0
  6
CONTINUOUS
 62
               4
100
AcDbLine
 10
-141.75166106460998
 20
109.95292381411144
 30
0.0
 11
-151.75166106460995
 21
109.95292381411144
 31
0.0
  0
LINE
  5
572
100
AcDbEntity
  8
0
  6
CONTINUOUS
 62
               7
100
AcDbLine
 10
-152.75260955093816
 20
77.952923811864679
 30
0.0
 11
-161.85166106167986
 21
77.952923811864679
 31
0.0
  0
CIRCLE
  5
573
100
AcDbEntity
  8
0
  6
CONTINUOUS
 62
               7
100
AcDbCircle
 10
-157.85166106460997
 20
36.952923618095966
 30
0.0
 40
2.25
  0
CIRCLE
  5
574
100
AcDbEntity
  8
0
  6
CONTINUOUS
 62
               7
100
AcDbCircle
 10
-157.85166106460997
 20
71.952924003610846
 30
0.0
 40
2.25
  0
LINE
  5
575
100
AcDbEntity
  8
0
  6
CONTINUOUS
 62
               7
100
AcDbLine
 10
-161.85166106460997
 20
30.952923809842105
 30
0.0
 11
-161.85166106460997
 21
77.952923811864679
 31
0.0
  0
LINE
  5
576
100
AcDbEntity
  8
0
  6
CONTINUOUS
 62
               7
100
AcDbLine
 10
-133.65166106460998
 20
30.952923809842105
 30
0.0
 11
-133.65166106460998
 21
77.952923811864679
 31
0.0
  0
LINE
  5
577
100
AcDbEntity
  8
0
  6
CENTER
 62
               2
100
AcDbLine
 10
-153.34434140392096
 20
36.952923618095966
 30
0.0
 11
-162.13621493378605
 21
36.952923618095966
 31
0.0
  0
LINE
  5
578
100
AcDbEntity
  8
0
  6
CENTER
 62
               2
100
AcDbLine
 10
-157.85166106460997
 20
32.952923618095966
 30
0.0
 11
-157.85166106460997
 21
41.777730234297124
 31
0.0
  0
LINE
  5
579
100
AcDbEntity
  8
0
  6
CENTER
 62
               2
100
AcDbLine
 10
-153.34434140392096
 20
71.952924003610846
 30
0.0
 11
-162.13621493378605
 21
71.952924003610846
 31
0.0
  0
LINE
  5
57A
100
AcDbEntity
  8
0
  6
CENTER
 62
               2
100
AcDbLine
 10
-157.85166106460997
 20
75.952924003610832
 30
0.0
 11
-157.85166106460997
 21
67.128117387409688
 31
0.0
  0
LINE
  5
57B
100
AcDbEntity
  8
0
  6
CONTINUOUS
 62
               7
100
AcDbLine
 10
-133.65166106460998
 20
77.952923811864679
 30
0.0
 11
-140.75260955093816
 21
77.952923811864679
 31
0.0
  0
LINE
  5
57C
100
AcDbEntity
  8
0
  6
CONTINUOUS
 62
               7
100
AcDbLine
 10
-140.75166106461
 20
21.252923805572692
 30
0.0
 11
-140.75166106461
 21
44.852923814111378
 31
0.0
  0
LINE
  5
57D
100
AcDbEntity
  8
0
  6
CONTINUOUS
 62
               7
100
AcDbLine
 10
-152.75166106461003
 20
21.252923805572756
 30
0.0
 11
-152.75166106461
 21
62.252923814111561
 31
0.0
  0
LINE
  5
57E
100
AcDbEntity
  8
0
  6
CONTINUOUS
 62
               7
100
AcDbLine
 10
-141.70166106460999
 20
87.752923814111455
 30
0.0
 11
-141.50166106460998
 21
87.952923814111458
 31
0.0
  0
LINE
  5
57F
100
AcDbEntity
  8
0
  6
CONTINUOUS
 62
               7
100
AcDbLine
 10
-151.80166106460996
 20
87.752923814111455
 30
0.0
 11
-152.00166106460998
 21
87.952923814111458
 31
0.0
  0
LINE
  5
580
100
AcDbEntity
  8
0
  6
CONTINUOUS
 62
               7
100
AcDbLine
 10
-151.80166106460996
 20
87.752923814111455
 30
0.0
 11
-151.80166106460996
 21
87.452923814111458
 31
0.0
  0
LINE
  5
581
100
AcDbEntity
  8
0
  6
CONTINUOUS
 62
               7
100
AcDbLine
 10
-141.70166106460999
 20
87.752923814111455
 30
0.0
 11
-141.70166106460999
 21
87.452923814111458
 31
0.0
  0
LINE
  5
582
100
AcDbEntity
  8
0
  6
CONTINUOUS
 62
               7
100
AcDbLine
 10
-141.05166106460999
 20
87.952923814111458
 30
0.0
 11
-140.75166106461
 21
87.65292381411146
 31
0.0
  0
LINE
  5
583
100
AcDbEntity
  8
0
  6
CONTINUOUS
 62
               7
100
AcDbLine
 10
-152.45166106460999
 20
87.952923814111458
 30
0.0
 11
-152.75166106460998
 21
87.65292381411146
 31
0.0
  0
LINE
  5
584
100
AcDbEntity
  8
0
  6
CONTINUOUS
 62
               7
100
AcDbLine
 10
-152.45166106460999
 20
87.952923814111458
 30
0.0
 11
-152.00166106460998
 21
87.952923814111458
 31
0.0
  0
CIRCLE
  5
585
100
AcDbEntity
  8
0
  6
CONTINUOUS
 62
               7
100
AcDbCircle
 10
-146.75141106460998
 20
85.15292381411146
 30
0.0
 40
1.1500000000000001
  0
LINE
  5
586
100
AcDbEntity
  8
0
  6
CONTINUOUS
 62
               7
100
AcDbLine
 10
-141.50166106460998
 20
87.952923814111458
 30
0.0
 11
-141.05166106460999
 21
87.952923814111458
 31
0.0
  0
LINE
  5
587
100
AcDbEntity
  8
0
  6
CONTINUOUS
 62
               7
100
AcDbLine
 10
-152.75166106461
 20
34.952923814111458
 30
0.0
 11
-140.75166106461
 21
34.952923814111458
 31
0.0
  0
LINE
  5
588
100
AcDbEntity
  8
0
  6
CENTER
 62
               2
100
AcDbLine
 10
-144.43673092888562
 20
85.15292382769843
 30
0.0
 11
-148.97560521728565
 21
85.15292382769843
 31
0.0
  0
LINE
  5
589
100
AcDbEntity
  8
0
  6
CENTER
 62
               2
100
AcDbLine
 10
-146.75166106460998
 20
111.85292350893572
 30
0.0
 11
-146.75166106460998
 21
-3.1751414582346911
 31
0.0
  0
CIRCLE
  5
58A
100
AcDbEntity
  8
0
  6
CONTINUOUS
 62
               7
100
AcDbCircle
 10
-146.75166106460998
 20
85.15292382769843
 30
0.0
 40
1.1000000000000001
  0
CIRCLE
  5
58B
100
AcDbEntity
  8
0
  6
CONTINUOUS
 62
               7
100
AcDbCircle
 10
-146.75166106460998
 20
85.15292382769843
 30
0.0
 40
0.75
  0
CIRCLE
  5
58C
100
AcDbEntity
  8
0
  6
CONTINUOUS
 62
               7
100
AcDbCircle
 10
-146.75166106460998
 20
85.15292382769843
 30
0.0
 40
1.3999999999999997
  0
LINE
  5
58D
100
AcDbEntity
  8
0
  6
CONTINUOUS
 62
               7
100
AcDbLine
 10
-152.65166106816204
 20
73.952923814111472
 30
0.0
 11
-152.75166106461
 21
73.852923817663537
 31
0.0
  0
LINE
  5
58E
100
AcDbEntity
  8
0
  6
CONTINUOUS
 62
               7
100
AcDbLine
 10
-140.75166106460998
 20
73.852923814111477
 30
0.0
 11
-140.85166106461
 21
73.952923814111472
 31
0.0
  0
LINE
  5
58F
100
AcDbEntity
  8
0
  6
CONTINUOUS
 62
               7
100
AcDbLine
 10
-152.75166106461
 20
73.952923814111472
 30
0.0
 11
-140.75166106461
 21
73.952923814111472
 31
0.0
  0
LINE
  5
590
100
AcDbEntity
  8
0
  6
CONTINUOUS
 62
               7
100
AcDbLine
 10
-151.55166106460999
 20
61.502923814111462
 30
0.0
 11
-152.75166106460998
 21
61.502923814111462
 31
0.0
  0
LINE
  5
591
100
AcDbEntity
  8
0
  6
CONTINUOUS
 62
               7
100
AcDbLine
 10
-151.55166106460999
 20
64.802923814111466
 30
0.0
 11
-152.75166106460998
 21
64.802923814111466
 31
0.0
  0
ARC
  5
592
100
AcDbEntity
  8
0
  6
CONTINUOUS
 62
               7
100
AcDbCircle
 10
-151.55166106460999
 20
63.15292381411146
 30
0.0
 40
1.6499999999999999
100
AcDbArc
 50
269.99999999999937
 51
89.999999999999801
  0
LINE
  5
593
100
AcDbEntity
  8
0
  6
CONTINUOUS
 62
               7
100
AcDbLine
 10
-141.95166106460999
 20
44.102923814111463
 30
0.0
 11
-140.75166106461
 21
44.102923814111463
 31
0.0
  0
LINE
  5
594
100
AcDbEntity
  8
0
  6
CONTINUOUS
 62
               7
100
AcDbLine
 10
-141.95166106460999
 20
47.40292381411146
 30
0.0
 11
-140.75166106461
 21
47.40292381411146
 31
0.0
  0
ARC
  5
595
100
AcDbEntity
  8
0
  6
CONTINUOUS
 62
               7
100
AcDbCircle
 10
-141.95166106460999
 20
45.752923814111469
 30
0.0
 40
1.6499999999999999
100
AcDbArc
 50
89.999999999999815
 51
269.99999999999937
  0
ARC
  5
596
100
AcDbEntity
  8
0
  6
CONTINUOUS
 62
               4
100
AcDbCircle
 10
-150.81366106460999
 20
106.45492381411148
 30
0.0
 40
0.5
100
AcDbArc
 50
89.999999999999815
 51
179.99999999999963
  0
LINE
  5
597
100
AcDbEntity
  8
0
  6
CONTINUOUS
 62
               4
100
AcDbLine
 10
-151.31366106460999
 20
106.45492381411148
 30
0.0
 11
-151.31366106460999
 21
90.279780972972276
 31
0.0
  0
LINE
  5
598
100
AcDbEntity
  8
0
  6
CONTINUOUS
 62
               4
100
AcDbLine
 10
-150.81366106460996
 20
89.779780972972276
 30
0.0
 11
-142.68966106460996
 21
89.779780972972276
 31
0.0
  0
ARC
  5
599
100
AcDbEntity
  8
0
  6
CONTINUOUS
 62
               4
100
AcDbCircle
 10
-150.81366106460999
 20
90.279780972972276
 30
0.0
 40
0.5
100
AcDbArc
 50
179.99999999999963
 51
269.99999999999937
  0
ARC
  5
59A
100
AcDbEntity
  8
0
  6
CONTINUOUS
 62
               4
100
AcDbCircle
 10
-142.68966106460996
 20
90.279780972972276
 30
0.0
 40
0.5
100
AcDbArc
 50
270.00000000000023
 51
0.0
  0
LINE
  5
59B
100
AcDbEntity
  8
0
  6
CONTINUOUS
 62
               4
100
AcDbLine
 10
-142.18966106460996
 20
106.45492381411148
 30
0.0
 11
-142.18966106460996
 21
90.279780972972276
 31
0.0
  0
ARC
  5
59C
100
AcDbEntity
  8
0
  6
CONTINUOUS
 62
               4
100
AcDbCircle
 10
-142.68966106460996
 20
106.45492381411148
 30
0.0
 40
0.5
100
AcDbArc
 50
0.0
 51
89.999999999999815
  0
ARC
  5
59D
100
AcDbEntity
  8
0
  6
DASHED
 62
             200
100
AcDbCircle
 10
-105.15166106460998
 20
30.452923810853392
 30
0.0
 40
0.5
100
AcDbArc
 50
269.99999999999937
 51
0.0
  0
ARC
  5
59E
100
AcDbEntity
  8
0
  6
DASHED
 62
             200
100
AcDbCircle
 10
-105.15166106460998
 20
45.452923810853392
 30
0.0
 40
0.5
100
AcDbArc
 50
0.0
 51
89.999999999999815
  0
LINE
  5
59F
100
AcDbEntity
  8
0
  6
DASHED
 62
             200
100
AcDbLine
 10
-109.65166106460998
 20
36.952923810853392
 30
0.0
 11
-109.65166106460998
 21
29.952923810853392
 31
0.0
  0
LINE
  5
5A0
100
AcDbEntity
  8
0
  6
DASHED
 62
             200
100
AcDbLine
 10
-106.65166106460998
 20
45.952923810853392
 30
0.0
 11
-106.65166106460998
 21
29.952923810853392
 31
0.0
  0
LINE
  5
5A1
100
AcDbEntity
  8
0
  6
DASHED
 62
             200
100
AcDbLine
 10
-109.65166106460998
 20
45.952923810853392
 30
0.0
 11
-109.65166106460998
 21
38.952923810853392
 31
0.0
  0
LINE
  5
5A2
100
AcDbEntity
  8
0
  6
DASHED
 62
             200
100
AcDbLine
 10
-104.65166106460998
 20
45.452923810853392
 30
0.0
 11
-104.65166106460998
 21
30.452923810853392
 31
0.0
  0
ARC
  5
5A3
100
AcDbEntity
  8
0
  6
DASHED
 62
             200
100
AcDbCircle
 10
-105.15166106460998
 20
63.452923810853392
 30
0.0
 40
0.5
100
AcDbArc
 50
269.99999999999937
 51
0.0
  0
ARC
  5
5A4
100
AcDbEntity
  8
0
  6
DASHED
 62
             200
100
AcDbCircle
 10
-105.15166106460998
 20
78.452923810853392
 30
0.0
 40
0.5
100
AcDbArc
 50
0.0
 51
89.999999999999815
  0
LINE
  5
5A5
100
AcDbEntity
  8
0
  6
DASHED
 62
             200
100
AcDbLine
 10
-109.65166106460998
 20
69.952923810853392
 30
0.0
 11
-109.65166106460998
 21
62.952923810853392
 31
0.0
  0
LINE
  5
5A6
100
AcDbEntity
  8
0
  6
DASHED
 62
             200
100
AcDbLine
 10
-106.65166106460998
 20
78.952923810853392
 30
0.0
 11
-106.65166106460998
 21
62.952923810853392
 31
0.0
  0
LINE
  5
5A7
100
AcDbEntity
  8
0
  6
DASHED
 62
             200
100
AcDbLine
 10
-109.65166106460998
 20
78.952923810853392
 30
0.0
 11
-109.65166106460998
 21
71.952923810853392
 31
0.0
  0
LINE
  5
5A8
100
AcDbEntity
  8
0
  6
DASHED
 62
             200
100
AcDbLine
 10
-104.65166106460998
 20
78.452923810853392
 30
0.0
 11
-104.65166106460998
 21
63.452923810853392
 31
0.0
  0
LINE
  5
5A9
100
AcDbEntity
  8
0
  6
CENTER
 62
             200
100
AcDbLine
 10
-135.15678154224136
 20
37.952923810853392
 30
0.0
 11
-102.87166106460998
 21
37.952923810853392
 31
0.0
  0
LINE
  5
5AA
100
AcDbEntity
  8
0
  6
CENTER
 62
             200
100
AcDbLine
 10
-135.15678154224136
 20
70.952923810853392
 30
0.0
 11
-102.87166106460998
 21
70.952923810853392
 31
0.0
  0
LINE
  5
5AB
100
AcDbEntity
  8
0
  6
CONTINUOUS
 62
               4
100
AcDbLine
 10
-103.88095402322878
 20
4.7024190740846166
 30
0.0
 11
-103.88095402322878
 21
4.2003988723512862
 31
0.0
  0
LINE
  5
5AC
100
AcDbEntity
  8
0
  6
CONTINUOUS
 62
               4
100
AcDbLine
 10
-103.88095402322884
 20
104.20342854559955
 30
0.0
 11
-103.88095402322884
 21
104.70544874733288
 31
0.0
  0
LINE
  5
5AD
100
AcDbEntity
  8
0
  6
CENTER
 62
               2
100
AcDbLine
 10
-69.884994442695529
 20
112.58217455567832
 30
0.0
 11
-69.884994442695557
 21
-3.1751414582347337
 31
0.0
  0
LINE
  5
5AE
100
AcDbEntity
  8
0
  6
CONTINUOUS
 62
               4
100
AcDbLine
 10
-62.884994442695557
 20
87.952923807635301
 30
0.0
 11
-62.884994442695557
 21
109.35292349959849
 31
0.0
  0
LINE
  5
5AF
100
AcDbEntity
  8
0
  6
CONTINUOUS
 62
               4
100
AcDbLine
 10
-76.884994442695529
 20
109.35292350466622
 30
0.0
 11
-76.884994442695557
 21
87.952923809842019
 31
0.0
  0
LINE
  5
5B0
100
AcDbEntity
  8
0
  6
CONTINUOUS
 62
               4
100
AcDbLine
 10
-79.769842925895489
 20
87.452923504666231
 30
0.0
 11
-79.769842925895489
 21
106.9539335945329
 31
0.0
  0
LINE
  5
5B1
100
AcDbEntity
  8
0
  6
CONTINUOUS
 62
               4
100
AcDbLine
 10
-84.881964135095529
 20
106.45191339279957
 30
0.0
 11
-84.881964135095529
 21
90.104438654666225
 31
0.0
  0
ARC
  5
5B2
100
AcDbEntity
  8
0
  6
CONTINUOUS
 62
               4
100
AcDbCircle
 10
-77.184994442695483
 20
107.75696389693292
 30
0.0
 40
0.3
100
AcDbArc
 50
0.0
 51
89.999999999999815
  0
LINE
  5
5B3
100
AcDbEntity
  8
0
  6
CONTINUOUS
 62
               4
100
AcDbLine
 10
-78.178933835895521
 20
107.05292349346622
 30
0.0
 11
-78.178933835895521
 21
106.9539335945329
 31
0.0
  0
LINE
  5
5B4
100
AcDbEntity
  8
0
  6
CONTINUOUS
 62
               4
100
AcDbLine
 10
-100.38095402522887
 20
105.10847905013289
 30
0.0
 11
-97.04358028976219
 21
105.10847905013289
 31
0.0
  0
LINE
  5
5B5
100
AcDbEntity
  8
0
  6
CONTINUOUS
 62
               4
100
AcDbLine
 10
-100.38095402522887
 20
103.80746894986625
 30
0.0
 11
-97.793075238828862
 21
103.80746894986625
 31
0.0
  0
LINE
  5
5B6
100
AcDbEntity
  8
0
  6
CONTINUOUS
 62
             200
100
AcDbLine
 10
-96.555701502162179
 20
105.95696389813291
 30
0.0
 11
-98.288024733495519
 21
102.95898410186625
 31
0.0
  0
LINE
  5
5B7
100
AcDbEntity
  8
0
  6
CONTINUOUS
 62
               4
100
AcDbLine
 10
-92.87893382749553
 20
101.95494369839953
 30
0.0
 11
-92.87893382749553
 21
106.05595379706621
 31
0.0
  0
LINE
  5
5B8
100
AcDbEntity
  8
0
  6
CONTINUOUS
 62
               4
100
AcDbLine
 10
-92.87893382749553
 20
107.95797399799956
 30
0.0
 11
-92.87893382749553
 21
108.95494369439957
 31
0.0
  0
LINE
  5
5B9
100
AcDbEntity
  8
0
  6
CONTINUOUS
 62
               4
100
AcDbLine
 10
-92.87893382749553
 20
106.05595379706621
 30
0.0
 11
-92.581964130695525
 21
106.35292349386624
 31
0.0
  0
LINE
  5
5BA
100
AcDbEntity
  8
0
  6
CONTINUOUS
 62
               4
100
AcDbLine
 10
-91.881964131095486
 20
101.95494369839953
 30
0.0
 11
-91.881964131095486
 21
102.55595379906624
 31
0.0
  0
LINE
  5
5BB
100
AcDbEntity
  8
0
  6
CONTINUOUS
 62
               4
100
AcDbLine
 10
-97.446610592562195
 20
103.80746894986625
 30
0.0
 11
-92.87893382749553
 21
103.80746894986625
 31
0.0
  0
LINE
  5
5BC
100
AcDbEntity
  8
0
  6
CONTINUOUS
 62
             200
100
AcDbLine
 10
-96.20923685589554
 20
105.95696389813291
 30
0.0
 11
-97.941560087228851
 21
102.9519133947996
 31
0.0
  0
LINE
  5
5BD
100
AcDbEntity
  8
0
  6
CONTINUOUS
 62
               4
100
AcDbLine
 10
-96.697115643495522
 20
105.10847905013289
 30
0.0
 11
-92.87893382749553
 21
105.10847905013289
 31
0.0
  0
LINE
  5
5BE
100
AcDbEntity
  8
0
  6
CONTINUOUS
 62
               4
100
AcDbLine
 10
-92.87893382749553
 20
108.95494369439957
 30
0.0
 11
-91.379943929362213
 21
108.95494369439957
 31
0.0
  0
LINE
  5
5BF
100
AcDbEntity
  8
0
  6
CONTINUOUS
 62
               4
100
AcDbLine
 10
-92.87893382749553
 20
107.95797399799956
 30
0.0
 11
-91.471863121228864
 21
107.95797399799956
 31
0.0
  0
LINE
  5
5C0
100
AcDbEntity
  8
0
  6
CONTINUOUS
 62
               4
100
AcDbLine
 10
-91.881964131095486
 20
101.95494369839953
 30
0.0
 11
-92.87893382749553
 21
101.95494369839953
 31
0.0
  0
LINE
  5
5C1
100
AcDbEntity
  8
0
  6
CONTINUOUS
 62
               4
100
AcDbLine
 10
-100.38095402522887
 20
103.80746894986625
 30
0.0
 11
-100.38095402522887
 21
105.10847905013289
 31
0.0
  0
LINE
  5
5C2
100
AcDbEntity
  8
0
  6
CONTINUOUS
 62
               4
100
AcDbLine
 10
-86.882974234962177
 20
101.95494369839953
 30
0.0
 11
-86.882974234962177
 21
102.55595379906624
 31
0.0
  0
LINE
  5
5C3
100
AcDbEntity
  8
0
  6
CONTINUOUS
 62
               4
100
AcDbLine
 10
-86.380954033228875
 20
106.05595379706621
 30
0.0
 11
-86.677923730028823
 21
106.35292349386624
 31
0.0
  0
LINE
  5
5C4
100
AcDbEntity
  8
0
  6
CONTINUOUS
 62
               4
100
AcDbLine
 10
-84.881964135095529
 20
101.95494369839953
 30
0.0
 11
-86.882974234962177
 21
101.95494369839953
 31
0.0
  0
ARC
  5
5C5
100
AcDbEntity
  8
0
  6
CONTINUOUS
 62
               4
100
AcDbCircle
 10
-84.385327283616846
 20
106.45729674305424
 30
0.0
 40
0.4966660273328702
100
AcDbArc
 50
89.378960363565895
 51
180.6210396364358
  0
ARC
  5
5C6
100
AcDbEntity
  8
0
  6
CONTINUOUS
 62
               4
100
AcDbCircle
 10
-83.884906956832708
 20
106.55795782975893
 30
0.0
 40
0.4950149226876425
100
AcDbArc
 50
89.19169587542109
 51
126.87687525883487
  0
ARC
  5
5C7
100
AcDbEntity
  8
0
  6
CONTINUOUS
 62
               4
100
AcDbCircle
 10
-85.284890369074532
 20
106.45825073627073
 30
0.0
 40
0.4029269013737999
100
AcDbArc
 50
0.1042835857490746
 51
79.908228442603601
  0
ARC
  5
5C8
100
AcDbEntity
  8
0
  6
CONTINUOUS
 62
               4
100
AcDbCircle
 10
-85.28582848204988
 20
106.45981814402059
 30
0.0
 40
0.403865208170398
100
AcDbArc
 50
270.11832473551306
 51
359.88167526448416
  0
LINE
  5
5C9
100
AcDbEntity
  8
0
  6
CONTINUOUS
 62
               4
100
AcDbLine
 10
-86.274893427228847
 20
108.05696389693291
 30
0.0
 11
-91.379943929362213
 21
108.95494369439957
 31
0.0
  0
LINE
  5
5CA
100
AcDbEntity
  8
0
  6
CONTINUOUS
 62
               4
100
AcDbLine
 10
-85.21428736722882
 20
106.85494369559954
 30
0.0
 11
-91.556711606028841
 21
107.97211541213291
 31
0.0
  0
LINE
  5
5CB
100
AcDbEntity
  8
0
  6
CONTINUOUS
 62
               4
100
AcDbLine
 10
-91.881964131095486
 20
102.55595379906624
 30
0.0
 11
-86.882974234962177
 21
102.55595379906624
 31
0.0
  0
LINE
  5
5CC
100
AcDbEntity
  8
0
  6
CONTINUOUS
 62
               4
100
AcDbLine
 10
-92.581964130695525
 20
106.35292349386624
 30
0.0
 11
-86.677923730028823
 21
106.35292349386624
 31
0.0
  0
LINE
  5
5CD
100
AcDbEntity
  8
0
  6
CONTINUOUS
 62
               4
100
AcDbLine
 10
-92.87893382749553
 20
106.05595379706621
 30
0.0
 11
-85.284994437895506
 21
106.05595379706621
 31
0.0
  0
LINE
  5
5CE
100
AcDbEntity
  8
0
  6
CONTINUOUS
 62
               4
100
AcDbLine
 10
-92.87893382749553
 20
105.35595379746623
 30
0.0
 11
-84.881964135095529
 21
105.35595379746623
 31
0.0
  0
LINE
  5
5CF
100
AcDbEntity
  8
0
  6
CONTINUOUS
 62
               4
100
AcDbLine
 10
-92.87893382749553
 20
103.55292349546623
 30
0.0
 11
-84.881964135095529
 21
103.55292349546623
 31
0.0
  0
LINE
  5
5D0
100
AcDbEntity
  8
0
  6
CONTINUOUS
 62
               4
100
AcDbLine
 10
-86.274893427228847
 20
108.05696389693291
 30
0.0
 11
-77.181964139495506
 21
108.05696389693291
 31
0.0
  0
LINE
  5
5D1
100
AcDbEntity
  8
0
  6
CONTINUOUS
 62
               4
100
AcDbLine
 10
-83.87792373162884
 20
107.05292349346622
 30
0.0
 11
-78.178933835895521
 21
107.05292349346622
 31
0.0
  0
LINE
  5
5D2
100
AcDbEntity
  8
0
  6
CONTINUOUS
 62
               4
100
AcDbLine
 10
-76.884994442695557
 20
106.9539335945329
 30
0.0
 11
-84.379943933362199
 21
106.9539335945329
 31
0.0
  0
LINE
  5
5D3
100
AcDbEntity
  8
0
  6
CONTINUOUS
 62
               4
100
AcDbLine
 10
-73.18499444269554
 20
109.35292350466634
 30
0.0
 11
-73.18499444269554
 21
109.95292350466624
 31
0.0
  0
LINE
  5
5D4
100
AcDbEntity
  8
0
  6
CONTINUOUS
 62
               4
100
AcDbLine
 10
-76.202089589353733
 20
109.95292350466623
 30
0.0
 11
-64.884991626168755
 21
109.9529235046663
 31
0.0
  0
ARC
  5
5D5
100
AcDbEntity
  8
0
  6
CONTINUOUS
 62
               4
100
AcDbCircle
 10
-74.400906437458502
 20
109.35401150990324
 30
0.0
 40
0.5989129830170392
100
AcDbArc
 50
359.89591452477293
 51
90.104085475226867
  0
ARC
  5
5D6
100
AcDbEntity
  8
0
  6
CONTINUOUS
 62
               4
100
AcDbCircle
 10
-76.202089589353704
 20
109.35301865132442
 30
0.0
 40
0.5999048608870732
100
AcDbArc
 50
123.56005066674096
 51
180.00908727754583
  0
LINE
  5
5D7
100
AcDbEntity
  8
0
  6
CONTINUOUS
 62
               4
100
AcDbLine
 10
-76.884994442695529
 20
109.35292350466634
 30
0.0
 11
-73.18499444269554
 21
109.35292350466634
 31
0.0
  0
LINE
  5
5D8
100
AcDbEntity
  8
0
  6
CONTINUOUS
 62
               4
100
AcDbLine
 10
-64.884991626168755
 20
109.9529235046663
 30
0.0
 11
-64.884991626168755
 21
108.35292350466632
 31
0.0
  0
LINE
  5
5D9
100
AcDbEntity
  8
0
  6
CONTINUOUS
 62
               4
100
AcDbLine
 10
-76.884994442695529
 20
108.35292350466632
 30
0.0
 11
-64.884991626168755
 21
108.35292350466632
 31
0.0
  0
LINE
  5
5DA
100
AcDbEntity
  8
0
  6
CONTINUOUS
 62
               4
100
AcDbLine
 10
-63.384994442695529
 20
109.85292350466622
 30
0.0
 11
-64.884994442695529
 21
109.85292350466622
 31
0.0
  0
ARC
  5
5DB
100
AcDbEntity
  8
0
  6
CONTINUOUS
 62
               4
100
AcDbCircle
 10
-63.384994442695529
 20
109.35292350466622
 30
0.0
 40
0.5
100
AcDbArc
 50
0.0
 51
89.999999999999815
  0
ARC
  5
5DC
100
AcDbEntity
  8
0
  6
CONTINUOUS
 62
               4
100
AcDbCircle
 10
-76.384994442695529
 20
109.35292350466625
 30
0.0
 40
0.5
100
AcDbArc
 50
114.73039869685056
 51
179.99999999999963
  0
ARC
  5
5DD
100
AcDbEntity
  8
0
  6
CONTINUOUS
 62
               4
100
AcDbCircle
 10
-76.202089589353704
 20
109.35301865132442
 30
0.0
 40
0.5999048608870732
100
AcDbArc
 50
89.99091272245343
 51
123.56005066674096
  0
LINE
  5
5DE
100
AcDbEntity
  8
0
  6
CONTINUOUS
 62
               4
100
AcDbLine
 10
-100.38095402522876
 20
3.7973685695512955
 30
0.0
 11
-97.043580289762104
 21
3.7973685695512955
 31
0.0
  0
LINE
  5
5DF
100
AcDbEntity
  8
0
  6
CONTINUOUS
 62
               4
100
AcDbLine
 10
-100.38095402522876
 20
5.098378669817933
 30
0.0
 11
-97.793075238828777
 21
5.098378669817933
 31
0.0
  0
LINE
  5
5E0
100
AcDbEntity
  8
0
  6
CONTINUOUS
 62
             200
100
AcDbLine
 10
-96.555701502162123
 20
2.9488837215512689
 30
0.0
 11
-98.288024733495462
 21
5.9468635178179312
 31
0.0
  0
LINE
  5
5E1
100
AcDbEntity
  8
0
  6
CONTINUOUS
 62
             200
100
AcDbLine
 10
-96.209236855895455
 20
2.9488837215512689
 30
0.0
 11
-97.941560087228794
 21
5.953934224884577
 31
0.0
  0
LINE
  5
5E2
100
AcDbEntity
  8
0
  6
CENTER
 62
               2
100
AcDbLine
 10
-40.684994451764538
 20
36.95292361809598
 30
0.0
 11
-45.684994451764538
 21
36.95292361809598
 31
0.0
  0
LINE
  5
5E3
100
AcDbEntity
  8
0
  6
CENTER
 62
               2
100
AcDbLine
 10
-40.684994451764538
 20
71.95292400361086
 30
0.0
 11
-45.684994451764538
 21
71.95292400361086
 31
0.0
  0
LINE
  5
5E4
100
AcDbEntity
  8
0
  6
DASHED
 62
               2
100
AcDbLine
 10
-60.884994442695557
 20
25.752923811864726
 30
0.0
 11
-62.484994442695552
 21
25.752923811864726
 31
0.0
  0
LINE
  5
5E5
100
AcDbEntity
  8
0
  6
CENTER
 62
               2
100
AcDbLine
 10
-63.30218679411567
 20
26.752923811864726
 30
0.0
 11
-60.020128388297593
 21
26.752923811864733
 31
0.0
  0
LINE
  5
5E6
100
AcDbEntity
  8
0
  6
DASHED
 62
               2
100
AcDbLine
 10
-60.884994442695557
 20
27.752923811864726
 30
0.0
 11
-62.484994442695552
 21
27.752923811864726
 31
0.0
  0
LINE
  5
5E7
100
AcDbEntity
  8
0
  6
CONTINUOUS
 62
               7
100
AcDbLine
 10
-61.184994442695569
 20
20.95292380984219
 30
0.0
 11
-60.884994442695557
 21
21.252923809842201
 31
0.0
  0
LINE
  5
5E8
100
AcDbEntity
  8
0
  6
CONTINUOUS
 62
               4
100
AcDbLine
 10
-76.884994442695614
 20
20.952923812048894
 30
0.0
 11
-76.884994442695557
 21
-0.44707587991428
 31
0.0
  0
LINE
  5
5E9
100
AcDbEntity
  8
0
  6
CONTINUOUS
 62
               4
100
AcDbLine
 10
-62.884994442695614
 20
-0.4470758849819845
 30
0.0
 11
-62.884994442695614
 21
20.952923809842204
 31
0.0
  0
ARC
  5
5EA
100
AcDbEntity
  8
0
  6
CONTINUOUS
 62
               4
100
AcDbCircle
 10
-63.567899296037439
 20
-0.4471710316401811
 30
0.0
 40
0.5999048608870732
100
AcDbArc
 50
269.990912722453
 51
303.56005066674055
  0
ARC
  5
5EB
100
AcDbEntity
  8
0
  6
CONTINUOUS
 62
               4
100
AcDbCircle
 10
-63.384994442695614
 20
-0.4470758849820129
 30
0.0
 40
0.5
100
AcDbArc
 50
294.73039869685095
 51
0.0
  0
ARC
  5
5EC
100
AcDbEntity
  8
0
  6
CONTINUOUS
 62
               4
100
AcDbCircle
 10
-76.384994442695614
 20
-0.4470758849820129
 30
0.0
 40
0.5
100
AcDbArc
 50
179.99999999999963
 51
269.99999999999937
  0
LINE
  5
5ED
100
AcDbEntity
  8
0
  6
CONTINUOUS
 62
               4
100
AcDbLine
 10
-76.384994442695614
 20
-0.9470758849820129
 30
0.0
 11
-74.884994442695614
 21
-0.9470758849820129
 31
0.0
  0
LINE
  5
5EE
100
AcDbEntity
  8
0
  6
CONTINUOUS
 62
               4
100
AcDbLine
 10
-62.884994442695614
 20
0.5529241150179018
 30
0.0
 11
-74.884997259222388
 21
0.5529241150178876
 31
0.0
  0
LINE
  5
5EF
100
AcDbEntity
  8
0
  6
CONTINUOUS
 62
               4
100
AcDbLine
 10
-74.884997259222388
 20
-1.0470758849820925
 30
0.0
 11
-74.884997259222388
 21
0.5529241150178876
 31
0.0
  0
LINE
  5
5F0
100
AcDbEntity
  8
0
  6
CONTINUOUS
 62
               4
100
AcDbLine
 10
-62.884994442695614
 20
-0.4470758849820982
 30
0.0
 11
-66.584994442695603
 21
-0.4470758849821124
 31
0.0
  0
ARC
  5
5F1
100
AcDbEntity
  8
0
  6
CONTINUOUS
 62
               4
100
AcDbCircle
 10
-63.567899296037439
 20
-0.4471710316401811
 30
0.0
 40
0.5999048608870732
100
AcDbArc
 50
303.56005066674135
 51
0.0090872775462214
  0
ARC
  5
5F2
100
AcDbEntity
  8
0
  6
CONTINUOUS
 62
               4
100
AcDbCircle
 10
-65.369082447932641
 20
-0.448163890219007
 30
0.0
 40
0.5989129830170392
100
AcDbArc
 50
179.89591452477256
 51
270.1040854752265
  0
LINE
  5
5F3
100
AcDbEntity
  8
0
  6
CONTINUOUS
 62
               4
100
AcDbLine
 10
-63.567899296037382
 20
-1.0470758849820072
 30
0.0
 11
-74.884997259222388
 21
-1.0470758849820925
 31
0.0
  0
LINE
  5
5F4
100
AcDbEntity
  8
0
  6
CONTINUOUS
 62
               4
100
AcDbLine
 10
-66.584994442695603
 20
-0.4470758849821124
 30
0.0
 11
-66.584994442695603
 21
-1.0470758849820214
 31
0.0
  0
LINE
  5
5F5
100
AcDbEntity
  8
0
  6
CONTINUOUS
 62
               7
100
AcDbLine
 10
-61.184994442695569
 20
20.95292380984219
 30
0.0
 11
-78.884994442695614
 21
20.95292380984219
 31
0.0
  0
LINE
  5
5F6
100
AcDbEntity
  8
0
  6
CONTINUOUS
 62
               4
100
AcDbLine
 10
-78.884994442695614
 20
21.452924115017979
 30
0.0
 11
-79.771984892823156
 21
21.452924115017979
 31
0.0
  0
LINE
  5
5F7
100
AcDbEntity
  8
0
  6
CONTINUOUS
 62
               4
100
AcDbLine
 10
-76.884994442695501
 20
1.9519140251513107
 30
0.0
 11
-84.379943933362114
 21
1.9519140251512965
 31
0.0
  0
LINE
  5
5F8
100
AcDbEntity
  8
0
  6
CONTINUOUS
 62
               4
100
AcDbLine
 10
-83.877923731628783
 20
1.852924126217971
 30
0.0
 11
-78.178933835895435
 21
1.8529241262179852
 31
0.0
  0
LINE
  5
5F9
100
AcDbEntity
  8
0
  6
CONTINUOUS
 62
               4
100
AcDbLine
 10
-86.274893427228761
 20
0.8488837227512818
 30
0.0
 11
-77.184994442695398
 21
0.848883722751296
 31
0.0
  0
LINE
  5
5FA
100
AcDbEntity
  8
0
  6
CONTINUOUS
 62
               4
100
AcDbLine
 10
-92.878933827495445
 20
5.3529241242179495
 30
0.0
 11
-84.881964135095444
 21
5.3529241242179637
 31
0.0
  0
LINE
  5
5FB
100
AcDbEntity
  8
0
  6
CONTINUOUS
 62
               4
100
AcDbLine
 10
-92.878933827495445
 20
3.5498938222179532
 30
0.0
 11
-84.881964135095444
 21
3.5498938222179675
 31
0.0
  0
LINE
  5
5FC
100
AcDbEntity
  8
0
  6
CONTINUOUS
 62
               4
100
AcDbLine
 10
-92.878933827495445
 20
2.8498938226179718
 30
0.0
 11
-85.284994437895392
 21
2.849893822617986
 31
0.0
  0
LINE
  5
5FD
100
AcDbEntity
  8
0
  6
CONTINUOUS
 62
               4
100
AcDbLine
 10
-92.581964130695468
 20
2.5529241258179383
 30
0.0
 11
-86.677923730028709
 21
2.5529241258179525
 31
0.0
  0
LINE
  5
5FE
100
AcDbEntity
  8
0
  6
CONTINUOUS
 62
               4
100
AcDbLine
 10
-91.881964131095373
 20
6.3498938206179503
 30
0.0
 11
-86.88297423496212
 21
6.3498938206179503
 31
0.0
  0
LINE
  5
5FF
100
AcDbEntity
  8
0
  6
CONTINUOUS
 62
               4
100
AcDbLine
 10
-85.214287367228707
 20
2.0509039240846505
 30
0.0
 11
-91.47642775490462
 21
0.9478736216846357
 31
0.0
  0
LINE
  5
600
100
AcDbEntity
  8
0
  6
CONTINUOUS
 62
               4
100
AcDbLine
 10
-86.274893427228761
 20
0.8488837227512818
 30
0.0
 11
-91.379943929362156
 21
-0.0490960747153792
 31
0.0
  0
ARC
  5
601
100
AcDbEntity
  8
0
  6
CONTINUOUS
 62
               4
100
AcDbCircle
 10
-85.285828482049823
 20
2.4460294756636074
 30
0.0
 40
0.403865208170398
100
AcDbArc
 50
0.118324735515159
 51
89.881675264486262
  0
ARC
  5
602
100
AcDbEntity
  8
0
  6
CONTINUOUS
 62
               4
100
AcDbCircle
 10
-85.284890369074418
 20
2.4475968834134676
 30
0.0
 40
0.4029269013737999
100
AcDbArc
 50
280.09177155739565
 51
359.89571641425016
  0
ARC
  5
603
100
AcDbEntity
  8
0
  6
CONTINUOUS
 62
               4
100
AcDbCircle
 10
-83.884906956832623
 20
2.3478897899252615
 30
0.0
 40
0.4950149226876425
100
AcDbArc
 50
233.12312474116433
 51
270.80830412457811
  0
ARC
  5
604
100
AcDbEntity
  8
0
  6
CONTINUOUS
 62
               4
100
AcDbCircle
 10
-84.38532728361676
 20
2.4485508766299517
 30
0.0
 40
0.4966660273328702
100
AcDbArc
 50
179.37896036356352
 51
270.62103963643341
  0
ARC
  5
605
100
AcDbEntity
  8
0
  6
CONTINUOUS
 62
               4
100
AcDbCircle
 10
-84.382251812252292
 20
18.800401654478804
 30
0.0
 40
0.4997133381008655
100
AcDbArc
 50
114.82621530980938
 51
179.88450442035676
  0
LINE
  5
606
100
AcDbEntity
  8
0
  6
CONTINUOUS
 62
               4
100
AcDbLine
 10
-79.769842925895517
 20
21.452924115017979
 30
0.0
 11
-79.769842925895404
 21
1.9519140251513107
 31
0.0
  0
LINE
  5
607
100
AcDbEntity
  8
0
  6
CONTINUOUS
 62
               4
100
AcDbLine
 10
-84.881964135095444
 20
6.9509039212846631
 30
0.0
 11
-86.88297423496212
 21
6.9509039212846631
 31
0.0
  0
LINE
  5
608
100
AcDbEntity
  8
0
  6
CONTINUOUS
 62
               4
100
AcDbLine
 10
-86.38095403322879
 20
2.849893822617986
 30
0.0
 11
-86.677923730028709
 21
2.5529241258179525
 31
0.0
  0
LINE
  5
609
100
AcDbEntity
  8
0
  6
CONTINUOUS
 62
               4
100
AcDbLine
 10
-86.88297423496212
 20
6.9509039212846631
 30
0.0
 11
-86.88297423496212
 21
6.3498938206179503
 31
0.0
  0
LINE
  5
60A
100
AcDbEntity
  8
0
  6
CONTINUOUS
 62
               4
100
AcDbLine
 10
-79.983539337206167
 20
21.405963536108246
 30
0.0
 11
-84.59206514536217
 21
19.253934217284637
 31
0.0
  0
LINE
  5
60B
100
AcDbEntity
  8
0
  6
CONTINUOUS
 62
               4
100
AcDbLine
 10
-84.881964135095444
 20
2.4539342268846269
 30
0.0
 11
-84.881964135095558
 21
18.80140896501797
 31
0.0
  0
LINE
  5
60C
100
AcDbEntity
  8
0
  6
CONTINUOUS
 62
               4
100
AcDbLine
 10
-91.881964131095373
 20
6.9509039212846631
 30
0.0
 11
-92.878933827495445
 21
6.9509039212846488
 31
0.0
  0
LINE
  5
60D
100
AcDbEntity
  8
0
  6
CONTINUOUS
 62
               4
100
AcDbLine
 10
-92.878933827495445
 20
0.9478736216846215
 30
0.0
 11
-91.471863121228779
 21
0.9478736216846357
 31
0.0
  0
LINE
  5
60E
100
AcDbEntity
  8
0
  6
CONTINUOUS
 62
               4
100
AcDbLine
 10
-92.878933827495445
 20
-0.0490960747153935
 30
0.0
 11
-91.379943929362156
 21
-0.0490960747153792
 31
0.0
  0
LINE
  5
60F
100
AcDbEntity
  8
0
  6
CONTINUOUS
 62
               4
100
AcDbLine
 10
-96.697115643495437
 20
3.7973685695512955
 30
0.0
 11
-92.878933827495445
 21
3.7973685695512955
 31
0.0
  0
LINE
  5
610
100
AcDbEntity
  8
0
  6
CONTINUOUS
 62
               4
100
AcDbLine
 10
-97.446610592562109
 20
5.098378669817933
 30
0.0
 11
-92.878933827495445
 21
5.098378669817933
 31
0.0
  0
LINE
  5
611
100
AcDbEntity
  8
0
  6
CONTINUOUS
 62
               4
100
AcDbLine
 10
-91.881964131095373
 20
6.9509039212846631
 30
0.0
 11
-91.881964131095373
 21
6.3498938206179503
 31
0.0
  0
LINE
  5
612
100
AcDbEntity
  8
0
  6
CONTINUOUS
 62
               4
100
AcDbLine
 10
-92.878933827495445
 20
2.8498938226179718
 30
0.0
 11
-92.581964130695468
 21
2.5529241258179383
 31
0.0
  0
LINE
  5
613
100
AcDbEntity
  8
0
  6
CONTINUOUS
 62
               4
100
AcDbLine
 10
-92.878933827495445
 20
0.9478736216846215
 30
0.0
 11
-92.878933827495445
 21
-0.0490960747153935
 31
0.0
  0
LINE
  5
614
100
AcDbEntity
  8
0
  6
CONTINUOUS
 62
               4
100
AcDbLine
 10
-92.878933827495445
 20
6.9509039212846488
 30
0.0
 11
-92.878933827495445
 21
2.8498938226179718
 31
0.0
  0
ARC
  5
615
100
AcDbEntity
  8
0
  6
CONTINUOUS
 62
               4
100
AcDbCircle
 10
-79.771984892823156
 20
20.952924115017993
 30
0.0
 40
0.5
100
AcDbArc
 50
89.999999999999901
 51
115.03102081721822
  0
LINE
  5
616
100
AcDbEntity
  8
0
  6
CONTINUOUS
 62
               4
100
AcDbLine
 10
-78.178933835895435
 20
1.8529241262179852
 30
0.0
 11
-78.178933835895435
 21
1.9519140251513107
 31
0.0
  0
ARC
  5
617
100
AcDbEntity
  8
0
  6
CONTINUOUS
 62
               4
100
AcDbCircle
 10
-77.184994442695398
 20
1.1488837227512931
 30
0.0
 40
0.3
100
AcDbArc
 50
269.99999999999949
 51
0.0000000000001018
  0
LINE
  5
618
100
AcDbEntity
  8
0
  6
DASHED
 62
               2
100
AcDbLine
 10
-60.884994442695557
 20
83.152923809842036
 30
0.0
 11
-62.484994442695552
 21
83.152923809842036
 31
0.0
  0
LINE
  5
619
100
AcDbEntity
  8
0
  6
CENTER
 62
               2
100
AcDbLine
 10
-63.30218679411567
 20
82.152923809842036
 30
0.0
 11
-60.020128388297593
 21
82.152923809842022
 31
0.0
  0
LINE
  5
61A
100
AcDbEntity
  8
0
  6
DASHED
 62
               2
100
AcDbLine
 10
-60.884994442695557
 20
81.152923809842036
 30
0.0
 11
-62.484994442695552
 21
81.152923809842036
 31
0.0
  0
LINE
  5
61B
100
AcDbEntity
  8
0
  6
CONTINUOUS
 62
               7
100
AcDbLine
 10
-60.884994442695529
 20
21.252923809842201
 30
0.0
 11
-60.884994442695557
 21
87.652923809842036
 31
0.0
  0
LINE
  5
61C
100
AcDbEntity
  8
0
  6
CONTINUOUS
 62
               7
100
AcDbLine
 10
-60.18499444269554
 20
35.452923809842105
 30
0.0
 11
-60.884994442695557
 21
35.452923809842105
 31
0.0
  0
LINE
  5
61D
100
AcDbEntity
  8
0
  6
CONTINUOUS
 62
               7
100
AcDbLine
 10
-60.884994442695557
 20
73.452923809842105
 30
0.0
 11
-60.18499444269554
 21
73.452923809842105
 31
0.0
  0
LINE
  5
61E
100
AcDbEntity
  8
0
  6
CONTINUOUS
 62
               7
100
AcDbLine
 10
-60.18499444269554
 20
30.952923809369338
 30
0.0
 11
-60.18499444269554
 21
77.952923811864679
 31
0.0
  0
LINE
  5
61F
100
AcDbEntity
  8
0
  6
CENTER
 62
               2
100
AcDbLine
 10
-51.68499444269554
 20
76.952923810853392
 30
0.0
 11
-51.68499444269554
 21
64.952923810853392
 31
0.0
  0
CIRCLE
  5
620
100
AcDbEntity
  8
0
  6
CONTINUOUS
 62
               7
100
AcDbCircle
 10
-51.68499444269554
 20
54.452923810853378
 30
0.0
 40
4.2779998779296875
  0
CIRCLE
  5
621
100
AcDbEntity
  8
0
  6
CONTINUOUS
 62
               2
100
AcDbCircle
 10
-51.68499444269554
 20
54.452923810853378
 30
0.0
 40
4.8639993667602539
  0
LINE
  5
622
100
AcDbEntity
  8
0
  6
CENTER
 62
               2
100
AcDbLine
 10
-57.68499444269554
 20
54.452923810853378
 30
0.0
 11
-45.68499444269554
 21
54.452923810853378
 31
0.0
  0
CIRCLE
  5
623
100
AcDbEntity
  8
0
  6
CONTINUOUS
 62
               7
100
AcDbCircle
 10
-51.68499444269554
 20
70.952923810853392
 30
0.0
 40
4.2779998779296875
  0
CIRCLE
  5
624
100
AcDbEntity
  8
0
  6
CONTINUOUS
 62
               2
100
AcDbCircle
 10
-51.68499444269554
 20
70.952923810853392
 30
0.0
 40
4.8639993667602539
  0
LINE
  5
625
100
AcDbEntity
  8
0
  6
CENTER
 62
               2
100
AcDbLine
 10
-57.68499444269554
 20
70.952923810853392
 30
0.0
 11
-45.68499444269554
 21
70.952923810853392
 31
0.0
  0
CIRCLE
  5
626
100
AcDbEntity
  8
0
  6
CONTINUOUS
 62
               7
100
AcDbCircle
 10
-51.68499444269554
 20
37.952923810853392
 30
0.0
 40
4.2779998779296875
  0
CIRCLE
  5
627
100
AcDbEntity
  8
0
  6
CONTINUOUS
 62
               2
100
AcDbCircle
 10
-51.68499444269554
 20
37.952923810853392
 30
0.0
 40
4.8639993667602539
  0
LINE
  5
628
100
AcDbEntity
  8
0
  6
CENTER
 62
               2
100
AcDbLine
 10
-57.68499444269554
 20
37.952923810853392
 30
0.0
 11
-45.68499444269554
 21
37.952923810853392
 31
0.0
  0
LINE
  5
629
100
AcDbEntity
  8
0
  6
CONTINUOUS
 62
               7
100
AcDbLine
 10
-43.184994447334418
 20
77.952923811864679
 30
0.0
 11
-60.18499444269554
 21
77.952923811864679
 31
0.0
  0
LINE
  5
62A
100
AcDbEntity
  8
0
  6
CONTINUOUS
 62
               7
100
AcDbLine
 10
-43.184994447334418
 20
30.952923809842105
 30
0.0
 11
-60.18499444269554
 21
30.952923809842105
 31
0.0
  0
LINE
  5
62B
100
AcDbEntity
  8
0
  6
CONTINUOUS
 62
               7
100
AcDbLine
 10
-43.18499444269554
 20
30.952923809842105
 30
0.0
 11
-43.18499444269554
 21
77.952923811864679
 31
0.0
  0
ARC
  5
62C
100
AcDbEntity
  8
0
  6
CONTINUOUS
 62
               4
100
AcDbCircle
 10
-79.771984892823156
 20
87.952923504666217
 30
0.0
 40
0.5
100
AcDbArc
 50
244.96897918278108
 51
269.99999999999937
  0
LINE
  5
62D
100
AcDbEntity
  8
0
  6
CONTINUOUS
 62
               4
100
AcDbLine
 10
-79.983539337206139
 20
87.499884083575964
 30
0.0
 11
-84.59206514536217
 21
89.651913402399558
 31
0.0
  0
ARC
  5
62E
100
AcDbEntity
  8
0
  6
CONTINUOUS
 62
               4
100
AcDbCircle
 10
-84.382251812252292
 20
90.105445965205391
 30
0.0
 40
0.4997133381008655
100
AcDbArc
 50
180.11549557964247
 51
245.17378469018985
  0
LINE
  5
62F
100
AcDbEntity
  8
0
  6
CONTINUOUS
 62
               4
100
AcDbLine
 10
-78.884994442695557
 20
87.452923504666231
 30
0.0
 11
-79.771984892823156
 21
87.452923504666231
 31
0.0
  0
LINE
  5
630
100
AcDbEntity
  8
0
  6
CONTINUOUS
 62
               7
100
AcDbLine
 10
-61.18499444269554
 20
87.952923809842019
 30
0.0
 11
-78.884994442695557
 21
87.952923809842019
 31
0.0
  0
LINE
  5
631
100
AcDbEntity
  8
0
  6
CONTINUOUS
 62
               7
100
AcDbLine
 10
-78.884994442695557
 20
20.95292380984219
 30
0.0
 11
-78.884994442695557
 21
87.952923809842019
 31
0.0
  0
LINE
  5
632
100
AcDbEntity
  8
0
  6
CONTINUOUS
 62
               7
100
AcDbLine
 10
-60.884994442695557
 20
73.852923809842025
 30
0.0
 11
-60.984994442695552
 21
73.952923809842019
 31
0.0
  0
LINE
  5
633
100
AcDbEntity
  8
0
  6
CONTINUOUS
 62
               7
100
AcDbLine
 10
-61.18499444269554
 20
87.952923809842019
 30
0.0
 11
-60.884994442695529
 21
87.652923809842036
 31
0.0
  0
LINE
  5
634
100
AcDbEntity
  8
0
  6
CONTINUOUS
 62
               7
100
AcDbLine
 10
-60.984994442695552
 20
73.952923809842105
 30
0.0
 11
-78.884994442695529
 21
73.952923809842105
 31
0.0
  0
LINE
  5
635
100
AcDbEntity
  8
0
  6
CONTINUOUS
 62
               7
100
AcDbLine
 10
-78.884994442695557
 20
34.952923809842105
 30
0.0
 11
-60.884994442695557
 21
34.952923809842105
 31
0.0
  0
LINE
  5
636
100
AcDbEntity
  8
0
  6
CONTINUOUS
 62
               7
100
AcDbLine
 10
-77.884994451830579
 20
44.102923805572757
 30
0.0
 11
-78.884994442695529
 21
44.102923805572757
 31
0.0
  0
LINE
  5
637
100
AcDbEntity
  8
0
  6
CONTINUOUS
 62
               7
100
AcDbLine
 10
-77.884994451830579
 20
47.402923805572755
 30
0.0
 11
-78.884994442695529
 21
47.402923805572755
 31
0.0
  0
LINE
  5
638
100
AcDbEntity
  8
0
  6
CONTINUOUS
 62
               7
100
AcDbLine
 10
-77.884994442695529
 20
47.402923805572755
 30
0.0
 11
-77.884994442695529
 21
44.102923805572757
 31
0.0
  0
ARC
  5
639
100
AcDbEntity
  8
0
  6
CONTINUOUS
 62
               7
100
AcDbCircle
 10
-77.886082447932523
 20
44.851835800335749
 30
0.0
 40
0.5989129830170392
100
AcDbArc
 50
179.89591452477256
 51
270.1040854752265
  0
LINE
  5
63A
100
AcDbEntity
  8
0
  6
CONTINUOUS
 62
               7
100
AcDbLine
 10
-78.484994442695495
 20
46.653018952230951
 30
0.0
 11
-78.484994442695495
 21
44.851835800335749
 31
0.0
  0
ARC
  5
63B
100
AcDbEntity
  8
0
  6
CONTINUOUS
 62
               7
100
AcDbCircle
 10
-77.885089589353669
 20
46.653018952230951
 30
0.0
 40
0.5999048608870732
100
AcDbArc
 50
89.990912722453572
 51
180.00908727754597
  0
LINE
  5
63C
100
AcDbEntity
  8
0
  6
CENTER
 62
               2
100
AcDbLine
 10
-51.68499444269554
 20
60.452923810853378
 30
0.0
 11
-51.68499444269554
 21
48.452923810853378
 31
0.0
  0
LINE
  5
63D
100
AcDbEntity
  8
0
  6
CENTER
 62
               2
100
AcDbLine
 10
-51.68499444269554
 20
43.952923810853392
 30
0.0
 11
-51.68499444269554
 21
31.952923810853392
 31
0.0
  0
LINE
  5
63E
100
AcDbEntity
  8
0
  6
CONTINUOUS
 62
               4
100
AcDbLine
 10
-100.38095402522876
 20
5.098378669817933
 30
0.0
 11
-100.38095402522876
 21
3.7973685695512955
 31
0.0
  0
LINE
  5
63F
100
AcDbEntity
  8
0
  6
CONTINUOUS
 62
               4
100
AcDbLine
 10
-103.88095402322878
 20
4.2003988723512862
 30
0.0
 11
-100.38095402522876
 21
4.2003988723513004
 31
0.0
  0
LINE
  5
640
100
AcDbEntity
  8
0
  6
CONTINUOUS
 62
               4
100
AcDbLine
 10
-103.88095402322878
 20
4.7024190740846166
 30
0.0
 11
-100.38095402522876
 21
4.7024190740846308
 31
0.0
  0
LINE
  5
641
100
AcDbEntity
  8
0
  6
CONTINUOUS
 62
               4
100
AcDbLine
 10
-103.88095402322884
 20
104.20342854559955
 30
0.0
 11
-100.38095402522887
 21
104.20342854559955
 31
0.0
  0
LINE
  5
642
100
AcDbEntity
  8
0
  6
CONTINUOUS
 62
               4
100
AcDbLine
 10
-103.88095402322884
 20
104.70544874733288
 30
0.0
 11
-100.38095402522887
 21
104.70544874733288
 31
0.0
  0
LINE
  5
643
100
AcDbEntity
  8
0
  6
CENTER
 62
               2
100
AcDbLine
 10
-247.41832767281659
 20
36.952923618095966
 30
0.0
 11
-242.41832767281659
 21
36.952923618095966
 31
0.0
  0
LINE
  5
644
100
AcDbEntity
  8
0
  6
CENTER
 62
               2
100
AcDbLine
 10
-247.41832767281659
 20
71.952924003610846
 30
0.0
 11
-242.41832767281659
 21
71.952924003610846
 31
0.0
  0
ARC
  5
645
100
AcDbEntity
  8
0
  6
CONTINUOUS
 62
               4
100
AcDbCircle
 10
-210.91832768652461
 20
1.1488837227512931
 30
0.0
 40
0.3
100
AcDbArc
 50
179.99999999999949
 51
269.99999999999932
  0
LINE
  5
646
100
AcDbEntity
  8
0
  6
CONTINUOUS
 62
               4
100
AcDbLine
 10
-209.92438829332457
 20
1.8529241262179852
 30
0.0
 11
-209.92438829332457
 21
1.9519140251513107
 31
0.0
  0
ARC
  5
647
100
AcDbEntity
  8
0
  6
CONTINUOUS
 62
               4
100
AcDbCircle
 10
-208.33133723639685
 20
20.952924115017993
 30
0.0
 40
0.5
100
AcDbArc
 50
64.968979182781382
 51
89.999999999999702
  0
LINE
  5
648
100
AcDbEntity
  8
0
  6
CONTINUOUS
 62
               4
100
AcDbLine
 10
-187.72236810399124
 20
3.7973685695512955
 30
0.0
 11
-191.0597418394579
 21
3.7973685695512955
 31
0.0
  0
LINE
  5
649
100
AcDbEntity
  8
0
  6
CONTINUOUS
 62
               4
100
AcDbLine
 10
-187.72236810399124
 20
5.098378669817933
 30
0.0
 11
-190.31024689039123
 21
5.098378669817933
 31
0.0
  0
LINE
  5
64A
100
AcDbEntity
  8
0
  6
CONTINUOUS
 62
             200
100
AcDbLine
 10
-191.54762062705788
 20
2.9488837215512689
 30
0.0
 11
-189.81529739572454
 21
5.9468635178179312
 31
0.0
  0
LINE
  5
64B
100
AcDbEntity
  8
0
  6
CONTINUOUS
 62
               4
100
AcDbLine
 10
-195.22438830172456
 20
6.9509039212846488
 30
0.0
 11
-195.22438830172456
 21
2.8498938226179718
 31
0.0
  0
LINE
  5
64C
100
AcDbEntity
  8
0
  6
CONTINUOUS
 62
               4
100
AcDbLine
 10
-195.22438830172456
 20
0.9478736216846215
 30
0.0
 11
-195.22438830172456
 21
-0.0490960747153935
 31
0.0
  0
LINE
  5
64D
100
AcDbEntity
  8
0
  6
CONTINUOUS
 62
               4
100
AcDbLine
 10
-195.22438830172456
 20
2.8498938226179718
 30
0.0
 11
-195.52135799852454
 21
2.5529241258179383
 31
0.0
  0
LINE
  5
64E
100
AcDbEntity
  8
0
  6
CONTINUOUS
 62
               4
100
AcDbLine
 10
-196.22135799812463
 20
6.9509039212846631
 30
0.0
 11
-196.22135799812463
 21
6.3498938206179503
 31
0.0
  0
LINE
  5
64F
100
AcDbEntity
  8
0
  6
CONTINUOUS
 62
               4
100
AcDbLine
 10
-190.65671153665789
 20
5.098378669817933
 30
0.0
 11
-195.22438830172456
 21
5.098378669817933
 31
0.0
  0
LINE
  5
650
100
AcDbEntity
  8
0
  6
CONTINUOUS
 62
             200
100
AcDbLine
 10
-191.89408527332455
 20
2.9488837215512689
 30
0.0
 11
-190.16176204199121
 21
5.953934224884577
 31
0.0
  0
LINE
  5
651
100
AcDbEntity
  8
0
  6
CONTINUOUS
 62
               4
100
AcDbLine
 10
-191.40620648572457
 20
3.7973685695512955
 30
0.0
 11
-195.22438830172456
 21
3.7973685695512955
 31
0.0
  0
LINE
  5
652
100
AcDbEntity
  8
0
  6
CONTINUOUS
 62
               4
100
AcDbLine
 10
-195.22438830172456
 20
-0.0490960747153935
 30
0.0
 11
-196.72337819985785
 21
-0.0490960747153792
 31
0.0
  0
LINE
  5
653
100
AcDbEntity
  8
0
  6
CONTINUOUS
 62
               4
100
AcDbLine
 10
-195.22438830172456
 20
0.9478736216846215
 30
0.0
 11
-196.63145900799123
 21
0.9478736216846357
 31
0.0
  0
LINE
  5
654
100
AcDbEntity
  8
0
  6
CONTINUOUS
 62
               4
100
AcDbLine
 10
-196.22135799812463
 20
6.9509039212846631
 30
0.0
 11
-195.22438830172456
 21
6.9509039212846488
 31
0.0
  0
LINE
  5
655
100
AcDbEntity
  8
0
  6
CONTINUOUS
 62
               4
100
AcDbLine
 10
-187.72236810399124
 20
5.098378669817933
 30
0.0
 11
-187.72236810399124
 21
3.7973685695512955
 31
0.0
  0
LINE
  5
656
100
AcDbEntity
  8
0
  6
CONTINUOUS
 62
               4
100
AcDbLine
 10
-184.22236810599122
 20
4.2003988723512862
 30
0.0
 11
-187.72236810399124
 21
4.2003988723513004
 31
0.0
  0
LINE
  5
657
100
AcDbEntity
  8
0
  6
CONTINUOUS
 62
               4
100
AcDbLine
 10
-184.22236810599122
 20
4.7024190740846166
 30
0.0
 11
-187.72236810399124
 21
4.7024190740846308
 31
0.0
  0
LINE
  5
658
100
AcDbEntity
  8
0
  6
CONTINUOUS
 62
               4
100
AcDbLine
 10
-184.22236810599122
 20
4.7024190740846166
 30
0.0
 11
-184.22236810599122
 21
4.2003988723512862
 31
0.0
  0
LINE
  5
659
100
AcDbEntity
  8
0
  6
CONTINUOUS
 62
               4
100
AcDbLine
 10
-203.22135799412456
 20
2.4539342268846269
 30
0.0
 11
-203.22135799412445
 21
18.80140896501797
 31
0.0
  0
LINE
  5
65A
100
AcDbEntity
  8
0
  6
CONTINUOUS
 62
               4
100
AcDbLine
 10
-208.11978279201384
 20
21.405963536108246
 30
0.0
 11
-203.51125698385783
 21
19.253934217284637
 31
0.0
  0
LINE
  5
65B
100
AcDbEntity
  8
0
  6
CONTINUOUS
 62
               4
100
AcDbLine
 10
-201.22034789425788
 20
6.9509039212846631
 30
0.0
 11
-201.22034789425788
 21
6.3498938206179503
 31
0.0
  0
LINE
  5
65C
100
AcDbEntity
  8
0
  6
CONTINUOUS
 62
               4
100
AcDbLine
 10
-201.72236809599121
 20
2.849893822617986
 30
0.0
 11
-201.42539839919129
 21
2.5529241258179525
 31
0.0
  0
LINE
  5
65D
100
AcDbEntity
  8
0
  6
CONTINUOUS
 62
               4
100
AcDbLine
 10
-203.22135799412456
 20
6.9509039212846631
 30
0.0
 11
-201.22034789425788
 21
6.9509039212846631
 31
0.0
  0
LINE
  5
65E
100
AcDbEntity
  8
0
  6
CONTINUOUS
 62
               4
100
AcDbLine
 10
-208.33347920332449
 20
21.452924115017979
 30
0.0
 11
-208.3334792033246
 21
1.9519140251513107
 31
0.0
  0
ARC
  5
65F
100
AcDbEntity
  8
0
  6
CONTINUOUS
 62
               4
100
AcDbCircle
 10
-203.72107031696771
 20
18.800401654478804
 30
0.0
 40
0.4997133381008655
100
AcDbArc
 50
0.1154955796428247
 51
65.173784690190203
  0
ARC
  5
660
100
AcDbEntity
  8
0
  6
CONTINUOUS
 62
               4
100
AcDbCircle
 10
-203.71799484560324
 20
2.4485508766299517
 30
0.0
 40
0.4966660273328702
100
AcDbArc
 50
269.3789603635654
 51
0.6210396364360893
  0
ARC
  5
661
100
AcDbEntity
  8
0
  6
CONTINUOUS
 62
               4
100
AcDbCircle
 10
-204.21841517238738
 20
2.3478897899252615
 30
0.0
 40
0.4950149226876425
100
AcDbArc
 50
269.19169587542069
 51
306.87687525883445
  0
ARC
  5
662
100
AcDbEntity
  8
0
  6
CONTINUOUS
 62
               4
100
AcDbCircle
 10
-202.81843176014559
 20
2.4475968834134676
 30
0.0
 40
0.4029269013737999
100
AcDbArc
 50
180.10428358574862
 51
259.90822844260316
  0
ARC
  5
663
100
AcDbEntity
  8
0
  6
CONTINUOUS
 62
               4
100
AcDbCircle
 10
-202.81749364717018
 20
2.4460294756636074
 30
0.0
 40
0.403865208170398
100
AcDbArc
 50
90.118324735513326
 51
179.88167526448447
  0
LINE
  5
664
100
AcDbEntity
  8
0
  6
CONTINUOUS
 62
               4
100
AcDbLine
 10
-201.82842870199124
 20
0.8488837227512818
 30
0.0
 11
-196.72337819985785
 21
-0.0490960747153792
 31
0.0
  0
LINE
  5
665
100
AcDbEntity
  8
0
  6
CONTINUOUS
 62
               4
100
AcDbLine
 10
-202.8890347619913
 20
2.0509039240846505
 30
0.0
 11
-196.62689437431538
 21
0.9478736216846357
 31
0.0
  0
LINE
  5
666
100
AcDbEntity
  8
0
  6
CONTINUOUS
 62
               4
100
AcDbLine
 10
-196.22135799812463
 20
6.3498938206179503
 30
0.0
 11
-201.22034789425788
 21
6.3498938206179503
 31
0.0
  0
LINE
  5
667
100
AcDbEntity
  8
0
  6
CONTINUOUS
 62
               4
100
AcDbLine
 10
-195.52135799852454
 20
2.5529241258179383
 30
0.0
 11
-201.42539839919129
 21
2.5529241258179525
 31
0.0
  0
LINE
  5
668
100
AcDbEntity
  8
0
  6
CONTINUOUS
 62
               4
100
AcDbLine
 10
-195.22438830172456
 20
2.8498938226179718
 30
0.0
 11
-202.81832769132461
 21
2.849893822617986
 31
0.0
  0
LINE
  5
669
100
AcDbEntity
  8
0
  6
CONTINUOUS
 62
               4
100
AcDbLine
 10
-195.22438830172456
 20
3.5498938222179532
 30
0.0
 11
-203.22135799412456
 21
3.5498938222179675
 31
0.0
  0
LINE
  5
66A
100
AcDbEntity
  8
0
  6
CONTINUOUS
 62
               4
100
AcDbLine
 10
-195.22438830172456
 20
5.3529241242179495
 30
0.0
 11
-203.22135799412456
 21
5.3529241242179637
 31
0.0
  0
LINE
  5
66B
100
AcDbEntity
  8
0
  6
CONTINUOUS
 62
               4
100
AcDbLine
 10
-201.82842870199124
 20
0.8488837227512818
 30
0.0
 11
-210.91832768652461
 21
0.848883722751296
 31
0.0
  0
LINE
  5
66C
100
AcDbEntity
  8
0
  6
CONTINUOUS
 62
               4
100
AcDbLine
 10
-204.22539839759122
 20
1.852924126217971
 30
0.0
 11
-209.92438829332457
 21
1.8529241262179852
 31
0.0
  0
LINE
  5
66D
100
AcDbEntity
  8
0
  6
CONTINUOUS
 62
               4
100
AcDbLine
 10
-211.2183276865245
 20
1.9519140251513107
 30
0.0
 11
-203.72337819585789
 21
1.9519140251512965
 31
0.0
  0
LINE
  5
66E
100
AcDbEntity
  8
0
  6
CONTINUOUS
 62
               4
100
AcDbLine
 10
-209.21832768652439
 20
21.452924115017979
 30
0.0
 11
-208.33133723639685
 21
21.452924115017979
 31
0.0
  0
LINE
  5
66F
100
AcDbEntity
  8
0
  6
CONTINUOUS
 62
               7
100
AcDbLine
 10
-226.91832768652444
 20
20.95292380984219
 30
0.0
 11
-209.21832768652439
 21
20.95292380984219
 31
0.0
  0
LINE
  5
670
100
AcDbEntity
  8
0
  6
CONTINUOUS
 62
               4
100
AcDbLine
 10
-214.91832768652449
 20
-0.4470758849821124
 30
0.0
 11
-214.91832768652449
 21
-1.0470758849820214
 31
0.0
  0
LINE
  5
671
100
AcDbEntity
  8
0
  6
CONTINUOUS
 62
               4
100
AcDbLine
 10
-211.90123253986627
 20
-1.0470758849820072
 30
0.0
 11
-223.21833050305128
 21
-1.0470758849820925
 31
0.0
  0
ARC
  5
672
100
AcDbEntity
  8
0
  6
CONTINUOUS
 62
               4
100
AcDbCircle
 10
-213.70241569176153
 20
-0.448163890219007
 30
0.0
 40
0.5989129830170392
100
AcDbArc
 50
179.89591452477256
 51
270.1040854752265
  0
ARC
  5
673
100
AcDbEntity
  8
0
  6
CONTINUOUS
 62
               4
100
AcDbCircle
 10
-211.90123253986633
 20
-0.4471710316401811
 30
0.0
 40
0.5999048608870732
100
AcDbArc
 50
303.56005066674135
 51
0.0090872775462214
  0
LINE
  5
674
100
AcDbEntity
  8
0
  6
CONTINUOUS
 62
               4
100
AcDbLine
 10
-211.2183276865245
 20
-0.4470758849820982
 30
0.0
 11
-214.91832768652449
 21
-0.4470758849821124
 31
0.0
  0
LINE
  5
675
100
AcDbEntity
  8
0
  6
CONTINUOUS
 62
               4
100
AcDbLine
 10
-223.21833050305128
 20
-1.0470758849820925
 30
0.0
 11
-223.21833050305128
 21
0.5529241150178876
 31
0.0
  0
LINE
  5
676
100
AcDbEntity
  8
0
  6
CONTINUOUS
 62
               4
100
AcDbLine
 10
-211.2183276865245
 20
0.5529241150179018
 30
0.0
 11
-223.21833050305128
 21
0.5529241150178876
 31
0.0
  0
LINE
  5
677
100
AcDbEntity
  8
0
  6
CONTINUOUS
 62
               4
100
AcDbLine
 10
-224.7183276865245
 20
-0.9470758849820129
 30
0.0
 11
-223.2183276865245
 21
-0.9470758849820129
 31
0.0
  0
ARC
  5
678
100
AcDbEntity
  8
0
  6
CONTINUOUS
 62
               4
100
AcDbCircle
 10
-224.7183276865245
 20
-0.4470758849820129
 30
0.0
 40
0.5
100
AcDbArc
 50
179.99999999999963
 51
269.99999999999937
  0
ARC
  5
679
100
AcDbEntity
  8
0
  6
CONTINUOUS
 62
               4
100
AcDbCircle
 10
-211.7183276865245
 20
-0.4470758849820129
 30
0.0
 40
0.5
100
AcDbArc
 50
294.73039869685095
 51
0.0
  0
ARC
  5
67A
100
AcDbEntity
  8
0
  6
CONTINUOUS
 62
               4
100
AcDbCircle
 10
-211.90123253986633
 20
-0.4471710316401811
 30
0.0
 40
0.5999048608870732
100
AcDbArc
 50
269.990912722453
 51
303.56005066674055
  0
LINE
  5
67B
100
AcDbEntity
  8
0
  6
CONTINUOUS
 62
               4
100
AcDbLine
 10
-211.2183276865245
 20
-0.4470758849819845
 30
0.0
 11
-211.2183276865245
 21
20.952923809842204
 31
0.0
  0
LINE
  5
67C
100
AcDbEntity
  8
0
  6
CONTINUOUS
 62
               4
100
AcDbLine
 10
-225.2183276865245
 20
20.952923812048894
 30
0.0
 11
-225.21832768652445
 21
-0.44707587991428
 31
0.0
  0
LINE
  5
67D
100
AcDbEntity
  8
0
  6
CONTINUOUS
 62
               7
100
AcDbLine
 10
-226.91832768652444
 20
20.95292380984219
 30
0.0
 11
-227.21832768652445
 21
21.252923809842201
 31
0.0
  0
LINE
  5
67E
100
AcDbEntity
  8
0
  6
CENTER
 62
               2
100
AcDbLine
 10
-236.41832768188556
 20
40.15292381085338
 30
0.0
 11
-236.41832768188556
 21
52.15292381085338
 31
0.0
  0
CIRCLE
  5
67F
100
AcDbEntity
  8
0
  6
CONTINUOUS
 62
               2
100
AcDbCircle
 10
-236.41832768188556
 20
62.652923810853366
 30
0.0
 40
4.8639993667602539
  0
CIRCLE
  5
680
100
AcDbEntity
  8
0
  6
CONTINUOUS
 62
               7
100
AcDbCircle
 10
-236.41832768188556
 20
62.652923810853366
 30
0.0
 40
4.2779998779296875
  0
LINE
  5
681
100
AcDbEntity
  8
0
  6
CONTINUOUS
 62
               7
100
AcDbLine
 10
-227.91832768652446
 20
30.952923809369338
 30
0.0
 11
-227.91832768652444
 21
77.952923811864665
 31
0.0
  0
LINE
  5
682
100
AcDbEntity
  8
0
  6
CONTINUOUS
 62
               7
100
AcDbLine
 10
-244.91832768652444
 20
30.952923809842105
 30
0.0
 11
-244.91832768652444
 21
77.952923811864665
 31
0.0
  0
LINE
  5
683
100
AcDbEntity
  8
0
  6
CONTINUOUS
 62
               7
100
AcDbLine
 10
-209.21832768652445
 20
20.95292380984219
 30
0.0
 11
-209.21832768652442
 21
87.952923809842048
 31
0.0
  0
LINE
  5
684
100
AcDbEntity
  8
0
  6
CENTER
 62
               2
100
AcDbLine
 10
-218.21832768652445
 20
112.58217455567838
 30
0.0
 11
-218.21832768652445
 21
-3.1751414582346911
 31
0.0
  0
LINE
  5
685
100
AcDbEntity
  8
0
  6
CONTINUOUS
 62
               7
100
AcDbLine
 10
-227.21832768652447
 20
21.252923809842201
 30
0.0
 11
-227.21832768652442
 21
87.652923809842036
 31
0.0
  0
LINE
  5
686
100
AcDbEntity
  8
0
  6
CONTINUOUS
 62
               7
100
AcDbLine
 10
-244.91832768188556
 20
30.952923809842105
 30
0.0
 11
-227.91832768652444
 21
30.952923809842105
 31
0.0
  0
LINE
  5
687
100
AcDbEntity
  8
0
  6
CONTINUOUS
 62
               7
100
AcDbLine
 10
-209.21832768652445
 20
34.952923809842105
 30
0.0
 11
-227.21832768652445
 21
34.952923809842133
 31
0.0
  0
LINE
  5
688
100
AcDbEntity
  8
0
  6
CONTINUOUS
 62
               7
100
AcDbLine
 10
-227.91832768652444
 20
35.452923809842133
 30
0.0
 11
-227.21832768652445
 21
35.452923809842133
 31
0.0
  0
CIRCLE
  5
689
100
AcDbEntity
  8
0
  6
CONTINUOUS
 62
               7
100
AcDbCircle
 10
-236.41832768188556
 20
46.15292381085338
 30
0.0
 40
4.2779998779296875
  0
CIRCLE
  5
68A
100
AcDbEntity
  8
0
  6
CONTINUOUS
 62
               2
100
AcDbCircle
 10
-236.41832768188556
 20
46.15292381085338
 30
0.0
 40
4.8639993667602539
  0
LINE
  5
68B
100
AcDbEntity
  8
0
  6
CENTER
 62
               2
100
AcDbLine
 10
-230.41832768188556
 20
46.15292381085338
 30
0.0
 11
-242.41832768188556
 21
46.15292381085338
 31
0.0
  0
LINE
  5
68C
100
AcDbEntity
  8
0
  6
CONTINUOUS
 62
               4
100
AcDbLine
 10
-209.92438829332445
 20
107.05292349346622
 30
0.0
 11
-209.92438829332445
 21
106.9539335945329
 31
0.0
  0
ARC
  5
68D
100
AcDbEntity
  8
0
  6
CONTINUOUS
 62
               4
100
AcDbCircle
 10
-210.91832768652449
 20
107.75696389693292
 30
0.0
 40
0.3
100
AcDbArc
 50
89.999999999999815
 51
179.99999999999963
  0
LINE
  5
68E
100
AcDbEntity
  8
0
  6
CONTINUOUS
 62
               7
100
AcDbLine
 10
-227.21832768652445
 20
73.852923809842125
 30
0.0
 11
-227.11832768652442
 21
73.952923809842119
 31
0.0
  0
LINE
  5
68F
100
AcDbEntity
  8
0
  6
CONTINUOUS
 62
               7
100
AcDbLine
 10
-227.11832768652442
 20
73.952923809842119
 30
0.0
 11
-209.21832768652445
 21
73.952923809842119
 31
0.0
  0
LINE
  5
690
100
AcDbEntity
  8
0
  6
CONTINUOUS
 62
               7
100
AcDbLine
 10
-226.91832768652444
 20
87.952923809842048
 30
0.0
 11
-227.21832768652445
 21
87.652923809842036
 31
0.0
  0
LINE
  5
691
100
AcDbEntity
  8
0
  6
CONTINUOUS
 62
               4
100
AcDbLine
 10
-211.21832768652445
 20
87.952923807635329
 30
0.0
 11
-211.21832768652447
 21
109.35292349959852
 31
0.0
  0
LINE
  5
692
100
AcDbEntity
  8
0
  6
CONTINUOUS
 62
               4
100
AcDbLine
 10
-225.21832768652445
 20
109.35292350466622
 30
0.0
 11
-225.21832768652445
 21
87.952923809842048
 31
0.0
  0
ARC
  5
693
100
AcDbEntity
  8
0
  6
CONTINUOUS
 62
               4
100
AcDbCircle
 10
-224.53542283318262
 20
109.35301865132442
 30
0.0
 40
0.5999048608870732
100
AcDbArc
 50
89.99091272245343
 51
123.56005066674096
  0
ARC
  5
694
100
AcDbEntity
  8
0
  6
CONTINUOUS
 62
               4
100
AcDbCircle
 10
-224.71832768652445
 20
109.35292350466625
 30
0.0
 40
0.5
100
AcDbArc
 50
114.73039869685056
 51
179.99999999999963
  0
ARC
  5
695
100
AcDbEntity
  8
0
  6
CONTINUOUS
 62
               4
100
AcDbCircle
 10
-211.71832768652445
 20
109.35292350466622
 30
0.0
 40
0.5
100
AcDbArc
 50
0.0
 51
89.999999999999815
  0
LINE
  5
696
100
AcDbEntity
  8
0
  6
CONTINUOUS
 62
               4
100
AcDbLine
 10
-211.71832768652445
 20
109.85292350466622
 30
0.0
 11
-213.21832768652445
 21
109.85292350466622
 31
0.0
  0
LINE
  5
697
100
AcDbEntity
  8
0
  6
CONTINUOUS
 62
               4
100
AcDbLine
 10
-225.21832768652445
 20
108.35292350466632
 30
0.0
 11
-213.21832486999767
 21
108.35292350466635
 31
0.0
  0
LINE
  5
698
100
AcDbEntity
  8
0
  6
CONTINUOUS
 62
               4
100
AcDbLine
 10
-213.21832486999767
 20
109.9529235046663
 30
0.0
 11
-213.21832486999767
 21
108.35292350466635
 31
0.0
  0
LINE
  5
699
100
AcDbEntity
  8
0
  6
CONTINUOUS
 62
               4
100
AcDbLine
 10
-225.21832768652445
 20
109.35292350466634
 30
0.0
 11
-221.51832768652446
 21
109.35292350466634
 31
0.0
  0
ARC
  5
69A
100
AcDbEntity
  8
0
  6
CONTINUOUS
 62
               4
100
AcDbCircle
 10
-224.53542283318262
 20
109.35301865132442
 30
0.0
 40
0.5999048608870732
100
AcDbArc
 50
123.56005066674096
 51
180.00908727754583
  0
ARC
  5
69B
100
AcDbEntity
  8
0
  6
CONTINUOUS
 62
               4
100
AcDbCircle
 10
-222.73423968128742
 20
109.35401150990324
 30
0.0
 40
0.5989129830170392
100
AcDbArc
 50
359.89591452477293
 51
90.104085475226867
  0
LINE
  5
69C
100
AcDbEntity
  8
0
  6
CONTINUOUS
 62
               4
100
AcDbLine
 10
-224.53542283318265
 20
109.95292350466623
 30
0.0
 11
-213.21832486999767
 21
109.9529235046663
 31
0.0
  0
LINE
  5
69D
100
AcDbEntity
  8
0
  6
CONTINUOUS
 62
               4
100
AcDbLine
 10
-221.51832768652446
 20
109.35292350466634
 30
0.0
 11
-221.51832768652446
 21
109.95292350466624
 31
0.0
  0
LINE
  5
69E
100
AcDbEntity
  8
0
  6
CONTINUOUS
 62
               7
100
AcDbLine
 10
-226.91832768652444
 20
87.952923809842048
 30
0.0
 11
-209.21832768652442
 21
87.952923809842048
 31
0.0
  0
LINE
  5
69F
100
AcDbEntity
  8
0
  6
CONTINUOUS
 62
               4
100
AcDbLine
 10
-209.21832768652442
 20
87.452923504666245
 30
0.0
 11
-208.33133723639682
 21
87.452923504666245
 31
0.0
  0
LINE
  5
6A0
100
AcDbEntity
  8
0
  6
CONTINUOUS
 62
               4
100
AcDbLine
 10
-211.21832768652442
 20
106.9539335945329
 30
0.0
 11
-203.72337819585778
 21
106.9539335945329
 31
0.0
  0
LINE
  5
6A1
100
AcDbEntity
  8
0
  6
CONTINUOUS
 62
               4
100
AcDbLine
 10
-204.22539839759114
 20
107.05292349346622
 30
0.0
 11
-209.92438829332445
 21
107.05292349346622
 31
0.0
  0
LINE
  5
6A2
100
AcDbEntity
  8
0
  6
CONTINUOUS
 62
               4
100
AcDbLine
 10
-201.82842870199113
 20
108.05696389693291
 30
0.0
 11
-210.91832768652449
 21
108.05696389693291
 31
0.0
  0
LINE
  5
6A3
100
AcDbEntity
  8
0
  6
CONTINUOUS
 62
               4
100
AcDbLine
 10
-195.22438830172445
 20
103.55292349546623
 30
0.0
 11
-203.22135799412445
 21
103.55292349546623
 31
0.0
  0
LINE
  5
6A4
100
AcDbEntity
  8
0
  6
CONTINUOUS
 62
               4
100
AcDbLine
 10
-195.22438830172445
 20
105.35595379746623
 30
0.0
 11
-203.22135799412445
 21
105.35595379746623
 31
0.0
  0
LINE
  5
6A5
100
AcDbEntity
  8
0
  6
CONTINUOUS
 62
               4
100
AcDbLine
 10
-195.22438830172445
 20
106.05595379706621
 30
0.0
 11
-202.81832769132447
 21
106.05595379706621
 31
0.0
  0
LINE
  5
6A6
100
AcDbEntity
  8
0
  6
CONTINUOUS
 62
               4
100
AcDbLine
 10
-195.52135799852445
 20
106.35292349386624
 30
0.0
 11
-201.42539839919115
 21
106.35292349386624
 31
0.0
  0
LINE
  5
6A7
100
AcDbEntity
  8
0
  6
CONTINUOUS
 62
               4
100
AcDbLine
 10
-196.22135799812449
 20
102.55595379906624
 30
0.0
 11
-201.2203478942578
 21
102.55595379906624
 31
0.0
  0
LINE
  5
6A8
100
AcDbEntity
  8
0
  6
CONTINUOUS
 62
               4
100
AcDbLine
 10
-202.88903476199116
 20
106.85494369559954
 30
0.0
 11
-196.54661052319113
 21
107.97211541213291
 31
0.0
  0
LINE
  5
6A9
100
AcDbEntity
  8
0
  6
CONTINUOUS
 62
               4
100
AcDbLine
 10
-201.82842870199113
 20
108.05696389693291
 30
0.0
 11
-196.72337819985776
 21
108.95494369439957
 31
0.0
  0
ARC
  5
6AA
100
AcDbEntity
  8
0
  6
CONTINUOUS
 62
               4
100
AcDbCircle
 10
-202.8174936471701
 20
106.45981814402059
 30
0.0
 40
0.403865208170398
100
AcDbArc
 50
180.11832473551465
 51
269.88167526448575
  0
ARC
  5
6AB
100
AcDbEntity
  8
0
  6
CONTINUOUS
 62
               4
100
AcDbCircle
 10
-202.81843176014544
 20
106.45825073627073
 30
0.0
 40
0.4029269013737999
100
AcDbArc
 50
100.09177155739594
 51
179.89571641425047
  0
ARC
  5
6AC
100
AcDbEntity
  8
0
  6
CONTINUOUS
 62
               4
100
AcDbCircle
 10
-204.21841517238727
 20
106.55795782975893
 30
0.0
 40
0.4950149226876425
100
AcDbArc
 50
53.12312474116473
 51
90.808304124578541
  0
ARC
  5
6AD
100
AcDbEntity
  8
0
  6
CONTINUOUS
 62
               4
100
AcDbCircle
 10
-203.71799484560313
 20
106.45729674305424
 30
0.0
 40
0.4966660273328702
100
AcDbArc
 50
359.37896036356381
 51
90.621039636433693
  0
ARC
  5
6AE
100
AcDbEntity
  8
0
  6
CONTINUOUS
 62
               4
100
AcDbCircle
 10
-203.72107031696768
 20
90.105445965205405
 30
0.0
 40
0.4997133381008655
100
AcDbArc
 50
294.82621530980896
 51
359.88450442035634
  0
LINE
  5
6AF
100
AcDbEntity
  8
0
  6
CONTINUOUS
 62
               4
100
AcDbLine
 10
-208.33347920332449
 20
87.452923504666245
 30
0.0
 11
-208.33347920332449
 21
106.9539335945329
 31
0.0
  0
LINE
  5
6B0
100
AcDbEntity
  8
0
  6
CONTINUOUS
 62
               4
100
AcDbLine
 10
-203.22135799412445
 20
101.95494369839953
 30
0.0
 11
-201.2203478942578
 21
101.95494369839953
 31
0.0
  0
LINE
  5
6B1
100
AcDbEntity
  8
0
  6
CONTINUOUS
 62
               4
100
AcDbLine
 10
-201.7223680959911
 20
106.05595379706621
 30
0.0
 11
-201.42539839919115
 21
106.35292349386624
 31
0.0
  0
LINE
  5
6B2
100
AcDbEntity
  8
0
  6
CONTINUOUS
 62
               4
100
AcDbLine
 10
-201.2203478942578
 20
101.95494369839953
 30
0.0
 11
-201.2203478942578
 21
102.55595379906624
 31
0.0
  0
LINE
  5
6B3
100
AcDbEntity
  8
0
  6
CONTINUOUS
 62
               4
100
AcDbLine
 10
-208.11978279201384
 20
87.499884083575978
 30
0.0
 11
-203.51125698385781
 21
89.651913402399572
 31
0.0
  0
LINE
  5
6B4
100
AcDbEntity
  8
0
  6
CONTINUOUS
 62
               4
100
AcDbLine
 10
-203.22135799412445
 20
106.45191339279957
 30
0.0
 11
-203.22135799412445
 21
90.104438654666239
 31
0.0
  0
LINE
  5
6B5
100
AcDbEntity
  8
0
  6
CONTINUOUS
 62
               4
100
AcDbLine
 10
-184.22236810599114
 20
104.20342854559955
 30
0.0
 11
-184.22236810599114
 21
104.70544874733288
 31
0.0
  0
LINE
  5
6B6
100
AcDbEntity
  8
0
  6
CONTINUOUS
 62
               4
100
AcDbLine
 10
-184.22236810599114
 20
104.20342854559955
 30
0.0
 11
-187.7223681039911
 21
104.20342854559955
 31
0.0
  0
LINE
  5
6B7
100
AcDbEntity
  8
0
  6
CONTINUOUS
 62
               4
100
AcDbLine
 10
-184.22236810599114
 20
104.70544874733288
 30
0.0
 11
-187.7223681039911
 21
104.70544874733288
 31
0.0
  0
LINE
  5
6B8
100
AcDbEntity
  8
0
  6
CONTINUOUS
 62
               4
100
AcDbLine
 10
-187.7223681039911
 20
103.80746894986625
 30
0.0
 11
-187.7223681039911
 21
105.10847905013289
 31
0.0
  0
LINE
  5
6B9
100
AcDbEntity
  8
0
  6
CONTINUOUS
 62
               4
100
AcDbLine
 10
-196.22135799812449
 20
101.95494369839953
 30
0.0
 11
-195.22438830172445
 21
101.95494369839953
 31
0.0
  0
LINE
  5
6BA
100
AcDbEntity
  8
0
  6
CONTINUOUS
 62
               4
100
AcDbLine
 10
-195.22438830172445
 20
107.95797399799956
 30
0.0
 11
-196.63145900799111
 21
107.95797399799956
 31
0.0
  0
LINE
  5
6BB
100
AcDbEntity
  8
0
  6
CONTINUOUS
 62
               4
100
AcDbLine
 10
-195.22438830172445
 20
108.95494369439957
 30
0.0
 11
-196.72337819985776
 21
108.95494369439957
 31
0.0
  0
LINE
  5
6BC
100
AcDbEntity
  8
0
  6
CONTINUOUS
 62
               4
100
AcDbLine
 10
-191.40620648572445
 20
105.10847905013289
 30
0.0
 11
-195.22438830172445
 21
105.10847905013289
 31
0.0
  0
LINE
  5
6BD
100
AcDbEntity
  8
0
  6
CONTINUOUS
 62
             200
100
AcDbLine
 10
-191.89408527332444
 20
105.95696389813291
 30
0.0
 11
-190.16176204199112
 21
102.9519133947996
 31
0.0
  0
LINE
  5
6BE
100
AcDbEntity
  8
0
  6
CONTINUOUS
 62
               4
100
AcDbLine
 10
-190.65671153665778
 20
103.80746894986625
 30
0.0
 11
-195.22438830172445
 21
103.80746894986625
 31
0.0
  0
LINE
  5
6BF
100
AcDbEntity
  8
0
  6
CONTINUOUS
 62
               4
100
AcDbLine
 10
-196.22135799812449
 20
101.95494369839953
 30
0.0
 11
-196.22135799812449
 21
102.55595379906624
 31
0.0
  0
LINE
  5
6C0
100
AcDbEntity
  8
0
  6
CONTINUOUS
 62
               4
100
AcDbLine
 10
-195.22438830172445
 20
106.05595379706621
 30
0.0
 11
-195.52135799852445
 21
106.35292349386624
 31
0.0
  0
LINE
  5
6C1
100
AcDbEntity
  8
0
  6
CONTINUOUS
 62
               4
100
AcDbLine
 10
-195.22438830172445
 20
107.95797399799956
 30
0.0
 11
-195.22438830172445
 21
108.95494369439957
 31
0.0
  0
LINE
  5
6C2
100
AcDbEntity
  8
0
  6
CONTINUOUS
 62
               4
100
AcDbLine
 10
-195.22438830172445
 20
101.95494369839953
 30
0.0
 11
-195.22438830172445
 21
106.05595379706621
 31
0.0
  0
LINE
  5
6C3
100
AcDbEntity
  8
0
  6
CONTINUOUS
 62
             200
100
AcDbLine
 10
-191.5476206270578
 20
105.95696389813291
 30
0.0
 11
-189.81529739572446
 21
102.95898410186625
 31
0.0
  0
LINE
  5
6C4
100
AcDbEntity
  8
0
  6
CONTINUOUS
 62
               4
100
AcDbLine
 10
-187.7223681039911
 20
103.80746894986625
 30
0.0
 11
-190.31024689039111
 21
103.80746894986625
 31
0.0
  0
LINE
  5
6C5
100
AcDbEntity
  8
0
  6
CONTINUOUS
 62
               4
100
AcDbLine
 10
-187.7223681039911
 20
105.10847905013289
 30
0.0
 11
-191.05974183945779
 21
105.10847905013289
 31
0.0
  0
ARC
  5
6C6
100
AcDbEntity
  8
0
  6
CONTINUOUS
 62
               4
100
AcDbCircle
 10
-208.33133723639682
 20
87.952923504666245
 30
0.0
 40
0.5
100
AcDbArc
 50
269.99999999999937
 51
295.03102081721772
  0
LINE
  5
6C7
100
AcDbEntity
  8
0
  6
CONTINUOUS
 62
               7
100
AcDbLine
 10
-244.91832768188556
 20
77.952923811864665
 30
0.0
 11
-227.91832768652444
 21
77.952923811864665
 31
0.0
  0
LINE
  5
6C8
100
AcDbEntity
  8
0
  6
CONTINUOUS
 62
               7
100
AcDbLine
 10
-227.21832768652442
 20
73.452923809842119
 30
0.0
 11
-227.91832768652444
 21
73.452923809842119
 31
0.0
  0
LINE
  5
6C9
100
AcDbEntity
  8
0
  6
CENTER
 62
               2
100
AcDbLine
 10
-230.41832768188556
 20
62.652923810853366
 30
0.0
 11
-242.41832768188556
 21
62.652923810853366
 31
0.0
  0
LINE
  5
6CA
100
AcDbEntity
  8
0
  6
CONTINUOUS
 62
               7
100
AcDbLine
 10
-210.2183276773894
 20
64.802923814111452
 30
0.0
 11
-209.21832768652445
 21
64.802923814111452
 31
0.0
  0
LINE
  5
6CB
100
AcDbEntity
  8
0
  6
CONTINUOUS
 62
               7
100
AcDbLine
 10
-210.2183276773894
 20
61.502923814111455
 30
0.0
 11
-209.21832768652445
 21
61.502923814111455
 31
0.0
  0
ARC
  5
6CC
100
AcDbEntity
  8
0
  6
CONTINUOUS
 62
               7
100
AcDbCircle
 10
-210.21823253986631
 20
62.252828667453258
 30
0.0
 40
0.5999048608870732
100
AcDbArc
 50
269.99091272245317
 51
0.0090872775463741
  0
LINE
  5
6CD
100
AcDbEntity
  8
0
  6
CONTINUOUS
 62
               7
100
AcDbLine
 10
-209.61832768652448
 20
62.252828667453258
 30
0.0
 11
-209.61832768652448
 21
64.05401181934846
 31
0.0
  0
ARC
  5
6CE
100
AcDbEntity
  8
0
  6
CONTINUOUS
 62
               7
100
AcDbCircle
 10
-210.21723968128745
 20
64.05401181934846
 30
0.0
 40
0.5989129830170392
100
AcDbArc
 50
359.89591452477219
 51
90.104085475226924
  0
LINE
  5
6CF
100
AcDbEntity
  8
0
  6
CONTINUOUS
 62
               7
100
AcDbLine
 10
-210.21832768652445
 20
61.502923814111455
 30
0.0
 11
-210.21832768652445
 21
64.802923814111452
 31
0.0
  0
LINE
  5
6D0
100
AcDbEntity
  8
0
  6
CENTER
 62
               2
100
AcDbLine
 10
-236.41832768188556
 20
56.652923810853366
 30
0.0
 11
-236.41832768188556
 21
68.652923810853366
 31
0.0
  0
ENDSEC
  0
SECTION
  2
OBJECTS
  0
DICTIONARY
  5
19
100
AcDbDictionary
  3
ACAD_GROUP
350
1A
  3
ACAD_MLINESTYLE
350
1B
  0
DICTIONARY
  5
1A
102
{ACAD_REACTORS
330
19
102
}
100
AcDbDictionary
  0
DICTIONARY
  5
1B
102
{ACAD_REACTORS
330
19
102
}
100
AcDbDictionary
  3
STANDARD
350
1C
  0
MLINESTYLE
  5
1C
102
{ACAD_REACTORS
330
1B
102
}
100
AcDbMlineStyle
  2
Standard
 70
               0
  3

 62
               0
 51
90.0
 52
90.0
 71
               2
 49
0.5
 62
             256
  6
ByLayer
 49
-0.5
 62
             256
  6
ByLayer
  0
ENDSEC
  0
EOF
