  0
SECTION
  2
HEADER
  9
$ACADVER
  1
AC1009
  9
$INSBASE
 10
0.0
 20
0.0
 30
0.0
  9
$EXTMIN
 10
-194.25
 20
-133.5
 30
0.0
  9
$EXTMAX
 10
194.80000305
 20
132.6000061
 30
0.0
  9
$LIMMIN
 10
-194.25
 20
-133.5
  9
$LIMMAX
 10
194.80000305
 20
132.6000061
  9
$ORTHOMODE
 70
       0
  9
$REGENMODE
 70
       1
  9
$FILLMODE
 70
       1
  9
$QTEXTMODE
 70
       0
  9
$MIRRTEXT
 70
       1
  9
$DRAGMODE
 70
       2
  9
$LTSCALE
 40
1.0
  9
$OSMODE
 70
       0
  9
$ATTMODE
 70
       1
  9
$TEXTSIZE
 40
3.20000005
  9
$TRACEWID
 40
0.05
  9
$TEXTSTYLE
  7
MX_NOTE_STANDARD
  9
$CLAYER
  8
0
  9
$CELTYPE
  6
CONTINUOUS
  9
$CECOLOR
 62
     256
  9
$DIMSCALE
 40
1.0
  9
$DIMASZ
 40
2.5
  9
$DIMEXO
 40
1.5
  9
$DIMDLI
 40
3.75
  9
$DIMRND
 40
0.0
  9
$DIMDLE
 40
0.0
  9
$DIMEXE
 40
1.5
  9
$DIMTP
 40
0.0
  9
$DIMTM
 40
0.0
  9
$DIMTXT
 40
3.20000005
  9
$DIMCEN
 40
2.5
  9
$DIMTSZ
 40
0.0
  9
$DIMTOL
 70
       0
  9
$DIMLIM
 70
       0
  9
$DIMTIH
 70
       0
  9
$DIMTOH
 70
       0
  9
$DIMSE1
 70
       0
  9
$DIMSE2
 70
       0
  9
$DIMTAD
 70
       1
  9
$DIMZIN
 70
       8
  9
$DIMBLK
  1

  9
$DIMASO
 70
       1
  9
$DIMSHO
 70
       1
  9
$DIMPOST
  1

  9
$DIMAPOST
  1

  9
$DIMALT
 70
       0
  9
$DIMALTD
 70
       4
  9
$DIMALTF
 40
0.0394
  9
$DIMLFAC
 40
1.0
  9
$DIMTOFL
 70
       1
  9
$DIMTVP
 40
0.0
  9
$DIMTIX
 70
       0
  9
$DIMSOXD
 70
       0
  9
$DIMSAH
 70
       0
  9
$DIMBLK1
  1

  9
$DIMBLK2
  1

  9
$DIMSTYLE
  2
MXDIMSTYLE
  9
$DIMCLRD
 70
       0
  9
$DIMCLRE
 70
       0
  9
$DIMCLRT
 70
       0
  9
$DIMTFAC
 40
1.0
  9
$DIMGAP
 40
1.0
  9
$LUNITS
 70
       2
  9
$LUPREC
 70
       4
  9
$AXISMODE
 70
       0
  9
$AXISUNIT
 10
0.0
 20
0.0
  9
$SKETCHINC
 40
0.1
  9
$FILLETRAD
 40
0.0
  9
$AUNITS
 70
       0
  9
$AUPREC
 70
       0
  9
$MENU
  1
acad
  9
$ELEVATION
 40
0.0
  9
$PELEVATION
 40
0.0
  9
$THICKNESS
 40
0.0
  9
$LIMCHECK
 70
       0
  9
$BLIPMODE
 70
       1
  9
$CHAMFERA
 40
0.0
  9
$CHAMFERB
 40
0.0
  9
$SKPOLY
 70
       0
  9
$TDCREATE
 40
2452776.788564815
  9
$TDUPDATE
 40
2452776.788564815
  9
$TDINDWG
 40
0.0000000000
  9
$TDUSRTIMER
 40
0.0000000000
  9
$USRTIMER
 70
       1
  9
$ANGBASE
 50
0.0
  9
$ANGDIR
 70
       0
  9
$PDMODE
 70
       0
  9
$PDSIZE
 40
0.0
  9
$PLINEWID
 40
0.0
  9
$COORDS
 70
       1
  9
$SPLFRAME
 70
       0
  9
$SPLINETYPE
 70
       6
  9
$SPLINESEGS
 70
       8
  9
$ATTDIA
 70
       0
  9
$ATTREQ
 70
       1
  9
$HANDLING
 70
       1
  9
$HANDSEED
  5
130
  9
$SURFTAB1
 70
       6
  9
$SURFTAB2
 70
       6
  9
$SURFTYPE
 70
       6
  9
$SURFU
 70
       6
  9
$SURFV
 70
       6
  9
$UCSNAME
  2

  9
$UCSORG
 10
0.0
 20
0.0
 30
0.0
  9
$UCSXDIR
 10
1.0
 20
0.0
 30
0.0
  9
$UCSYDIR
 10
0.0
 20
1.0
 30
0.0
  9
$PUCSNAME
  2

  9
$PUCSORG
 10
0.0
 20
0.0
 30
0.0
  9
$PUCSXDIR
 10
1.0
 20
0.0
 30
0.0
  9
$PUCSYDIR
 10
0.0
 20
1.0
 30
0.0
  9
$USERI1
 70
       0
  9
$USERI2
 70
       0
  9
$USERI3
 70
       0
  9
$USERI4
 70
       0
  9
$USERI5
 70
       0
  9
$USERR1
 40
0.0
  9
$USERR2
 40
0.0
  9
$USERR3
 40
0.0
  9
$USERR4
 40
0.0
  9
$USERR5
 40
0.0
  9
$WORLDVIEW
 70
       1
  9
$SHADEDGE
 70
       3
  9
$SHADEDIF
 70
      70
  9
$TILEMODE
 70
       1
  9
$MAXACTVP
 70
      16
  9
$PINSBASE
 10
0.0
 20
0.0
 30
0.0
  9
$PLIMCHECK
 70
       0
  9
$PEXTMIN
 10
1.00000000E+20
 20
1.00000000E+20
 30
1.00000000E+20
  9
$PEXTMAX
 10
-1.00000000E+20
 20
-1.00000000E+20
 30
-1.00000000E+20
  9
$PLIMMIN
 10
0.0
 20
0.0
  9
$PLIMMAX
 10
12.0
 20
9.0
  9
$UNITMODE
 70
       0
  9
$VISRETAIN
 70
       0
  9
$PLINEGEN
 70
       1
  9
$PSLTSCALE
 70
       0
  9
$TREEDEPTH
 70
    3020
  9
$DWGCODEPAGE
  3
dos932
  0
ENDSEC
  0
SECTION
  2
TABLES
  0
TABLE
  2
VPORT
 70
       1
  0
VPORT
  2
*ACTIVE
 70
       0
 10
0.0
 20
0.0
 11
1.0
 21
1.0
 12
0.27500153
 22
-0.44999695
 13
0.0
 23
0.0
 14
1.0
 24
1.0
 15
0.0
 25
0.0
 16
0.0
 26
0.0
 36
1.0
 17
0.0
 27
0.0
 37
0.0
 40
268.76100616
 41
1.73205081
 42
50.0
 43
0.0
 44
0.0
 50
0.0
 51
0.0
 71
       0
 72
     100
 73
       1
 74
       1
 75
       0
 76
       0
 77
       0
 78
       0
  0
ENDTAB
  0
TABLE
  2
LTYPE
 70
       3
  0
LTYPE
  2
CONTINUOUS
 70
      64
  3
Solid line
 72
      65
 73
       0
 40
0.0
  0
LTYPE
  2
CENTER
 70
      64
  3
Center ____ _ ____ _ ____ _ ____ _ ____ _ ____
 72
      65
 73
       4
 40
50.8
 49
31.75
 49
-6.35
 49
6.35
 49
-6.35
  0
LTYPE
  2
DASHED
 70
      64
  3
Dashed __ __ __ __ __ __ __ __ __ __ __ __ __ _
 72
      65
 73
       2
 40
19.05
 49
12.7
 49
-6.35
  0
ENDTAB
  0
TABLE
  2
LAYER
 70
       2
  0
LAYER
  2
0
 70
       0
 62
       7
  6
CONTINUOUS
  0
LAYER
  2
DEFPOINTS
 70
       0
 62
       7
  6
CONTINUOUS
  0
ENDTAB
  0
TABLE
  2
STYLE
 70
       1
  0
STYLE
  2
MX_NOTE_STANDARD
 70
       0
 40
3.20000005
 41
1.0
 50
0.0
 71
       0
 42
3.20000005
  3
txt.shx
  4
extfont.shx
  0
ENDTAB
  0
TABLE
  2
VIEW
 70
       0
  0
ENDTAB
  0
TABLE
  2
UCS
 70
       0
  0
ENDTAB
  0
TABLE
  2
APPID
 70
       1
  0
APPID
  2
ACAD
 70
       0
  0
ENDTAB
  0
TABLE
  2
DIMSTYLE
 70
       1
  0
DIMSTYLE
  2
MXDIMSTYLE
 70
       0
  3

  4

  5

  6

  7

 40
1.0
 41
2.5
 42
1.5
 43
3.75
 44
1.5
 45
0.0
 46
0.0
 47
0.0
 48
0.0
 71
       0
 72
       0
 73
       0
 74
       0
 75
       0
 76
       0
 77
       1
 78
       8
140
3.20000005
141
2.5
142
0.0
143
0.0394
144
1.0
145
0.0
146
1.0
147
1.0
170
       0
171
       4
172
       1
173
       0
174
       0
175
       0
176
       0
177
       0
178
       0
  0
ENDTAB
  0
ENDSEC
  0
SECTION
  2
BLOCKS
  0
ENDSEC
  0
SECTION
  2
ENTITIES
  0
LINE
  8
0
  6
CONTINUOUS
 62
       7
  5
1E
 10
22.82206804
 20
-102.97759714
 30
0.0
 11
27.82206804
 21
-102.97759714
 31
0.0
  0
LINE
  8
0
  6
CONTINUOUS
 62
       7
  5
1F
 10
22.82206804
 20
-102.97759714
 30
0.0
 11
22.82206804
 21
-114.97758414
 31
0.0
  0
LINE
  8
0
  6
CONTINUOUS
 62
       7
  5
20
 10
23.82206804
 20
-102.97759714
 30
0.0
 11
23.82206804
 21
-114.97758414
 31
0.0
  0
LINE
  8
0
  6
CONTINUOUS
 62
       7
  5
21
 10
22.82206804
 20
-114.97758414
 30
0.0
 11
27.82206804
 21
-114.97758414
 31
0.0
  0
LINE
  8
0
  6
CENTER
 62
       2
  5
23
 10
0.32206804
 20
-108.97758214
 30
0.0
 11
32.82207804
 21
-108.97758214
 31
0.0
  0
LINE
  8
0
  6
DASHED
 62
       2
  5
25
 10
27.82207804
 20
-98.88141514
 30
0.0
 11
27.82207804
 21
-119.12767414
 31
0.0
  0
LINE
  8
0
  6
CONTINUOUS
 62
       7
  5
26
 10
5.32206804
 20
-103.97757614
 30
0.0
 11
22.82206804
 21
-103.97757614
 31
0.0
  0
LINE
  8
0
  6
CONTINUOUS
 62
       7
  5
27
 10
5.32206804
 20
-113.97758714
 30
0.0
 11
22.82206804
 21
-113.97758714
 31
0.0
  0
LINE
  8
0
  6
CONTINUOUS
 62
       7
  5
28
 10
5.32206804
 20
-103.97757614
 30
0.0
 11
5.32206804
 21
-113.97758714
 31
0.0
  0
LINE
  8
0
  6
CONTINUOUS
 62
       7
  5
29
 10
20.32206804
 20
-103.97757614
 30
0.0
 11
20.32206804
 21
-113.97758714
 31
0.0
  0
LINE
  8
0
  6
CONTINUOUS
 62
       2
  5
2A
 10
5.32206804
 20
-104.65408414
 30
0.0
 11
20.32206804
 21
-104.65408414
 31
0.0
  0
LINE
  8
0
  6
CONTINUOUS
 62
       2
  5
2B
 10
5.32206804
 20
-113.30110114
 30
0.0
 11
20.32206804
 21
-113.30110114
 31
0.0
  0
LINE
  8
0
  6
CONTINUOUS
 62
       7
  5
2C
 10
17.52206804
 20
-99.17758914
 30
0.0
 11
17.52206804
 21
-118.77759414
 31
0.0
  0
LINE
  8
0
  6
CONTINUOUS
 62
       7
  5
2D
 10
11.52206804
 20
-99.17758914
 30
0.0
 11
11.52206804
 21
-118.77759414
 31
0.0
  0
LINE
  8
0
  6
CONTINUOUS
 62
       7
  5
2E
 10
11.52206804
 20
-99.17758914
 30
0.0
 11
17.52206804
 21
-99.17758914
 31
0.0
  0
LINE
  8
0
  6
CONTINUOUS
 62
       7
  5
2F
 10
11.52206804
 20
-118.77759414
 30
0.0
 11
17.52206804
 21
-118.77759414
 31
0.0
  0
LINE
  8
0
  6
CONTINUOUS
 62
       7
  5
30
 10
-88.79121496
 20
-63.06416598
 30
0.0
 11
-79.87797696
 21
-63.06416598
 31
0.0
  0
LINE
  8
0
  6
CONTINUOUS
 62
       7
  5
31
 10
-52.17796396
 20
-26.45094598
 30
0.0
 11
-52.17796396
 21
-35.36416598
 31
0.0
  0
LINE
  8
0
  6
CONTINUOUS
 62
       7
  5
32
 10
-92.17795696
 20
-59.67745598
 30
0.0
 11
-92.17795696
 21
-50.76421598
 31
0.0
  0
LINE
  8
0
  6
CONTINUOUS
 62
       7
  5
33
 10
-91.17791896
 20
-47.06416598
 30
0.0
 11
-89.57795096
 21
-47.06416598
 31
0.0
  0
LINE
  8
0
  6
CONTINUOUS
 62
       7
  5
34
 10
-91.17791896
 20
-51.26418598
 30
0.0
 11
-89.57795096
 21
-51.26418598
 31
0.0
  0
LINE
  8
0
  6
CONTINUOUS
 62
       7
  5
35
 10
-91.17813996
 20
-51.26421598
 30
0.0
 11
-91.67816296
 21
-50.76419598
 31
0.0
  0
LINE
  8
0
  6
CONTINUOUS
 62
       7
  5
36
 10
-91.67786496
 20
-47.56419598
 30
0.0
 11
-91.17786496
 21
-47.06419598
 31
0.0
  0
LINE
  8
0
  6
CONTINUOUS
 62
       7
  5
37
 10
-92.17797996
 20
-50.76417598
 30
0.0
 11
-91.67794896
 21
-50.76417598
 31
0.0
  0
LINE
  8
0
  6
CONTINUOUS
 62
       7
  5
38
 10
-92.17797996
 20
-47.56413598
 30
0.0
 11
-91.67794896
 21
-47.56413598
 31
0.0
  0
LINE
  8
0
  6
CONTINUOUS
 62
       7
  5
39
 10
-92.17795696
 20
-47.56415598
 30
0.0
 11
-92.17795696
 21
-38.56418598
 31
0.0
  0
LINE
  8
0
  6
CONTINUOUS
 62
       7
  5
3A
 10
-92.17797996
 20
-35.36414598
 30
0.0
 11
-91.67794896
 21
-35.36414598
 31
0.0
  0
LINE
  8
0
  6
CONTINUOUS
 62
       7
  5
3B
 10
-91.17787996
 20
-34.86416598
 30
0.0
 11
-91.67787996
 21
-35.36416598
 31
0.0
  0
LINE
  8
0
  6
CONTINUOUS
 62
       7
  5
3C
 10
-91.17791896
 20
-34.86415598
 30
0.0
 11
-89.57795096
 21
-34.86415598
 31
0.0
  0
LINE
  8
0
  6
CONTINUOUS
 62
       7
  5
3D
 10
-91.17791896
 20
-39.06417598
 30
0.0
 11
-89.57795096
 21
-39.06417598
 31
0.0
  0
LINE
  8
0
  6
CONTINUOUS
 62
       7
  5
3E
 10
-91.67813196
 20
-38.56426598
 30
0.0
 11
-91.17811696
 21
-39.06428598
 31
0.0
  0
LINE
  8
0
  6
CONTINUOUS
 62
       7
  5
3F
 10
-92.17797996
 20
-38.56416598
 30
0.0
 11
-91.67794896
 21
-38.56416598
 31
0.0
  0
LINE
  8
0
  6
CONTINUOUS
 62
       7
  5
40
 10
-92.17795696
 20
-35.36418598
 30
0.0
 11
-92.17795696
 21
-26.45094598
 31
0.0
  0
LINE
  8
0
  6
CONTINUOUS
 62
       7
  5
41
 10
-77.75462496
 20
-23.06416598
 30
0.0
 11
-66.60125096
 21
-23.06416598
 31
0.0
  0
LINE
  8
0
  6
CONTINUOUS
 62
       7
  5
42
 10
-88.79121496
 20
-23.06416598
 30
0.0
 11
-82.11789796
 21
-23.06416598
 31
0.0
  0
LINE
  8
0
  6
CONTINUOUS
 62
       7
  5
43
 10
-62.23806896
 20
-23.06416598
 30
0.0
 11
-55.56470596
 21
-23.06416598
 31
0.0
  0
LINE
  8
0
  6
CONTINUOUS
 62
       7
  5
44
 10
-53.17800996
 20
-34.86421598
 30
0.0
 11
-52.67800996
 21
-35.36421598
 31
0.0
  0
LINE
  8
0
  6
CONTINUOUS
 62
       7
  5
45
 10
-52.17798696
 20
-35.36414598
 30
0.0
 11
-52.67793396
 21
-35.36414598
 31
0.0
  0
LINE
  8
0
  6
CONTINUOUS
 62
       7
  5
46
 10
-53.17791896
 20
-34.86415598
 30
0.0
 11
-54.77797796
 21
-34.86415598
 31
0.0
  0
LINE
  8
0
  6
CONTINUOUS
 62
       7
  5
47
 10
-53.17791896
 20
-39.06417598
 30
0.0
 11
-54.77797796
 21
-39.06417598
 31
0.0
  0
LINE
  8
0
  6
CONTINUOUS
 62
       7
  5
48
 10
-52.67794896
 20
-38.56414598
 30
0.0
 11
-53.17794896
 21
-39.06414598
 31
0.0
  0
LINE
  8
0
  6
CONTINUOUS
 62
       7
  5
49
 10
-52.17798696
 20
-38.56416598
 30
0.0
 11
-52.67793396
 21
-38.56416598
 31
0.0
  0
LINE
  8
0
  6
CONTINUOUS
 62
       7
  5
4A
 10
-52.17798696
 20
-47.56413598
 30
0.0
 11
-52.67793396
 21
-47.56413598
 31
0.0
  0
LINE
  8
0
  6
CONTINUOUS
 62
       7
  5
4B
 10
-52.67805596
 20
-47.56418598
 30
0.0
 11
-53.17804096
 21
-47.06419598
 31
0.0
  0
LINE
  8
0
  6
CONTINUOUS
 62
       7
  5
4C
 10
-53.17791896
 20
-47.06416598
 30
0.0
 11
-54.77797796
 21
-47.06416598
 31
0.0
  0
LINE
  8
0
  6
CONTINUOUS
 62
       7
  5
4D
 10
-53.17791896
 20
-51.26418598
 30
0.0
 11
-54.77797796
 21
-51.26418598
 31
0.0
  0
LINE
  8
0
  6
CONTINUOUS
 62
       7
  5
4E
 10
-53.17785796
 20
-51.26424598
 30
0.0
 11
-52.67788796
 21
-50.76427598
 31
0.0
  0
LINE
  8
0
  6
CONTINUOUS
 62
       7
  5
4F
 10
-52.17798696
 20
-50.76417598
 30
0.0
 11
-52.67793396
 21
-50.76417598
 31
0.0
  0
LINE
  8
0
  6
CONTINUOUS
 62
       7
  5
50
 10
-76.17796396
 20
-62.06420598
 30
0.0
 11
-76.17796396
 21
-60.46419598
 31
0.0
  0
LINE
  8
0
  6
CONTINUOUS
 62
       7
  5
51
 10
-80.37792296
 20
-62.06420598
 30
0.0
 11
-80.37792296
 21
-60.46419598
 31
0.0
  0
LINE
  8
0
  6
CONTINUOUS
 62
       7
  5
52
 10
-80.37815196
 20
-62.06424598
 30
0.0
 11
-79.87815196
 21
-62.56424598
 31
0.0
  0
LINE
  8
0
  6
CONTINUOUS
 62
       7
  5
53
 10
-79.87795396
 20
-63.06418598
 30
0.0
 11
-79.87795396
 21
-62.56419598
 31
0.0
  0
LINE
  8
0
  6
CONTINUOUS
 62
       7
  5
54
 10
-76.67791096
 20
-62.56427598
 30
0.0
 11
-76.17792596
 21
-62.06428598
 31
0.0
  0
LINE
  8
0
  6
CONTINUOUS
 62
       7
  5
55
 10
-76.67791096
 20
-63.06418598
 30
0.0
 11
-76.67791096
 21
-62.56419598
 31
0.0
  0
LINE
  8
0
  6
CONTINUOUS
 62
       7
  5
56
 10
-67.67792596
 20
-63.06418598
 30
0.0
 11
-67.67792596
 21
-62.56419598
 31
0.0
  0
LINE
  8
0
  6
CONTINUOUS
 62
       7
  5
57
 10
-68.17795696
 20
-62.06420598
 30
0.0
 11
-68.17795696
 21
-60.46419598
 31
0.0
  0
LINE
  8
0
  6
CONTINUOUS
 62
       7
  5
58
 10
-67.67813996
 20
-62.56427598
 30
0.0
 11
-68.17816296
 21
-62.06425598
 31
0.0
  0
LINE
  8
0
  6
CONTINUOUS
 62
       7
  5
59
 10
-63.97795996
 20
-62.06420598
 30
0.0
 11
-63.97795996
 21
-60.46419598
 31
0.0
  0
LINE
  8
0
  6
CONTINUOUS
 62
       7
  5
5A
 10
-63.97782996
 20
-62.06427598
 30
0.0
 11
-64.47782996
 21
-62.56428598
 31
0.0
  0
LINE
  8
0
  6
CONTINUOUS
 62
       7
  5
5B
 10
-64.47794496
 20
-63.06418598
 30
0.0
 11
-64.47794496
 21
-62.56419598
 31
0.0
  0
LINE
  8
0
  6
CONTINUOUS
 62
       7
  5
5C
 10
-76.67795696
 20
-63.06416598
 30
0.0
 11
-67.67792596
 21
-63.06416598
 31
0.0
  0
LINE
  8
0
  6
CONTINUOUS
 62
       7
  5
5D
 10
-64.47794496
 20
-63.06416598
 30
0.0
 11
-55.56470596
 21
-63.06416598
 31
0.0
  0
LINE
  8
0
  6
CENTER
 62
       2
  5
5E
 10
20.82208804
 20
-43.06416598
 30
0.0
 11
92.32206804
 21
-43.06416598
 31
0.0
  0
LINE
  8
0
  6
CONTINUOUS
 62
       7
  5
5F
 10
27.82207804
 20
76.93583902
 30
0.0
 11
27.82207804
 21
36.93583902
 31
0.0
  0
LINE
  8
0
  6
CONTINUOUS
 62
       7
  5
60
 10
90.32206804
 20
76.93583902
 30
0.0
 11
90.32206804
 21
36.93583902
 31
0.0
  0
LINE
  8
0
  6
CONTINUOUS
 62
       7
  5
61
 10
27.82207804
 20
36.93583902
 30
0.0
 11
90.32206804
 21
36.93583902
 31
0.0
  0
LINE
  8
0
  6
CONTINUOUS
 62
       7
  5
62
 10
27.82207804
 20
76.93583902
 30
0.0
 11
90.32206804
 21
76.93583902
 31
0.0
  0
LINE
  8
0
  6
CONTINUOUS
 62
       7
  5
63
 10
22.82208804
 20
-37.06416598
 30
0.0
 11
27.82207804
 21
-37.06416598
 31
0.0
  0
LINE
  8
0
  6
CENTER
 62
       2
  5
64
 10
-58.17792596
 20
-24.57610598
 30
0.0
 11
-58.17792596
 21
-33.81236598
 31
0.0
  0
LINE
  8
0
  6
CENTER
 62
       2
  5
65
 10
-86.17793396
 20
-22.70208598
 30
0.0
 11
-86.17793396
 21
-35.01711598
 31
0.0
  0
LINE
  8
0
  6
CENTER
 62
       2
  5
66
 10
-90.15126096
 20
-57.06417598
 30
0.0
 11
-82.11975196
 21
-57.06417598
 31
0.0
  0
LINE
  8
0
  6
CENTER
 62
       2
  5
67
 10
-91.75757696
 20
-29.06416598
 30
0.0
 11
-80.11189396
 21
-29.06416598
 31
0.0
  0
LINE
  8
0
  6
CENTER
 62
       2
  5
68
 10
-86.17793396
 20
-52.95415598
 30
0.0
 11
-86.17793396
 21
-61.38726598
 31
0.0
  0
LINE
  8
0
  6
CENTER
 62
       2
  5
69
 10
-63.64723296
 20
-57.06417598
 30
0.0
 11
-52.00151196
 21
-57.06417598
 31
0.0
  0
LINE
  8
0
  6
CENTER
 62
       2
  5
6A
 10
-58.17792596
 20
-51.61555598
 30
0.0
 11
-58.17792596
 21
-63.52902598
 31
0.0
  0
LINE
  8
0
  6
CENTER
 62
       2
  5
6B
 10
-62.44251396
 20
-29.06416598
 30
0.0
 11
-53.87553496
 21
-29.06416598
 31
0.0
  0
LINE
  8
0
  6
CONTINUOUS
 62
       7
  5
6C
 10
-80.77459096
 20
-24.12386598
 30
0.0
 11
-80.60360096
 21
-24.59365598
 31
0.0
  0
LINE
  8
0
  6
CONTINUOUS
 62
       7
  5
6D
 10
-80.90215396
 20
-25.23435598
 30
0.0
 11
-80.60331796
 21
-24.59349598
 31
0.0
  0
LINE
  8
0
  6
CONTINUOUS
 62
       7
  5
6E
 10
-76.95567396
 20
-23.79806598
 30
0.0
 11
-76.40844796
 21
-25.30156598
 31
0.0
  0
LINE
  8
0
  6
CONTINUOUS
 62
       7
  5
6F
 10
-77.59644396
 20
-23.49921598
 30
0.0
 11
-76.95562896
 21
-23.79803598
 31
0.0
  0
LINE
  8
0
  6
CONTINUOUS
 62
       7
  5
70
 10
-77.75485296
 20
-23.06417598
 30
0.0
 11
-77.59652096
 21
-23.49917598
 31
0.0
  0
LINE
  8
0
  6
CONTINUOUS
 62
       7
  5
71
 10
-80.77447596
 20
-24.12376598
 30
0.0
 11
-81.92810896
 21
-23.58582598
 31
0.0
  0
LINE
  8
0
  6
CONTINUOUS
 62
       7
  5
72
 10
-80.90229096
 20
-25.23463598
 30
0.0
 11
-80.35509596
 21
-26.73802598
 31
0.0
  0
LINE
  8
0
  6
CONTINUOUS
 62
       7
  5
73
 10
-67.40030796
 20
-23.79805598
 30
0.0
 11
-67.94754096
 21
-25.30155598
 31
0.0
  0
LINE
  8
0
  6
CONTINUOUS
 62
       7
  5
74
 10
-66.75946196
 20
-23.49915598
 30
0.0
 11
-67.40027696
 21
-23.79797598
 31
0.0
  0
LINE
  8
0
  6
CONTINUOUS
 62
       7
  5
75
 10
-66.60110596
 20
-23.06419598
 30
0.0
 11
-66.75943096
 21
-23.49917598
 31
0.0
  0
LINE
  8
0
  6
CONTINUOUS
 62
       7
  5
76
 10
-63.58152096
 20
-24.12379598
 30
0.0
 11
-62.42803296
 21
-23.58590598
 31
0.0
  0
LINE
  8
0
  6
CONTINUOUS
 62
       7
  5
77
 10
-63.58151396
 20
-24.12378598
 30
0.0
 11
-63.75252596
 21
-24.59361598
 31
0.0
  0
LINE
  8
0
  6
CONTINUOUS
 62
       7
  5
78
 10
-63.45376696
 20
-25.23439598
 30
0.0
 11
-63.75258696
 21
-24.59357598
 31
0.0
  0
LINE
  8
0
  6
CONTINUOUS
 62
       7
  5
79
 10
-63.45375896
 20
-25.23464598
 30
0.0
 11
-64.00093996
 21
-26.73802598
 31
0.0
  0
LINE
  8
0
  6
CONTINUOUS
 62
       7
  5
7A
 10
23.82208804
 20
-49.06415598
 30
0.0
 11
23.82208804
 21
-37.06415598
 31
0.0
  0
LINE
  8
0
  6
CONTINUOUS
 62
       7
  5
7B
 10
22.82208804
 20
-49.06415598
 30
0.0
 11
22.82208804
 21
-37.06416598
 31
0.0
  0
LINE
  8
0
  6
CONTINUOUS
 62
       7
  5
7C
 10
22.82208804
 20
-49.06415598
 30
0.0
 11
27.82207804
 21
-49.06415598
 31
0.0
  0
LINE
  8
0
  6
CONTINUOUS
 62
       7
  5
7D
 10
27.82207804
 20
40.32253402
 30
0.0
 11
90.32206804
 21
40.32253402
 31
0.0
  0
LINE
  8
0
  6
CONTINUOUS
 62
       7
  5
7E
 10
-82.11793596
 20
-23.06417598
 30
0.0
 11
-81.92808596
 21
-23.58578598
 31
0.0
  0
LINE
  8
0
  6
CONTINUOUS
 62
       7
  5
7F
 10
-62.23808396
 20
-23.06418598
 30
0.0
 11
-62.42797996
 21
-23.58591598
 31
0.0
  0
LINE
  8
0
  6
CONTINUOUS
 62
       7
  5
80
 10
27.82207804
 20
51.51731302
 30
0.0
 11
90.32206804
 21
51.51731302
 31
0.0
  0
LINE
  8
0
  6
CONTINUOUS
 62
       7
  5
81
 10
27.82207804
 20
51.35900302
 30
0.0
 11
90.32206804
 21
51.35900302
 31
0.0
  0
LINE
  8
0
  6
CONTINUOUS
 62
       7
  5
82
 10
27.82207804
 20
48.51045402
 30
0.0
 11
90.32206804
 21
48.51045402
 31
0.0
  0
LINE
  8
0
  6
CONTINUOUS
 62
       7
  5
83
 10
27.82207804
 20
48.33940302
 30
0.0
 11
90.32206804
 21
48.33940302
 31
0.0
  0
LINE
  8
0
  6
CONTINUOUS
 62
       7
  5
84
 10
27.82207804
 20
47.18588402
 30
0.0
 11
90.32206804
 21
47.18588402
 31
0.0
  0
LINE
  8
0
  6
CONTINUOUS
 62
       7
  5
85
 10
27.82207804
 20
46.99598102
 30
0.0
 11
90.32206804
 21
46.99598102
 31
0.0
  0
LINE
  8
0
  6
CONTINUOUS
 62
       7
  5
86
 10
27.82207804
 20
73.54914302
 30
0.0
 11
90.32206804
 21
73.54914302
 31
0.0
  0
LINE
  8
0
  6
CONTINUOUS
 62
       7
  5
87
 10
27.82207804
 20
62.35436402
 30
0.0
 11
90.32206804
 21
62.35436402
 31
0.0
  0
LINE
  8
0
  6
CONTINUOUS
 62
       7
  5
88
 10
27.82207804
 20
62.51267402
 30
0.0
 11
90.32206804
 21
62.51267402
 31
0.0
  0
LINE
  8
0
  6
CONTINUOUS
 62
       7
  5
89
 10
27.82207804
 20
65.36122302
 30
0.0
 11
90.32206804
 21
65.36122302
 31
0.0
  0
LINE
  8
0
  6
CONTINUOUS
 62
       7
  5
8A
 10
27.82207804
 20
65.53227402
 30
0.0
 11
90.32206804
 21
65.53227402
 31
0.0
  0
LINE
  8
0
  6
CONTINUOUS
 62
       7
  5
8B
 10
27.82207804
 20
66.68579302
 30
0.0
 11
90.32206804
 21
66.68579302
 31
0.0
  0
LINE
  8
0
  6
CONTINUOUS
 62
       7
  5
8C
 10
27.82207804
 20
66.87569602
 30
0.0
 11
90.32206804
 21
66.87569602
 31
0.0
  0
LINE
  8
0
  6
CENTER
 62
       2
  5
8D
 10
37.82207804
 20
60.34976402
 30
0.0
 11
37.82207804
 21
53.50167302
 31
0.0
  0
LINE
  8
0
  6
CENTER
 62
       2
  5
8E
 10
83.32207804
 20
60.62368902
 30
0.0
 11
83.32207804
 21
53.31906302
 31
0.0
  0
LINE
  8
0
  6
CONTINUOUS
 62
       7
  5
8F
 10
22.82208804
 20
51.93584602
 30
0.0
 11
27.32207804
 21
51.93584602
 31
0.0
  0
LINE
  8
0
  6
CONTINUOUS
 62
       7
  5
90
 10
22.82208804
 20
61.93584602
 30
0.0
 11
27.32207804
 21
61.93584602
 31
0.0
  0
LINE
  8
0
  6
CONTINUOUS
 62
       7
  5
91
 10
27.82207804
 20
-47.56415598
 30
0.0
 11
90.32206804
 21
-47.56415598
 31
0.0
  0
LINE
  8
0
  6
CONTINUOUS
 62
       7
  5
92
 10
27.82207804
 20
-59.67744598
 30
0.0
 11
90.32206804
 21
-59.67744598
 31
0.0
  0
LINE
  8
0
  6
CONTINUOUS
 62
       7
  5
93
 10
27.82207804
 20
-63.06417598
 30
0.0
 11
90.32206804
 21
-63.06417598
 31
0.0
  0
LINE
  8
0
  6
CONTINUOUS
 62
       7
  5
94
 10
27.82207804
 20
-50.76421598
 30
0.0
 11
90.32206804
 21
-50.76421598
 31
0.0
  0
LINE
  8
0
  6
CONTINUOUS
 62
       7
  5
95
 10
23.82208804
 20
51.93584602
 30
0.0
 11
23.82208804
 21
61.93584602
 31
0.0
  0
LINE
  8
0
  6
CONTINUOUS
 62
       7
  5
96
 10
22.82208804
 20
51.93584602
 30
0.0
 11
22.82208804
 21
61.93584602
 31
0.0
  0
LINE
  8
0
  6
CENTER
 62
       2
  5
97
 10
20.82208804
 20
56.93583902
 30
0.0
 11
92.32206804
 21
56.93583902
 31
0.0
  0
LINE
  8
0
  6
CONTINUOUS
 62
       7
  5
98
 10
27.82207804
 20
-23.06417598
 30
0.0
 11
27.82207804
 21
-63.06417598
 31
0.0
  0
LINE
  8
0
  6
CONTINUOUS
 62
       7
  5
99
 10
90.32206804
 20
-23.06417598
 30
0.0
 11
90.32206804
 21
-63.06417598
 31
0.0
  0
LINE
  8
0
  6
CONTINUOUS
 62
       7
  5
9A
 10
27.82207804
 20
-23.06417598
 30
0.0
 11
90.32206804
 21
-23.06417598
 31
0.0
  0
LINE
  8
0
  6
CONTINUOUS
 62
       7
  5
9B
 10
27.82207804
 20
-26.45091598
 30
0.0
 11
90.32206804
 21
-26.45091598
 31
0.0
  0
LINE
  8
0
  6
CONTINUOUS
 62
       7
  5
9C
 10
27.82207804
 20
-35.36418598
 30
0.0
 11
90.32206804
 21
-35.36418598
 31
0.0
  0
LINE
  8
0
  6
CONTINUOUS
 62
       7
  5
9D
 10
27.82207804
 20
-38.56418598
 30
0.0
 11
90.32206804
 21
-38.56418598
 31
0.0
  0
LINE
  8
0
  6
CONTINUOUS
 62
       7
  5
9E
 10
27.32207804
 20
61.93583902
 30
0.0
 11
27.82207804
 21
62.43583902
 31
0.0
  0
LINE
  8
0
  6
CONTINUOUS
 62
       7
  5
9F
 10
27.32207804
 20
51.93583902
 30
0.0
 11
27.82207804
 21
51.43583902
 31
0.0
  0
LINE
  8
0
  6
CENTER
 62
       2
  5
A0
 10
-50.17791896
 20
-43.06416598
 30
0.0
 11
-94.17791896
 21
-43.06416598
 31
0.0
  0
LINE
  8
0
  6
CENTER
 62
       2
  5
A1
 10
-72.17791896
 20
-21.06418598
 30
0.0
 11
-72.17791896
 21
-65.06417598
 31
0.0
  0
LINE
  8
0
  6
DASHED
 62
       2
  5
A2
 10
27.82207804
 20
-52.56417598
 30
0.0
 11
33.22207804
 21
-52.56417598
 31
0.0
  0
LINE
  8
0
  6
DASHED
 62
       2
  5
A3
 10
33.22207804
 20
-52.56417598
 30
0.0
 11
33.22207804
 21
-61.56417598
 31
0.0
  0
LINE
  8
0
  6
DASHED
 62
       2
  5
A4
 10
33.22207804
 20
-54.31417598
 30
0.0
 11
84.92206804
 21
-54.31417598
 31
0.0
  0
LINE
  8
0
  6
CENTER
 62
       2
  5
A5
 10
26.82207804
 20
-57.06417598
 30
0.0
 11
91.32206804
 21
-57.06417598
 31
0.0
  0
LINE
  8
0
  6
DASHED
 62
       2
  5
A6
 10
33.22207804
 20
-59.81417598
 30
0.0
 11
84.92206804
 21
-59.81417598
 31
0.0
  0
LINE
  8
0
  6
DASHED
 62
       2
  5
A7
 10
27.82207804
 20
-61.56417598
 30
0.0
 11
33.22207804
 21
-61.56417598
 31
0.0
  0
LINE
  8
0
  6
DASHED
 62
       2
  5
A8
 10
90.32206804
 20
-61.56417598
 30
0.0
 11
84.92206804
 21
-61.56417598
 31
0.0
  0
LINE
  8
0
  6
DASHED
 62
       2
  5
A9
 10
84.92206804
 20
-52.56417598
 30
0.0
 11
84.92206804
 21
-61.56417598
 31
0.0
  0
LINE
  8
0
  6
DASHED
 62
       2
  5
AA
 10
90.32206804
 20
-52.56417598
 30
0.0
 11
84.92206804
 21
-52.56417598
 31
0.0
  0
LINE
  8
0
  6
DASHED
 62
       2
  5
AB
 10
27.82207804
 20
-26.06416598
 30
0.0
 11
37.82207804
 21
-26.06416598
 31
0.0
  0
LINE
  8
0
  6
DASHED
 62
       2
  5
AC
 10
37.82207804
 20
-26.06416598
 30
0.0
 11
37.82207804
 21
-32.06416598
 31
0.0
  0
LINE
  8
0
  6
CENTER
 62
       2
  5
AD
 10
26.82207804
 20
-29.06416598
 30
0.0
 11
91.32206804
 21
-29.06416598
 31
0.0
  0
LINE
  8
0
  6
DASHED
 62
       2
  5
AE
 10
27.82207804
 20
-32.06416598
 30
0.0
 11
37.82207804
 21
-32.06416598
 31
0.0
  0
LINE
  8
0
  6
DASHED
 62
       2
  5
AF
 10
90.32206804
 20
-26.06416598
 30
0.0
 11
80.32206804
 21
-26.06416598
 31
0.0
  0
LINE
  8
0
  6
DASHED
 62
       2
  5
B0
 10
80.32206804
 20
-26.06416598
 30
0.0
 11
80.32206804
 21
-32.06416598
 31
0.0
  0
LINE
  8
0
  6
DASHED
 62
       2
  5
B1
 10
90.32206804
 20
-32.06416598
 30
0.0
 11
80.32206804
 21
-32.06416598
 31
0.0
  0
LINE
  8
0
  6
DASHED
 62
       2
  5
B2
 10
27.82207804
 20
75.43583102
 30
0.0
 11
33.22207804
 21
75.43583102
 31
0.0
  0
LINE
  8
0
  6
DASHED
 62
       2
  5
B3
 10
33.22207804
 20
73.68583102
 30
0.0
 11
84.92206804
 21
73.68583102
 31
0.0
  0
LINE
  8
0
  6
DASHED
 62
       2
  5
B4
 10
33.22207804
 20
75.43583102
 30
0.0
 11
33.22207804
 21
66.43583102
 31
0.0
  0
LINE
  8
0
  6
DASHED
 62
       2
  5
B5
 10
33.22207804
 20
68.18583102
 30
0.0
 11
84.92206804
 21
68.18583102
 31
0.0
  0
LINE
  8
0
  6
DASHED
 62
       2
  5
B6
 10
27.82207804
 20
66.43583102
 30
0.0
 11
33.22207804
 21
66.43583102
 31
0.0
  0
LINE
  8
0
  6
CENTER
 62
       2
  5
B7
 10
26.82207804
 20
70.93583102
 30
0.0
 11
91.32206804
 21
70.93583102
 31
0.0
  0
LINE
  8
0
  6
DASHED
 62
       2
  5
B8
 10
90.32206804
 20
75.43583102
 30
0.0
 11
84.92206804
 21
75.43583102
 31
0.0
  0
LINE
  8
0
  6
DASHED
 62
       2
  5
B9
 10
84.92206804
 20
75.43583102
 30
0.0
 11
84.92206804
 21
66.43583102
 31
0.0
  0
LINE
  8
0
  6
DASHED
 62
       2
  5
BA
 10
90.32206804
 20
66.43583102
 30
0.0
 11
84.92206804
 21
66.43583102
 31
0.0
  0
LINE
  8
0
  6
DASHED
 62
       2
  5
BB
 10
27.82207804
 20
45.93584602
 30
0.0
 11
37.82207804
 21
45.93584602
 31
0.0
  0
LINE
  8
0
  6
DASHED
 62
       2
  5
BC
 10
27.82207804
 20
39.93584602
 30
0.0
 11
37.82207804
 21
39.93584602
 31
0.0
  0
LINE
  8
0
  6
DASHED
 62
       2
  5
BD
 10
90.32206804
 20
45.93584602
 30
0.0
 11
80.32206804
 21
45.93584602
 31
0.0
  0
LINE
  8
0
  6
DASHED
 62
       2
  5
BE
 10
90.32206804
 20
39.93584602
 30
0.0
 11
80.32206804
 21
39.93584602
 31
0.0
  0
LINE
  8
0
  6
CENTER
 62
       2
  5
BF
 10
26.82207804
 20
42.93584602
 30
0.0
 11
91.32206804
 21
42.93584602
 31
0.0
  0
LINE
  8
0
  6
DASHED
 62
       2
  5
C0
 10
80.32206804
 20
45.93584602
 30
0.0
 11
80.32206804
 21
39.93584602
 31
0.0
  0
LINE
  8
0
  6
DASHED
 62
       2
  5
C1
 10
37.82207804
 20
45.93584602
 30
0.0
 11
37.82207804
 21
39.93584602
 31
0.0
  0
LINE
  8
0
  6
DASHED
 62
       2
  5
C2
 10
-74.67791896
 20
-23.06414598
 30
0.0
 11
-74.67791896
 21
-26.56414598
 31
0.0
  0
LINE
  8
0
  6
DASHED
 62
       7
  5
C3
 10
-74.27791696
 20
-23.06414598
 30
0.0
 11
-74.27791696
 21
-26.56414598
 31
0.0
  0
LINE
  8
0
  6
DASHED
 62
       2
  5
C4
 10
-69.67791896
 20
-23.06414598
 30
0.0
 11
-69.67791896
 21
-26.56414598
 31
0.0
  0
LINE
  8
0
  6
DASHED
 62
       7
  5
C5
 10
-70.07791996
 20
-23.06414598
 30
0.0
 11
-70.07791996
 21
-26.56414598
 31
0.0
  0
LINE
  8
0
  6
CENTER
 62
       2
  5
C6
 10
37.82207804
 20
-22.06417598
 30
0.0
 11
37.82207804
 21
-26.56417598
 31
0.0
  0
LINE
  8
0
  6
DASHED
 62
       2
  5
C7
 10
35.32207804
 20
-23.06417598
 30
0.0
 11
35.32207804
 21
-26.56417598
 31
0.0
  0
LINE
  8
0
  6
DASHED
 62
       7
  5
C8
 10
35.72207804
 20
-23.06417598
 30
0.0
 11
35.72207804
 21
-26.56417598
 31
0.0
  0
LINE
  8
0
  6
DASHED
 62
       7
  5
C9
 10
39.92207804
 20
-23.06417598
 30
0.0
 11
39.92207804
 21
-26.56417598
 31
0.0
  0
LINE
  8
0
  6
DASHED
 62
       2
  5
CA
 10
40.32207804
 20
-23.06417598
 30
0.0
 11
40.32207804
 21
-26.56417598
 31
0.0
  0
LINE
  8
0
  6
DASHED
 62
       2
  5
CB
 10
80.82207804
 20
-23.06417598
 30
0.0
 11
80.82207804
 21
-26.56417598
 31
0.0
  0
LINE
  8
0
  6
DASHED
 62
       7
  5
CC
 10
81.22207804
 20
-23.06417598
 30
0.0
 11
81.22207804
 21
-26.56417598
 31
0.0
  0
LINE
  8
0
  6
CENTER
 62
       2
  5
CD
 10
83.32207804
 20
-22.06417598
 30
0.0
 11
83.32207804
 21
-26.56417598
 31
0.0
  0
LINE
  8
0
  6
DASHED
 62
       7
  5
CE
 10
85.42206804
 20
-23.06417598
 30
0.0
 11
85.42206804
 21
-26.56417598
 31
0.0
  0
LINE
  8
0
  6
DASHED
 62
       2
  5
CF
 10
85.82207804
 20
-23.06417598
 30
0.0
 11
85.82207804
 21
-26.56417598
 31
0.0
  0
LINE
  8
0
  6
CONTINUOUS
 62
       7
  5
D0
 10
56.62207804
 20
-47.66418598
 30
0.0
 11
56.62207804
 21
-50.66418598
 31
0.0
  0
LINE
  8
0
  6
CONTINUOUS
 62
       7
  5
D1
 10
56.62207804
 20
-47.81618598
 30
0.0
 11
101.57809804
 21
-47.81618598
 31
0.0
  0
LINE
  8
0
  6
CONTINUOUS
 62
       7
  5
D2
 10
56.62207804
 20
-50.51618598
 30
0.0
 11
101.20608804
 21
-50.51618598
 31
0.0
  0
LINE
  8
0
  6
CONTINUOUS
 62
       7
  5
D3
 10
46.72208804
 20
-48.56418598
 30
0.0
 11
48.72208804
 21
-48.56418598
 31
0.0
  0
LINE
  8
0
  6
CONTINUOUS
 62
       7
  5
D4
 10
46.72208804
 20
-50.06418598
 30
0.0
 11
48.72208804
 21
-50.06418598
 31
0.0
  0
LINE
  8
0
  6
CONTINUOUS
 62
       7
  5
D5
 10
46.72208804
 20
-48.56418598
 30
0.0
 11
46.72208804
 21
-50.06418598
 31
0.0
  0
LINE
  8
0
  6
CONTINUOUS
 62
       7
  5
D6
 10
48.72208804
 20
-48.56418598
 30
0.0
 11
48.72208804
 21
-50.06418598
 31
0.0
  0
LINE
  8
0
  6
CONTINUOUS
 62
       2
  5
D7
 10
47.72208804
 20
-48.05619598
 30
0.0
 11
47.72208804
 21
-50.84818598
 31
0.0
  0
LINE
  8
0
  6
CENTER
 62
       2
  5
D8
 10
36.12207804
 20
-46.32818598
 30
0.0
 11
36.12207804
 21
-51.91618598
 31
0.0
  0
LINE
  8
0
  6
CONTINUOUS
 62
       7
  5
D9
 10
34.12207804
 20
-47.66418598
 30
0.0
 11
34.12207804
 21
-50.66418598
 31
0.0
  0
LINE
  8
0
  6
CONTINUOUS
 62
       7
  5
DA
 10
34.12207804
 20
-47.66418598
 30
0.0
 11
56.62207804
 21
-47.66418598
 31
0.0
  0
LINE
  8
0
  6
CONTINUOUS
 62
       7
  5
DB
 10
34.12207804
 20
-50.66418598
 30
0.0
 11
56.62207804
 21
-50.66418598
 31
0.0
  0
LINE
  8
0
  6
CENTER
 62
       2
  5
DC
 10
32.35808804
 20
-49.16418598
 30
0.0
 11
103.86609804
 21
-49.16418598
 31
0.0
  0
LINE
  8
0
  6
CONTINUOUS
 62
       7
  5
DD
 10
86.12206804
 20
-35.46418598
 30
0.0
 11
86.12206804
 21
-38.46418598
 31
0.0
  0
LINE
  8
0
  6
CONTINUOUS
 62
       7
  5
DE
 10
86.12206804
 20
-35.61618598
 30
0.0
 11
101.57809804
 21
-35.61588598
 31
0.0
  0
LINE
  8
0
  6
CONTINUOUS
 62
       7
  5
DF
 10
86.12207804
 20
-38.31618598
 30
0.0
 11
101.20608804
 21
-38.31588598
 31
0.0
  0
LINE
  8
0
  6
CONTINUOUS
 62
       7
  5
E0
 10
76.22207804
 20
-36.36419598
 30
0.0
 11
78.22207804
 21
-36.36419598
 31
0.0
  0
LINE
  8
0
  6
CONTINUOUS
 62
       7
  5
E1
 10
76.22207804
 20
-37.86419598
 30
0.0
 11
78.22207804
 21
-37.86419598
 31
0.0
  0
LINE
  8
0
  6
CONTINUOUS
 62
       7
  5
E2
 10
76.22207804
 20
-36.36419598
 30
0.0
 11
76.22207804
 21
-37.86419598
 31
0.0
  0
LINE
  8
0
  6
CONTINUOUS
 62
       7
  5
E3
 10
78.22207804
 20
-36.36419598
 30
0.0
 11
78.22207804
 21
-37.86419598
 31
0.0
  0
LINE
  8
0
  6
CONTINUOUS
 62
       2
  5
E4
 10
77.22207804
 20
-35.85619598
 30
0.0
 11
77.22207804
 21
-38.64819598
 31
0.0
  0
LINE
  8
0
  6
CENTER
 62
       2
  5
E5
 10
65.62206804
 20
-34.12819598
 30
0.0
 11
65.62206804
 21
-39.71619598
 31
0.0
  0
LINE
  8
0
  6
CONTINUOUS
 62
       7
  5
E6
 10
63.62206804
 20
-35.46418598
 30
0.0
 11
63.62206804
 21
-38.46418598
 31
0.0
  0
LINE
  8
0
  6
CONTINUOUS
 62
       7
  5
E7
 10
63.62206804
 20
-35.46418598
 30
0.0
 11
86.12206804
 21
-35.46418598
 31
0.0
  0
LINE
  8
0
  6
CONTINUOUS
 62
       7
  5
E8
 10
63.62206804
 20
-38.46418598
 30
0.0
 11
86.12206804
 21
-38.46418598
 31
0.0
  0
LINE
  8
0
  6
CENTER
 62
       2
  5
E9
 10
61.85807804
 20
-36.96418598
 30
0.0
 11
103.86609804
 21
-36.96388598
 31
0.0
  0
LINE
  8
0
  6
CONTINUOUS
 62
       7
  5
EA
 10
-54.77396496
 20
-47.91616598
 30
0.0
 11
-55.77396496
 21
-47.91616598
 31
0.0
  0
LINE
  8
0
  6
CONTINUOUS
 62
       7
  5
EB
 10
-54.77396496
 20
-50.41616598
 30
0.0
 11
-55.77396496
 21
-50.41616598
 31
0.0
  0
LINE
  8
0
  6
CONTINUOUS
 62
       7
  5
EC
 10
-51.57796596
 20
-47.91616598
 30
0.0
 11
-51.57796596
 21
-50.41616598
 31
0.0
  0
LINE
  8
0
  6
CONTINUOUS
 62
       7
  5
ED
 10
-54.77396496
 20
-47.06420598
 30
0.0
 11
-54.77396496
 21
-51.26411598
 31
0.0
  0
LINE
  8
0
  6
CONTINUOUS
 62
       7
  5
EE
 10
-51.57796596
 20
-47.91616598
 30
0.0
 11
-52.17796396
 21
-47.91616598
 31
0.0
  0
LINE
  8
0
  6
CONTINUOUS
 62
       7
  5
EF
 10
-51.57796596
 20
-50.41616598
 30
0.0
 11
-52.17796396
 21
-50.41616598
 31
0.0
  0
LINE
  8
0
  6
CONTINUOUS
 62
       7
  5
F0
 10
-53.97795996
 20
-47.06413598
 30
0.0
 11
-53.97795996
 21
-51.26411598
 31
0.0
  0
LINE
  8
0
  6
CONTINUOUS
 62
       7
  5
F1
 10
-55.77396496
 20
-47.91616598
 30
0.0
 11
-55.77396496
 21
-50.41616598
 31
0.0
  0
LINE
  8
0
  6
CONTINUOUS
 62
       7
  5
F2
 10
-54.77396496
 20
-35.71618598
 30
0.0
 11
-55.77396496
 21
-35.71618598
 31
0.0
  0
LINE
  8
0
  6
CONTINUOUS
 62
       7
  5
F3
 10
-54.77396496
 20
-38.21618598
 30
0.0
 11
-55.77396496
 21
-38.21618598
 31
0.0
  0
LINE
  8
0
  6
CONTINUOUS
 62
       7
  5
F4
 10
-51.57796596
 20
-35.71618598
 30
0.0
 11
-51.57796596
 21
-38.21618598
 31
0.0
  0
LINE
  8
0
  6
CONTINUOUS
 62
       7
  5
F5
 10
-54.77396496
 20
-34.86421598
 30
0.0
 11
-54.77396496
 21
-39.06412598
 31
0.0
  0
LINE
  8
0
  6
CONTINUOUS
 62
       7
  5
F6
 10
-51.57796596
 20
-35.71618598
 30
0.0
 11
-52.17796396
 21
-35.71618598
 31
0.0
  0
LINE
  8
0
  6
CONTINUOUS
 62
       7
  5
F7
 10
-51.57796596
 20
-38.21618598
 30
0.0
 11
-52.17796396
 21
-38.21618598
 31
0.0
  0
LINE
  8
0
  6
CONTINUOUS
 62
       7
  5
F8
 10
-53.97795996
 20
-34.86414598
 30
0.0
 11
-53.97795996
 21
-39.06412598
 31
0.0
  0
LINE
  8
0
  6
CONTINUOUS
 62
       7
  5
F9
 10
-55.77396496
 20
-35.71618598
 30
0.0
 11
-55.77396496
 21
-38.21618598
 31
0.0
  0
LINE
  8
0
  6
CONTINUOUS
 62
       7
  5
FA
 10
101.20608804
 20
-38.31588598
 30
0.0
 11
101.57808804
 21
-35.61588598
 31
0.0
  0
LINE
  8
0
  6
CONTINUOUS
 62
       7
  5
FB
 10
101.20608804
 20
-50.51618598
 30
0.0
 11
101.57809804
 21
-47.81618598
 31
0.0
  0
LINE
  8
0
  6
CONTINUOUS
 62
       7
  5
FC
 10
-52.17796396
 20
-35.36416598
 30
0.0
 11
-52.17796396
 21
-38.56416598
 31
0.0
  0
LINE
  8
0
  6
CONTINUOUS
 62
       7
  5
FD
 10
-52.17796396
 20
-38.56416598
 30
0.0
 11
-52.17796396
 21
-47.56413598
 31
0.0
  0
LINE
  8
0
  6
CONTINUOUS
 62
       7
  5
FE
 10
-52.17796396
 20
-47.56413598
 30
0.0
 11
-52.17796396
 21
-50.76414598
 31
0.0
  0
LINE
  8
0
  6
CONTINUOUS
 62
       7
  5
FF
 10
-52.17796396
 20
-50.76414598
 30
0.0
 11
-52.17796396
 21
-59.67747598
 31
0.0
  0
LINE
  8
0
  6
DASHED
 62
       7
  5
100
 10
27.82207804
 20
-26.66416598
 30
0.0
 11
37.82207804
 21
-26.66416598
 31
0.0
  0
LINE
  8
0
  6
DASHED
 62
       7
  5
101
 10
27.82207804
 20
-31.46416598
 30
0.0
 11
37.82207804
 21
-31.46416598
 31
0.0
  0
LINE
  8
0
  6
DASHED
 62
       7
  5
102
 10
80.32206804
 20
-31.46416598
 30
0.0
 11
90.32206804
 21
-31.46416598
 31
0.0
  0
LINE
  8
0
  6
DASHED
 62
       7
  5
103
 10
80.32206804
 20
-26.66416598
 30
0.0
 11
90.32206804
 21
-26.66416598
 31
0.0
  0
LINE
  8
0
  6
DASHED
 62
       7
  5
104
 10
27.82207804
 20
45.33584802
 30
0.0
 11
37.82207804
 21
45.33584802
 31
0.0
  0
LINE
  8
0
  6
DASHED
 62
       7
  5
105
 10
27.82207804
 20
40.53584502
 30
0.0
 11
37.82207804
 21
40.53584502
 31
0.0
  0
LINE
  8
0
  6
DASHED
 62
       7
  5
106
 10
80.32206804
 20
40.53584502
 30
0.0
 11
90.32206804
 21
40.53584502
 31
0.0
  0
LINE
  8
0
  6
DASHED
 62
       7
  5
107
 10
80.32206804
 20
45.33584802
 30
0.0
 11
90.32206804
 21
45.33584802
 31
0.0
  0
ARC
  8
0
  6
CONTINUOUS
 62
       7
  5
108
 10
-89.57795096
 20
-49.16418598
 30
0.0
 40
2.0999999
 50
269.99998
 51
90.000003
  0
ARC
  8
0
  6
CONTINUOUS
 62
       7
  5
109
 10
-89.57795096
 20
-36.96417598
 30
0.0
 40
2.0999999
 50
269.99995
 51
90.000003
  0
ARC
  8
0
  6
CONTINUOUS
 62
       7
  5
10A
 10
-54.77793196
 20
-36.96417598
 30
0.0
 40
2.0999999
 50
89.999989
 51
270.0
  0
ARC
  8
0
  6
CONTINUOUS
 62
       7
  5
10B
 10
-54.77793196
 20
-49.16418598
 30
0.0
 40
2.0999999
 50
89.999975
 51
270.0
  0
ARC
  8
0
  6
CONTINUOUS
 62
       7
  5
10C
 10
-78.27796296
 20
-60.46419598
 30
0.0
 40
2.0999999
 50
359.99995
 51
179.99996
  0
ARC
  8
0
  6
CONTINUOUS
 62
       7
  5
10D
 10
-66.07791196
 20
-60.46419598
 30
0.0
 40
2.0999999
 50
359.99995
 51
179.99996
  0
ARC
  8
0
  6
CONTINUOUS
 62
       7
  5
10E
 10
-72.17791896
 20
-43.06418598
 30
0.0
 40
26.0
 50
39.71519
 51
50.284908
  0
ARC
  8
0
  6
CONTINUOUS
 62
       7
  5
10F
 10
-72.17791896
 20
-43.06418598
 30
0.0
 40
26.0
 50
219.71507
 51
230.2848
  0
ARC
  8
0
  6
CONTINUOUS
 62
       7
  5
110
 10
-72.17791896
 20
-43.06418598
 30
0.0
 40
26.0
 50
129.71511
 51
140.2849
  0
ARC
  8
0
  6
CONTINUOUS
 62
       7
  5
111
 10
-72.17791896
 20
-43.06418598
 30
0.0
 40
26.0
 50
309.71517
 51
320.28482
  0
CIRCLE
  8
0
  6
CONTINUOUS
 62
       7
  5
112
 10
-72.17791896
 20
-43.06418598
 30
0.0
 40
14.000001
  0
CIRCLE
  8
0
  6
CONTINUOUS
 62
       7
  5
113
 10
-72.17789596
 20
-43.06416598
 30
0.0
 40
6.0
  0
CIRCLE
  8
0
  6
CONTINUOUS
 62
       7
  5
114
 10
-72.17791896
 20
-43.06418598
 30
0.0
 40
9.0
  0
CIRCLE
  8
0
  6
CONTINUOUS
 62
       7
  5
115
 10
-86.17793396
 20
-29.06418598
 30
0.0
 40
2.75
  0
CIRCLE
  8
0
  6
CONTINUOUS
 62
       7
  5
116
 10
-86.17793396
 20
-29.06418598
 30
0.0
 40
4.5
  0
CIRCLE
  8
0
  6
CONTINUOUS
 62
       7
  5
117
 10
-58.17794896
 20
-57.06417598
 30
0.0
 40
2.75
  0
CIRCLE
  8
0
  6
CONTINUOUS
 62
       7
  5
118
 10
-58.17794896
 20
-57.06417598
 30
0.0
 40
4.5
  0
CIRCLE
  8
0
  6
CONTINUOUS
 62
       2
  5
119
 10
-86.17793396
 20
-57.06419598
 30
0.0
 40
3.0
  0
CIRCLE
  8
0
  6
CONTINUOUS
 62
       2
  5
11A
 10
-58.17794896
 20
-29.06416598
 30
0.0
 40
3.0
  0
CIRCLE
  8
0
  6
CONTINUOUS
 62
       2
  5
11B
 10
-72.17791896
 20
-43.06418598
 30
0.0
 40
3.0
  0
CIRCLE
  8
0
  6
CONTINUOUS
 62
       7
  5
11C
 10
-72.17791896
 20
-43.06418598
 30
0.0
 40
2.4000001
  0
ARC
  8
0
  6
CONTINUOUS
 62
       7
  5
11D
 10
-78.38163096
 20
-26.01971598
 30
0.0
 40
2.0999999
 50
199.99998
 51
19.999996
  0
ARC
  8
0
  6
CONTINUOUS
 62
       7
  5
11E
 10
-65.97425196
 20
-26.01977598
 30
0.0
 40
2.0999999
 50
159.99997
 51
340.00001
  0
CIRCLE
  8
0
  6
CONTINUOUS
 62
       7
  5
11F
 10
-72.17791896
 20
-43.06418598
 30
0.0
 40
8.5
  0
CIRCLE
  8
0
  6
CONTINUOUS
 62
       2
  5
120
 10
37.82207804
 20
56.93583902
 30
0.0
 40
2.5
  0
CIRCLE
  8
0
  6
CONTINUOUS
 62
       7
  5
121
 10
37.82207804
 20
56.93583902
 30
0.0
 40
2.0999999
  0
CIRCLE
  8
0
  6
CONTINUOUS
 62
       2
  5
122
 10
83.32207804
 20
56.93583902
 30
0.0
 40
2.5
  0
CIRCLE
  8
0
  6
CONTINUOUS
 62
       7
  5
123
 10
83.32207804
 20
56.93583902
 30
0.0
 40
2.0999999
  0
CIRCLE
  8
0
  6
CONTINUOUS
 62
       7
  5
124
 10
-72.17791896
 20
-43.06416598
 30
0.0
 40
5.4226499
  0
CIRCLE
  8
0
  6
CONTINUOUS
 62
       7
  5
125
 10
36.12429804
 20
-49.16292598
 30
0.0
 40
1.4
  0
CIRCLE
  8
0
  6
CONTINUOUS
 62
       7
  5
126
 10
65.62427804
 20
-36.96292598
 30
0.0
 40
1.4
  0
CIRCLE
  8
0
  6
CONTINUOUS
 62
       7
  5
127
 10
-58.17794896
 20
-29.06416598
 30
0.0
 40
2.4000001
  0
CIRCLE
  8
0
  6
CONTINUOUS
 62
       7
  5
128
 10
-86.17793396
 20
-57.06419598
 30
0.0
 40
2.4000001
  0
TEXT
  8
0
  6
CONTINUOUS
 62
       7
  5
129
 10
-185.7
 20
105.3500061
 30
0.0
 40
4.5
  1
MODEL:JCDAS25*STROKE(30)
 41
1.06666667
  7
MX_NOTE_STANDARD
 11
-185.7
 21
107.6000061
 31
0.0
 73
       2
  0
LINE
  8
0
  6
CONTINUOUS
 62
       7
  5
12A
 10
-194.25
 20
132.6000061
 30
0.0
 11
194.80000305
 21
132.6000061
 31
0.0
  0
LINE
  8
0
  6
CONTINUOUS
 62
       7
  5
12B
 10
194.80000305
 20
132.6000061
 30
0.0
 11
194.80000305
 21
-133.5
 31
0.0
  0
LINE
  8
0
  6
CONTINUOUS
 62
       7
  5
12C
 10
-194.25
 20
132.6000061
 30
0.0
 11
-194.25
 21
-133.5
 31
0.0
  0
LINE
  8
0
  6
CONTINUOUS
 62
       7
  5
12D
 10
-194.25
 20
-133.5
 30
0.0
 11
194.80000305
 21
-133.5
 31
0.0
  0
ENDSEC
  0
EOF
