  0
SECTION
  2
HEADER
  9
$ACADVER
  1
AC1012
  9
$DWGCODEPAGE
  3
dos932
  9
$INSBASE
 10
0.0
 20
0.0
 30
0.0
  9
$EXTMIN
 10
-281.25
 20
-195.0
 30
0.0
  9
$EXTMAX
 10
285.6319057062413
 20
195.5
 30
0.0
  9
$LIMMIN
 10
-281.25
 20
-195.0
  9
$LIMMAX
 10
285.6319057062413
 20
195.5
  9
$ORTHOMODE
 70
               0
  9
$REGENMODE
 70
               1
  9
$FILLMODE
 70
               1
  9
$QTEXTMODE
 70
               0
  9
$MIRRTEXT
 70
               1
  9
$DRAGMODE
 70
               2
  9
$LTSCALE
 40
1.0
  9
$OSMODE
 70
               0
  9
$ATTMODE
 70
               1
  9
$TEXTSIZE
 40
3.2000000476837158
  9
$TRACEWID
 40
0.05
  9
$TEXTSTYLE
  7
MX_NOTE_STANDARD
  9
$CLAYER
  8
0
  9
$CELTYPE
  6
CONTINUOUS
  9
$CECOLOR
 62
             256
  9
$CELTSCALE
 40
1.0
  9
$DELOBJ
 70
               1
  9
$DISPSILH
 70
               0
  9
$DIMSCALE
 40
1.0
  9
$DIMASZ
 40
2.5
  9
$DIMEXO
 40
1.5
  9
$DIMDLI
 40
3.75
  9
$DIMRND
 40
0.0
  9
$DIMDLE
 40
0.0
  9
$DIMEXE
 40
1.5
  9
$DIMTP
 40
0.0
  9
$DIMTM
 40
0.0
  9
$DIMTXT
 40
3.2000000476837158
  9
$DIMCEN
 40
2.5
  9
$DIMTSZ
 40
0.0
  9
$DIMTOL
 70
               0
  9
$DIMLIM
 70
               0
  9
$DIMTIH
 70
               0
  9
$DIMTOH
 70
               0
  9
$DIMSE1
 70
               0
  9
$DIMSE2
 70
               0
  9
$DIMTAD
 70
               1
  9
$DIMZIN
 70
               8
  9
$DIMBLK
  1

  9
$DIMASO
 70
               1
  9
$DIMSHO
 70
               1
  9
$DIMPOST
  1

  9
$DIMAPOST
  1

  9
$DIMALT
 70
               0
  9
$DIMALTD
 70
               4
  9
$DIMALTF
 40
0.03937007874016
  9
$DIMLFAC
 40
1.0
  9
$DIMTOFL
 70
               1
  9
$DIMTVP
 40
0.0
  9
$DIMTIX
 70
               0
  9
$DIMSOXD
 70
               0
  9
$DIMSAH
 70
               0
  9
$DIMBLK1
  1

  9
$DIMBLK2
  1

  9
$DIMSTYLE
  2
MXDIMSTYLE
  9
$DIMCLRD
 70
               0
  9
$DIMCLRE
 70
               0
  9
$DIMCLRT
 70
               0
  9
$DIMTFAC
 40
1.0
  9
$DIMGAP
 40
1.0
  9
$DIMJUST
 70
               0
  9
$DIMSD1
 70
               0
  9
$DIMSD2
 70
               0
  9
$DIMTOLJ
 70
               1
  9
$DIMTZIN
 70
               0
  9
$DIMALTZ
 70
               0
  9
$DIMALTTZ
 70
               0
  9
$DIMFIT
 70
               3
  9
$DIMUPT
 70
               1
  9
$DIMUNIT
 70
               2
  9
$DIMDEC
 70
               4
  9
$DIMTDEC
 70
               4
  9
$DIMALTU
 70
               2
  9
$DIMALTTD
 70
               4
  9
$DIMTXSTY
  7
MX_NOTE_STANDARD
  9
$DIMAUNIT
 70
               0
  9
$LUNITS
 70
               2
  9
$LUPREC
 70
               4
  9
$SKETCHINC
 40
0.1
  9
$FILLETRAD
 40
0.0
  9
$AUNITS
 70
               0
  9
$AUPREC
 70
               0
  9
$MENU
  1
acad
  9
$ELEVATION
 40
0.0
  9
$PELEVATION
 40
0.0
  9
$THICKNESS
 40
0.0
  9
$LIMCHECK
 70
               0
  9
$BLIPMODE
 70
               1
  9
$CHAMFERA
 40
0.0
  9
$CHAMFERB
 40
0.0
  9
$CHAMFERC
 40
0.0
  9
$CHAMFERD
 40
0.0
  9
$SKPOLY
 70
               0
  9
$TDCREATE
 40
2453378.356597222
  9
$TDUPDATE
 40
2453378.356597222
  9
$TDINDWG
 40
0.0000000000
  9
$TDUSRTIMER
 40
0.0000000000
  9
$USRTIMER
 70
               1
  9
$ANGBASE
 50
0.0
  9
$ANGDIR
 70
               0
  9
$PDMODE
 70
               0
  9
$PDSIZE
 40
0.0
  9
$PLINEWID
 40
0.0
  9
$COORDS
 70
               1
  9
$SPLFRAME
 70
               0
  9
$SPLINETYPE
 70
               6
  9
$SPLINESEGS
 70
               8
  9
$ATTDIA
 70
               0
  9
$ATTREQ
 70
               1
  9
$HANDLING
 70
               1
  9
$HANDSEED
  5
402
  9
$SURFTAB1
 70
               6
  9
$SURFTAB2
 70
               6
  9
$SURFTYPE
 70
               6
  9
$SURFU
 70
               6
  9
$SURFV
 70
               6
  9
$UCSNAME
  2

  9
$UCSORG
 10
0.0
 20
0.0
 30
0.0
  9
$UCSXDIR
 10
1.0
 20
0.0
 30
0.0
  9
$UCSYDIR
 10
0.0
 20
1.0
 30
0.0
  9
$PUCSNAME
  2

  9
$PUCSORG
 10
0.0
 20
0.0
 30
0.0
  9
$PUCSXDIR
 10
1.0
 20
0.0
 30
0.0
  9
$PUCSYDIR
 10
0.0
 20
1.0
 30
0.0
  9
$USERI1
 70
               0
  9
$USERI2
 70
               0
  9
$USERI3
 70
               0
  9
$USERI4
 70
               0
  9
$USERI5
 70
               0
  9
$USERR1
 40
0.0
  9
$USERR2
 40
0.0
  9
$USERR3
 40
0.0
  9
$USERR4
 40
0.0
  9
$USERR5
 40
0.0
  9
$WORLDVIEW
 70
               1
  9
$SHADEDGE
 70
               3
  9
$SHADEDIF
 70
              70
  9
$TILEMODE
 70
               1
  9
$MAXACTVP
 70
              16
  9
$PINSBASE
 10
0.0
 20
0.0
 30
0.0
  9
$PLIMCHECK
 70
               0
  9
$PEXTMIN
 10
1.0000000000000000E+20
 20
1.0000000000000000E+20
 30
1.0000000000000000E+20
  9
$PEXTMAX
 10
-1.0000000000000000E+20
 20
-1.0000000000000000E+20
 30
-1.0000000000000000E+20
  9
$PLIMMIN
 10
0.0
 20
0.0
  9
$PLIMMAX
 10
12.0
 20
9.0
  9
$UNITMODE
 70
               0
  9
$VISRETAIN
 70
               0
  9
$PLINEGEN
 70
               1
  9
$PSLTSCALE
 70
               0
  9
$TREEDEPTH
 70
            3020
  9
$PICKSTYLE
 70
               1
  9
$CMLSTYLE
  2
Standard
  9
$CMLJUST
 70
               0
  9
$CMLSCALE
 40
1.0
  9
$SAVEIMAGES
 70
               0
  0
ENDSEC
  0
SECTION
  2
CLASSES
  0
CLASS
  1
LWPOLYLINE
  2
AcDbPolyline
  3
"AutoCAD"
 90
        0
280
               0
281
               1
  0
CLASS
  1
IMAGE
  2
AcDbRasterImage
  3
ISM
 90
      127
280
               0
281
               1
  0
CLASS
  1
OLE2FRAME
  2
AcDbOle2Frame
  3
""
 90
        0
280
               0
281
               1
  0
CLASS
  1
HATCH
  2
AcDbHatch
  3
"ACAD_SEDONA"
 90
        0
280
               0
281
               1
  0
CLASS
  1
DICTIONARYVAR
  2
AcDbDictionaryVar
  3
"AutoCAD"
 90
        0
280
               0
281
               0
  0
CLASS
  1
RASTERVARIABLES
  2
AcDbRasterVariables
  3
ISM
 90
        0
280
               0
281
               0
  0
CLASS
  1
IMAGEDEF
  2
AcDbRasterImageDef
  3
ISM
 90
        0
280
               0
281
               0
  0
CLASS
  1
IMAGEDEF_REACTOR
  2
AcDbRasterImageDefReactor
  3
ISM
 90
        1
280
               0
281
               0
  0
CLASS
  1
IDBUFFER
  2
AcDbIdBuffer
  3
"Acad"
 90
        0
280
               0
281
               0
  0
CLASS
  1
SPATIAL_FILTER
  2
AcDbSpatialFilter
  3
"Acad"
 90
        0
280
               0
281
               0
  0
CLASS
  1
XRECORD
  2
AcDbXrecord
  3
"<Built In>"
 90
        0
280
               0
281
               0
  0
CLASS
  1
SORTENTSTABLE
  2
AcDbSortentsTable
  3
"AutoCAD"
 90
        0
280
               0
281
               0
  0
CLASS
  1
LAYER_INDEX
  2
AcDbLayerIndex
  3
"Acad"
 90
        0
280
               0
281
               0
  0
CLASS
  1
SPATIAL_INDEX
  2
AcDbSpatialIndex
  3
"Acad"
 90
        0
280
               0
281
               0
  0
CLASS
  1
OBJECT_PTR
  2
CAseDLPNTableRecord
  3
"ASE-LPNTableRecord"
 90
        1
280
               0
281
               0
  0
CLASS
  1
LAYOUT
  2
AcDbLayout
  3
"AutoCAD 2000"
 90
        1
280
               0
281
               0
  0
CLASS
  1
PLOTSETTINGS
  2
AcDbPlotSettings
  3
"AutoCAD 2000"
 90
        1
280
               0
281
               0
  0
CLASS
  1
ACDBDICTIONARYWDFLT
  2
AcDbDictionaryWithDefault
  3
"AutoCAD 2000"
 90
        1
280
               0
281
               0
  0
CLASS
  1
ACDBPLACEHOLDER
  2
AcDbPlaceHolder
  3
"AutoCAD 2000"
 90
        1
280
               0
281
               0
  0
ENDSEC
  0
SECTION
  2
TABLES
  0
TABLE
  2
VPORT
  5
7
100
AcDbSymbolTable
 70
               1
  0
VPORT
  5
15
100
AcDbSymbolTableRecord
100
AcDbViewportTableRecord
  2
*ACTIVE
 70
               0
 10
0.0
 20
0.0
 11
1.0
 21
1.0
 12
2.1909528531206206
 22
0.25
 13
0.0
 23
0.0
 14
1.0
 24
1.0
 15
0.0
 25
0.0
 16
0.0
 26
0.0
 36
1.0
 17
0.0
 27
0.0
 37
0.0
 40
394.40500000000003
 41
1.7320508075688772
 42
50.0
 43
0.0
 44
0.0
 50
0.0
 51
0.0
 71
               0
 72
             100
 73
               1
 74
               1
 75
               0
 76
               0
 77
               0
 78
               0
  0
ENDTAB
  0
TABLE
  2
LTYPE
  5
4
100
AcDbSymbolTable
 70
               6
  0
LTYPE
  5
11
100
AcDbSymbolTableRecord
100
AcDbLinetypeTableRecord
  2
BYBLOCK
 70
              64
  3

 72
              65
 73
               0
 40
0.0
  0
LTYPE
  5
12
100
AcDbSymbolTableRecord
100
AcDbLinetypeTableRecord
  2
BYLAYER
 70
              64
  3

 72
              65
 73
               0
 40
0.0
  0
LTYPE
  5
13
100
AcDbSymbolTableRecord
100
AcDbLinetypeTableRecord
  2
CONTINUOUS
 70
              64
  3
Solid line
 72
              65
 73
               0
 40
0.0
  0
LTYPE
  5
35
100
AcDbSymbolTableRecord
100
AcDbLinetypeTableRecord
  2
CENTER
 70
              64
  3
Center ____ _ ____ _ ____ _ ____ _ ____ _ ____
 72
              65
 73
               4
 40
26.0
 49
20.0
 74
               0
 49
-2.0
 74
               0
 49
2.0
 74
               0
 49
-2.0
 74
               0
  0
LTYPE
  5
8A
100
AcDbSymbolTableRecord
100
AcDbLinetypeTableRecord
  2
DASHED
 70
              64
  3
Dashed __ __ __ __ __ __ __ __ __ __ __ __ __ _
 72
              65
 73
               2
 40
4.0
 49
2.0
 74
               0
 49
-2.0
 74
               0
  0
LTYPE
  5
133
100
AcDbSymbolTableRecord
100
AcDbLinetypeTableRecord
  2
PHANTOM
 70
              64
  3
Phantom ______  __  __  ______  __  __  ______
 72
              65
 73
               6
 40
30.0
 49
20.0
 74
               0
 49
-2.0
 74
               0
 49
2.0
 74
               0
 49
-2.0
 74
               0
 49
2.0
 74
               0
 49
-2.0
 74
               0
  0
ENDTAB
  0
TABLE
  2
LAYER
  5
2
100
AcDbSymbolTable
 70
               2
  0
LAYER
  5
14
100
AcDbSymbolTableRecord
100
AcDbLayerTableRecord
  2
0
 70
               0
 62
               7
  6
CONTINUOUS
  0
LAYER
  5
1D
100
AcDbSymbolTableRecord
100
AcDbLayerTableRecord
  2
DEFPOINTS
 70
               0
 62
               7
  6
CONTINUOUS
  0
ENDTAB
  0
TABLE
  2
STYLE
  5
3
100
AcDbSymbolTable
 70
               1
  0
STYLE
  5
17
100
AcDbSymbolTableRecord
100
AcDbTextStyleTableRecord
  2
MX_NOTE_STANDARD
 70
               0
 40
0.0
 41
1.0
 50
0.0
 71
               0
 42
3.2000000476837158
  3
txt.shx
  4
extfont.shx
  0
ENDTAB
  0
TABLE
  2
VIEW
  5
5
100
AcDbSymbolTable
 70
               0
  0
ENDTAB
  0
TABLE
  2
UCS
  5
6
100
AcDbSymbolTable
 70
               0
  0
ENDTAB
  0
TABLE
  2
APPID
  5
8
100
AcDbSymbolTable
 70
               1
  0
APPID
  5
16
100
AcDbSymbolTableRecord
100
AcDbRegAppTableRecord
  2
ACAD
 70
               0
  0
ENDTAB
  0
TABLE
  2
DIMSTYLE
  5
9
100
AcDbSymbolTable
 70
               1
  0
DIMSTYLE
105
18
100
AcDbSymbolTableRecord
100
AcDbDimStyleTableRecord
  2
MXDIMSTYLE
 70
               0
  3

  4

  5

  6

  7

 40
1.0
 41
2.5
 42
1.5
 43
3.75
 44
1.5
 45
0.0
 46
0.0
 47
0.0
 48
0.0
 71
               0
 72
               0
 73
               0
 74
               0
 75
               0
 76
               0
 77
               1
 78
               8
140
3.2000000476837158
141
2.5
142
0.0
143
0.03937007874016
144
1.0
145
0.0
146
1.0
147
1.0
170
               0
171
               4
172
               1
173
               0
174
               0
175
               0
176
               0
177
               0
178
               0
270
               2
271
               4
272
               4
273
               2
274
               4
275
               0
280
               0
281
               0
282
               0
283
               1
284
               0
285
               0
286
               0
287
               3
288
               1
340
17
  0
ENDTAB
  0
TABLE
  2
BLOCK_RECORD
  5
1
100
AcDbSymbolTable
 70
               0
  0
BLOCK_RECORD
  5
A
100
AcDbSymbolTableRecord
100
AcDbBlockTableRecord
  2
*MODEL_SPACE
  0
BLOCK_RECORD
  5
B
100
AcDbSymbolTableRecord
100
AcDbBlockTableRecord
  2
*PAPER_SPACE
  0
ENDTAB
  0
ENDSEC
  0
SECTION
  2
BLOCKS
  0
BLOCK
  5
D
100
AcDbEntity
  8
0
100
AcDbBlockBegin
  2
*MODEL_SPACE
 70
               0
 10
0.0
 20
0.0
 30
0.0
  3
*MODEL_SPACE
  1

  0
ENDBLK
  5
E
100
AcDbEntity
  8
0
100
AcDbBlockEnd
  0
BLOCK
  5
F
100
AcDbEntity
 67
               1
  8
0
100
AcDbBlockBegin
  2
*PAPER_SPACE
 70
               0
 10
0.0
 20
0.0
 30
0.0
  3
*PAPER_SPACE
  1

  0
ENDBLK
  5
10
100
AcDbEntity
 67
               1
  8
0
100
AcDbBlockEnd
  0
ENDSEC
  0
SECTION
  2
ENTITIES
  0
MTEXT
  5
1E
100
AcDbEntity
  8
0
  6
CONTINUOUS
 62
               7
100
AcDbMText
 10
-268.27722776173874
 20
160.5
 30
0.0
 40
6.3000001907348633
 41
0.0
 71
               4
 72
               1
  1
\W1.069;\A1;MODEL:JC10F5-25-PL
  0
LINE
  5
1F
100
AcDbEntity
  8
0
  6
CONTINUOUS
 62
               7
100
AcDbLine
 10
-281.25
 20
-195.0
 30
0.0
 11
282.099853515625
 21
-195.0
 31
0.0
  0
LINE
  5
20
100
AcDbEntity
  8
0
  6
CONTINUOUS
 62
               7
100
AcDbLine
 10
-281.25
 20
195.5
 30
0.0
 11
-281.25
 21
-195.0
 31
0.0
  0
LINE
  5
21
100
AcDbEntity
  8
0
  6
CONTINUOUS
 62
               7
100
AcDbLine
 10
-281.25
 20
195.5
 30
0.0
 11
282.099853515625
 21
195.5
 31
0.0
  0
LINE
  5
22
100
AcDbEntity
  8
0
  6
CONTINUOUS
 62
               7
100
AcDbLine
 10
282.099853515625
 20
195.5
 30
0.0
 11
282.099853515625
 21
-195.0
 31
0.0
  0
LINE
  5
23
100
AcDbEntity
  8
0
  6
CONTINUOUS
 62
               7
100
AcDbLine
 10
162.0999755859375
 20
195.5
 30
0.0
 11
162.0999755859375
 21
175.5
 31
0.0
  0
LINE
  5
24
100
AcDbEntity
  8
0
  6
CONTINUOUS
 62
               7
100
AcDbLine
 10
162.0999755859375
 20
175.5
 30
0.0
 11
282.099853515625
 21
175.5
 31
0.0
  0
MTEXT
  5
25
100
AcDbEntity
  8
0
  6
CONTINUOUS
 62
               7
100
AcDbMText
 10
198.27702406779611
 20
185.5
 30
0.0
 40
6.3000001907348633
 41
0.0
 71
               4
 72
               1
  1
\W1.311;\A1;Ver. 1.0
  0
MTEXT
  5
26
100
AcDbEntity
  8
0
  6
CONTINUOUS
 62
               7
100
AcDbMText
 10
170.28099805280428
 20
-185.0
 30
0.0
 40
9.0
 41
0.0
 71
               4
 72
               1
  1
\W1.121;\A1;KOGANEI CORP.
  0
LINE
  5
27
100
AcDbEntity
  8
0
  6
CONTINUOUS
 62
               7
100
AcDbLine
 10
162.0999755859375
 20
-175.0
 30
0.0
 11
282.099853515625
 21
-175.0
 31
0.0
  0
LINE
  5
28
100
AcDbEntity
  8
0
  6
CONTINUOUS
 62
               7
100
AcDbLine
 10
162.0999755859375
 20
-175.0
 30
0.0
 11
162.0999755859375
 21
-195.0
 31
0.0
  0
LINE
  5
29
100
AcDbEntity
  8
0
  6
CONTINUOUS
 62
               7
100
AcDbLine
 10
-161.25
 20
195.5
 30
0.0
 11
-161.25
 21
175.5
 31
0.0
  0
LINE
  5
2A
100
AcDbEntity
  8
0
  6
CONTINUOUS
 62
               7
100
AcDbLine
 10
-281.25
 20
175.5
 30
0.0
 11
-161.25
 21
175.5
 31
0.0
  0
MTEXT
  5
2B
100
AcDbEntity
  8
0
  6
CONTINUOUS
 62
               7
100
AcDbMText
 10
-257.88333446177035
 20
185.5
 30
0.0
 40
6.3000001907348633
 41
0.0
 71
               4
 72
               1
  1
\W1.111;\A1;JC･JE SERIES
  0
LINE
  5
2C
100
AcDbEntity
  8
0
  6
CONTINUOUS
 62
               7
100
AcDbLine
 10
-281.25
 20
-38.799999999999983
 30
0.0
 11
282.099853515625
 21
-38.799999999999983
 31
0.0
  0
LINE
  5
2D
100
AcDbEntity
  8
0
  6
CONTINUOUS
 62
               7
100
AcDbLine
 10
0.4249267578125
 20
-38.799999999999983
 30
0.0
 11
0.4249267578125
 21
195.5
 31
0.0
  0
MTEXT
  5
2E
100
AcDbEntity
  8
0
  6
CONTINUOUS
 62
               7
100
AcDbMText
 10
13.397698996073721
 20
160.5
 30
0.0
 40
6.3000001907348633
 41
0.0
 71
               4
 72
               1
  1
\W1.069;\A1;MODEL:JC10F5-25-PS
  0
MTEXT
  5
2F
100
AcDbEntity
  8
0
  6
CONTINUOUS
 62
               7
100
AcDbMText
 10
-268.27722776173874
 20
-53.799999999999983
 30
0.0
 40
6.3000001907348633
 41
0.0
 71
               4
 72
               1
  1
\W1.069;\A1;MODEL:JC10F5-25-GL
  0
MTEXT
  5
30
100
AcDbEntity
  8
0
  6
CONTINUOUS
 62
               7
100
AcDbMText
 10
51.166927879969272
 20
150.5
 30
0.0
 40
6.3000001907348633
 41
0.0
 71
               4
 72
               1
  1
\W1.040;\A1;JC10LF5-25-PS
  0
MTEXT
  5
31
100
AcDbEntity
  8
0
  6
CONTINUOUS
 62
               7
100
AcDbMText
 10
51.166927879969272
 20
140.5
 30
0.0
 40
6.3000001907348633
 41
0.0
 71
               4
 72
               1
  1
\W1.040;\A1;JC10SF5-25-PS
  0
MTEXT
  5
32
100
AcDbEntity
  8
0
  6
CONTINUOUS
 62
               7
100
AcDbMText
 10
-230.50799887784322
 20
150.5
 30
0.0
 40
6.3000001907348633
 41
0.0
 71
               4
 72
               1
  1
\W1.040;\A1;JC10LF5-25-PL
  0
MTEXT
  5
33
100
AcDbEntity
  8
0
  6
CONTINUOUS
 62
               7
100
AcDbMText
 10
-230.50799887784322
 20
140.5
 30
0.0
 40
6.3000001907348633
 41
0.0
 71
               4
 72
               1
  1
\W1.040;\A1;JC10SF5-25-PL
  0
LINE
  5
34
100
AcDbEntity
  8
0
  6
CONTINUOUS
 62
               4
100
AcDbLine
 10
-124.03263877208545
 20
-141.51391457596807
 30
0.0
 11
-134.63263877208544
 21
-141.51391457596807
 31
0.0
  0
LINE
  5
36
100
AcDbEntity
  8
0
  6
CENTER
 62
             200
100
AcDbLine
 10
-140.33263877208546
 20
-148.82815054548652
 30
0.0
 11
-140.33263877208546
 21
-143.626387452015
 31
0.0
  0
LINE
  5
37
100
AcDbEntity
  8
0
  6
CENTER
 62
             200
100
AcDbLine
 10
-118.33263877208546
 20
-148.82815054548652
 30
0.0
 11
-118.33263877208546
 21
-143.626387452015
 31
0.0
  0
LINE
  5
38
100
AcDbEntity
  8
0
  6
CONTINUOUS
 62
               4
100
AcDbLine
 10
-143.33263877208546
 20
-145.31391457596808
 30
0.0
 11
-136.23263877208544
 21
-145.31391457596808
 31
0.0
  0
LINE
  5
39
100
AcDbEntity
  8
0
  6
CONTINUOUS
 62
               4
100
AcDbLine
 10
-143.33263877208546
 20
-146.51391457596807
 30
0.0
 11
-136.23263877208544
 21
-146.51391457596807
 31
0.0
  0
LINE
  5
3A
100
AcDbEntity
  8
0
  6
CONTINUOUS
 62
               4
100
AcDbLine
 10
-143.33263877208546
 20
-146.51391457596807
 30
0.0
 11
-143.33263877208546
 21
-145.31391457596808
 31
0.0
  0
LINE
  5
3B
100
AcDbEntity
  8
0
  6
CONTINUOUS
 62
               4
100
AcDbLine
 10
-134.63263877208544
 20
-142.71391457596806
 30
0.0
 11
-124.03263877208545
 21
-142.71391457596806
 31
0.0
  0
LINE
  5
3C
100
AcDbEntity
  8
0
  6
CONTINUOUS
 62
               4
100
AcDbLine
 10
-134.83263877208546
 20
-145.11391457596804
 30
0.0
 11
-134.83263877208546
 21
-142.91391457596805
 31
0.0
  0
LINE
  5
3D
100
AcDbEntity
  8
0
  6
CONTINUOUS
 62
               4
100
AcDbLine
 10
-136.03263877208545
 20
-145.11391457596804
 30
0.0
 11
-136.03263877208545
 21
-142.91391457596805
 31
0.0
  0
LINE
  5
3E
100
AcDbEntity
  8
0
  6
CONTINUOUS
 62
               4
100
AcDbLine
 10
-134.36263877208543
 20
-143.24791457596805
 30
0.0
 11
-134.36263877208543
 21
-142.71391457596806
 31
0.0
  0
LINE
  5
3F
100
AcDbEntity
  8
0
  6
CONTINUOUS
 62
               4
100
AcDbLine
 10
-130.90263877208545
 20
-143.24791457596805
 30
0.0
 11
-130.90263877208545
 21
-142.71391457596806
 31
0.0
  0
LINE
  5
40
100
AcDbEntity
  8
0
  6
CONTINUOUS
 62
               4
100
AcDbLine
 10
-127.76263877208547
 20
-143.24791457596805
 30
0.0
 11
-127.76263877208547
 21
-142.71391457596806
 31
0.0
  0
LINE
  5
41
100
AcDbEntity
  8
0
  6
CONTINUOUS
 62
               4
100
AcDbLine
 10
-124.30263877208543
 20
-143.24791457596805
 30
0.0
 11
-124.30263877208543
 21
-142.71391457596806
 31
0.0
  0
ARC
  5
42
100
AcDbEntity
  8
0
  6
CONTINUOUS
 62
               4
100
AcDbCircle
 10
-136.23269718546808
 20
-145.11385616258545
 30
0.0
 40
0.2000584219104543
100
AcDbArc
 50
270.01672931490481
 51
359.98327068509366
  0
ARC
  5
43
100
AcDbEntity
  8
0
  6
CONTINUOUS
 62
               4
100
AcDbCircle
 10
-124.03352324378275
 20
-142.91479904766535
 30
0.0
 40
0.2008864188024893
100
AcDbArc
 50
0.2522652321918488
 51
89.747734767807131
  0
ARC
  5
44
100
AcDbEntity
  8
0
  6
CONTINUOUS
 62
               4
100
AcDbCircle
 10
-134.63270541315282
 20
-142.9138479349007
 30
0.0
 40
0.1999333700389205
100
AcDbArc
 50
89.980902377767208
 51
180.01909762223218
  0
ARC
  5
45
100
AcDbEntity
  8
0
  6
CONTINUOUS
 62
               4
100
AcDbCircle
 10
-136.23269545669532
 20
-145.11385789135815
 30
0.0
 40
1.4000566857574084
100
AcDbArc
 50
270.00231975529556
 51
359.99768024470291
  0
ARC
  5
46
100
AcDbEntity
  8
0
  6
CONTINUOUS
 62
               4
100
AcDbCircle
 10
-132.63363877208545
 20
-139.4070384770591
 30
0.0
 40
4.6140039015894576
100
AcDbArc
 50
253.80344035273558
 51
286.19655964726314
  0
ARC
  5
47
100
AcDbEntity
  8
0
  6
CONTINUOUS
 62
               4
100
AcDbCircle
 10
-133.74879745333871
 20
-143.24861650327981
 30
0.0
 40
0.613841720073419
100
AcDbArc
 50
179.93448232673219
 51
253.74313632481389
  0
ARC
  5
48
100
AcDbEntity
  8
0
  6
CONTINUOUS
 62
               4
100
AcDbCircle
 10
-131.51741674524953
 20
-143.24733250802765
 30
0.0
 40
0.6147782487131708
100
AcDbArc
 50
286.12822533946951
 51
359.94575273046883
  0
ARC
  5
49
100
AcDbEntity
  8
0
  6
CONTINUOUS
 62
               4
100
AcDbCircle
 10
-126.03363877208542
 20
-139.40703847709082
 30
0.0
 40
4.6140039015589682
100
AcDbArc
 50
253.80344035262561
 51
286.19655964737319
  0
ARC
  5
4A
100
AcDbEntity
  8
0
  6
CONTINUOUS
 62
               4
100
AcDbCircle
 10
-127.14879940748901
 20
-143.24861796723647
 30
0.0
 40
0.6138397676001843
100
AcDbArc
 50
179.93434547259068
 51
253.74327317895529
  0
ARC
  5
4B
100
AcDbEntity
  8
0
  6
CONTINUOUS
 62
               4
100
AcDbCircle
 10
-124.91741869611886
 20
-143.24733103991579
 30
0.0
 40
0.6147802009733803
100
AcDbArc
 50
286.12836199114588
 51
359.94561607879228
  0
LINE
  5
4C
100
AcDbEntity
  8
0
  6
CONTINUOUS
 62
               4
100
AcDbLine
 10
-115.33263877208546
 20
-146.51391457596807
 30
0.0
 11
-115.33263877208546
 21
-145.31391457596808
 31
0.0
  0
LINE
  5
4D
100
AcDbEntity
  8
0
  6
CONTINUOUS
 62
               4
100
AcDbLine
 10
-122.43263877208543
 20
-145.31391457596808
 30
0.0
 11
-115.33263877208546
 21
-145.31391457596808
 31
0.0
  0
LINE
  5
4E
100
AcDbEntity
  8
0
  6
CONTINUOUS
 62
               4
100
AcDbLine
 10
-122.43263877208543
 20
-146.51391457596807
 30
0.0
 11
-115.33263877208546
 21
-146.51391457596807
 31
0.0
  0
ARC
  5
4F
100
AcDbEntity
  8
0
  6
CONTINUOUS
 62
               4
100
AcDbCircle
 10
-122.43353543203924
 20
-145.11481123592185
 30
0.0
 40
0.1991053590856348
100
AcDbArc
 50
179.74197075907335
 51
270.25802924092562
  0
ARC
  5
50
100
AcDbEntity
  8
0
  6
CONTINUOUS
 62
               4
100
AcDbCircle
 10
-122.43353543849062
 20
-145.11481124237324
 30
0.0
 40
1.3991036209254675
100
AcDbArc
 50
179.96327991479848
 51
270.03672008520033
  0
LINE
  5
51
100
AcDbEntity
  8
0
  6
CONTINUOUS
 62
               4
100
AcDbLine
 10
-122.63263877208547
 20
-145.11391457596804
 30
0.0
 11
-122.63263877208547
 21
-142.91391457596805
 31
0.0
  0
LINE
  5
52
100
AcDbEntity
  8
0
  6
CONTINUOUS
 62
               4
100
AcDbLine
 10
-123.83263877208546
 20
-145.11391457596804
 30
0.0
 11
-123.83263877208546
 21
-142.91391457596805
 31
0.0
  0
LINE
  5
53
100
AcDbEntity
  8
0
  6
CONTINUOUS
 62
               4
100
AcDbLine
 10
-118.33263877208546
 20
-146.51391457596807
 30
0.0
 11
-118.33263877208546
 21
-145.31391457596808
 31
0.0
  0
LINE
  5
54
100
AcDbEntity
  8
0
  6
CONTINUOUS
 62
               4
100
AcDbLine
 10
-140.33263877208546
 20
-146.51391457596807
 30
0.0
 11
-140.33263877208546
 21
-145.31391457596808
 31
0.0
  0
ARC
  5
55
100
AcDbEntity
  8
0
  6
CONTINUOUS
 62
               4
100
AcDbCircle
 10
-124.0335232341416
 20
-142.9147990380242
 30
0.0
 40
1.4008847412629901
100
AcDbArc
 50
0.0361742439122946
 51
89.963825756087459
  0
ARC
  5
56
100
AcDbEntity
  8
0
  6
CONTINUOUS
 62
               4
100
AcDbCircle
 10
-134.63270709525395
 20
-142.91384625279957
 30
0.0
 40
1.3999316784987346
100
AcDbArc
 50
89.997203699822904
 51
180.00279630017653
  0
LINE
  5
57
100
AcDbEntity
  8
0
  6
CENTER
 62
               2
100
AcDbLine
 10
-127.63263877208544
 20
-132.31391457596808
 30
0.0
 11
-131.34562578507246
 21
-132.31391457596808
 31
0.0
  0
CIRCLE
  5
58
100
AcDbEntity
  8
0
  6
CONTINUOUS
 62
               7
100
AcDbCircle
 10
-129.33263877208546
 20
-132.31391457596808
 30
0.0
 40
1.25
  0
CIRCLE
  5
59
100
AcDbEntity
  8
0
  6
CONTINUOUS
 62
               2
100
AcDbCircle
 10
-129.33263877208546
 20
-132.31391457596808
 30
0.0
 40
1.5
  0
CIRCLE
  5
5A
100
AcDbEntity
  8
0
  6
CONTINUOUS
 62
               2
100
AcDbCircle
 10
-129.33348728282763
 20
-115.52103904360868
 30
0.0
 40
1.5
  0
LINE
  5
5B
100
AcDbEntity
  8
0
  6
CENTER
 62
               2
100
AcDbLine
 10
-127.63263877208544
 20
-115.51391457596807
 30
0.0
 11
-131.03263877208548
 21
-115.51391457596807
 31
0.0
  0
CIRCLE
  5
5C
100
AcDbEntity
  8
0
  6
CONTINUOUS
 62
               7
100
AcDbCircle
 10
-129.33263877208546
 20
-115.51391457596807
 30
0.0
 40
1.25
  0
LINE
  5
5D
100
AcDbEntity
  8
0
  6
CENTER
 62
               2
100
AcDbLine
 10
-126.32661899604864
 20
-123.91391457596805
 30
0.0
 11
-132.43665295356885
 21
-123.91391457596805
 31
0.0
  0
CIRCLE
  5
5E
100
AcDbEntity
  8
0
  6
CONTINUOUS
 62
               7
100
AcDbCircle
 10
-129.33263877208546
 20
-123.91391457596811
 30
0.0
 40
2.1000000000000001
  0
CIRCLE
  5
5F
100
AcDbEntity
  8
0
  6
CONTINUOUS
 62
               2
100
AcDbCircle
 10
-129.33263877208546
 20
-123.91391457596811
 30
0.0
 40
2.5
  0
CIRCLE
  5
60
100
AcDbEntity
  8
0
  6
CONTINUOUS
 62
               7
100
AcDbCircle
 10
-125.53348728282765
 20
-132.21294130936647
 30
0.0
 40
0.9
  0
LINE
  5
61
100
AcDbEntity
  8
0
  6
CENTER
 62
               2
100
AcDbLine
 10
-124.38263877208544
 20
-132.21391457596806
 30
0.0
 11
-126.68263877208545
 21
-132.21391457596806
 31
0.0
  0
LINE
  5
62
100
AcDbEntity
  8
0
  6
CENTER
 62
               2
100
AcDbLine
 10
-125.53263877208548
 20
-133.36391457596804
 30
0.0
 11
-125.53263877208548
 21
-131.06391457596808
 31
0.0
  0
LINE
  5
63
100
AcDbEntity
  8
0
  6
CENTER
 62
               2
100
AcDbLine
 10
-133.13263877208544
 20
-116.76391457596807
 30
0.0
 11
-133.13263877208544
 21
-114.46391457596806
 31
0.0
  0
CIRCLE
  5
64
100
AcDbEntity
  8
0
  6
CONTINUOUS
 62
               7
100
AcDbCircle
 10
-133.13348728282764
 20
-115.61294130936651
 30
0.0
 40
0.9
  0
LINE
  5
65
100
AcDbEntity
  8
0
  6
CENTER
 62
               2
100
AcDbLine
 10
-131.98263877208547
 20
-115.61391457596804
 30
0.0
 11
-134.28263877208548
 21
-115.61391457596804
 31
0.0
  0
CIRCLE
  5
66
100
AcDbEntity
  8
0
  6
CONTINUOUS
 62
               7
100
AcDbCircle
 10
-129.33263877208546
 20
-103.91391457596805
 30
0.0
 40
0.75
  0
LINE
  5
67
100
AcDbEntity
  8
0
  6
CONTINUOUS
 62
               7
100
AcDbLine
 10
-124.33263877208546
 20
-141.31391457596808
 30
0.0
 11
-124.33263877208546
 21
-98.613914575968039
 31
0.0
  0
LINE
  5
68
100
AcDbEntity
  8
0
  6
CONTINUOUS
 62
               7
100
AcDbLine
 10
-134.33263877208546
 20
-139.21391457596806
 30
0.0
 11
-134.33263877208546
 21
-98.613914575968039
 31
0.0
  0
ARC
  5
69
100
AcDbEntity
  8
0
  6
CONTINUOUS
 62
               7
100
AcDbCircle
 10
-124.53263877208548
 20
-141.31391457596808
 30
0.0
 40
0.2
100
AcDbArc
 50
269.99999999999937
 51
0.0
  0
ARC
  5
6A
100
AcDbEntity
  8
0
  6
CONTINUOUS
 62
               7
100
AcDbCircle
 10
-134.13263877208547
 20
-141.31391457596808
 30
0.0
 40
0.2
100
AcDbArc
 50
179.99999999999963
 51
269.99999999999937
  0
LINE
  5
6B
100
AcDbEntity
  8
0
  6
CENTER
 62
               2
100
AcDbLine
 10
-129.33263877208546
 20
-141.91783691665736
 30
0.0
 11
-129.33263877208546
 21
-75.413914575968107
 31
0.0
  0
ARC
  5
6C
100
AcDbEntity
  8
0
  6
CONTINUOUS
 62
               7
100
AcDbCircle
 10
-134.03353390894435
 20
-138.91480971282695
 30
0.0
 40
0.2991062025847394
100
AcDbArc
 50
179.82853033398985
 51
270.17146966600922
  0
LINE
  5
6D
100
AcDbEntity
  8
0
  6
CONTINUOUS
 62
               7
100
AcDbLine
 10
-134.33263877208546
 20
-141.31391457596808
 30
0.0
 11
-134.33263877208546
 21
-139.90066400662212
 31
0.0
  0
LINE
  5
6E
100
AcDbEntity
  8
0
  6
CONTINUOUS
 62
               7
100
AcDbLine
 10
-130.83263877208546
 20
-141.51391457596807
 30
0.0
 11
-130.83263877208546
 21
-139.21391457596806
 31
0.0
  0
LINE
  5
6F
100
AcDbEntity
  8
0
  6
CONTINUOUS
 62
               7
100
AcDbLine
 10
-134.35263877208547
 20
-139.21391457596806
 30
0.0
 11
-130.83263877208546
 21
-139.21391457596806
 31
0.0
  0
LINE
  5
70
100
AcDbEntity
  8
0
  6
CONTINUOUS
 62
               7
100
AcDbLine
 10
-124.33263877208546
 20
-111.81391457596808
 30
0.0
 11
-134.33263877208546
 21
-111.81391457596808
 31
0.0
  0
LINE
  5
71
100
AcDbEntity
  8
0
  6
CONTINUOUS
 62
               7
100
AcDbLine
 10
-124.33263877208546
 20
-136.01391457596807
 30
0.0
 11
-134.33263877208546
 21
-136.01391457596807
 31
0.0
  0
LINE
  5
72
100
AcDbEntity
  8
0
  6
CONTINUOUS
 62
               7
100
AcDbLine
 10
-124.53263877208548
 20
-141.51391457596807
 30
0.0
 11
-134.13263877208547
 21
-141.51391457596807
 31
0.0
  0
LINE
  5
73
100
AcDbEntity
  8
0
  6
CONTINUOUS
 62
               7
100
AcDbLine
 10
-134.33263877208546
 20
-98.613914575968039
 30
0.0
 11
-124.33263877208546
 21
-98.613914575968039
 31
0.0
  0
LINE
  5
74
100
AcDbEntity
  8
0
  6
CONTINUOUS
 62
               4
100
AcDbLine
 10
-124.33263877208546
 20
-76.113914575968096
 30
0.0
 11
-124.33263877208546
 21
-98.613914575968039
 31
0.0
  0
LINE
  5
75
100
AcDbEntity
  8
0
  6
CONTINUOUS
 62
               4
100
AcDbLine
 10
-134.33263877208546
 20
-76.113914575968096
 30
0.0
 11
-134.33263877208546
 21
-98.613914575968039
 31
0.0
  0
ARC
  5
76
100
AcDbEntity
  8
0
  6
CONTINUOUS
 62
               4
100
AcDbCircle
 10
-126.92972677732249
 20
-76.712826570731067
 30
0.0
 40
0.5989129830170392
100
AcDbArc
 50
89.895914524772735
 51
180.10408547522667
  0
ARC
  5
77
100
AcDbEntity
  8
0
  6
CONTINUOUS
 62
               4
100
AcDbCircle
 10
-125.12854362542726
 20
-76.713819429309922
 30
0.0
 40
0.5999048608870732
100
AcDbArc
 50
359.99091272245295
 51
90.009087277546172
  0
LINE
  5
78
100
AcDbEntity
  8
0
  6
CONTINUOUS
 62
               4
100
AcDbLine
 10
-124.33263877208546
 20
-76.71391457596809
 30
0.0
 11
-127.53263877208545
 21
-76.71391457596809
 31
0.0
  0
ARC
  5
79
100
AcDbEntity
  8
0
  6
CONTINUOUS
 62
               4
100
AcDbCircle
 10
-133.83263877208546
 20
-76.71391457596809
 30
0.0
 40
0.5
100
AcDbArc
 50
89.999999999999815
 51
179.99999999999963
  0
LINE
  5
7A
100
AcDbEntity
  8
0
  6
CONTINUOUS
 62
               4
100
AcDbLine
 10
-127.53263877208548
 20
-76.213914575968062
 30
0.0
 11
-127.53263877208548
 21
-77.713914575968062
 31
0.0
  0
LINE
  5
7B
100
AcDbEntity
  8
0
  6
CONTINUOUS
 62
               4
100
AcDbLine
 10
-127.53263877208548
 20
-76.213914575968062
 30
0.0
 11
-133.83263877208546
 21
-76.213914575968062
 31
0.0
  0
LINE
  5
7C
100
AcDbEntity
  8
0
  6
CONTINUOUS
 62
               4
100
AcDbLine
 10
-124.33263877208546
 20
-77.713914575968062
 30
0.0
 11
-127.53263877208548
 21
-77.713914575968062
 31
0.0
  0
LINE
  5
7D
100
AcDbEntity
  8
0
  6
CONTINUOUS
 62
               4
100
AcDbLine
 10
-124.33263877208546
 20
-76.113914575968096
 30
0.0
 11
-134.33263877208546
 21
-76.113914575968096
 31
0.0
  0
ARC
  5
7E
100
AcDbEntity
  8
0
  6
CONTINUOUS
 62
               7
100
AcDbCircle
 10
-132.63263877208544
 20
-135.9264933392341
 30
0.0
 40
4.5876068132596712
100
AcDbArc
 50
253.79871892415684
 51
286.20128107584191
  0
ARC
  5
7F
100
AcDbEntity
  8
0
  6
CONTINUOUS
 62
               7
100
AcDbCircle
 10
-131.52441076791939
 20
-139.7447518579971
 30
0.0
 40
0.6117725687931934
100
AcDbArc
 50
286.30661609184898
 51
0.0784159734340139
  0
LINE
  5
80
100
AcDbEntity
  8
0
  6
CONTINUOUS
 62
               7
100
AcDbLine
 10
-130.91263877208547
 20
-139.74391457596803
 30
0.0
 11
-130.91263877208547
 21
-139.21391457596806
 31
0.0
  0
ARC
  5
81
100
AcDbEntity
  8
0
  6
CONTINUOUS
 62
               7
100
AcDbCircle
 10
-133.74208480397641
 20
-139.74566330731503
 30
0.0
 40
0.6105564724372721
100
AcDbArc
 50
179.83589550320582
 51
253.77907243150949
  0
LINE
  5
82
100
AcDbEntity
  8
0
  6
CONTINUOUS
 62
               7
100
AcDbLine
 10
-134.35263877208547
 20
-139.74391457596803
 30
0.0
 11
-134.35263877208547
 21
-139.21391457596806
 31
0.0
  0
LINE
  5
83
100
AcDbEntity
  8
0
  6
CONTINUOUS
 62
               4
100
AcDbLine
 10
-54.439459166478116
 20
-141.51391457596807
 30
0.0
 11
-40.439459166478116
 21
-141.51391457596807
 31
0.0
  0
LINE
  5
84
100
AcDbEntity
  8
0
  6
CONTINUOUS
 62
               4
100
AcDbLine
 10
-51.439459166478116
 20
-146.51391457596807
 30
0.0
 11
-51.439459166478116
 21
-145.31391457596808
 31
0.0
  0
LINE
  5
85
100
AcDbEntity
  8
0
  6
CONTINUOUS
 62
               4
100
AcDbLine
 10
-43.439459166478116
 20
-146.51391457596807
 30
0.0
 11
-43.439459166478116
 21
-145.31391457596808
 31
0.0
  0
LINE
  5
86
100
AcDbEntity
  8
0
  6
CONTINUOUS
 62
               4
100
AcDbLine
 10
-40.439459166478116
 20
-146.51391459636866
 30
0.0
 11
-40.439459166478116
 21
-141.51391457596807
 31
0.0
  0
LINE
  5
87
100
AcDbEntity
  8
0
  6
CONTINUOUS
 62
               4
100
AcDbLine
 10
-54.439459166478116
 20
-146.51391459636866
 30
0.0
 11
-54.439459166478116
 21
-141.51391457596807
 31
0.0
  0
LINE
  5
88
100
AcDbEntity
  8
0
  6
CONTINUOUS
 62
               4
100
AcDbLine
 10
-54.439459138046516
 20
-145.31391457596808
 30
0.0
 11
-40.439459138046516
 21
-145.31391457596808
 31
0.0
  0
LINE
  5
89
100
AcDbEntity
  8
0
  6
CONTINUOUS
 62
               4
100
AcDbLine
 10
-54.439459138046516
 20
-146.51391457596807
 30
0.0
 11
-40.439459138046516
 21
-146.51391457596807
 31
0.0
  0
ARC
  5
8B
100
AcDbEntity
  8
0
  6
DASHED
 62
             200
100
AcDbCircle
 10
-65.939459166478116
 20
-118.01294130936654
 30
0.0
 40
0.5
100
AcDbArc
 50
179.99999999999963
 51
269.99999999999937
  0
ARC
  5
8C
100
AcDbEntity
  8
0
  6
DASHED
 62
             200
100
AcDbCircle
 10
-65.939459166478116
 20
-113.01294130936654
 30
0.0
 40
0.5
100
AcDbArc
 50
89.999999999999815
 51
179.99999999999963
  0
LINE
  5
8D
100
AcDbEntity
  8
0
  6
DASHED
 62
               7
100
AcDbLine
 10
-54.439459166478116
 20
-118.51294130936654
 30
0.0
 11
-54.439459166478116
 21
-112.51294130936654
 31
0.0
  0
LINE
  5
8E
100
AcDbEntity
  8
0
  6
DASHED
 62
             200
100
AcDbLine
 10
-66.439459166478116
 20
-118.01294130936654
 30
0.0
 11
-66.439459166478116
 21
-113.01294130936654
 31
0.0
  0
LINE
  5
8F
100
AcDbEntity
  8
0
  6
DASHED
 62
             200
100
AcDbLine
 10
-63.939459166478116
 20
-118.51294130936654
 30
0.0
 11
-63.939459166478116
 21
-112.51294130936654
 31
0.0
  0
LINE
  5
90
100
AcDbEntity
  8
0
  6
DASHED
 62
             200
100
AcDbLine
 10
-65.939459166478116
 20
-118.51294130936654
 30
0.0
 11
-65.939459166478116
 21
-112.51294130936654
 31
0.0
  0
LINE
  5
91
100
AcDbEntity
  8
0
  6
DASHED
 62
             200
100
AcDbLine
 10
-54.439459166478116
 20
-112.51294130936654
 30
0.0
 11
-65.939459166478116
 21
-112.51294130936654
 31
0.0
  0
LINE
  5
92
100
AcDbEntity
  8
0
  6
DASHED
 62
             200
100
AcDbLine
 10
-54.439459166478116
 20
-118.51294130936654
 30
0.0
 11
-65.939459166478116
 21
-118.51294130936654
 31
0.0
  0
LINE
  5
93
100
AcDbEntity
  8
0
  6
DASHED
 62
             200
100
AcDbLine
 10
-54.439459166478116
 20
-129.31488784256962
 30
0.0
 11
-65.939459166478116
 21
-129.31488784256962
 31
0.0
  0
LINE
  5
94
100
AcDbEntity
  8
0
  6
DASHED
 62
             200
100
AcDbLine
 10
-54.439459166478116
 20
-135.31488784256962
 30
0.0
 11
-65.939459166478116
 21
-135.31488784256962
 31
0.0
  0
LINE
  5
95
100
AcDbEntity
  8
0
  6
DASHED
 62
             200
100
AcDbLine
 10
-65.939459166478116
 20
-129.31488784256962
 30
0.0
 11
-65.939459166478116
 21
-135.31488784256962
 31
0.0
  0
LINE
  5
96
100
AcDbEntity
  8
0
  6
DASHED
 62
             200
100
AcDbLine
 10
-63.939459166478116
 20
-129.31488784256962
 30
0.0
 11
-63.939459166478116
 21
-135.31488784256962
 31
0.0
  0
LINE
  5
97
100
AcDbEntity
  8
0
  6
DASHED
 62
             200
100
AcDbLine
 10
-66.439459166478116
 20
-129.81488784256962
 30
0.0
 11
-66.439459166478116
 21
-134.81488784256962
 31
0.0
  0
LINE
  5
98
100
AcDbEntity
  8
0
  6
DASHED
 62
               7
100
AcDbLine
 10
-54.439459166478116
 20
-129.31488784256962
 30
0.0
 11
-54.439459166478116
 21
-135.31488784256962
 31
0.0
  0
ARC
  5
99
100
AcDbEntity
  8
0
  6
DASHED
 62
             200
100
AcDbCircle
 10
-65.939459166478116
 20
-134.81488784256962
 30
0.0
 40
0.5
100
AcDbArc
 50
179.99999999999963
 51
269.99999999999937
  0
ARC
  5
9A
100
AcDbEntity
  8
0
  6
DASHED
 62
             200
100
AcDbCircle
 10
-65.939459166478116
 20
-129.81488784256962
 30
0.0
 40
0.5
100
AcDbArc
 50
89.999999999999815
 51
179.99999999999963
  0
LINE
  5
9B
100
AcDbEntity
  8
0
  6
CENTER
 62
              51
100
AcDbLine
 10
-53.35562448877765
 20
-132.31488784256962
 30
0.0
 11
-67.845390233968061
 21
-132.31488784256962
 31
0.0
  0
LINE
  5
9C
100
AcDbEntity
  8
0
  6
CENTER
 62
              51
100
AcDbLine
 10
-53.35562448877765
 20
-115.51294130936654
 30
0.0
 11
-67.845390233968061
 21
-115.51294130936654
 31
0.0
  0
LINE
  5
9D
100
AcDbEntity
  8
0
  6
CENTER
 62
               2
100
AcDbLine
 10
-51.639459166478105
 20
-129.91391457596811
 30
0.0
 11
-51.639459166478105
 21
-126.91391457596811
 31
0.0
  0
CIRCLE
  5
9E
100
AcDbEntity
  8
0
  6
CONTINUOUS
 62
               7
100
AcDbCircle
 10
-51.639459166478105
 20
-128.41391457596811
 30
0.0
 40
1.0499999999999998
  0
CIRCLE
  5
9F
100
AcDbEntity
  8
0
  6
CONTINUOUS
 62
               7
100
AcDbCircle
 10
-51.639459166478105
 20
-119.41391457596811
 30
0.0
 40
1.0499999999999998
  0
LINE
  5
A0
100
AcDbEntity
  8
0
  6
CENTER
 62
               2
100
AcDbLine
 10
-51.639459166478105
 20
-120.91391457596811
 30
0.0
 11
-51.639459166478105
 21
-117.91391457596811
 31
0.0
  0
LINE
  5
A1
100
AcDbEntity
  8
0
  6
CENTER
 62
               2
100
AcDbLine
 10
-53.139459166478105
 20
-119.41391457596811
 30
0.0
 11
-50.139459166478105
 21
-119.41391457596811
 31
0.0
  0
LINE
  5
A2
100
AcDbEntity
  8
0
  6
CENTER
 62
               2
100
AcDbLine
 10
-53.139459166478105
 20
-128.41391457596811
 30
0.0
 11
-50.139459166478105
 21
-128.41391457596811
 31
0.0
  0
LINE
  5
A3
100
AcDbEntity
  8
0
  6
CONTINUOUS
 62
               7
100
AcDbLine
 10
-41.439459166478116
 20
-130.61488784256963
 30
0.0
 11
-41.439459166478116
 21
-133.81488784256968
 31
0.0
  0
LINE
  5
A4
100
AcDbEntity
  8
0
  6
CONTINUOUS
 62
               7
100
AcDbLine
 10
-40.43945915551086
 20
-130.61488784256963
 30
0.0
 11
-41.43945915551086
 21
-130.61488784256963
 31
0.0
  0
LINE
  5
A5
100
AcDbEntity
  8
0
  6
CONTINUOUS
 62
               7
100
AcDbLine
 10
-40.43945915551086
 20
-133.81488784256968
 30
0.0
 11
-41.43945915551086
 21
-133.81488784256968
 31
0.0
  0
LINE
  5
A6
100
AcDbEntity
  8
0
  6
CONTINUOUS
 62
               7
100
AcDbLine
 10
-43.879459166478114
 20
-139.74391457596792
 30
0.0
 11
-43.879459166478114
 21
-139.21391457596795
 31
0.0
  0
ARC
  5
A7
100
AcDbEntity
  8
0
  6
CONTINUOUS
 62
               7
100
AcDbCircle
 10
-43.267687170644194
 20
-139.74475185799699
 30
0.0
 40
0.6117725687931934
100
AcDbArc
 50
179.9215840265656
 51
253.6933839081498
  0
ARC
  5
A8
100
AcDbEntity
  8
0
  6
CONTINUOUS
 62
               7
100
AcDbCircle
 10
-42.159459166478115
 20
-135.92649333923404
 30
0.0
 40
4.5876068132596712
100
AcDbArc
 50
253.7987189241569
 51
286.20128107584202
  0
LINE
  5
A9
100
AcDbEntity
  8
0
  6
CONTINUOUS
 62
               7
100
AcDbLine
 10
-40.439459166478116
 20
-139.21391457596795
 30
0.0
 11
-43.959459166478155
 21
-139.21391457596795
 31
0.0
  0
LINE
  5
AA
100
AcDbEntity
  8
0
  6
CONTINUOUS
 62
               7
100
AcDbLine
 10
-43.959459166478155
 20
-141.51391457596807
 30
0.0
 11
-43.959459166478155
 21
-139.21391457596795
 31
0.0
  0
ARC
  5
AB
100
AcDbEntity
  8
0
  6
CONTINUOUS
 62
               7
100
AcDbCircle
 10
-41.050013134587175
 20
-139.74566330731497
 30
0.0
 40
0.6105564724372723
100
AcDbArc
 50
286.22092756849014
 51
0.1641044967937703
  0
LINE
  5
AC
100
AcDbEntity
  8
0
  6
CONTINUOUS
 62
               7
100
AcDbLine
 10
-54.439459166478116
 20
-141.1139145759681
 30
0.0
 11
-54.439459166478116
 21
-111.81391457596808
 31
0.0
  0
LINE
  5
AD
100
AcDbEntity
  8
0
  6
CONTINUOUS
 62
               7
100
AcDbLine
 10
-40.439459166478116
 20
-141.1139145759681
 30
0.0
 11
-40.439459166478116
 21
-111.81391457596808
 31
0.0
  0
LINE
  5
AE
100
AcDbEntity
  8
0
  6
CONTINUOUS
 62
               7
100
AcDbLine
 10
-40.439459166478116
 20
-111.81391457596808
 30
0.0
 11
-40.439459166478116
 21
-98.613914575968096
 31
0.0
  0
LINE
  5
AF
100
AcDbEntity
  8
0
  6
CONTINUOUS
 62
               7
100
AcDbLine
 10
-38.839459166478093
 20
-104.61391457596807
 30
0.0
 11
-40.439459166478116
 21
-106.21391457596806
 31
0.0
  0
ARC
  5
B0
100
AcDbEntity
  8
0
  6
CONTINUOUS
 62
               7
100
AcDbCircle
 10
-54.04043253350477
 20
-141.11488794299473
 30
0.0
 40
0.3990278201647513
100
AcDbArc
 50
179.8602356150773
 51
270.1397643849217
  0
LINE
  5
B1
100
AcDbEntity
  8
0
  6
CONTINUOUS
 62
               7
100
AcDbLine
 10
-54.03945916647811
 20
-141.51391457596807
 30
0.0
 11
-40.83945916647815
 21
-141.51391457596807
 31
0.0
  0
LINE
  5
B2
100
AcDbEntity
  8
0
  6
CONTINUOUS
 62
               7
100
AcDbLine
 10
-54.439459166478116
 20
-136.01391457596802
 30
0.0
 11
-40.439459166478116
 21
-136.01391457596802
 31
0.0
  0
LINE
  5
B3
100
AcDbEntity
  8
0
  6
CONTINUOUS
 62
               7
100
AcDbLine
 10
-54.439459166478116
 20
-111.81391457596808
 30
0.0
 11
-40.439459166478116
 21
-111.81391457596808
 31
0.0
  0
ARC
  5
B4
100
AcDbEntity
  8
0
  6
CONTINUOUS
 62
               7
100
AcDbCircle
 10
-40.83848579945149
 20
-141.11488794299473
 30
0.0
 40
0.3990278201647513
100
AcDbArc
 50
269.8602356150771
 51
0.1397643849223044
  0
LINE
  5
B5
100
AcDbEntity
  8
0
  6
CONTINUOUS
 62
               7
100
AcDbLine
 10
-54.43946198300489
 20
-98.613914575968067
 30
0.0
 11
-37.554610691278185
 21
-98.613914575968096
 31
0.0
  0
LINE
  5
B6
100
AcDbEntity
  8
0
  6
CONTINUOUS
 62
               7
100
AcDbLine
 10
-54.439459166478116
 20
-111.81391457596808
 30
0.0
 11
-54.439459166478116
 21
-98.613914575968067
 31
0.0
  0
LINE
  5
B7
100
AcDbEntity
  8
0
  6
CONTINUOUS
 62
               7
100
AcDbLine
 10
-38.839459166478093
 20
-104.61391457596807
 30
0.0
 11
-38.839459166478093
 21
-98.613914575968067
 31
0.0
  0
LINE
  5
B8
100
AcDbEntity
  8
0
  6
CONTINUOUS
 62
               4
100
AcDbLine
 10
-24.642555227273803
 20
-83.365914575967821
 30
0.0
 11
-24.642555227273775
 21
-83.865914575967821
 31
0.0
  0
LINE
  5
B9
100
AcDbEntity
  8
0
  6
CONTINUOUS
 62
               4
100
AcDbLine
 10
-28.142555227273803
 20
-83.865914575968105
 30
0.0
 11
-24.642555227273775
 21
-83.865914575967821
 31
0.0
  0
LINE
  5
BA
100
AcDbEntity
  8
0
  6
CONTINUOUS
 62
               4
100
AcDbLine
 10
-28.142555227273832
 20
-83.365914575968105
 30
0.0
 11
-24.642555227273803
 21
-83.365914575967821
 31
0.0
  0
LINE
  5
BB
100
AcDbEntity
  8
0
  6
CONTINUOUS
 62
               4
100
AcDbLine
 10
-54.439459166478116
 20
-98.613914575968039
 30
0.0
 11
-37.439456349951342
 21
-98.613914575968039
 31
0.0
  0
ARC
  5
BC
100
AcDbEntity
  8
0
  6
CONTINUOUS
 62
               4
100
AcDbCircle
 10
-53.756554313136292
 20
-76.713819429309837
 30
0.0
 40
0.5999048608870732
100
AcDbArc
 50
89.99091272245343
 51
123.56005066674096
  0
ARC
  5
BD
100
AcDbEntity
  8
0
  6
CONTINUOUS
 62
               4
100
AcDbCircle
 10
-53.939459166478059
 20
-76.713914575968062
 30
0.0
 40
0.5
100
AcDbArc
 50
114.73039869686018
 51
179.99999999999963
  0
ARC
  5
BE
100
AcDbEntity
  8
0
  6
CONTINUOUS
 62
               4
100
AcDbCircle
 10
-40.939459166478059
 20
-76.713914575968062
 30
0.0
 40
0.5
100
AcDbArc
 50
0.0
 51
89.999999999999815
  0
LINE
  5
BF
100
AcDbEntity
  8
0
  6
CONTINUOUS
 62
               4
100
AcDbLine
 10
-40.939459166478059
 20
-76.213914575968062
 30
0.0
 11
-42.439459166478059
 21
-76.213914575968062
 31
0.0
  0
LINE
  5
C0
100
AcDbEntity
  8
0
  6
CONTINUOUS
 62
               4
100
AcDbLine
 10
-54.439459166478116
 20
-77.713914575967948
 30
0.0
 11
-42.439456349951342
 21
-77.713914575967948
 31
0.0
  0
LINE
  5
C1
100
AcDbEntity
  8
0
  6
CONTINUOUS
 62
               4
100
AcDbLine
 10
-42.439456349951342
 20
-76.113914575967982
 30
0.0
 11
-42.439456349951342
 21
-77.713914575967948
 31
0.0
  0
LINE
  5
C2
100
AcDbEntity
  8
0
  6
CONTINUOUS
 62
               4
100
AcDbLine
 10
-54.439459166478059
 20
-76.713914575967948
 30
0.0
 11
-50.739459166478127
 21
-76.713914575967948
 31
0.0
  0
ARC
  5
C3
100
AcDbEntity
  8
0
  6
CONTINUOUS
 62
               4
100
AcDbCircle
 10
-53.756554313136292
 20
-76.713819429309837
 30
0.0
 40
0.5999048608870732
100
AcDbArc
 50
123.56005066674096
 51
180.00908727754583
  0
ARC
  5
C4
100
AcDbEntity
  8
0
  6
CONTINUOUS
 62
               4
100
AcDbCircle
 10
-51.955371161241089
 20
-76.712826570731039
 30
0.0
 40
0.5989129830170392
100
AcDbArc
 50
359.89591452477293
 51
90.104085475226867
  0
LINE
  5
C5
100
AcDbEntity
  8
0
  6
CONTINUOUS
 62
               4
100
AcDbLine
 10
-53.756554313136348
 20
-76.113914575968039
 30
0.0
 11
-42.439456349951342
 21
-76.113914575967982
 31
0.0
  0
LINE
  5
C6
100
AcDbEntity
  8
0
  6
CONTINUOUS
 62
               4
100
AcDbLine
 10
-50.739459166478127
 20
-76.713914575967948
 30
0.0
 11
-50.739459166478127
 21
-76.113914575968039
 31
0.0
  0
LINE
  5
C7
100
AcDbEntity
  8
0
  6
CONTINUOUS
 62
               4
100
AcDbLine
 10
-34.83945634995132
 20
-81.115914575968048
 30
0.0
 11
-34.83945634995132
 21
-97.081914575968057
 31
0.0
  0
LINE
  5
C8
100
AcDbEntity
  8
0
  6
CONTINUOUS
 62
               4
100
AcDbLine
 10
-33.639456349951331
 20
-82.965914575968071
 30
0.0
 11
-32.162555227273742
 21
-82.965914575968071
 31
0.0
  0
LINE
  5
C9
100
AcDbEntity
  8
0
  6
CONTINUOUS
 62
               4
100
AcDbLine
 10
-33.639456349951331
 20
-84.265914575968083
 30
0.0
 11
-31.412555227273742
 21
-84.265914575968083
 31
0.0
  0
LINE
  5
CA
100
AcDbEntity
  8
0
  6
CONTINUOUS
 62
               4
100
AcDbLine
 10
-40.439456349951342
 20
-80.115914575968048
 30
0.0
 11
-35.33945634995132
 21
-80.115914575968048
 31
0.0
  0
ARC
  5
CB
100
AcDbEntity
  8
0
  6
CONTINUOUS
 62
               4
100
AcDbCircle
 10
-35.339418825945927
 20
-80.615877051962656
 30
0.0
 40
0.4999624774027422
100
AcDbArc
 50
359.99569974300096
 51
90.004300256998803
  0
ARC
  5
CC
100
AcDbEntity
  8
0
  6
CONTINUOUS
 62
               4
100
AcDbCircle
 10
-35.339920794469322
 20
-97.082787351251767
 30
0.0
 40
0.5004652055472239
100
AcDbArc
 50
295.12116424320402
 51
0.0999197646782735
  0
LINE
  5
CD
100
AcDbEntity
  8
0
  6
CONTINUOUS
 62
               4
100
AcDbLine
 10
-34.83945634995132
 20
-80.615914575968048
 30
0.0
 11
-34.83945634995132
 21
-81.115914575968048
 31
0.0
  0
LINE
  5
CE
100
AcDbEntity
  8
0
  6
CONTINUOUS
 62
             200
100
AcDbLine
 10
-32.508555227273746
 20
-82.365914575968048
 30
0.0
 11
-31.064555227273786
 21
-84.865914575968048
 31
0.0
  0
LINE
  5
CF
100
AcDbEntity
  8
0
  6
CONTINUOUS
 62
               4
100
AcDbLine
 10
-30.912555227273742
 20
-84.265914575968083
 30
0.0
 11
-28.14255522727376
 21
-84.265914575968083
 31
0.0
  0
LINE
  5
D0
100
AcDbEntity
  8
0
  6
CONTINUOUS
 62
               4
100
AcDbLine
 10
-31.662555227273742
 20
-82.965914575968071
 30
0.0
 11
-28.14255522727376
 21
-82.965914575968071
 31
0.0
  0
LINE
  5
D1
100
AcDbEntity
  8
0
  6
CONTINUOUS
 62
             200
100
AcDbLine
 10
-32.008555227273746
 20
-82.365914575968048
 30
0.0
 11
-30.564555227273786
 21
-84.865914575968048
 31
0.0
  0
LINE
  5
D2
100
AcDbEntity
  8
0
  6
CONTINUOUS
 62
               4
100
AcDbLine
 10
-28.14255522727376
 20
-82.966731958780628
 30
0.0
 11
-28.14255522727376
 21
-84.266731958780582
 31
0.0
  0
LINE
  5
D3
100
AcDbEntity
  8
0
  6
CONTINUOUS
 62
               4
100
AcDbLine
 10
-34.83945634995132
 20
-86.115914575968048
 30
0.0
 11
-34.139456349951331
 21
-86.115914575968048
 31
0.0
  0
LINE
  5
D4
100
AcDbEntity
  8
0
  6
CONTINUOUS
 62
               4
100
AcDbLine
 10
-33.639456349951331
 20
-85.615914575968048
 30
0.0
 11
-33.639456349951331
 21
-81.615914575968048
 31
0.0
  0
LINE
  5
D5
100
AcDbEntity
  8
0
  6
CONTINUOUS
 62
               4
100
AcDbLine
 10
-34.83945634995132
 20
-81.115914575968048
 30
0.0
 11
-34.139456349951331
 21
-81.115914575968048
 31
0.0
  0
ARC
  5
D6
100
AcDbEntity
  8
0
  6
CONTINUOUS
 62
               4
100
AcDbCircle
 10
-34.139456349951331
 20
-85.615914575968048
 30
0.0
 40
0.5
100
AcDbArc
 50
270.00000000000023
 51
0.0
  0
ARC
  5
D7
100
AcDbEntity
  8
0
  6
CONTINUOUS
 62
               4
100
AcDbCircle
 10
-34.139456349951331
 20
-81.615914575968048
 30
0.0
 40
0.5
100
AcDbArc
 50
0.0
 51
89.999999999999815
  0
LINE
  5
D8
100
AcDbEntity
  8
0
  6
CONTINUOUS
 62
               4
100
AcDbLine
 10
-37.439456349951342
 20
-98.613914575968039
 30
0.0
 11
-35.127456349951331
 21
-97.535914575968064
 31
0.0
  0
LINE
  5
D9
100
AcDbEntity
  8
0
  6
CONTINUOUS
 62
               4
100
AcDbLine
 10
-37.439456349951342
 20
-98.613914575968039
 30
0.0
 11
-37.439456349951342
 21
-80.115914575968048
 31
0.0
  0
LINE
  5
DA
100
AcDbEntity
  8
0
  6
CONTINUOUS
 62
               4
100
AcDbLine
 10
-54.439459166478116
 20
-76.713914575968062
 30
0.0
 11
-54.439459166478116
 21
-98.613914575968039
 31
0.0
  0
LINE
  5
DB
100
AcDbEntity
  8
0
  6
CONTINUOUS
 62
               4
100
AcDbLine
 10
-40.439459166478116
 20
-98.613914575968039
 30
0.0
 11
-40.439459166478116
 21
-76.713914581035766
 31
0.0
  0
LINE
  5
DC
100
AcDbEntity
  8
0
  6
CENTER
 62
               2
100
AcDbLine
 10
-47.439459166478116
 20
-74.266063903166867
 30
0.0
 11
-47.439459166478116
 21
-142.70487067744298
 31
0.0
  0
LINE
  5
DD
100
AcDbEntity
  8
0
  6
CENTER
 62
               7
100
AcDbLine
 10
-47.439459166478116
 20
-143.626387452015
 30
0.0
 11
-47.439459166478116
 21
-148.82815054548652
 31
0.0
  0
CIRCLE
  5
DE
100
AcDbEntity
  8
0
  6
CONTINUOUS
 62
               7
100
AcDbCircle
 10
38.453717387371398
 20
-128.81391152421023
 30
0.0
 40
2.1000000000000001
  0
CIRCLE
  5
DF
100
AcDbEntity
  8
0
  6
CONTINUOUS
 62
               2
100
AcDbCircle
 10
38.453717387371398
 20
-128.81391152421023
 30
0.0
 40
2.5
  0
LINE
  5
E0
100
AcDbEntity
  8
0
  6
CENTER
 62
               2
100
AcDbLine
 10
41.345720439129224
 20
-128.81391457596808
 30
0.0
 11
35.625720439129225
 21
-128.81391457596808
 31
0.0
  0
CIRCLE
  5
E1
100
AcDbEntity
  8
0
  6
CONTINUOUS
 62
               7
100
AcDbCircle
 10
38.453717387371427
 20
-119.01391152421027
 30
0.0
 40
2.1000000000000001
  0
CIRCLE
  5
E2
100
AcDbEntity
  8
0
  6
CONTINUOUS
 62
               2
100
AcDbCircle
 10
38.453717387371427
 20
-119.01391152421027
 30
0.0
 40
2.5
  0
LINE
  5
E3
100
AcDbEntity
  8
0
  6
CENTER
 62
               2
100
AcDbLine
 10
41.26572043912924
 20
-119.01391457596802
 30
0.0
 11
35.545720439129241
 21
-119.01391457596802
 31
0.0
  0
LINE
  5
E4
100
AcDbEntity
  8
0
  6
CENTER
 62
               2
100
AcDbLine
 10
34.653720439129245
 20
-134.16391457596805
 30
0.0
 11
34.653720439129245
 21
-130.26391457596807
 31
0.0
  0
ARC
  5
E5
100
AcDbEntity
  8
0
  6
CONTINUOUS
 62
               7
100
AcDbCircle
 10
34.653720439129245
 20
-132.21391457596806
 30
0.0
 40
1.6000000000000003
100
AcDbArc
 50
270.00000000000023
 51
89.999999999999801
  0
CIRCLE
  5
E6
100
AcDbEntity
  8
0
  6
CONTINUOUS
 62
               7
100
AcDbCircle
 10
34.653720439129245
 20
-132.21391457596806
 30
0.0
 40
0.8500000000000002
  0
LINE
  5
E7
100
AcDbEntity
  8
0
  6
CONTINUOUS
 62
               7
100
AcDbLine
 10
34.653720439129245
 20
-130.61391457596804
 30
0.0
 11
33.453720439129228
 21
-130.61391457596804
 31
0.0
  0
LINE
  5
E8
100
AcDbEntity
  8
0
  6
CONTINUOUS
 62
               7
100
AcDbLine
 10
34.653720439129245
 20
-133.81391457596808
 30
0.0
 11
33.453720439129228
 21
-133.81391457596808
 31
0.0
  0
LINE
  5
E9
100
AcDbEntity
  8
0
  6
CENTER
 62
               2
100
AcDbLine
 10
32.926827827749833
 20
-132.21391457596806
 30
0.0
 11
36.670234056089498
 21
-132.21391457596806
 31
0.0
  0
LINE
  5
EA
100
AcDbEntity
  8
0
  6
CONTINUOUS
 62
               7
100
AcDbLine
 10
42.253720439129239
 20
-117.21391457596806
 30
0.0
 11
43.453720439129228
 21
-117.21391457596806
 31
0.0
  0
LINE
  5
EB
100
AcDbEntity
  8
0
  6
CONTINUOUS
 62
               7
100
AcDbLine
 10
42.253720439129239
 20
-114.01391457596802
 30
0.0
 11
43.453720439129228
 21
-114.01391457596802
 31
0.0
  0
CIRCLE
  5
EC
100
AcDbEntity
  8
0
  6
CONTINUOUS
 62
               7
100
AcDbCircle
 10
42.253720439129239
 20
-115.61391457596804
 30
0.0
 40
0.8500000000000002
  0
LINE
  5
ED
100
AcDbEntity
  8
0
  6
CENTER
 62
               2
100
AcDbLine
 10
40.303720439129251
 20
-115.61391457596804
 30
0.0
 11
44.203720439129256
 21
-115.61391457596804
 31
0.0
  0
ARC
  5
EE
100
AcDbEntity
  8
0
  6
CONTINUOUS
 62
               7
100
AcDbCircle
 10
42.253720439129239
 20
-115.61391457596804
 30
0.0
 40
1.6000000000000003
100
AcDbArc
 50
89.999999999999815
 51
269.99999999999937
  0
LINE
  5
EF
100
AcDbEntity
  8
0
  6
CENTER
 62
               2
100
AcDbLine
 10
42.253720439129239
 20
-117.56391457596808
 30
0.0
 11
42.253720439129239
 21
-113.66391457596805
 31
0.0
  0
LINE
  5
F0
100
AcDbEntity
  8
0
  6
CONTINUOUS
 62
               7
100
AcDbLine
 10
33.433720439129218
 20
-139.74391457596803
 30
0.0
 11
33.433720439129218
 21
-139.21391457596806
 31
0.0
  0
ARC
  5
F1
100
AcDbEntity
  8
0
  6
CONTINUOUS
 62
               7
100
AcDbCircle
 10
34.044274407238277
 20
-139.74566330731503
 30
0.0
 40
0.6105564724372721
100
AcDbArc
 50
179.83589550320582
 51
253.77907243150949
  0
LINE
  5
F2
100
AcDbEntity
  8
0
  6
CONTINUOUS
 62
               7
100
AcDbLine
 10
36.873720439129215
 20
-139.74391457596803
 30
0.0
 11
36.873720439129215
 21
-139.21391457596806
 31
0.0
  0
ARC
  5
F3
100
AcDbEntity
  8
0
  6
CONTINUOUS
 62
               7
100
AcDbCircle
 10
36.261948443295296
 20
-139.7447518579971
 30
0.0
 40
0.6117725687931934
100
AcDbArc
 50
286.30661609184898
 51
0.0784159734340139
  0
ARC
  5
F4
100
AcDbEntity
  8
0
  6
CONTINUOUS
 62
               7
100
AcDbCircle
 10
35.153720439129245
 20
-135.9264933392341
 30
0.0
 40
4.5876068132596712
100
AcDbArc
 50
253.79871892415684
 51
286.20128107584191
  0
LINE
  5
F5
100
AcDbEntity
  8
0
  6
CONTINUOUS
 62
               7
100
AcDbLine
 10
43.453720439129228
 20
-98.613914575968039
 30
0.0
 11
33.453720439129228
 21
-98.613914575968039
 31
0.0
  0
LINE
  5
F6
100
AcDbEntity
  8
0
  6
CONTINUOUS
 62
               7
100
AcDbLine
 10
36.453720439129199
 20
-102.61391457596804
 30
0.0
 11
36.453720439129199
 21
-98.613914575968039
 31
0.0
  0
LINE
  5
F7
100
AcDbEntity
  8
0
  6
CONTINUOUS
 62
               7
100
AcDbLine
 10
40.453720439129228
 20
-102.61391457596804
 30
0.0
 11
40.453720439129228
 21
-98.613914575968039
 31
0.0
  0
LINE
  5
F8
100
AcDbEntity
  8
0
  6
CONTINUOUS
 62
               7
100
AcDbLine
 10
34.853720439129233
 20
-102.61391457596804
 30
0.0
 11
34.853720439129233
 21
-98.613914575968039
 31
0.0
  0
LINE
  5
F9
100
AcDbEntity
  8
0
  6
CONTINUOUS
 62
               7
100
AcDbLine
 10
42.053720439129222
 20
-102.61391457596804
 30
0.0
 11
42.053720439129222
 21
-98.613914575968039
 31
0.0
  0
ARC
  5
FA
100
AcDbEntity
  8
0
  6
CONTINUOUS
 62
               7
100
AcDbCircle
 10
38.453720439129228
 20
-102.61391457596804
 30
0.0
 40
2.0
100
AcDbArc
 50
179.99999999999963
 51
0.0
  0
ARC
  5
FB
100
AcDbEntity
  8
0
  6
CONTINUOUS
 62
               7
100
AcDbCircle
 10
38.453720439129228
 20
-102.61391457596804
 30
0.0
 40
3.6000000000000005
100
AcDbArc
 50
179.99999999999963
 51
0.0
  0
LINE
  5
FC
100
AcDbEntity
  8
0
  6
CENTER
 62
               2
100
AcDbLine
 10
40.153720439129245
 20
-100.91391457596805
 30
0.0
 11
36.753720439129211
 21
-100.91391457596805
 31
0.0
  0
CIRCLE
  5
FD
100
AcDbEntity
  8
0
  6
CONTINUOUS
 62
               7
100
AcDbCircle
 10
38.453720439129228
 20
-100.91391457596805
 30
0.0
 40
1.3000000000000012
  0
CIRCLE
  5
FE
100
AcDbEntity
  8
0
  6
CONTINUOUS
 62
               7
100
AcDbCircle
 10
38.453720439129228
 20
-100.91391457596805
 30
0.0
 40
1.1500000000000001
  0
LINE
  5
FF
100
AcDbEntity
  8
0
  6
CONTINUOUS
 62
               7
100
AcDbLine
 10
43.253720439129211
 20
-141.51391457596807
 30
0.0
 11
33.653720439129216
 21
-141.51391457596807
 31
0.0
  0
LINE
  5
100
100
AcDbEntity
  8
0
  6
CONTINUOUS
 62
               7
100
AcDbLine
 10
33.453720439129228
 20
-136.01391457596807
 30
0.0
 11
43.453720439129228
 21
-136.01391457596807
 31
0.0
  0
LINE
  5
101
100
AcDbEntity
  8
0
  6
CONTINUOUS
 62
               7
100
AcDbLine
 10
33.453720439129228
 20
-111.81391457596808
 30
0.0
 11
43.453720439129228
 21
-111.81391457596808
 31
0.0
  0
LINE
  5
102
100
AcDbEntity
  8
0
  6
CONTINUOUS
 62
               7
100
AcDbLine
 10
33.433720439129218
 20
-139.21391457596806
 30
0.0
 11
36.953720439129228
 21
-139.21391457596806
 31
0.0
  0
LINE
  5
103
100
AcDbEntity
  8
0
  6
CONTINUOUS
 62
               7
100
AcDbLine
 10
36.953720439129228
 20
-141.51391457596807
 30
0.0
 11
36.953720439129228
 21
-139.21391457596806
 31
0.0
  0
LINE
  5
104
100
AcDbEntity
  8
0
  6
CONTINUOUS
 62
               7
100
AcDbLine
 10
33.453720439129228
 20
-141.31391457596808
 30
0.0
 11
33.453720439129228
 21
-139.90066400662212
 31
0.0
  0
ARC
  5
105
100
AcDbEntity
  8
0
  6
CONTINUOUS
 62
               7
100
AcDbCircle
 10
33.752825302270338
 20
-138.91480971282695
 30
0.0
 40
0.2991062025847394
100
AcDbArc
 50
179.82853033398985
 51
270.17146966600922
  0
CIRCLE
  5
106
100
AcDbEntity
  8
0
  6
CONTINUOUS
 62
               7
100
AcDbCircle
 10
38.453720439129228
 20
-100.91391457596805
 30
0.0
 40
1.1000000000000001
  0
CIRCLE
  5
107
100
AcDbEntity
  8
0
  6
CONTINUOUS
 62
               7
100
AcDbCircle
 10
38.453720439129228
 20
-100.91391457596805
 30
0.0
 40
0.7500000000000001
  0
ARC
  5
108
100
AcDbEntity
  8
0
  6
CONTINUOUS
 62
               7
100
AcDbCircle
 10
33.653720439129216
 20
-141.31391457596808
 30
0.0
 40
0.2
100
AcDbArc
 50
179.99999999999963
 51
269.99999999999937
  0
ARC
  5
109
100
AcDbEntity
  8
0
  6
CONTINUOUS
 62
               7
100
AcDbCircle
 10
43.253720439129211
 20
-141.31391457596808
 30
0.0
 40
0.2
100
AcDbArc
 50
269.99999999999937
 51
0.0
  0
LINE
  5
10A
100
AcDbEntity
  8
0
  6
CONTINUOUS
 62
               7
100
AcDbLine
 10
33.453720439129228
 20
-139.21391457596806
 30
0.0
 11
33.453720439129228
 21
-98.613914575968039
 31
0.0
  0
LINE
  5
10B
100
AcDbEntity
  8
0
  6
CONTINUOUS
 62
               7
100
AcDbLine
 10
43.453720439129228
 20
-141.31391457596808
 30
0.0
 11
43.453720439129228
 21
-98.613914575968039
 31
0.0
  0
LINE
  5
10C
100
AcDbEntity
  8
0
  6
CONTINUOUS
 62
               4
100
AcDbLine
 10
27.453720439129228
 20
-146.51391457596807
 30
0.0
 11
27.453720439129228
 21
-145.31391457596808
 31
0.0
  0
LINE
  5
10D
100
AcDbEntity
  8
0
  6
CONTINUOUS
 62
               4
100
AcDbLine
 10
49.453720439129228
 20
-146.51391457596807
 30
0.0
 11
49.453720439129228
 21
-145.31391457596808
 31
0.0
  0
LINE
  5
10E
100
AcDbEntity
  8
0
  6
CONTINUOUS
 62
               4
100
AcDbLine
 10
43.753720439129239
 20
-141.51391457596807
 30
0.0
 11
33.153720439129245
 21
-141.51391457596807
 31
0.0
  0
ARC
  5
10F
100
AcDbEntity
  8
0
  6
CONTINUOUS
 62
               4
100
AcDbCircle
 10
43.75283597707309
 20
-142.9147990380242
 30
0.0
 40
1.4008847412629901
100
AcDbArc
 50
0.0361742439122946
 51
89.963825756087459
  0
ARC
  5
110
100
AcDbEntity
  8
0
  6
CONTINUOUS
 62
               4
100
AcDbCircle
 10
33.153652115960739
 20
-142.91384625279957
 30
0.0
 40
1.3999316784987346
100
AcDbArc
 50
89.997203699822904
 51
180.00279630017653
  0
LINE
  5
111
100
AcDbEntity
  8
0
  6
CONTINUOUS
 62
               4
100
AcDbLine
 10
43.953720439129228
 20
-145.11391457596804
 30
0.0
 11
43.953720439129228
 21
-142.91391457596805
 31
0.0
  0
LINE
  5
112
100
AcDbEntity
  8
0
  6
CONTINUOUS
 62
               4
100
AcDbLine
 10
45.153720439129216
 20
-145.11391457596804
 30
0.0
 11
45.153720439129216
 21
-142.91391457596805
 31
0.0
  0
ARC
  5
113
100
AcDbEntity
  8
0
  6
CONTINUOUS
 62
               4
100
AcDbCircle
 10
45.352823772724065
 20
-145.11481124237324
 30
0.0
 40
1.3991036209254675
100
AcDbArc
 50
179.96327991479848
 51
270.03672008520033
  0
ARC
  5
114
100
AcDbEntity
  8
0
  6
CONTINUOUS
 62
               4
100
AcDbCircle
 10
45.352823779175452
 20
-145.11481123592185
 30
0.0
 40
0.1991053590856348
100
AcDbArc
 50
179.74197075907335
 51
270.25802924092562
  0
LINE
  5
115
100
AcDbEntity
  8
0
  6
CONTINUOUS
 62
               4
100
AcDbLine
 10
45.353720439129262
 20
-146.51391457596807
 30
0.0
 11
52.453720439129228
 21
-146.51391457596807
 31
0.0
  0
LINE
  5
116
100
AcDbEntity
  8
0
  6
CONTINUOUS
 62
               4
100
AcDbLine
 10
45.353720439129262
 20
-145.31391457596808
 30
0.0
 11
52.453720439129228
 21
-145.31391457596808
 31
0.0
  0
LINE
  5
117
100
AcDbEntity
  8
0
  6
CONTINUOUS
 62
               4
100
AcDbLine
 10
52.453720439129228
 20
-146.51391457596807
 30
0.0
 11
52.453720439129228
 21
-145.31391457596808
 31
0.0
  0
ARC
  5
118
100
AcDbEntity
  8
0
  6
CONTINUOUS
 62
               4
100
AcDbCircle
 10
42.868940515095829
 20
-143.24733103991579
 30
0.0
 40
0.6147802009733803
100
AcDbArc
 50
286.12836199114588
 51
359.94561607879228
  0
ARC
  5
119
100
AcDbEntity
  8
0
  6
CONTINUOUS
 62
               4
100
AcDbCircle
 10
40.637559803725679
 20
-143.24861796723647
 30
0.0
 40
0.6138397676001843
100
AcDbArc
 50
179.93434547259068
 51
253.74327317895529
  0
ARC
  5
11A
100
AcDbEntity
  8
0
  6
CONTINUOUS
 62
               4
100
AcDbCircle
 10
41.752720439129263
 20
-139.40703847709082
 30
0.0
 40
4.6140039015589682
100
AcDbArc
 50
253.80344035262561
 51
286.19655964737319
  0
ARC
  5
11B
100
AcDbEntity
  8
0
  6
CONTINUOUS
 62
               4
100
AcDbCircle
 10
36.268942465965154
 20
-143.24733250802765
 30
0.0
 40
0.6147782487131708
100
AcDbArc
 50
286.12822533946951
 51
359.94575273046883
  0
ARC
  5
11C
100
AcDbEntity
  8
0
  6
CONTINUOUS
 62
               4
100
AcDbCircle
 10
34.037561757875977
 20
-143.24861650327981
 30
0.0
 40
0.613841720073419
100
AcDbArc
 50
179.93448232673219
 51
253.74313632481389
  0
ARC
  5
11D
100
AcDbEntity
  8
0
  6
CONTINUOUS
 62
               4
100
AcDbCircle
 10
35.15272043912924
 20
-139.4070384770591
 30
0.0
 40
4.6140039015894576
100
AcDbArc
 50
253.80344035273558
 51
286.19655964726314
  0
ARC
  5
11E
100
AcDbEntity
  8
0
  6
CONTINUOUS
 62
               4
100
AcDbCircle
 10
31.553663754519363
 20
-145.11385789135815
 30
0.0
 40
1.4000566857574084
100
AcDbArc
 50
270.00231975529556
 51
359.99768024470291
  0
ARC
  5
11F
100
AcDbEntity
  8
0
  6
CONTINUOUS
 62
               4
100
AcDbCircle
 10
33.153653798061868
 20
-142.9138479349007
 30
0.0
 40
0.1999333700389205
100
AcDbArc
 50
89.980902377767208
 51
180.01909762223218
  0
ARC
  5
120
100
AcDbEntity
  8
0
  6
CONTINUOUS
 62
               4
100
AcDbCircle
 10
43.752835967431935
 20
-142.91479904766535
 30
0.0
 40
0.2008864188024893
100
AcDbArc
 50
0.2522652321918488
 51
89.747734767807131
  0
ARC
  5
121
100
AcDbEntity
  8
0
  6
CONTINUOUS
 62
               4
100
AcDbCircle
 10
31.553662025746604
 20
-145.11385616258545
 30
0.0
 40
0.2000584219104543
100
AcDbArc
 50
270.01672931490481
 51
359.98327068509366
  0
LINE
  5
122
100
AcDbEntity
  8
0
  6
CONTINUOUS
 62
               4
100
AcDbLine
 10
43.483720439129257
 20
-143.24791457596805
 30
0.0
 11
43.483720439129257
 21
-142.71391457596806
 31
0.0
  0
LINE
  5
123
100
AcDbEntity
  8
0
  6
CONTINUOUS
 62
               4
100
AcDbLine
 10
40.023720439129221
 20
-143.24791457596805
 30
0.0
 11
40.023720439129221
 21
-142.71391457596806
 31
0.0
  0
LINE
  5
124
100
AcDbEntity
  8
0
  6
CONTINUOUS
 62
               4
100
AcDbLine
 10
36.883720439129235
 20
-143.24791457596805
 30
0.0
 11
36.883720439129235
 21
-142.71391457596806
 31
0.0
  0
LINE
  5
125
100
AcDbEntity
  8
0
  6
CONTINUOUS
 62
               4
100
AcDbLine
 10
33.423720439129255
 20
-143.24791457596805
 30
0.0
 11
33.423720439129255
 21
-142.71391457596806
 31
0.0
  0
LINE
  5
126
100
AcDbEntity
  8
0
  6
CONTINUOUS
 62
               4
100
AcDbLine
 10
31.753720439129239
 20
-145.11391457596804
 30
0.0
 11
31.753720439129239
 21
-142.91391457596805
 31
0.0
  0
LINE
  5
127
100
AcDbEntity
  8
0
  6
CONTINUOUS
 62
               4
100
AcDbLine
 10
32.953720439129228
 20
-145.11391457596804
 30
0.0
 11
32.953720439129228
 21
-142.91391457596805
 31
0.0
  0
LINE
  5
128
100
AcDbEntity
  8
0
  6
CONTINUOUS
 62
               4
100
AcDbLine
 10
33.153720439129245
 20
-142.71391457596806
 30
0.0
 11
43.753720439129239
 21
-142.71391457596806
 31
0.0
  0
LINE
  5
129
100
AcDbEntity
  8
0
  6
CONTINUOUS
 62
               4
100
AcDbLine
 10
24.453720439129228
 20
-146.51391457596807
 30
0.0
 11
24.453720439129228
 21
-145.31391457596808
 31
0.0
  0
LINE
  5
12A
100
AcDbEntity
  8
0
  6
CONTINUOUS
 62
               4
100
AcDbLine
 10
24.453720439129228
 20
-146.51391457596807
 30
0.0
 11
31.553720439129251
 21
-146.51391457596807
 31
0.0
  0
LINE
  5
12B
100
AcDbEntity
  8
0
  6
CONTINUOUS
 62
               4
100
AcDbLine
 10
24.453720439129228
 20
-145.31391457596808
 30
0.0
 11
31.553720439129251
 21
-145.31391457596808
 31
0.0
  0
LINE
  5
12C
100
AcDbEntity
  8
0
  6
CONTINUOUS
 62
               4
100
AcDbLine
 10
42.51572043912924
 20
-97.535914580237517
 30
0.0
 11
34.391720439129216
 21
-97.535914580237517
 31
0.0
  0
LINE
  5
12D
100
AcDbEntity
  8
0
  6
CONTINUOUS
 62
               4
100
AcDbLine
 10
42.953720439129228
 20
-80.113914575968039
 30
0.0
 11
33.953720439129228
 21
-80.113914575968039
 31
0.0
  0
LINE
  5
12E
100
AcDbEntity
  8
0
  6
CONTINUOUS
 62
               4
100
AcDbLine
 10
43.453720439129228
 20
-77.713914575968062
 30
0.0
 11
40.253720439129182
 21
-77.713914575968062
 31
0.0
  0
LINE
  5
12F
100
AcDbEntity
  8
0
  6
CONTINUOUS
 62
               4
100
AcDbLine
 10
43.453720439129228
 20
-76.113914575968039
 30
0.0
 11
33.453720439129228
 21
-76.113914575968039
 31
0.0
  0
LINE
  5
130
100
AcDbEntity
  8
0
  6
CONTINUOUS
 62
               4
100
AcDbLine
 10
43.453720439129228
 20
-76.713914575968062
 30
0.0
 11
40.253720439129182
 21
-76.713914575968062
 31
0.0
  0
LINE
  5
131
100
AcDbEntity
  8
0
  6
CONTINUOUS
 62
               4
100
AcDbLine
 10
33.453720439129228
 20
-98.613914575968039
 30
0.0
 11
43.453720439129228
 21
-98.613914575968039
 31
0.0
  0
ARC
  5
132
100
AcDbEntity
  8
0
  6
CONTINUOUS
 62
               4
100
AcDbCircle
 10
33.954017463335362
 20
-98.113617551761905
 30
0.0
 40
0.5002971123771115
100
AcDbArc
 50
180.03401625554557
 51
269.96598374445358
  0
LINE
  5
134
100
AcDbEntity
  8
0
  6
PHANTOM
 62
               4
100
AcDbLine
 10
36.953702128582364
 20
-91.113914580237491
 30
0.0
 11
36.953702128582364
 21
-93.113914580237491
 31
0.0
  0
LINE
  5
135
100
AcDbEntity
  8
0
  6
PHANTOM
 62
               4
100
AcDbLine
 10
39.953702128582364
 20
-91.113914580237491
 30
0.0
 11
39.953702128582364
 21
-93.113914580237491
 31
0.0
  0
LINE
  5
136
100
AcDbEntity
  8
0
  6
PHANTOM
 62
               4
100
AcDbLine
 10
36.953702128582364
 20
-93.113914580237491
 30
0.0
 11
39.953702128582364
 21
-93.113914580237491
 31
0.0
  0
LINE
  5
137
100
AcDbEntity
  8
0
  6
PHANTOM
 62
               4
100
AcDbLine
 10
36.953702128582364
 20
-91.113914580237491
 30
0.0
 11
39.953702128582364
 21
-91.113914580237491
 31
0.0
  0
LINE
  5
138
100
AcDbEntity
  8
0
  6
CONTINUOUS
 62
               4
100
AcDbLine
 10
40.253720439129182
 20
-76.213914575968062
 30
0.0
 11
33.953720439129228
 21
-76.213914575968062
 31
0.0
  0
LINE
  5
139
100
AcDbEntity
  8
0
  6
CONTINUOUS
 62
               4
100
AcDbLine
 10
40.253720439129182
 20
-76.213914575968062
 30
0.0
 11
40.253720439129182
 21
-77.713914575968062
 31
0.0
  0
ARC
  5
13A
100
AcDbEntity
  8
0
  6
CONTINUOUS
 62
               4
100
AcDbCircle
 10
33.953720439129228
 20
-76.713914575968062
 30
0.0
 40
0.5
100
AcDbArc
 50
89.999999999999815
 51
179.99999999999963
  0
CIRCLE
  5
13B
100
AcDbEntity
  8
0
  6
CONTINUOUS
 62
               4
100
AcDbCircle
 10
39.704314311199568
 20
-83.613914575968039
 30
0.0
 40
0.25
  0
CIRCLE
  5
13C
100
AcDbEntity
  8
0
  6
CONTINUOUS
 62
               4
100
AcDbCircle
 10
37.204314311199568
 20
-83.613914575968039
 30
0.0
 40
0.25
  0
LINE
  5
13D
100
AcDbEntity
  8
0
  6
CONTINUOUS
 62
               4
100
AcDbLine
 10
33.891720439129216
 20
-80.613914575968039
 30
0.0
 11
33.891720439129216
 21
-97.035914580237517
 31
0.0
  0
ARC
  5
13E
100
AcDbEntity
  8
0
  6
CONTINUOUS
 62
               4
100
AcDbCircle
 10
34.391738383787157
 20
-80.61393252062598
 30
0.0
 40
0.5000179449799356
100
AcDbArc
 50
90.002056232531103
 51
179.99794376746806
  0
ARC
  5
13F
100
AcDbEntity
  8
0
  6
CONTINUOUS
 62
               4
100
AcDbCircle
 10
33.954017463335362
 20
-80.614211600174173
 30
0.0
 40
0.5002971123771114
100
AcDbArc
 50
90.034016255545609
 51
179.96598374445358
  0
ARC
  5
140
100
AcDbEntity
  8
0
  6
CONTINUOUS
 62
               4
100
AcDbCircle
 10
34.39150687833839
 20
-97.036128141028314
 30
0.0
 40
0.4997864848369056
100
AcDbArc
 50
179.97551728042748
 51
270.02448271957149
  0
ARC
  5
141
100
AcDbEntity
  8
0
  6
CONTINUOUS
 62
               4
100
AcDbCircle
 10
39.703720439129228
 20
-83.613914575968039
 30
0.0
 40
2.0000000881710065
100
AcDbArc
 50
269.99999999999937
 51
89.999999999999801
  0
ARC
  5
142
100
AcDbEntity
  8
0
  6
CONTINUOUS
 62
               4
100
AcDbCircle
 10
37.203720439129228
 20
-83.613914575968039
 30
0.0
 40
2.0000000881710065
100
AcDbArc
 50
89.999999999999815
 51
269.99999999999937
  0
LINE
  5
143
100
AcDbEntity
  8
0
  6
CONTINUOUS
 62
               4
100
AcDbLine
 10
39.703720439129228
 20
-81.613914575968039
 30
0.0
 11
37.203720439129228
 21
-81.613914575968039
 31
0.0
  0
LINE
  5
144
100
AcDbEntity
  8
0
  6
CONTINUOUS
 62
               4
100
AcDbLine
 10
39.703720439129228
 20
-85.613914575968039
 30
0.0
 11
37.203720439129228
 21
-85.613914575968039
 31
0.0
  0
CIRCLE
  5
145
100
AcDbEntity
  8
0
  6
CONTINUOUS
 62
               4
100
AcDbCircle
 10
39.704314311199568
 20
-83.613914575968039
 30
0.0
 40
0.7250000000000001
  0
CIRCLE
  5
146
100
AcDbEntity
  8
0
  6
CONTINUOUS
 62
               4
100
AcDbCircle
 10
37.204314311199568
 20
-83.613914575968039
 30
0.0
 40
0.7250000000000001
  0
ARC
  5
147
100
AcDbEntity
  8
0
  6
CONTINUOUS
 62
               4
100
AcDbCircle
 10
40.856632433892145
 20
-76.712826570731039
 30
0.0
 40
0.5989129830170392
100
AcDbArc
 50
89.895914524772735
 51
180.10408547522667
  0
LINE
  5
148
100
AcDbEntity
  8
0
  6
CONTINUOUS
 62
               4
100
AcDbLine
 10
33.453720439129228
 20
-76.113914575968039
 30
0.0
 11
33.453720439129228
 21
-98.613914575968039
 31
0.0
  0
ARC
  5
149
100
AcDbEntity
  8
0
  6
CONTINUOUS
 62
               4
100
AcDbCircle
 10
42.954017286993434
 20
-98.114211423832245
 30
0.0
 40
0.4997032403068001
100
AcDbArc
 50
269.96596353714654
 51
0.0340364628527164
  0
LINE
  5
14A
100
AcDbEntity
  8
0
  6
CONTINUOUS
 62
               4
100
AcDbLine
 10
43.01572043912924
 20
-80.613914575968039
 30
0.0
 11
43.01572043912924
 21
-97.035914580237517
 31
0.0
  0
ARC
  5
14B
100
AcDbEntity
  8
0
  6
CONTINUOUS
 62
               4
100
AcDbCircle
 10
42.954017286993434
 20
-80.613617728103833
 30
0.0
 40
0.4997032403068001
100
AcDbArc
 50
359.96596353714654
 51
90.034036462852711
  0
ARC
  5
14C
100
AcDbEntity
  8
0
  6
CONTINUOUS
 62
               4
100
AcDbCircle
 10
42.516296035171507
 20
-80.613338979925771
 30
0.0
 40
0.499424735650256
100
AcDbArc
 50
359.93396556302804
 51
90.066034436970796
  0
ARC
  5
14D
100
AcDbEntity
  8
0
  6
CONTINUOUS
 62
               4
100
AcDbCircle
 10
42.516527815662897
 20
-97.036721956771231
 30
0.0
 40
0.4991932763770037
100
AcDbArc
 50
269.90733190886618
 51
0.0926680911333844
  0
ARC
  5
14E
100
AcDbEntity
  8
0
  6
CONTINUOUS
 62
               4
100
AcDbCircle
 10
42.657815585787404
 20
-76.713819429309837
 30
0.0
 40
0.5999048608870732
100
AcDbArc
 50
359.99091272245295
 51
90.009087277546172
  0
LINE
  5
14F
100
AcDbEntity
  8
0
  6
CONTINUOUS
 62
               4
100
AcDbLine
 10
43.453720439129228
 20
-76.113914575968039
 30
0.0
 11
43.453720439129228
 21
-98.613914575968039
 31
0.0
  0
LINE
  5
150
100
AcDbEntity
  8
0
  6
CENTER
 62
               2
100
AcDbLine
 10
38.453720439129228
 20
-74.748860636766238
 30
0.0
 11
38.453720439129228
 21
-141.91783691665736
 31
0.0
  0
LINE
  5
151
100
AcDbEntity
  8
0
  6
CENTER
 62
             200
100
AcDbLine
 10
27.453720439129228
 20
-148.82815054548652
 30
0.0
 11
27.453720439129228
 21
-143.626387452015
 31
0.0
  0
LINE
  5
152
100
AcDbEntity
  8
0
  6
CENTER
 62
             200
100
AcDbLine
 10
49.453720439129228
 20
-148.82815054548652
 30
0.0
 11
49.453720439129228
 21
-143.626387452015
 31
0.0
  0
LINE
  5
153
100
AcDbEntity
  8
0
  6
CENTER
 62
               2
100
AcDbLine
 10
60.315210582224097
 20
22.056770138001554
 30
0.0
 11
60.315210582224097
 21
88.560692478690825
 31
0.0
  0
LINE
  5
154
100
AcDbEntity
  8
0
  6
CONTINUOUS
 62
               4
100
AcDbLine
 10
65.615210582224108
 20
22.460692478690845
 30
0.0
 11
55.015210582224114
 21
22.460692478690845
 31
0.0
  0
LINE
  5
155
100
AcDbEntity
  8
0
  6
CENTER
 62
             200
100
AcDbLine
 10
49.315210582224097
 20
15.146456509172395
 30
0.0
 11
49.315210582224097
 21
20.348219602643923
 31
0.0
  0
LINE
  5
156
100
AcDbEntity
  8
0
  6
CENTER
 62
             200
100
AcDbLine
 10
71.315210582224097
 20
15.146456509172395
 30
0.0
 11
71.315210582224097
 21
20.348219602643923
 31
0.0
  0
LINE
  5
157
100
AcDbEntity
  8
0
  6
CONTINUOUS
 62
               4
100
AcDbLine
 10
46.315210582224097
 20
18.660692478690862
 30
0.0
 11
53.41521058222412
 21
18.660692478690862
 31
0.0
  0
LINE
  5
158
100
AcDbEntity
  8
0
  6
CONTINUOUS
 62
               4
100
AcDbLine
 10
46.315210582224097
 20
17.460692478690845
 30
0.0
 11
53.41521058222412
 21
17.460692478690845
 31
0.0
  0
LINE
  5
159
100
AcDbEntity
  8
0
  6
CONTINUOUS
 62
               4
100
AcDbLine
 10
46.315210582224097
 20
17.460692478690845
 30
0.0
 11
46.315210582224097
 21
18.660692478690862
 31
0.0
  0
LINE
  5
15A
100
AcDbEntity
  8
0
  6
CONTINUOUS
 62
               4
100
AcDbLine
 10
55.015210582224114
 20
21.260692478690856
 30
0.0
 11
65.615210582224108
 21
21.260692478690856
 31
0.0
  0
LINE
  5
15B
100
AcDbEntity
  8
0
  6
CONTINUOUS
 62
               4
100
AcDbLine
 10
54.815210582224097
 20
18.860692478690879
 30
0.0
 11
54.815210582224097
 21
21.060692478690868
 31
0.0
  0
LINE
  5
15C
100
AcDbEntity
  8
0
  6
CONTINUOUS
 62
               4
100
AcDbLine
 10
53.615210582224108
 20
18.860692478690879
 30
0.0
 11
53.615210582224108
 21
21.060692478690868
 31
0.0
  0
LINE
  5
15D
100
AcDbEntity
  8
0
  6
CONTINUOUS
 62
               4
100
AcDbLine
 10
55.285210582224124
 20
20.726692478690865
 30
0.0
 11
55.285210582224124
 21
21.260692478690856
 31
0.0
  0
LINE
  5
15E
100
AcDbEntity
  8
0
  6
CONTINUOUS
 62
               4
100
AcDbLine
 10
58.745210582224104
 20
20.726692478690865
 30
0.0
 11
58.745210582224104
 21
21.260692478690856
 31
0.0
  0
LINE
  5
15F
100
AcDbEntity
  8
0
  6
CONTINUOUS
 62
               4
100
AcDbLine
 10
61.88521058222409
 20
20.726692478690865
 30
0.0
 11
61.88521058222409
 21
21.260692478690856
 31
0.0
  0
LINE
  5
160
100
AcDbEntity
  8
0
  6
CONTINUOUS
 62
               4
100
AcDbLine
 10
65.345210582224126
 20
20.726692478690865
 30
0.0
 11
65.345210582224126
 21
21.260692478690856
 31
0.0
  0
ARC
  5
161
100
AcDbEntity
  8
0
  6
CONTINUOUS
 62
               4
100
AcDbCircle
 10
53.415152168841473
 20
18.860750892073497
 30
0.0
 40
0.2000584219104543
100
AcDbArc
 50
270.01672931490481
 51
359.98327068509366
  0
ARC
  5
162
100
AcDbEntity
  8
0
  6
CONTINUOUS
 62
               4
100
AcDbCircle
 10
65.614326110526804
 20
21.059808006993563
 30
0.0
 40
0.2008864188024893
100
AcDbArc
 50
0.2522652321918488
 51
89.747734767807131
  0
ARC
  5
163
100
AcDbEntity
  8
0
  6
CONTINUOUS
 62
               4
100
AcDbCircle
 10
55.015143941156737
 20
21.060759119758217
 30
0.0
 40
0.1999333700389205
100
AcDbArc
 50
89.980902377767208
 51
180.01909762223218
  0
ARC
  5
164
100
AcDbEntity
  8
0
  6
CONTINUOUS
 62
               4
100
AcDbCircle
 10
53.415153897614232
 20
18.860749163300767
 30
0.0
 40
1.4000566857574084
100
AcDbArc
 50
270.00231975529556
 51
359.99768024470291
  0
ARC
  5
165
100
AcDbEntity
  8
0
  6
CONTINUOUS
 62
               4
100
AcDbCircle
 10
57.014210582224109
 20
24.567568577599815
 30
0.0
 40
4.6140039015894576
100
AcDbArc
 50
253.80344035273558
 51
286.19655964726314
  0
ARC
  5
166
100
AcDbEntity
  8
0
  6
CONTINUOUS
 62
               4
100
AcDbCircle
 10
55.899051900970846
 20
20.725990551379113
 30
0.0
 40
0.613841720073419
100
AcDbArc
 50
179.93448232673219
 51
253.74313632481389
  0
ARC
  5
167
100
AcDbEntity
  8
0
  6
CONTINUOUS
 62
               4
100
AcDbCircle
 10
58.130432609060023
 20
20.727274546631293
 30
0.0
 40
0.6147782487131708
100
AcDbArc
 50
286.12822533946951
 51
359.94575273046883
  0
ARC
  5
168
100
AcDbEntity
  8
0
  6
CONTINUOUS
 62
               4
100
AcDbCircle
 10
63.614210582224132
 20
24.567568577568096
 30
0.0
 40
4.6140039015589682
100
AcDbArc
 50
253.80344035262561
 51
286.19655964737319
  0
ARC
  5
169
100
AcDbEntity
  8
0
  6
CONTINUOUS
 62
               4
100
AcDbCircle
 10
62.499049946820548
 20
20.725989087422448
 30
0.0
 40
0.6138397676001843
100
AcDbArc
 50
179.93434547259068
 51
253.74327317895529
  0
ARC
  5
16A
100
AcDbEntity
  8
0
  6
CONTINUOUS
 62
               4
100
AcDbCircle
 10
64.730430658190699
 20
20.727276014743126
 30
0.0
 40
0.6147802009733803
100
AcDbArc
 50
286.12836199114588
 51
359.94561607879228
  0
LINE
  5
16B
100
AcDbEntity
  8
0
  6
CONTINUOUS
 62
               4
100
AcDbLine
 10
74.315210582224097
 20
17.460692478690845
 30
0.0
 11
74.315210582224097
 21
18.660692478690862
 31
0.0
  0
LINE
  5
16C
100
AcDbEntity
  8
0
  6
CONTINUOUS
 62
               4
100
AcDbLine
 10
67.215210582224131
 20
18.660692478690862
 30
0.0
 11
74.315210582224097
 21
18.660692478690862
 31
0.0
  0
LINE
  5
16D
100
AcDbEntity
  8
0
  6
CONTINUOUS
 62
               4
100
AcDbLine
 10
67.215210582224131
 20
17.460692478690845
 30
0.0
 11
74.315210582224097
 21
17.460692478690845
 31
0.0
  0
ARC
  5
16E
100
AcDbEntity
  8
0
  6
CONTINUOUS
 62
               4
100
AcDbCircle
 10
67.214313922270321
 20
18.859795818737069
 30
0.0
 40
0.1991053590856348
100
AcDbArc
 50
179.74197075907335
 51
270.25802924092562
  0
ARC
  5
16F
100
AcDbEntity
  8
0
  6
CONTINUOUS
 62
               4
100
AcDbCircle
 10
67.214313915818934
 20
18.859795812285682
 30
0.0
 40
1.3991036209254675
100
AcDbArc
 50
179.96327991479848
 51
270.03672008520033
  0
LINE
  5
170
100
AcDbEntity
  8
0
  6
CONTINUOUS
 62
               4
100
AcDbLine
 10
67.015210582224086
 20
18.860692478690879
 30
0.0
 11
67.015210582224086
 21
21.060692478690868
 31
0.0
  0
LINE
  5
171
100
AcDbEntity
  8
0
  6
CONTINUOUS
 62
               4
100
AcDbLine
 10
65.815210582224097
 20
18.860692478690879
 30
0.0
 11
65.815210582224097
 21
21.060692478690868
 31
0.0
  0
LINE
  5
172
100
AcDbEntity
  8
0
  6
CONTINUOUS
 62
               4
100
AcDbLine
 10
71.315210582224097
 20
17.460692478690845
 30
0.0
 11
71.315210582224097
 21
18.660692478690862
 31
0.0
  0
LINE
  5
173
100
AcDbEntity
  8
0
  6
CONTINUOUS
 62
               4
100
AcDbLine
 10
49.315210582224097
 20
17.460692478690845
 30
0.0
 11
49.315210582224097
 21
18.660692478690862
 31
0.0
  0
ARC
  5
174
100
AcDbEntity
  8
0
  6
CONTINUOUS
 62
               4
100
AcDbCircle
 10
65.614326120167959
 20
21.059808016634719
 30
0.0
 40
1.4008847412629901
100
AcDbArc
 50
0.0361742439122946
 51
89.963825756087459
  0
ARC
  5
175
100
AcDbEntity
  8
0
  6
CONTINUOUS
 62
               4
100
AcDbCircle
 10
55.015142259055608
 20
21.060760801859374
 30
0.0
 40
1.3999316784987346
100
AcDbArc
 50
89.997203699822904
 51
180.00279630017653
  0
LINE
  5
176
100
AcDbEntity
  8
0
  6
CENTER
 62
               2
100
AcDbLine
 10
62.015210582224114
 20
31.660692478690862
 30
0.0
 11
58.3022235692371
 21
31.660692478690862
 31
0.0
  0
CIRCLE
  5
177
100
AcDbEntity
  8
0
  6
CONTINUOUS
 62
               7
100
AcDbCircle
 10
60.315210582224097
 20
31.660692478690862
 30
0.0
 40
1.25
  0
CIRCLE
  5
178
100
AcDbEntity
  8
0
  6
CONTINUOUS
 62
               2
100
AcDbCircle
 10
60.315210582224097
 20
31.660692478690862
 30
0.0
 40
1.5
  0
CIRCLE
  5
179
100
AcDbEntity
  8
0
  6
CONTINUOUS
 62
               2
100
AcDbCircle
 10
60.314362071481924
 20
48.453568011050265
 30
0.0
 40
1.5
  0
LINE
  5
17A
100
AcDbEntity
  8
0
  6
CENTER
 62
               2
100
AcDbLine
 10
62.015210582224114
 20
48.460692478690845
 30
0.0
 11
58.61521058222408
 21
48.460692478690845
 31
0.0
  0
CIRCLE
  5
17B
100
AcDbEntity
  8
0
  6
CONTINUOUS
 62
               7
100
AcDbCircle
 10
60.315210582224097
 20
48.460692478690845
 30
0.0
 40
1.25
  0
LINE
  5
17C
100
AcDbEntity
  8
0
  6
CENTER
 62
               2
100
AcDbLine
 10
63.321230358260927
 20
40.060692478690839
 30
0.0
 11
57.211196400740697
 21
40.060692478690868
 31
0.0
  0
CIRCLE
  5
17D
100
AcDbEntity
  8
0
  6
CONTINUOUS
 62
               7
100
AcDbCircle
 10
60.315210582224097
 20
40.060692478690839
 30
0.0
 40
2.1000000000000001
  0
CIRCLE
  5
17E
100
AcDbEntity
  8
0
  6
CONTINUOUS
 62
               2
100
AcDbCircle
 10
60.315210582224097
 20
40.060692478690839
 30
0.0
 40
2.5
  0
CIRCLE
  5
17F
100
AcDbEntity
  8
0
  6
CONTINUOUS
 62
               7
100
AcDbCircle
 10
64.114362071481906
 20
31.761665745292419
 30
0.0
 40
0.9
  0
LINE
  5
180
100
AcDbEntity
  8
0
  6
CENTER
 62
               2
100
AcDbLine
 10
65.265210582224114
 20
31.760692478690828
 30
0.0
 11
62.965210582224103
 21
31.760692478690828
 31
0.0
  0
LINE
  5
181
100
AcDbEntity
  8
0
  6
CENTER
 62
               2
100
AcDbLine
 10
64.11521058222408
 20
30.610692478690851
 30
0.0
 11
64.11521058222408
 21
32.910692478690862
 31
0.0
  0
LINE
  5
182
100
AcDbEntity
  8
0
  6
CENTER
 62
               2
100
AcDbLine
 10
56.515210582224114
 20
47.210692478690845
 30
0.0
 11
56.515210582224114
 21
49.510692478690828
 31
0.0
  0
CIRCLE
  5
183
100
AcDbEntity
  8
0
  6
CONTINUOUS
 62
               7
100
AcDbCircle
 10
56.514362071481912
 20
48.361665745292413
 30
0.0
 40
0.9
  0
LINE
  5
184
100
AcDbEntity
  8
0
  6
CENTER
 62
               2
100
AcDbLine
 10
57.665210582224091
 20
48.360692478690851
 30
0.0
 11
55.36521058222408
 21
48.360692478690851
 31
0.0
  0
CIRCLE
  5
185
100
AcDbEntity
  8
0
  6
CONTINUOUS
 62
               7
100
AcDbCircle
 10
60.315210582224097
 20
60.060692478690868
 30
0.0
 40
0.75
  0
LINE
  5
186
100
AcDbEntity
  8
0
  6
CONTINUOUS
 62
               7
100
AcDbLine
 10
65.315210582224097
 20
22.660692478690862
 30
0.0
 11
65.315210582224097
 21
65.360692478690879
 31
0.0
  0
LINE
  5
187
100
AcDbEntity
  8
0
  6
CONTINUOUS
 62
               7
100
AcDbLine
 10
55.315210582224097
 20
24.760692478690856
 30
0.0
 11
55.315210582224097
 21
65.360692478690879
 31
0.0
  0
ARC
  5
188
100
AcDbEntity
  8
0
  6
CONTINUOUS
 62
               7
100
AcDbCircle
 10
65.11521058222408
 20
22.660692478690862
 30
0.0
 40
0.2
100
AcDbArc
 50
269.99999999999937
 51
0.0
  0
ARC
  5
189
100
AcDbEntity
  8
0
  6
CONTINUOUS
 62
               7
100
AcDbCircle
 10
55.515210582224086
 20
22.660692478690862
 30
0.0
 40
0.2
100
AcDbArc
 50
179.99999999999963
 51
269.99999999999937
  0
ARC
  5
18A
100
AcDbEntity
  8
0
  6
CONTINUOUS
 62
               7
100
AcDbCircle
 10
55.614315445365207
 20
25.059797341831967
 30
0.0
 40
0.2991062025847394
100
AcDbArc
 50
179.82853033398985
 51
270.17146966600922
  0
LINE
  5
18B
100
AcDbEntity
  8
0
  6
CONTINUOUS
 62
               7
100
AcDbLine
 10
55.315210582224097
 20
22.660692478690862
 30
0.0
 11
55.315210582224097
 21
24.073943048036796
 31
0.0
  0
LINE
  5
18C
100
AcDbEntity
  8
0
  6
CONTINUOUS
 62
               7
100
AcDbLine
 10
58.815210582224097
 20
22.460692478690845
 30
0.0
 11
58.815210582224097
 21
24.760692478690856
 31
0.0
  0
LINE
  5
18D
100
AcDbEntity
  8
0
  6
CONTINUOUS
 62
               7
100
AcDbLine
 10
55.295210582224087
 20
24.760692478690856
 30
0.0
 11
58.815210582224097
 21
24.760692478690856
 31
0.0
  0
LINE
  5
18E
100
AcDbEntity
  8
0
  6
CONTINUOUS
 62
               7
100
AcDbLine
 10
65.315210582224097
 20
52.160692478690862
 30
0.0
 11
55.315210582224097
 21
52.160692478690862
 31
0.0
  0
LINE
  5
18F
100
AcDbEntity
  8
0
  6
CONTINUOUS
 62
               7
100
AcDbLine
 10
65.315210582224097
 20
27.960692478690873
 30
0.0
 11
55.315210582224097
 21
27.960692478690873
 31
0.0
  0
LINE
  5
190
100
AcDbEntity
  8
0
  6
CONTINUOUS
 62
               7
100
AcDbLine
 10
65.11521058222408
 20
22.460692478690845
 30
0.0
 11
55.515210582224086
 21
22.460692478690845
 31
0.0
  0
LINE
  5
191
100
AcDbEntity
  8
0
  6
CONTINUOUS
 62
               7
100
AcDbLine
 10
55.315210582224097
 20
65.360692478690879
 30
0.0
 11
65.315210582224097
 21
65.360692478690879
 31
0.0
  0
LINE
  5
192
100
AcDbEntity
  8
0
  6
CONTINUOUS
 62
               4
100
AcDbLine
 10
65.315210582224097
 20
87.860692478690837
 30
0.0
 11
65.315210582224097
 21
65.360692478690879
 31
0.0
  0
LINE
  5
193
100
AcDbEntity
  8
0
  6
CONTINUOUS
 62
               4
100
AcDbLine
 10
55.315210582224097
 20
87.860692478690837
 30
0.0
 11
55.315210582224097
 21
65.360692478690879
 31
0.0
  0
ARC
  5
194
100
AcDbEntity
  8
0
  6
CONTINUOUS
 62
               4
100
AcDbCircle
 10
62.718122576987071
 20
87.261780483927851
 30
0.0
 40
0.5989129830170392
100
AcDbArc
 50
89.895914524772735
 51
180.10408547522667
  0
ARC
  5
195
100
AcDbEntity
  8
0
  6
CONTINUOUS
 62
               4
100
AcDbCircle
 10
64.519305728882301
 20
87.260787625348996
 30
0.0
 40
0.5999048608870732
100
AcDbArc
 50
359.99091272245295
 51
90.009087277546172
  0
LINE
  5
196
100
AcDbEntity
  8
0
  6
CONTINUOUS
 62
               4
100
AcDbLine
 10
65.315210582224097
 20
87.260692478690828
 30
0.0
 11
62.115210582224108
 21
87.260692478690828
 31
0.0
  0
ARC
  5
197
100
AcDbEntity
  8
0
  6
CONTINUOUS
 62
               4
100
AcDbCircle
 10
55.815210582224097
 20
87.260692478690828
 30
0.0
 40
0.5
100
AcDbArc
 50
89.999999999999815
 51
179.99999999999963
  0
LINE
  5
198
100
AcDbEntity
  8
0
  6
CONTINUOUS
 62
               4
100
AcDbLine
 10
62.11521058222408
 20
87.760692478690842
 30
0.0
 11
62.11521058222408
 21
86.260692478690842
 31
0.0
  0
LINE
  5
199
100
AcDbEntity
  8
0
  6
CONTINUOUS
 62
               4
100
AcDbLine
 10
62.11521058222408
 20
87.760692478690842
 30
0.0
 11
55.815210582224097
 21
87.760692478690842
 31
0.0
  0
LINE
  5
19A
100
AcDbEntity
  8
0
  6
CONTINUOUS
 62
               4
100
AcDbLine
 10
65.315210582224097
 20
86.260692478690842
 30
0.0
 11
62.11521058222408
 21
86.260692478690842
 31
0.0
  0
LINE
  5
19B
100
AcDbEntity
  8
0
  6
CONTINUOUS
 62
               4
100
AcDbLine
 10
65.315210582224097
 20
87.860692478690837
 30
0.0
 11
55.315210582224097
 21
87.860692478690837
 31
0.0
  0
ARC
  5
19C
100
AcDbEntity
  8
0
  6
CONTINUOUS
 62
               7
100
AcDbCircle
 10
57.015210582224114
 20
28.048113715424819
 30
0.0
 40
4.5876068132596712
100
AcDbArc
 50
253.79871892415684
 51
286.20128107584191
  0
ARC
  5
19D
100
AcDbEntity
  8
0
  6
CONTINUOUS
 62
               7
100
AcDbCircle
 10
58.123438586390165
 20
24.229855196661816
 30
0.0
 40
0.6117725687931934
100
AcDbArc
 50
286.30661609184898
 51
0.0784159734340139
  0
LINE
  5
19E
100
AcDbEntity
  8
0
  6
CONTINUOUS
 62
               7
100
AcDbLine
 10
58.735210582224084
 20
24.230692478690855
 30
0.0
 11
58.735210582224084
 21
24.760692478690856
 31
0.0
  0
ARC
  5
19F
100
AcDbEntity
  8
0
  6
CONTINUOUS
 62
               7
100
AcDbCircle
 10
55.905764550333146
 20
24.228943747343891
 30
0.0
 40
0.6105564724372721
100
AcDbArc
 50
179.83589550320582
 51
253.77907243150949
  0
LINE
  5
1A0
100
AcDbEntity
  8
0
  6
CONTINUOUS
 62
               7
100
AcDbLine
 10
55.295210582224087
 20
24.230692478690855
 30
0.0
 11
55.295210582224087
 21
24.760692478690856
 31
0.0
  0
LINE
  5
1A1
100
AcDbEntity
  8
0
  6
CONTINUOUS
 62
               4
100
AcDbLine
 10
62.215210582224074
 20
95.830692478690736
 30
0.0
 11
62.215210582224074
 21
92.860692478690737
 31
0.0
  0
LINE
  5
1A2
100
AcDbEntity
  8
0
  6
CONTINUOUS
 62
               4
100
AcDbLine
 10
60.915210582224063
 20
96.180692478690759
 30
0.0
 11
60.915210582224063
 21
92.860692478690737
 31
0.0
  0
LINE
  5
1A3
100
AcDbEntity
  8
0
  6
CONTINUOUS
 62
               4
100
AcDbLine
 10
58.415210582224063
 20
96.850692478690746
 30
0.0
 11
58.415210582224063
 21
92.860692478690737
 31
0.0
  0
LINE
  5
1A4
100
AcDbEntity
  8
0
  6
CONTINUOUS
 62
               4
100
AcDbLine
 10
59.715210582224074
 20
96.500692478690752
 30
0.0
 11
59.715210582224074
 21
92.860692478690737
 31
0.0
  0
LINE
  5
1A5
100
AcDbEntity
  8
0
  6
CONTINUOUS
 62
               4
100
AcDbLine
 10
60.915210582224063
 20
100.35362175162422
 30
0.0
 11
62.215210582224074
 21
100.35362175162422
 31
0.0
  0
LINE
  5
1A6
100
AcDbEntity
  8
0
  6
CONTINUOUS
 62
             200
100
AcDbLine
 10
56.565210582224097
 20
98.380692478690747
 30
0.0
 11
64.065210582224097
 21
96.370692478690756
 31
0.0
  0
LINE
  5
1A7
100
AcDbEntity
  8
0
  6
CONTINUOUS
 62
             200
100
AcDbLine
 10
56.565210582224097
 20
97.340692478690755
 30
0.0
 11
64.065210582224097
 21
95.330692478690736
 31
0.0
  0
LINE
  5
1A8
100
AcDbEntity
  8
0
  6
CONTINUOUS
 62
               4
100
AcDbLine
 10
58.415210582224063
 20
100.35362175162422
 30
0.0
 11
59.715210582224074
 21
100.35362175162422
 31
0.0
  0
LINE
  5
1A9
100
AcDbEntity
  8
0
  6
CONTINUOUS
 62
               4
100
AcDbLine
 10
61.315210582224097
 20
103.85362174962424
 30
0.0
 11
61.315210582224097
 21
100.35362175162422
 31
0.0
  0
LINE
  5
1AA
100
AcDbEntity
  8
0
  6
CONTINUOUS
 62
               4
100
AcDbLine
 10
61.815210582224097
 20
103.85362174962424
 30
0.0
 11
61.815210582224097
 21
100.35362175162422
 31
0.0
  0
LINE
  5
1AB
100
AcDbEntity
  8
0
  6
CONTINUOUS
 62
               4
100
AcDbLine
 10
58.415210582224063
 20
100.35362175162422
 30
0.0
 11
58.415210582224063
 21
97.880692478690747
 31
0.0
  0
LINE
  5
1AC
100
AcDbEntity
  8
0
  6
CONTINUOUS
 62
               4
100
AcDbLine
 10
59.715210582224074
 20
100.35362175162422
 30
0.0
 11
59.715210582224074
 21
97.530692478690753
 31
0.0
  0
LINE
  5
1AD
100
AcDbEntity
  8
0
  6
CONTINUOUS
 62
               4
100
AcDbLine
 10
58.815210582224097
 20
103.85362174962424
 30
0.0
 11
58.815210582224097
 21
100.35362175162422
 31
0.0
  0
LINE
  5
1AE
100
AcDbEntity
  8
0
  6
CONTINUOUS
 62
               4
100
AcDbLine
 10
59.315210582224097
 20
103.85362174962424
 30
0.0
 11
59.315210582224097
 21
100.35362175162422
 31
0.0
  0
LINE
  5
1AF
100
AcDbEntity
  8
0
  6
CONTINUOUS
 62
               4
100
AcDbLine
 10
60.915210582224063
 20
100.35362175162422
 30
0.0
 11
60.915210582224063
 21
97.21069247869076
 31
0.0
  0
LINE
  5
1B0
100
AcDbEntity
  8
0
  6
CONTINUOUS
 62
               4
100
AcDbLine
 10
62.215210582224074
 20
100.35362175162422
 30
0.0
 11
62.215210582224074
 21
96.860692478690737
 31
0.0
  0
LINE
  5
1B1
100
AcDbEntity
  8
0
  6
CONTINUOUS
 62
               4
100
AcDbLine
 10
58.815210582224097
 20
103.85362174962424
 30
0.0
 11
59.315210582224097
 21
103.85362174962424
 31
0.0
  0
LINE
  5
1B2
100
AcDbEntity
  8
0
  6
CONTINUOUS
 62
               4
100
AcDbLine
 10
61.315210582224097
 20
103.85362174962424
 30
0.0
 11
61.815210582224097
 21
103.85362174962424
 31
0.0
  0
LINE
  5
1B3
100
AcDbEntity
  8
0
  6
CONTINUOUS
 62
               4
100
AcDbLine
 10
56.565210582224097
 20
92.860692478690737
 30
0.0
 11
56.565210582224097
 21
87.860692478690837
 31
0.0
  0
LINE
  5
1B4
100
AcDbEntity
  8
0
  6
CONTINUOUS
 62
               4
100
AcDbLine
 10
56.565210582224097
 20
92.860692478690737
 30
0.0
 11
64.065210582224097
 21
92.860692478690737
 31
0.0
  0
LINE
  5
1B5
100
AcDbEntity
  8
0
  6
CONTINUOUS
 62
               4
100
AcDbLine
 10
64.065210582224097
 20
92.860692478690737
 30
0.0
 11
64.065210582224097
 21
87.860692478690837
 31
0.0
  0
LINE
  5
1B6
100
AcDbEntity
  8
0
  6
CONTINUOUS
 62
               4
100
AcDbLine
 10
64.065210582224097
 20
91.860692474690708
 30
0.0
 11
56.565210582224097
 21
91.860692474690708
 31
0.0
  0
LINE
  5
1B7
100
AcDbEntity
  8
0
  6
CENTER
 62
               7
100
AcDbLine
 10
142.20839017941611
 20
20.348219602643923
 30
0.0
 11
142.20839019457597
 21
15.146456509172395
 31
0.0
  0
LINE
  5
1B8
100
AcDbEntity
  8
0
  6
CONTINUOUS
 62
               4
100
AcDbLine
 10
135.2083901732596
 20
22.460692458290254
 30
0.0
 11
149.2083901732596
 21
22.460692499091437
 31
0.0
  0
LINE
  5
1B9
100
AcDbEntity
  8
0
  6
CONTINUOUS
 62
               4
100
AcDbLine
 10
138.20839018783144
 20
17.460692467033365
 30
0.0
 11
138.20839018433421
 21
18.660692467033382
 31
0.0
  0
LINE
  5
1BA
100
AcDbEntity
  8
0
  6
CONTINUOUS
 62
               4
100
AcDbLine
 10
146.20839018783144
 20
17.460692490348325
 30
0.0
 11
146.20839018433421
 21
18.660692490348342
 31
0.0
  0
LINE
  5
1BB
100
AcDbEntity
  8
0
  6
CONTINUOUS
 62
               4
100
AcDbLine
 10
149.20839018783144
 20
17.460692478690845
 30
0.0
 11
149.2083901732596
 21
22.460692499091437
 31
0.0
  0
LINE
  5
1BC
100
AcDbEntity
  8
0
  6
CONTINUOUS
 62
               4
100
AcDbLine
 10
135.20839018783144
 20
17.460692437889662
 30
0.0
 11
135.2083901732596
 21
22.460692458290254
 31
0.0
  0
LINE
  5
1BD
100
AcDbEntity
  8
0
  6
CONTINUOUS
 62
               4
100
AcDbLine
 10
135.20839021276581
 20
18.660692458290271
 30
0.0
 11
149.20839021276581
 21
18.660692499091454
 31
0.0
  0
LINE
  5
1BE
100
AcDbEntity
  8
0
  6
CONTINUOUS
 62
               4
100
AcDbLine
 10
135.20839021626304
 20
17.460692458290254
 30
0.0
 11
149.20839021626304
 21
17.460692499091437
 31
0.0
  0
ARC
  5
1BF
100
AcDbEntity
  8
0
  6
DASHED
 62
             200
100
AcDbCircle
 10
123.70839010476905
 20
45.961665691376531
 30
0.0
 40
0.5
100
AcDbArc
 50
180.0000001669807
 51
270.0000001669805
  0
ARC
  5
1C0
100
AcDbEntity
  8
0
  6
DASHED
 62
             200
100
AcDbCircle
 10
123.70839009019721
 20
50.961665691376531
 30
0.0
 40
0.5
100
AcDbArc
 50
90.000000166980911
 51
180.0000001669807
  0
LINE
  5
1C1
100
AcDbEntity
  8
0
  6
DASHED
 62
               7
100
AcDbLine
 10
135.20839010622623
 20
45.461665724891787
 30
0.0
 11
135.20839008874003
 21
51.461665724891787
 31
0.0
  0
LINE
  5
1C2
100
AcDbEntity
  8
0
  6
DASHED
 62
             200
100
AcDbLine
 10
123.20839010476905
 20
45.961665689919343
 30
0.0
 11
123.20839009019721
 21
50.96166568991935
 31
0.0
  0
LINE
  5
1C3
100
AcDbEntity
  8
0
  6
DASHED
 62
             200
100
AcDbLine
 10
125.70839010622625
 20
45.461665697205277
 30
0.0
 11
125.70839008874002
 21
51.46166569720527
 31
0.0
  0
LINE
  5
1C4
100
AcDbEntity
  8
0
  6
DASHED
 62
             200
100
AcDbLine
 10
123.70839010622625
 20
45.461665691376531
 30
0.0
 11
123.70839008874002
 21
51.461665691376531
 31
0.0
  0
LINE
  5
1C5
100
AcDbEntity
  8
0
  6
DASHED
 62
             200
100
AcDbLine
 10
135.20839008874003
 20
51.461665724891787
 30
0.0
 11
123.70839008874002
 21
51.461665691376531
 31
0.0
  0
LINE
  5
1C6
100
AcDbEntity
  8
0
  6
DASHED
 62
             200
100
AcDbLine
 10
135.20839010622623
 20
45.461665724891787
 30
0.0
 11
123.70839010622625
 21
45.461665691376531
 31
0.0
  0
LINE
  5
1C7
100
AcDbEntity
  8
0
  6
DASHED
 62
             200
100
AcDbLine
 10
135.20839013770711
 20
34.659719191688708
 30
0.0
 11
123.70839013770711
 21
34.659719158173452
 31
0.0
  0
LINE
  5
1C8
100
AcDbEntity
  8
0
  6
DASHED
 62
             200
100
AcDbLine
 10
135.20839015519334
 20
28.659719191688708
 30
0.0
 11
123.70839015519333
 21
28.659719158173452
 31
0.0
  0
LINE
  5
1C9
100
AcDbEntity
  8
0
  6
DASHED
 62
             200
100
AcDbLine
 10
123.70839013770711
 20
34.659719158173452
 30
0.0
 11
123.70839015519333
 21
28.659719158173452
 31
0.0
  0
LINE
  5
1CA
100
AcDbEntity
  8
0
  6
DASHED
 62
             200
100
AcDbLine
 10
125.70839013770711
 20
34.659719164002198
 30
0.0
 11
125.70839015519333
 21
28.659719164002194
 31
0.0
  0
LINE
  5
1CB
100
AcDbEntity
  8
0
  6
DASHED
 62
             200
100
AcDbLine
 10
123.20839013916429
 20
34.159719156716264
 30
0.0
 11
123.20839015373615
 21
29.159719156716267
 31
0.0
  0
LINE
  5
1CC
100
AcDbEntity
  8
0
  6
DASHED
 62
               7
100
AcDbLine
 10
135.20839013770711
 20
34.659719191688708
 30
0.0
 11
135.20839015519334
 21
28.659719191688708
 31
0.0
  0
ARC
  5
1CD
100
AcDbEntity
  8
0
  6
DASHED
 62
             200
100
AcDbCircle
 10
123.70839015373615
 20
29.159719158173452
 30
0.0
 40
0.5
100
AcDbArc
 50
180.0000001669807
 51
270.0000001669805
  0
ARC
  5
1CE
100
AcDbEntity
  8
0
  6
DASHED
 62
             200
100
AcDbCircle
 10
123.70839013916429
 20
34.159719158173452
 30
0.0
 40
0.5
100
AcDbArc
 50
90.000000166980911
 51
180.0000001669807
  0
LINE
  5
1CF
100
AcDbEntity
  8
0
  6
CENTER
 62
              51
100
AcDbLine
 10
136.29222482415071
 20
31.659719194847405
 30
0.0
 11
121.80245907896028
 21
31.659719152618862
 31
0.0
  0
LINE
  5
1D0
100
AcDbEntity
  8
0
  6
CENTER
 62
              51
100
AcDbLine
 10
136.2922247751836
 20
48.461665728050484
 30
0.0
 11
121.80245902999319
 21
48.461665685821941
 31
0.0
  0
LINE
  5
1D1
100
AcDbEntity
  8
0
  6
CENTER
 62
               2
100
AcDbLine
 10
138.0083901394529
 20
34.06069246645049
 30
0.0
 11
138.00839013070981
 21
37.06069246645049
 31
0.0
  0
CIRCLE
  5
1D2
100
AcDbEntity
  8
0
  6
CONTINUOUS
 62
               7
100
AcDbCircle
 10
138.00839013508136
 20
35.56069246645049
 30
0.0
 40
1.0499999999999998
  0
CIRCLE
  5
1D3
100
AcDbEntity
  8
0
  6
CONTINUOUS
 62
               7
100
AcDbCircle
 10
138.00839010885201
 20
44.56069246645049
 30
0.0
 40
1.0499999999999998
  0
LINE
  5
1D4
100
AcDbEntity
  8
0
  6
CENTER
 62
               2
100
AcDbLine
 10
138.00839011322358
 20
43.06069246645049
 30
0.0
 11
138.00839010448047
 21
46.06069246645049
 31
0.0
  0
LINE
  5
1D5
100
AcDbEntity
  8
0
  6
CENTER
 62
               2
100
AcDbLine
 10
136.50839010885201
 20
44.560692462078933
 30
0.0
 11
139.50839010885201
 21
44.56069247082204
 31
0.0
  0
LINE
  5
1D6
100
AcDbEntity
  8
0
  6
CENTER
 62
               2
100
AcDbLine
 10
136.50839013508136
 20
35.560692462078933
 30
0.0
 11
139.50839013508136
 21
35.56069247082204
 31
0.0
  0
LINE
  5
1D7
100
AcDbEntity
  8
0
  6
CONTINUOUS
 62
               7
100
AcDbLine
 10
148.20839014149578
 20
33.359719229575511
 30
0.0
 11
148.20839015082177
 21
30.159719229575465
 31
0.0
  0
LINE
  5
1D8
100
AcDbEntity
  8
0
  6
CONTINUOUS
 62
               7
100
AcDbLine
 10
149.20839015246304
 20
33.35971923248988
 30
0.0
 11
148.20839015246304
 21
33.359719229575511
 31
0.0
  0
LINE
  5
1D9
100
AcDbEntity
  8
0
  6
CONTINUOUS
 62
               7
100
AcDbLine
 10
149.20839016178903
 20
30.159719232489834
 30
0.0
 11
148.20839016178903
 21
30.159719229575465
 31
0.0
  0
LINE
  5
1DA
100
AcDbEntity
  8
0
  6
CONTINUOUS
 62
               7
100
AcDbLine
 10
145.76839016810115
 20
24.230692489066126
 30
0.0
 11
145.76839016655654
 21
24.760692489066098
 31
0.0
  0
ARC
  5
1DB
100
AcDbEntity
  8
0
  6
CONTINUOUS
 62
               7
100
AcDbCircle
 10
146.38016216393751
 20
24.22985520882002
 30
0.0
 40
0.6117725687931934
100
AcDbArc
 50
179.92158419354672
 51
253.69338407513089
  0
ARC
  5
1DC
100
AcDbEntity
  8
0
  6
CONTINUOUS
 62
               7
100
AcDbCircle
 10
147.48839015697578
 20
28.048113730812751
 30
0.0
 40
4.5876068132596712
100
AcDbArc
 50
253.798719091138
 51
286.20128124282309
  0
LINE
  5
1DD
100
AcDbEntity
  8
0
  6
CONTINUOUS
 62
               7
100
AcDbLine
 10
149.20839016655654
 20
24.760692499091533
 30
0.0
 11
145.6883901665565
 21
24.760692488832952
 31
0.0
  0
LINE
  5
1DE
100
AcDbEntity
  8
0
  6
CONTINUOUS
 62
               7
100
AcDbLine
 10
145.68839017325956
 20
22.460692488832855
 30
0.0
 11
145.6883901665565
 21
24.760692488832952
 31
0.0
  0
ARC
  5
1DF
100
AcDbEntity
  8
0
  6
CONTINUOUS
 62
               7
100
AcDbCircle
 10
148.5978361999972
 20
24.228943765965159
 30
0.0
 40
0.6105564724372723
100
AcDbArc
 50
286.22092773547121
 51
0.1641046637748758
  0
LINE
  5
1E0
100
AcDbEntity
  8
0
  6
CONTINUOUS
 62
               7
100
AcDbLine
 10
135.20839017209383
 20
22.860692458290231
 30
0.0
 11
135.20839008670279
 21
52.160692458290242
 31
0.0
  0
LINE
  5
1E1
100
AcDbEntity
  8
0
  6
CONTINUOUS
 62
               7
100
AcDbLine
 10
149.20839017209383
 20
22.860692499091414
 30
0.0
 11
149.20839008670279
 21
52.160692499091425
 31
0.0
  0
LINE
  5
1E2
100
AcDbEntity
  8
0
  6
CONTINUOUS
 62
               7
100
AcDbLine
 10
149.20839008670279
 20
52.160692499091425
 30
0.0
 11
149.20839004823313
 21
65.360692499091414
 31
0.0
  0
LINE
  5
1E3
100
AcDbEntity
  8
0
  6
CONTINUOUS
 62
               7
100
AcDbLine
 10
150.80839006571935
 20
59.360692503754436
 30
0.0
 11
149.20839007038234
 21
57.760692499091448
 31
0.0
  0
ARC
  5
1E4
100
AcDbEntity
  8
0
  6
CONTINUOUS
 62
               7
100
AcDbCircle
 10
135.60741680507002
 20
22.859719092426513
 30
0.0
 40
0.3990278201647513
100
AcDbArc
 50
179.8602357820584
 51
270.13976455190283
  0
LINE
  5
1E5
100
AcDbEntity
  8
0
  6
CONTINUOUS
 62
               7
100
AcDbLine
 10
135.60839017325961
 20
22.460692459456002
 30
0.0
 11
148.80839017325957
 21
22.460692497925688
 31
0.0
  0
LINE
  5
1E6
100
AcDbEntity
  8
0
  6
CONTINUOUS
 62
               7
100
AcDbLine
 10
135.20839015723055
 20
27.960692458290282
 30
0.0
 11
149.20839015723055
 21
27.960692499091465
 31
0.0
  0
LINE
  5
1E7
100
AcDbEntity
  8
0
  6
CONTINUOUS
 62
               7
100
AcDbLine
 10
135.20839008670279
 20
52.160692458290242
 30
0.0
 11
149.20839008670279
 21
52.160692499091425
 31
0.0
  0
ARC
  5
1E8
100
AcDbEntity
  8
0
  6
CONTINUOUS
 62
               7
100
AcDbCircle
 10
148.8093635391233
 20
22.859719130901869
 30
0.0
 40
0.3990278201647513
100
AcDbArc
 50
269.86023578205823
 51
0.1397645519034098
  0
LINE
  5
1E9
100
AcDbEntity
  8
0
  6
CONTINUOUS
 62
               7
100
AcDbLine
 10
135.20838723170635
 20
65.360692458290259
 30
0.0
 11
150.80839004823315
 21
65.360692503754407
 31
0.0
  0
LINE
  5
1EA
100
AcDbEntity
  8
0
  6
CONTINUOUS
 62
               7
100
AcDbLine
 10
135.20839008670279
 20
52.160692458290242
 30
0.0
 11
135.20839004823313
 21
65.360692458290259
 31
0.0
  0
LINE
  5
1EB
100
AcDbEntity
  8
0
  6
CONTINUOUS
 62
               7
100
AcDbLine
 10
150.80839006571935
 20
59.360692503754436
 30
0.0
 11
150.80839004823315
 21
65.360692503754436
 31
0.0
  0
LINE
  5
1EC
100
AcDbEntity
  8
0
  6
CONTINUOUS
 62
               4
100
AcDbLine
 10
154.46192528257788
 20
103.85564200306874
 30
0.0
 11
154.95687477724456
 21
103.8556420045112
 31
0.0
  0
LINE
  5
1ED
100
AcDbEntity
  8
0
  6
CONTINUOUS
 62
               4
100
AcDbLine
 10
149.20839004823313
 20
65.360692499091414
 30
0.0
 11
149.2083899844084
 21
87.260692494023687
 31
0.0
  0
LINE
  5
1EE
100
AcDbEntity
  8
0
  6
CONTINUOUS
 62
               4
100
AcDbLine
 10
135.2083899844084
 20
87.260692458290237
 30
0.0
 11
135.20839004823313
 21
65.360692458290231
 31
0.0
  0
LINE
  5
1EF
100
AcDbEntity
  8
0
  6
CONTINUOUS
 62
               4
100
AcDbLine
 10
135.20839004823313
 20
65.360692458290231
 30
0.0
 11
152.21344054756645
 21
65.360692507849251
 31
0.0
  0
LINE
  5
1F0
100
AcDbEntity
  8
0
  6
CONTINUOUS
 62
               4
100
AcDbLine
 10
137.90838998265977
 20
87.86069246615908
 30
0.0
 11
137.90838998440839
 21
87.260692466159114
 31
0.0
  0
LINE
  5
1F1
100
AcDbEntity
  8
0
  6
CONTINUOUS
 62
               4
100
AcDbLine
 10
137.90838998440839
 20
87.260692466159114
 30
0.0
 11
135.20838998840841
 21
87.260692458290308
 31
0.0
  0
LINE
  5
1F2
100
AcDbEntity
  8
0
  6
CONTINUOUS
 62
               4
100
AcDbLine
 10
148.7083899789512
 20
87.760692497634309
 30
0.0
 11
147.20838998295127
 21
87.760692493262752
 31
0.0
  0
LINE
  5
1F3
100
AcDbEntity
  8
0
  6
CONTINUOUS
 62
               4
100
AcDbLine
 10
148.40838989265981
 20
87.860692496759953
 30
0.0
 11
136.00839007265975
 21
87.860692460621777
 31
0.0
  0
ARC
  5
1F4
100
AcDbEntity
  8
0
  6
CONTINUOUS
 62
               4
100
AcDbCircle
 10
148.40848504105679
 20
87.260787643408889
 30
0.0
 40
0.5999048008965869
100
AcDbArc
 50
56.247418037374985
 51
90.009087444527282
  0
ARC
  5
1F5
100
AcDbEntity
  8
0
  6
CONTINUOUS
 62
               4
100
AcDbCircle
 10
136.00730206927705
 20
87.261780465746796
 30
0.0
 40
0.5989129231257409
100
AcDbArc
 50
89.895914691753831
 51
180.10408564220776
  0
ARC
  5
1F6
100
AcDbEntity
  8
0
  6
CONTINUOUS
 62
               4
100
AcDbCircle
 10
135.70838998840841
 20
87.260692459747489
 30
0.0
 40
0.5
100
AcDbArc
 50
93.919586066631908
 51
180.0000001669807
  0
ARC
  5
1F7
100
AcDbEntity
  8
0
  6
CONTINUOUS
 62
               4
100
AcDbCircle
 10
148.70838998040838
 20
87.260692497634309
 30
0.0
 40
0.5
100
AcDbArc
 50
0.0000001669811054
 51
90.000000166980911
  0
LINE
  5
1F8
100
AcDbEntity
  8
0
  6
CONTINUOUS
 62
               4
100
AcDbLine
 10
147.20838998265984
 20
87.860692493262718
 30
0.0
 11
147.20838998732285
 21
86.260692493262752
 31
0.0
  0
LINE
  5
1F9
100
AcDbEntity
  8
0
  6
CONTINUOUS
 62
               4
100
AcDbLine
 10
147.20838998732285
 20
86.260692493262752
 30
0.0
 11
135.2083899913228
 21
86.260692458290308
 31
0.0
  0
LINE
  5
1FA
100
AcDbEntity
  8
0
  6
CONTINUOUS
 62
               4
100
AcDbLine
 10
149.20838998740288
 20
84.860692499091314
 30
0.0
 11
156.71041018513625
 21
84.86069252095497
 31
0.0
  0
LINE
  5
1FB
100
AcDbEntity
  8
0
  6
CONTINUOUS
 62
               4
100
AcDbLine
 10
157.21243038831204
 20
84.365743027751364
 30
0.0
 11
157.21243043597525
 21
68.011197582551247
 31
0.0
  0
LINE
  5
1FC
100
AcDbEntity
  8
0
  6
CONTINUOUS
 62
               4
100
AcDbLine
 10
152.21344054756645
 20
65.360692507849166
 30
0.0
 11
156.92253144757836
 21
67.552611712239894
 31
0.0
  0
LINE
  5
1FD
100
AcDbEntity
  8
0
  6
CONTINUOUS
 62
               4
100
AcDbLine
 10
152.21344046742126
 20
92.860692507849137
 30
0.0
 11
156.30737985902124
 21
92.8606925197804
 31
0.0
  0
LINE
  5
1FE
100
AcDbEntity
  8
0
  6
CONTINUOUS
 62
               4
100
AcDbLine
 10
153.81142026448788
 20
92.860692512506247
 30
0.0
 11
153.81142028780283
 21
84.860692512506247
 31
0.0
  0
LINE
  5
1FF
100
AcDbEntity
  8
0
  6
CONTINUOUS
 62
               4
100
AcDbLine
 10
155.60737985942126
 20
92.860692517740333
 30
0.0
 11
155.60737988273621
 21
84.860692517740333
 31
0.0
  0
LINE
  5
200
100
AcDbEntity
  8
0
  6
CONTINUOUS
 62
               4
100
AcDbLine
 10
159.20636975635455
 20
92.860692528229123
 30
0.0
 11
159.20636976071137
 21
91.365743029562424
 31
0.0
  0
LINE
  5
201
100
AcDbEntity
  8
0
  6
CONTINUOUS
 62
               4
100
AcDbLine
 10
158.30838997812276
 20
86.260692524812043
 30
0.0
 11
159.20636976071137
 21
91.365743029562424
 31
0.0
  0
LINE
  5
202
100
AcDbEntity
  8
0
  6
CONTINUOUS
 62
               4
100
AcDbLine
 10
158.20940005995465
 20
92.860692525323586
 30
0.0
 11
158.2094000640509
 21
91.455156145133088
 31
0.0
  0
LINE
  5
203
100
AcDbEntity
  8
0
  6
CONTINUOUS
 62
               4
100
AcDbLine
 10
158.20940005995465
 20
92.860692525323586
 30
0.0
 11
159.20636975635455
 21
92.860692528229123
 31
0.0
  0
LINE
  5
204
100
AcDbEntity
  8
0
  6
CONTINUOUS
 62
               4
100
AcDbLine
 10
157.10636977990106
 20
85.193015754242268
 30
0.0
 11
158.2094000640509
 21
91.455156145133088
 31
0.0
  0
LINE
  5
205
100
AcDbEntity
  8
0
  6
CONTINUOUS
 62
               4
100
AcDbLine
 10
157.3114202887084
 20
83.863722826306528
 30
0.0
 11
157.31142030531737
 21
78.164732930573166
 31
0.0
  0
LINE
  5
206
100
AcDbEntity
  8
0
  6
CONTINUOUS
 62
               4
100
AcDbLine
 10
156.30737985902124
 20
92.8606925197804
 30
0.0
 11
156.30737988116161
 21
85.263722822580405
 31
0.0
  0
LINE
  5
207
100
AcDbEntity
  8
0
  6
CONTINUOUS
 62
               4
100
AcDbLine
 10
156.61142026377399
 20
92.55665211679981
 30
0.0
 11
156.61142028094818
 21
86.663722822666458
 31
0.0
  0
LINE
  5
208
100
AcDbEntity
  8
0
  6
CONTINUOUS
 62
               4
100
AcDbLine
 10
156.30737985902124
 20
92.8606925197804
 30
0.0
 11
156.61142026377399
 21
92.55665211679981
 31
0.0
  0
LINE
  5
209
100
AcDbEntity
  8
0
  6
CONTINUOUS
 62
               4
100
AcDbLine
 10
152.21344047033563
 20
91.860692503849123
 30
0.0
 11
152.70838996500231
 21
91.860692505291595
 31
0.0
  0
LINE
  5
20A
100
AcDbEntity
  8
0
  6
CONTINUOUS
 62
               4
100
AcDbLine
 10
152.21344048490454
 20
86.861702607715756
 30
0.0
 11
152.70838997957122
 21
86.861702609158229
 31
0.0
  0
LINE
  5
20B
100
AcDbEntity
  8
0
  6
CONTINUOUS
 62
               4
100
AcDbLine
 10
156.30737987796758
 20
86.359682417913746
 30
0.0
 11
156.61142028094818
 21
86.663722822666458
 31
0.0
  0
LINE
  5
20C
100
AcDbEntity
  8
0
  6
CONTINUOUS
 62
               4
100
AcDbLine
 10
158.30838997812276
 20
86.260692524812043
 30
0.0
 11
158.30839000464351
 21
77.160692530012042
 31
0.0
  0
LINE
  5
20D
100
AcDbEntity
  8
0
  6
CONTINUOUS
 62
               4
100
AcDbLine
 10
157.311420309109
 20
76.863722830306472
 30
0.0
 11
158.01142030870898
 21
76.863722832346525
 31
0.0
  0
LINE
  5
20E
100
AcDbEntity
  8
0
  6
CONTINUOUS
 62
               4
100
AcDbLine
 10
157.2124304063841
 20
78.164732930284671
 30
0.0
 11
157.31142030531737
 21
78.164732930573166
 31
0.0
  0
LINE
  5
20F
100
AcDbEntity
  8
0
  6
CONTINUOUS
 62
               4
100
AcDbLine
 10
157.21243040988722
 20
76.962712728951303
 30
0.0
 11
157.311420309109
 21
76.863722830306472
 31
0.0
  0
LINE
  5
210
100
AcDbEntity
  8
0
  6
CONTINUOUS
 62
               4
100
AcDbLine
 10
154.05889499850937
 20
97.428369278294142
 30
0.0
 11
154.05889501182128
 21
92.860692513227477
 31
0.0
  0
LINE
  5
211
100
AcDbEntity
  8
0
  6
CONTINUOUS
 62
               4
100
AcDbLine
 10
155.35990509024492
 20
100.35564200768576
 30
0.0
 11
155.35990509995065
 21
97.025338979285763
 31
0.0
  0
LINE
  5
212
100
AcDbEntity
  8
0
  6
CONTINUOUS
 62
               4
100
AcDbLine
 10
154.05889498997823
 20
100.35564200389413
 30
0.0
 11
154.05889499749964
 21
97.774833924560809
 31
0.0
  0
LINE
  5
213
100
AcDbEntity
  8
0
  6
CONTINUOUS
 62
               4
100
AcDbLine
 10
154.05889498997823
 20
100.35564200389413
 30
0.0
 11
155.35990509024492
 21
100.35564200768576
 31
0.0
  0
LINE
  5
214
100
AcDbEntity
  8
0
  6
CONTINUOUS
 62
               4
100
AcDbLine
 10
154.46192528257788
 20
103.85564200306874
 30
0.0
 11
154.46192529277818
 21
100.35564200506872
 31
0.0
  0
LINE
  5
215
100
AcDbEntity
  8
0
  6
CONTINUOUS
 62
               4
100
AcDbLine
 10
154.95687477724456
 20
103.8556420045112
 30
0.0
 11
154.95687478744486
 21
100.35564200651118
 31
0.0
  0
LINE
  5
216
100
AcDbEntity
  8
0
  6
CONTINUOUS
 62
             200
100
AcDbLine
 10
156.20838994939311
 20
96.530389487091938
 30
0.0
 11
153.21041014807778
 21
98.262712709687989
 31
0.0
  0
LINE
  5
217
100
AcDbEntity
  8
0
  6
CONTINUOUS
 62
             200
100
AcDbLine
 10
156.20838995040285
 20
96.18392484082527
 30
0.0
 11
153.21041014908752
 21
97.916248063421378
 31
0.0
  0
LINE
  5
218
100
AcDbEntity
  8
0
  6
CONTINUOUS
 62
               4
100
AcDbLine
 10
155.35990510096036
 20
96.678874333019095
 30
0.0
 11
155.35990511208797
 21
92.860692517019103
 31
0.0
  0
LINE
  5
219
100
AcDbEntity
  8
0
  6
CONTINUOUS
 62
               4
100
AcDbLine
 10
152.21344046742126
 20
92.860692507849137
 30
0.0
 11
152.21344047033563
 21
91.860692503849123
 31
0.0
  0
LINE
  5
21A
100
AcDbEntity
  8
0
  6
CONTINUOUS
 62
               4
100
AcDbLine
 10
152.21344048490454
 20
86.861702607715756
 30
0.0
 11
152.21344049073622
 21
84.860692507849137
 31
0.0
  0
LINE
  5
21B
100
AcDbEntity
  8
0
  6
CONTINUOUS
 62
               4
100
AcDbLine
 10
152.70838996500231
 20
91.860692505291595
 30
0.0
 11
152.70838997957122
 21
86.861702609158229
 31
0.0
  0
LINE
  5
21C
100
AcDbEntity
  8
0
  6
CONTINUOUS
 62
               4
100
AcDbLine
 10
152.21344054754877
 20
65.366753125049001
 30
0.0
 11
152.21344049073622
 21
84.860692507849137
 31
0.0
  0
ARC
  5
21D
100
AcDbEntity
  8
0
  6
CONTINUOUS
 62
               4
100
AcDbCircle
 10
156.70642309808065
 20
68.010177018435101
 30
0.0
 40
0.5060324378497572
100
AcDbArc
 50
295.28139206703321
 51
359.42932799709513
  0
ARC
  5
21E
100
AcDbEntity
  8
0
  6
CONTINUOUS
 62
               4
100
AcDbCircle
 10
156.71222411213944
 20
84.360461652943869
 30
0.0
 40
0.5002341568128574
100
AcDbArc
 50
0.6049289204445932
 51
90.207763880134976
  0
ARC
  5
21F
100
AcDbEntity
  8
0
  6
CONTINUOUS
 62
               4
100
AcDbCircle
 10
158.00628613192043
 20
77.165826705039819
 30
0.0
 40
0.3021474965435785
100
AcDbArc
 50
270.97363315149232
 51
359.02636718246845
  0
ARC
  5
220
100
AcDbEntity
  8
0
  6
CONTINUOUS
 62
               4
100
AcDbCircle
 10
156.80837693518311
 20
83.861024871884993
 30
0.0
 40
0.5030505883944908
100
AcDbArc
 50
0.3072894581709608
 51
36.562608521633834
  0
ARC
  5
221
100
AcDbEntity
  8
0
  6
CONTINUOUS
 62
               4
100
AcDbCircle
 10
156.71031111291617
 20
85.26719928064837
 30
0.0
 40
0.4029462287748787
100
AcDbArc
 50
180.49433108413598
 51
349.39117218470591
  0
LINE
  5
222
100
AcDbEntity
  8
0
  6
CENTER
 62
               2
100
AcDbLine
 10
142.20838997902095
 20
89.109275225527242
 30
0.0
 11
142.20839017673049
 21
21.269736377215935
 31
0.0
  0
CIRCLE
  5
223
100
AcDbEntity
  8
0
  6
CONTINUOUS
 62
               7
100
AcDbCircle
 10
228.10156674168095
 20
35.160695530448663
 30
0.0
 40
2.1000000000000001
  0
CIRCLE
  5
224
100
AcDbEntity
  8
0
  6
CONTINUOUS
 62
               2
100
AcDbCircle
 10
228.10156674168095
 20
35.160695530448663
 30
0.0
 40
2.5
  0
LINE
  5
225
100
AcDbEntity
  8
0
  6
CENTER
 62
               2
100
AcDbLine
 10
230.99356979343878
 20
35.160692478690862
 30
0.0
 11
225.27356979343878
 21
35.160692478690862
 31
0.0
  0
CIRCLE
  5
226
100
AcDbEntity
  8
0
  6
CONTINUOUS
 62
               7
100
AcDbCircle
 10
228.10156674168098
 20
44.960695530448675
 30
0.0
 40
2.1000000000000001
  0
CIRCLE
  5
227
100
AcDbEntity
  8
0
  6
CONTINUOUS
 62
               2
100
AcDbCircle
 10
228.10156674168098
 20
44.960695530448675
 30
0.0
 40
2.5
  0
LINE
  5
228
100
AcDbEntity
  8
0
  6
CENTER
 62
               2
100
AcDbLine
 10
230.9135697934388
 20
44.960692478690873
 30
0.0
 11
225.1935697934388
 21
44.960692478690873
 31
0.0
  0
LINE
  5
229
100
AcDbEntity
  8
0
  6
CENTER
 62
               2
100
AcDbLine
 10
224.3015697934388
 20
29.810692478690868
 30
0.0
 11
224.3015697934388
 21
33.710692478690845
 31
0.0
  0
ARC
  5
22A
100
AcDbEntity
  8
0
  6
CONTINUOUS
 62
               7
100
AcDbCircle
 10
224.3015697934388
 20
31.760692478690856
 30
0.0
 40
1.6000000000000003
100
AcDbArc
 50
270.00000000000023
 51
89.999999999999801
  0
CIRCLE
  5
22B
100
AcDbEntity
  8
0
  6
CONTINUOUS
 62
               7
100
AcDbCircle
 10
224.3015697934388
 20
31.760692478690856
 30
0.0
 40
0.8500000000000002
  0
LINE
  5
22C
100
AcDbEntity
  8
0
  6
CONTINUOUS
 62
               7
100
AcDbLine
 10
224.3015697934388
 20
33.360692478690879
 30
0.0
 11
223.10156979343878
 21
33.360692478690879
 31
0.0
  0
LINE
  5
22D
100
AcDbEntity
  8
0
  6
CONTINUOUS
 62
               7
100
AcDbLine
 10
224.3015697934388
 20
30.160692478690834
 30
0.0
 11
223.10156979343878
 21
30.160692478690834
 31
0.0
  0
LINE
  5
22E
100
AcDbEntity
  8
0
  6
CENTER
 62
               2
100
AcDbLine
 10
222.57467718205939
 20
31.760692478690856
 30
0.0
 11
226.31808341039905
 21
31.760692478690856
 31
0.0
  0
LINE
  5
22F
100
AcDbEntity
  8
0
  6
CONTINUOUS
 62
               7
100
AcDbLine
 10
231.9015697934388
 20
46.760692478690856
 30
0.0
 11
233.10156979343878
 21
46.760692478690856
 31
0.0
  0
LINE
  5
230
100
AcDbEntity
  8
0
  6
CONTINUOUS
 62
               7
100
AcDbLine
 10
231.9015697934388
 20
49.960692478690902
 30
0.0
 11
233.10156979343878
 21
49.960692478690902
 31
0.0
  0
CIRCLE
  5
231
100
AcDbEntity
  8
0
  6
CONTINUOUS
 62
               7
100
AcDbCircle
 10
231.9015697934388
 20
48.360692478690879
 30
0.0
 40
0.8500000000000002
  0
LINE
  5
232
100
AcDbEntity
  8
0
  6
CENTER
 62
               2
100
AcDbLine
 10
229.95156979343881
 20
48.360692478690879
 30
0.0
 11
233.85156979343881
 21
48.360692478690879
 31
0.0
  0
ARC
  5
233
100
AcDbEntity
  8
0
  6
CONTINUOUS
 62
               7
100
AcDbCircle
 10
231.9015697934388
 20
48.360692478690879
 30
0.0
 40
1.6000000000000003
100
AcDbArc
 50
89.999999999999815
 51
269.99999999999937
  0
LINE
  5
234
100
AcDbEntity
  8
0
  6
CENTER
 62
               2
100
AcDbLine
 10
231.9015697934388
 20
46.410692478690834
 30
0.0
 11
231.9015697934388
 21
50.310692478690868
 31
0.0
  0
LINE
  5
235
100
AcDbEntity
  8
0
  6
CONTINUOUS
 62
               7
100
AcDbLine
 10
223.08156979343877
 20
24.230692478690855
 30
0.0
 11
223.08156979343877
 21
24.760692478690856
 31
0.0
  0
ARC
  5
236
100
AcDbEntity
  8
0
  6
CONTINUOUS
 62
               7
100
AcDbCircle
 10
223.69212376154783
 20
24.228943747343891
 30
0.0
 40
0.6105564724372721
100
AcDbArc
 50
179.83589550320582
 51
253.77907243150949
  0
LINE
  5
237
100
AcDbEntity
  8
0
  6
CONTINUOUS
 62
               7
100
AcDbLine
 10
226.52156979343877
 20
24.230692478690855
 30
0.0
 11
226.52156979343877
 21
24.760692478690856
 31
0.0
  0
ARC
  5
238
100
AcDbEntity
  8
0
  6
CONTINUOUS
 62
               7
100
AcDbCircle
 10
225.90979779760485
 20
24.229855196661816
 30
0.0
 40
0.6117725687931934
100
AcDbArc
 50
286.30661609184898
 51
0.0784159734340139
  0
ARC
  5
239
100
AcDbEntity
  8
0
  6
CONTINUOUS
 62
               7
100
AcDbCircle
 10
224.8015697934388
 20
28.048113715424819
 30
0.0
 40
4.5876068132596712
100
AcDbArc
 50
253.79871892415684
 51
286.20128107584191
  0
LINE
  5
23A
100
AcDbEntity
  8
0
  6
CONTINUOUS
 62
               7
100
AcDbLine
 10
233.10156979343878
 20
65.360692478690879
 30
0.0
 11
223.10156979343878
 21
65.360692478690879
 31
0.0
  0
LINE
  5
23B
100
AcDbEntity
  8
0
  6
CONTINUOUS
 62
               7
100
AcDbLine
 10
226.10156979343876
 20
61.360692478690879
 30
0.0
 11
226.10156979343876
 21
65.360692478690879
 31
0.0
  0
LINE
  5
23C
100
AcDbEntity
  8
0
  6
CONTINUOUS
 62
               7
100
AcDbLine
 10
230.10156979343878
 20
61.360692478690879
 30
0.0
 11
230.10156979343878
 21
65.360692478690879
 31
0.0
  0
LINE
  5
23D
100
AcDbEntity
  8
0
  6
CONTINUOUS
 62
               7
100
AcDbLine
 10
224.50156979343879
 20
61.360692478690879
 30
0.0
 11
224.50156979343879
 21
65.360692478690879
 31
0.0
  0
LINE
  5
23E
100
AcDbEntity
  8
0
  6
CONTINUOUS
 62
               7
100
AcDbLine
 10
231.70156979343878
 20
61.360692478690879
 30
0.0
 11
231.70156979343878
 21
65.360692478690879
 31
0.0
  0
ARC
  5
23F
100
AcDbEntity
  8
0
  6
CONTINUOUS
 62
               7
100
AcDbCircle
 10
228.10156979343878
 20
61.360692478690879
 30
0.0
 40
2.0
100
AcDbArc
 50
179.99999999999963
 51
0.0
  0
ARC
  5
240
100
AcDbEntity
  8
0
  6
CONTINUOUS
 62
               7
100
AcDbCircle
 10
228.10156979343878
 20
61.360692478690879
 30
0.0
 40
3.6000000000000005
100
AcDbArc
 50
179.99999999999963
 51
0.0
  0
LINE
  5
241
100
AcDbEntity
  8
0
  6
CENTER
 62
               2
100
AcDbLine
 10
229.8015697934388
 20
63.060692478690868
 30
0.0
 11
226.40156979343877
 21
63.060692478690868
 31
0.0
  0
CIRCLE
  5
242
100
AcDbEntity
  8
0
  6
CONTINUOUS
 62
               7
100
AcDbCircle
 10
228.10156979343878
 20
63.060692478690868
 30
0.0
 40
1.3000000000000012
  0
CIRCLE
  5
243
100
AcDbEntity
  8
0
  6
CONTINUOUS
 62
               7
100
AcDbCircle
 10
228.10156979343878
 20
63.060692478690868
 30
0.0
 40
1.1500000000000001
  0
LINE
  5
244
100
AcDbEntity
  8
0
  6
CONTINUOUS
 62
               7
100
AcDbLine
 10
232.90156979343877
 20
22.460692478690845
 30
0.0
 11
223.30156979343877
 21
22.460692478690845
 31
0.0
  0
LINE
  5
245
100
AcDbEntity
  8
0
  6
CONTINUOUS
 62
               7
100
AcDbLine
 10
223.10156979343878
 20
27.960692478690873
 30
0.0
 11
233.10156979343878
 21
27.960692478690873
 31
0.0
  0
LINE
  5
246
100
AcDbEntity
  8
0
  6
CONTINUOUS
 62
               7
100
AcDbLine
 10
223.10156979343878
 20
52.160692478690862
 30
0.0
 11
233.10156979343878
 21
52.160692478690862
 31
0.0
  0
LINE
  5
247
100
AcDbEntity
  8
0
  6
CONTINUOUS
 62
               7
100
AcDbLine
 10
223.08156979343877
 20
24.760692478690856
 30
0.0
 11
226.60156979343878
 21
24.760692478690856
 31
0.0
  0
LINE
  5
248
100
AcDbEntity
  8
0
  6
CONTINUOUS
 62
               7
100
AcDbLine
 10
226.60156979343878
 20
22.460692478690845
 30
0.0
 11
226.60156979343878
 21
24.760692478690856
 31
0.0
  0
LINE
  5
249
100
AcDbEntity
  8
0
  6
CONTINUOUS
 62
               7
100
AcDbLine
 10
223.10156979343878
 20
22.660692478690862
 30
0.0
 11
223.10156979343878
 21
24.073943048036796
 31
0.0
  0
ARC
  5
24A
100
AcDbEntity
  8
0
  6
CONTINUOUS
 62
               7
100
AcDbCircle
 10
223.40067465657989
 20
25.059797341831967
 30
0.0
 40
0.2991062025847394
100
AcDbArc
 50
179.82853033398985
 51
270.17146966600922
  0
CIRCLE
  5
24B
100
AcDbEntity
  8
0
  6
CONTINUOUS
 62
               7
100
AcDbCircle
 10
228.10156979343878
 20
63.060692478690868
 30
0.0
 40
1.1000000000000001
  0
CIRCLE
  5
24C
100
AcDbEntity
  8
0
  6
CONTINUOUS
 62
               7
100
AcDbCircle
 10
228.10156979343878
 20
63.060692478690868
 30
0.0
 40
0.7500000000000001
  0
ARC
  5
24D
100
AcDbEntity
  8
0
  6
CONTINUOUS
 62
               7
100
AcDbCircle
 10
223.30156979343877
 20
22.660692478690862
 30
0.0
 40
0.2
100
AcDbArc
 50
179.99999999999963
 51
269.99999999999937
  0
ARC
  5
24E
100
AcDbEntity
  8
0
  6
CONTINUOUS
 62
               7
100
AcDbCircle
 10
232.90156979343877
 20
22.660692478690862
 30
0.0
 40
0.2
100
AcDbArc
 50
269.99999999999937
 51
0.0
  0
LINE
  5
24F
100
AcDbEntity
  8
0
  6
CONTINUOUS
 62
               7
100
AcDbLine
 10
223.10156979343878
 20
24.760692478690856
 30
0.0
 11
223.10156979343878
 21
65.360692478690879
 31
0.0
  0
LINE
  5
250
100
AcDbEntity
  8
0
  6
CONTINUOUS
 62
               7
100
AcDbLine
 10
233.10156979343878
 20
22.660692478690862
 30
0.0
 11
233.10156979343878
 21
65.360692478690879
 31
0.0
  0
LINE
  5
251
100
AcDbEntity
  8
0
  6
CONTINUOUS
 62
               4
100
AcDbLine
 10
217.10156979343878
 20
17.460692478690845
 30
0.0
 11
217.10156979343878
 21
18.660692478690862
 31
0.0
  0
LINE
  5
252
100
AcDbEntity
  8
0
  6
CONTINUOUS
 62
               4
100
AcDbLine
 10
239.10156979343878
 20
17.460692478690845
 30
0.0
 11
239.10156979343878
 21
18.660692478690862
 31
0.0
  0
LINE
  5
253
100
AcDbEntity
  8
0
  6
CONTINUOUS
 62
               4
100
AcDbLine
 10
233.4015697934388
 20
22.460692478690845
 30
0.0
 11
222.8015697934388
 21
22.460692478690845
 31
0.0
  0
ARC
  5
254
100
AcDbEntity
  8
0
  6
CONTINUOUS
 62
               4
100
AcDbCircle
 10
233.40068533138265
 20
21.059808016634719
 30
0.0
 40
1.4008847412629901
100
AcDbArc
 50
0.0361742439122946
 51
89.963825756087459
  0
ARC
  5
255
100
AcDbEntity
  8
0
  6
CONTINUOUS
 62
               4
100
AcDbCircle
 10
222.8015014702703
 20
21.060760801859374
 30
0.0
 40
1.3999316784987346
100
AcDbArc
 50
89.997203699822904
 51
180.00279630017653
  0
LINE
  5
256
100
AcDbEntity
  8
0
  6
CONTINUOUS
 62
               4
100
AcDbLine
 10
233.60156979343878
 20
18.860692478690879
 30
0.0
 11
233.60156979343878
 21
21.060692478690868
 31
0.0
  0
LINE
  5
257
100
AcDbEntity
  8
0
  6
CONTINUOUS
 62
               4
100
AcDbLine
 10
234.80156979343877
 20
18.860692478690879
 30
0.0
 11
234.80156979343877
 21
21.060692478690868
 31
0.0
  0
ARC
  5
258
100
AcDbEntity
  8
0
  6
CONTINUOUS
 62
               4
100
AcDbCircle
 10
235.00067312703362
 20
18.859795812285682
 30
0.0
 40
1.3991036209254675
100
AcDbArc
 50
179.96327991479848
 51
270.03672008520033
  0
ARC
  5
259
100
AcDbEntity
  8
0
  6
CONTINUOUS
 62
               4
100
AcDbCircle
 10
235.00067313348501
 20
18.859795818737069
 30
0.0
 40
0.1991053590856348
100
AcDbArc
 50
179.74197075907335
 51
270.25802924092562
  0
LINE
  5
25A
100
AcDbEntity
  8
0
  6
CONTINUOUS
 62
               4
100
AcDbLine
 10
235.00156979343882
 20
17.460692478690845
 30
0.0
 11
242.10156979343878
 21
17.460692478690845
 31
0.0
  0
LINE
  5
25B
100
AcDbEntity
  8
0
  6
CONTINUOUS
 62
               4
100
AcDbLine
 10
235.00156979343882
 20
18.660692478690862
 30
0.0
 11
242.10156979343878
 21
18.660692478690862
 31
0.0
  0
LINE
  5
25C
100
AcDbEntity
  8
0
  6
CONTINUOUS
 62
               4
100
AcDbLine
 10
242.10156979343878
 20
17.460692478690845
 30
0.0
 11
242.10156979343878
 21
18.660692478690862
 31
0.0
  0
ARC
  5
25D
100
AcDbEntity
  8
0
  6
CONTINUOUS
 62
               4
100
AcDbCircle
 10
232.51678986940539
 20
20.727276014743126
 30
0.0
 40
0.6147802009733803
100
AcDbArc
 50
286.12836199114588
 51
359.94561607879228
  0
ARC
  5
25E
100
AcDbEntity
  8
0
  6
CONTINUOUS
 62
               4
100
AcDbCircle
 10
230.28540915803524
 20
20.725989087422448
 30
0.0
 40
0.6138397676001843
100
AcDbArc
 50
179.93434547259068
 51
253.74327317895529
  0
ARC
  5
25F
100
AcDbEntity
  8
0
  6
CONTINUOUS
 62
               4
100
AcDbCircle
 10
231.40056979343882
 20
24.567568577568096
 30
0.0
 40
4.6140039015589682
100
AcDbArc
 50
253.80344035262561
 51
286.19655964737319
  0
ARC
  5
260
100
AcDbEntity
  8
0
  6
CONTINUOUS
 62
               4
100
AcDbCircle
 10
225.91679182027471
 20
20.727274546631293
 30
0.0
 40
0.6147782487131708
100
AcDbArc
 50
286.12822533946951
 51
359.94575273046883
  0
ARC
  5
261
100
AcDbEntity
  8
0
  6
CONTINUOUS
 62
               4
100
AcDbCircle
 10
223.68541111218553
 20
20.725990551379113
 30
0.0
 40
0.613841720073419
100
AcDbArc
 50
179.93448232673219
 51
253.74313632481389
  0
ARC
  5
262
100
AcDbEntity
  8
0
  6
CONTINUOUS
 62
               4
100
AcDbCircle
 10
224.8005697934388
 20
24.567568577599815
 30
0.0
 40
4.6140039015894576
100
AcDbArc
 50
253.80344035273558
 51
286.19655964726314
  0
ARC
  5
263
100
AcDbEntity
  8
0
  6
CONTINUOUS
 62
               4
100
AcDbCircle
 10
221.20151310882892
 20
18.860749163300767
 30
0.0
 40
1.4000566857574084
100
AcDbArc
 50
270.00231975529556
 51
359.99768024470291
  0
ARC
  5
264
100
AcDbEntity
  8
0
  6
CONTINUOUS
 62
               4
100
AcDbCircle
 10
222.80150315237142
 20
21.060759119758217
 30
0.0
 40
0.1999333700389205
100
AcDbArc
 50
89.980902377767208
 51
180.01909762223218
  0
ARC
  5
265
100
AcDbEntity
  8
0
  6
CONTINUOUS
 62
               4
100
AcDbCircle
 10
233.40068532174149
 20
21.059808006993563
 30
0.0
 40
0.2008864188024893
100
AcDbArc
 50
0.2522652321918488
 51
89.747734767807131
  0
ARC
  5
266
100
AcDbEntity
  8
0
  6
CONTINUOUS
 62
               4
100
AcDbCircle
 10
221.20151138005616
 20
18.860750892073497
 30
0.0
 40
0.2000584219104543
100
AcDbArc
 50
270.01672931490481
 51
359.98327068509366
  0
LINE
  5
267
100
AcDbEntity
  8
0
  6
CONTINUOUS
 62
               4
100
AcDbLine
 10
233.13156979343881
 20
20.726692478690865
 30
0.0
 11
233.13156979343881
 21
21.260692478690856
 31
0.0
  0
LINE
  5
268
100
AcDbEntity
  8
0
  6
CONTINUOUS
 62
               4
100
AcDbLine
 10
229.67156979343878
 20
20.726692478690865
 30
0.0
 11
229.67156979343878
 21
21.260692478690856
 31
0.0
  0
LINE
  5
269
100
AcDbEntity
  8
0
  6
CONTINUOUS
 62
               4
100
AcDbLine
 10
226.53156979343879
 20
20.726692478690865
 30
0.0
 11
226.53156979343879
 21
21.260692478690856
 31
0.0
  0
LINE
  5
26A
100
AcDbEntity
  8
0
  6
CONTINUOUS
 62
               4
100
AcDbLine
 10
223.07156979343881
 20
20.726692478690865
 30
0.0
 11
223.07156979343881
 21
21.260692478690856
 31
0.0
  0
LINE
  5
26B
100
AcDbEntity
  8
0
  6
CONTINUOUS
 62
               4
100
AcDbLine
 10
221.4015697934388
 20
18.860692478690879
 30
0.0
 11
221.4015697934388
 21
21.060692478690868
 31
0.0
  0
LINE
  5
26C
100
AcDbEntity
  8
0
  6
CONTINUOUS
 62
               4
100
AcDbLine
 10
222.60156979343878
 20
18.860692478690879
 30
0.0
 11
222.60156979343878
 21
21.060692478690868
 31
0.0
  0
LINE
  5
26D
100
AcDbEntity
  8
0
  6
CONTINUOUS
 62
               4
100
AcDbLine
 10
222.8015697934388
 20
21.260692478690856
 30
0.0
 11
233.4015697934388
 21
21.260692478690856
 31
0.0
  0
LINE
  5
26E
100
AcDbEntity
  8
0
  6
CONTINUOUS
 62
               4
100
AcDbLine
 10
214.10156979343878
 20
17.460692478690845
 30
0.0
 11
214.10156979343878
 21
18.660692478690862
 31
0.0
  0
LINE
  5
26F
100
AcDbEntity
  8
0
  6
CONTINUOUS
 62
               4
100
AcDbLine
 10
214.10156979343878
 20
17.460692478690845
 30
0.0
 11
221.20156979343881
 21
17.460692478690845
 31
0.0
  0
LINE
  5
270
100
AcDbEntity
  8
0
  6
CONTINUOUS
 62
               4
100
AcDbLine
 10
214.10156979343878
 20
18.660692478690862
 30
0.0
 11
221.20156979343881
 21
18.660692478690862
 31
0.0
  0
LINE
  5
271
100
AcDbEntity
  8
0
  6
CENTER
 62
             200
100
AcDbLine
 10
239.10156979343878
 20
15.146456509172395
 30
0.0
 11
239.10156979343878
 21
20.348219602643923
 31
0.0
  0
LINE
  5
272
100
AcDbEntity
  8
0
  6
CENTER
 62
             200
100
AcDbLine
 10
217.10156979343878
 20
15.146456509172395
 30
0.0
 11
217.10156979343878
 21
20.348219602643923
 31
0.0
  0
LINE
  5
273
100
AcDbEntity
  8
0
  6
CONTINUOUS
 62
               4
100
AcDbLine
 10
229.10156979343878
 20
103.85362174962424
 30
0.0
 11
229.60156979343878
 21
103.85362174962424
 31
0.0
  0
LINE
  5
274
100
AcDbEntity
  8
0
  6
CONTINUOUS
 62
               4
100
AcDbLine
 10
226.60156979343878
 20
103.85362174962424
 30
0.0
 11
227.10156979343878
 21
103.85362174962424
 31
0.0
  0
ARC
  5
275
100
AcDbEntity
  8
0
  6
CONTINUOUS
 62
               4
100
AcDbCircle
 10
232.60186664130299
 20
65.860395630826673
 30
0.0
 40
0.4997032403068001
100
AcDbArc
 50
269.96596353714654
 51
0.0340364628527164
  0
LINE
  5
276
100
AcDbEntity
  8
0
  6
CONTINUOUS
 62
               4
100
AcDbLine
 10
223.10156979343878
 20
65.360692478690879
 30
0.0
 11
233.10156979343878
 21
65.360692478690879
 31
0.0
  0
LINE
  5
277
100
AcDbEntity
  8
0
  6
CONTINUOUS
 62
               4
100
AcDbLine
 10
233.10156979343878
 20
87.860692478690879
 30
0.0
 11
233.10156979343878
 21
65.360692478690879
 31
0.0
  0
LINE
  5
278
100
AcDbEntity
  8
0
  6
CONTINUOUS
 62
               4
100
AcDbLine
 10
223.10156982252795
 20
87.860692482960232
 30
0.0
 11
224.35156979343878
 21
87.860692482960232
 31
0.0
  0
ARC
  5
279
100
AcDbEntity
  8
0
  6
CONTINUOUS
 62
               4
100
AcDbCircle
 10
232.30566494009696
 20
87.260787629618406
 30
0.0
 40
0.5999048608870732
100
AcDbArc
 50
359.99091272245295
 51
90.009087277546172
  0
ARC
  5
27A
100
AcDbEntity
  8
0
  6
CONTINUOUS
 62
               4
100
AcDbCircle
 10
223.60156979343878
 20
87.260692482960209
 30
0.0
 40
0.5
100
AcDbArc
 50
89.999999999999815
 51
179.99999999999963
  0
LINE
  5
27B
100
AcDbEntity
  8
0
  6
CONTINUOUS
 62
               4
100
AcDbLine
 10
224.35156979343878
 20
87.760692482960209
 30
0.0
 11
223.60156979343878
 21
87.760692482960209
 31
0.0
  0
LINE
  5
27C
100
AcDbEntity
  8
0
  6
CONTINUOUS
 62
               4
100
AcDbLine
 10
233.10156979343878
 20
86.260692482960209
 30
0.0
 11
231.85155148289192
 21
86.260692482960209
 31
0.0
  0
LINE
  5
27D
100
AcDbEntity
  8
0
  6
CONTINUOUS
 62
               4
100
AcDbLine
 10
233.10156979343878
 20
87.860692482960232
 30
0.0
 11
231.85156979343878
 21
87.860692482960232
 31
0.0
  0
LINE
  5
27E
100
AcDbEntity
  8
0
  6
CONTINUOUS
 62
               4
100
AcDbLine
 10
233.10156979343878
 20
87.260692482960209
 30
0.0
 11
231.85155148289192
 21
87.260692482960209
 31
0.0
  0
LINE
  5
27F
100
AcDbEntity
  8
0
  6
CONTINUOUS
 62
               4
100
AcDbLine
 10
223.10156979343878
 20
87.860692482960232
 30
0.0
 11
223.10156979343878
 21
65.360692478690879
 31
0.0
  0
LINE
  5
280
100
AcDbEntity
  8
0
  6
CONTINUOUS
 62
               4
100
AcDbLine
 10
223.10155148289192
 20
84.860692478690737
 30
0.0
 11
223.60155148289192
 21
84.860692478690737
 31
0.0
  0
LINE
  5
281
100
AcDbEntity
  8
0
  6
CONTINUOUS
 62
               4
100
AcDbLine
 10
223.60155148289192
 20
84.860692478690737
 30
0.0
 11
225.35156979343878
 21
84.860692478690737
 31
0.0
  0
LINE
  5
282
100
AcDbEntity
  8
0
  6
CONTINUOUS
 62
               4
100
AcDbLine
 10
232.8715514828919
 20
84.360692478690737
 30
0.0
 11
232.8715514828919
 21
68.052611669341928
 31
0.0
  0
LINE
  5
283
100
AcDbEntity
  8
0
  6
CONTINUOUS
 62
               4
100
AcDbLine
 10
223.33155148289188
 20
84.360692478690737
 30
0.0
 11
223.33155148289188
 21
68.052611669357503
 31
0.0
  0
LINE
  5
284
100
AcDbEntity
  8
0
  6
CONTINUOUS
 62
               4
100
AcDbLine
 10
223.83155148289188
 20
67.552611669357475
 30
0.0
 11
232.3715514828919
 21
67.552611669357475
 31
0.0
  0
LINE
  5
285
100
AcDbEntity
  8
0
  6
CONTINUOUS
 62
               4
100
AcDbLine
 10
232.60155148289192
 20
84.860692478690737
 30
0.0
 11
233.10155148289192
 21
84.860692478690737
 31
0.0
  0
LINE
  5
286
100
AcDbEntity
  8
0
  6
CONTINUOUS
 62
               4
100
AcDbLine
 10
225.35156979343878
 20
76.860692478690765
 30
0.0
 11
230.85156979343878
 21
76.860692478690765
 31
0.0
  0
LINE
  5
287
100
AcDbEntity
  8
0
  6
CONTINUOUS
 62
               4
100
AcDbLine
 10
230.85156979343878
 20
84.860692478690737
 30
0.0
 11
232.60155148289192
 21
84.860692478690737
 31
0.0
  0
LINE
  5
288
100
AcDbEntity
  8
0
  6
CONTINUOUS
 62
               4
100
AcDbLine
 10
225.35156979343878
 20
92.860692478690737
 30
0.0
 11
225.35156979343878
 21
76.860692478690765
 31
0.0
  0
LINE
  5
289
100
AcDbEntity
  8
0
  6
CONTINUOUS
 62
               4
100
AcDbLine
 10
224.35156979343878
 20
92.860692478690737
 30
0.0
 11
224.35156979343878
 21
84.860692478690737
 31
0.0
  0
LINE
  5
28A
100
AcDbEntity
  8
0
  6
CONTINUOUS
 62
               4
100
AcDbLine
 10
225.35156979343878
 20
91.360692478690737
 30
0.0
 11
230.85156979343878
 21
91.360692478690737
 31
0.0
  0
LINE
  5
28B
100
AcDbEntity
  8
0
  6
CONTINUOUS
 62
               4
100
AcDbLine
 10
230.85156979343878
 20
92.860692478690737
 30
0.0
 11
230.85156979343878
 21
76.860692478690765
 31
0.0
  0
LINE
  5
28C
100
AcDbEntity
  8
0
  6
CONTINUOUS
 62
               4
100
AcDbLine
 10
231.85156979343878
 20
92.860692478690737
 30
0.0
 11
231.85156979343878
 21
84.860692478690737
 31
0.0
  0
LINE
  5
28D
100
AcDbEntity
  8
0
  6
CONTINUOUS
 62
               4
100
AcDbLine
 10
224.35156979343878
 20
92.860692478690737
 30
0.0
 11
231.85156979343878
 21
92.860692478690737
 31
0.0
  0
ARC
  5
28E
100
AcDbEntity
  8
0
  6
CONTINUOUS
 62
               4
100
AcDbCircle
 10
223.83273976679715
 20
68.05379995326274
 30
0.0
 40
0.5011896925741138
100
AcDbArc
 50
180.13584420715239
 51
269.86415579284636
  0
ARC
  5
28F
100
AcDbEntity
  8
0
  6
CONTINUOUS
 62
               4
100
AcDbCircle
 10
232.37034797678018
 20
68.053815175469225
 30
0.0
 40
0.5012049510586274
100
AcDbArc
 50
270.13758021931233
 51
359.86241978068648
  0
ARC
  5
290
100
AcDbEntity
  8
0
  6
CONTINUOUS
 62
               4
100
AcDbCircle
 10
232.37154904141266
 20
84.360690037211469
 30
0.0
 40
0.500002441485227
100
AcDbArc
 50
0.0002797715494944
 51
89.999720228450514
  0
ARC
  5
291
100
AcDbEntity
  8
0
  6
CONTINUOUS
 62
               4
100
AcDbCircle
 10
223.83153866555415
 20
84.36070529602847
 30
0.0
 40
0.4999871828265524
100
AcDbArc
 50
89.998531203634272
 51
180.00146879636483
  0
ARC
  5
292
100
AcDbEntity
  8
0
  6
CONTINUOUS
 62
               4
100
AcDbCircle
 10
223.60154080176051
 20
84.360703159822123
 30
0.0
 40
0.4999893189827007
100
AcDbArc
 50
89.998776006354774
 51
180.00122399364432
  0
ARC
  5
293
100
AcDbEntity
  8
0
  6
CONTINUOUS
 62
               4
100
AcDbCircle
 10
232.60154690514111
 20
84.360687900939951
 30
0.0
 40
0.5000045777717621
100
AcDbArc
 50
0.0005245667992071
 51
89.9994754332008
  0
ARC
  5
294
100
AcDbEntity
  8
0
  6
CONTINUOUS
 62
               4
100
AcDbCircle
 10
223.60154690536928
 20
65.86068790116812
 30
0.0
 40
0.4999954224983215
100
AcDbArc
 50
179.99947544974256
 51
270.00052455025656
  0
ARC
  5
295
100
AcDbEntity
  8
0
  6
CONTINUOUS
 62
               4
100
AcDbCircle
 10
232.60154080171861
 20
65.860703159864045
 30
0.0
 40
0.5000106812873828
100
AcDbArc
 50
270.00122394615329
 51
359.9987760538454
  0
LINE
  5
296
100
AcDbEntity
  8
0
  6
CONTINUOUS
 62
               4
100
AcDbLine
 10
230.00156979343876
 20
100.35362175162422
 30
0.0
 11
230.00156979343876
 21
96.860692478690737
 31
0.0
  0
LINE
  5
297
100
AcDbEntity
  8
0
  6
CONTINUOUS
 62
               4
100
AcDbLine
 10
228.70156979343875
 20
100.35362175162422
 30
0.0
 11
228.70156979343875
 21
97.21069247869076
 31
0.0
  0
LINE
  5
298
100
AcDbEntity
  8
0
  6
CONTINUOUS
 62
               4
100
AcDbLine
 10
227.10156979343878
 20
103.85362174962424
 30
0.0
 11
227.10156979343878
 21
100.35362175162422
 31
0.0
  0
LINE
  5
299
100
AcDbEntity
  8
0
  6
CONTINUOUS
 62
               4
100
AcDbLine
 10
226.60156979343878
 20
103.85362174962424
 30
0.0
 11
226.60156979343878
 21
100.35362175162422
 31
0.0
  0
LINE
  5
29A
100
AcDbEntity
  8
0
  6
CONTINUOUS
 62
               4
100
AcDbLine
 10
230.00156979343876
 20
95.830692478690736
 30
0.0
 11
230.00156979343876
 21
92.860692478690737
 31
0.0
  0
LINE
  5
29B
100
AcDbEntity
  8
0
  6
CONTINUOUS
 62
               4
100
AcDbLine
 10
228.70156979343875
 20
96.180692478690759
 30
0.0
 11
228.70156979343875
 21
92.860692478690737
 31
0.0
  0
LINE
  5
29C
100
AcDbEntity
  8
0
  6
CONTINUOUS
 62
               4
100
AcDbLine
 10
226.20156979343875
 20
96.850692478690746
 30
0.0
 11
226.20156979343875
 21
92.860692478690737
 31
0.0
  0
LINE
  5
29D
100
AcDbEntity
  8
0
  6
CONTINUOUS
 62
               4
100
AcDbLine
 10
227.50156979343876
 20
100.35362175162422
 30
0.0
 11
227.50156979343876
 21
97.530692478690753
 31
0.0
  0
LINE
  5
29E
100
AcDbEntity
  8
0
  6
CONTINUOUS
 62
               4
100
AcDbLine
 10
226.20156979343875
 20
100.35362175162422
 30
0.0
 11
226.20156979343875
 21
97.880692478690747
 31
0.0
  0
LINE
  5
29F
100
AcDbEntity
  8
0
  6
CONTINUOUS
 62
               4
100
AcDbLine
 10
229.60156979343878
 20
103.85362174962424
 30
0.0
 11
229.60156979343878
 21
100.35362175162422
 31
0.0
  0
LINE
  5
2A0
100
AcDbEntity
  8
0
  6
CONTINUOUS
 62
               4
100
AcDbLine
 10
229.10156979343878
 20
103.85362174962424
 30
0.0
 11
229.10156979343878
 21
100.35362175162422
 31
0.0
  0
LINE
  5
2A1
100
AcDbEntity
  8
0
  6
CONTINUOUS
 62
               4
100
AcDbLine
 10
227.50156979343876
 20
96.500692478690752
 30
0.0
 11
227.50156979343876
 21
92.860692478690737
 31
0.0
  0
LINE
  5
2A2
100
AcDbEntity
  8
0
  6
CONTINUOUS
 62
               4
100
AcDbLine
 10
226.20156979343875
 20
100.35362175162422
 30
0.0
 11
227.50156979343876
 21
100.35362175162422
 31
0.0
  0
LINE
  5
2A3
100
AcDbEntity
  8
0
  6
CONTINUOUS
 62
             200
100
AcDbLine
 10
224.35156979343878
 20
97.340692478690755
 30
0.0
 11
231.85156979343878
 21
95.330692478690736
 31
0.0
  0
LINE
  5
2A4
100
AcDbEntity
  8
0
  6
CONTINUOUS
 62
             200
100
AcDbLine
 10
224.35156979343878
 20
98.380692478690747
 30
0.0
 11
231.85156979343878
 21
96.370692478690756
 31
0.0
  0
LINE
  5
2A5
100
AcDbEntity
  8
0
  6
CONTINUOUS
 62
               4
100
AcDbLine
 10
228.70156979343875
 20
100.35362175162422
 30
0.0
 11
230.00156979343876
 21
100.35362175162422
 31
0.0
  0
LINE
  5
2A6
100
AcDbEntity
  8
0
  6
PHANTOM
 62
             200
100
AcDbLine
 10
229.60155148289192
 20
72.860692478690765
 30
0.0
 11
229.60155148289192
 21
70.860692478690765
 31
0.0
  0
LINE
  5
2A7
100
AcDbEntity
  8
0
  6
PHANTOM
 62
             200
100
AcDbLine
 10
226.60155148289192
 20
72.860692478690765
 30
0.0
 11
226.60155148289192
 21
70.860692478690765
 31
0.0
  0
LINE
  5
2A8
100
AcDbEntity
  8
0
  6
PHANTOM
 62
             200
100
AcDbLine
 10
226.60155148289192
 20
70.860692478690765
 30
0.0
 11
229.60155148289192
 21
70.860692478690765
 31
0.0
  0
LINE
  5
2A9
100
AcDbEntity
  8
0
  6
PHANTOM
 62
             200
100
AcDbLine
 10
226.60155148289192
 20
72.860692478690765
 30
0.0
 11
229.60155148289192
 21
72.860692478690765
 31
0.0
  0
LINE
  5
2AA
100
AcDbEntity
  8
0
  6
CENTER
 62
               2
100
AcDbLine
 10
228.10156979343878
 20
93.730375535639226
 30
0.0
 11
228.10156979343878
 21
22.056770138001554
 31
0.0
  0
LINE
  5
2AB
100
AcDbEntity
  8
0
  6
CONTINUOUS
 62
               7
100
AcDbLine
 10
-230.25989739942625
 20
24.230692478690834
 30
0.0
 11
-230.25989739942625
 21
24.760692478690835
 31
0.0
  0
ARC
  5
2AC
100
AcDbEntity
  8
0
  6
CONTINUOUS
 62
               7
100
AcDbCircle
 10
-229.64934343131719
 20
24.228943747343862
 30
0.0
 40
0.6105564724372721
100
AcDbArc
 50
179.83589550320582
 51
253.77907243150949
  0
LINE
  5
2AD
100
AcDbEntity
  8
0
  6
CONTINUOUS
 62
               7
100
AcDbLine
 10
-226.81989739942625
 20
24.230692478690834
 30
0.0
 11
-226.81989739942625
 21
24.760692478690835
 31
0.0
  0
ARC
  5
2AE
100
AcDbEntity
  8
0
  6
CONTINUOUS
 62
               7
100
AcDbCircle
 10
-227.43166939526017
 20
24.229855196661802
 30
0.0
 40
0.6117725687931934
100
AcDbArc
 50
286.30661609184898
 51
0.0784159734340139
  0
ARC
  5
2AF
100
AcDbEntity
  8
0
  6
CONTINUOUS
 62
               7
100
AcDbCircle
 10
-228.53989739942622
 20
28.048113715424805
 30
0.0
 40
4.5876068132596712
100
AcDbArc
 50
253.79871892415684
 51
286.20128107584191
  0
LINE
  5
2B0
100
AcDbEntity
  8
0
  6
CONTINUOUS
 62
               4
100
AcDbLine
 10
-220.23989739942624
 20
87.860692478690808
 30
0.0
 11
-230.23989739942624
 21
87.860692478690808
 31
0.0
  0
LINE
  5
2B1
100
AcDbEntity
  8
0
  6
CONTINUOUS
 62
               4
100
AcDbLine
 10
-220.23989739942624
 20
86.260692478690814
 30
0.0
 11
-223.43989739942626
 21
86.260692478690814
 31
0.0
  0
LINE
  5
2B2
100
AcDbEntity
  8
0
  6
CONTINUOUS
 62
               4
100
AcDbLine
 10
-223.43989739942626
 20
87.760692478690814
 30
0.0
 11
-229.73989739942624
 21
87.760692478690814
 31
0.0
  0
LINE
  5
2B3
100
AcDbEntity
  8
0
  6
CONTINUOUS
 62
               4
100
AcDbLine
 10
-223.43989739942626
 20
87.760692478690814
 30
0.0
 11
-223.43989739942626
 21
86.260692478690814
 31
0.0
  0
ARC
  5
2B4
100
AcDbEntity
  8
0
  6
CONTINUOUS
 62
               4
100
AcDbCircle
 10
-229.73989739942624
 20
87.2606924786908
 30
0.0
 40
0.5
100
AcDbArc
 50
89.999999999999815
 51
179.99999999999963
  0
LINE
  5
2B5
100
AcDbEntity
  8
0
  6
CONTINUOUS
 62
               4
100
AcDbLine
 10
-220.23989739942624
 20
87.2606924786908
 30
0.0
 11
-223.43989739942623
 21
87.2606924786908
 31
0.0
  0
ARC
  5
2B6
100
AcDbEntity
  8
0
  6
CONTINUOUS
 62
               4
100
AcDbCircle
 10
-221.03580225276804
 20
87.260787625348968
 30
0.0
 40
0.5999048608870732
100
AcDbArc
 50
359.99091272245295
 51
90.009087277546172
  0
ARC
  5
2B7
100
AcDbEntity
  8
0
  6
CONTINUOUS
 62
               4
100
AcDbCircle
 10
-222.83698540466327
 20
87.261780483927822
 30
0.0
 40
0.5989129830170392
100
AcDbArc
 50
89.895914524772735
 51
180.10408547522667
  0
LINE
  5
2B8
100
AcDbEntity
  8
0
  6
CONTINUOUS
 62
               4
100
AcDbLine
 10
-230.23989739942624
 20
87.860692478690808
 30
0.0
 11
-230.23989739942624
 21
65.360692478690837
 31
0.0
  0
LINE
  5
2B9
100
AcDbEntity
  8
0
  6
CONTINUOUS
 62
               4
100
AcDbLine
 10
-220.23989739942624
 20
87.860692478690808
 30
0.0
 11
-220.23989739942624
 21
65.360692478690837
 31
0.0
  0
LINE
  5
2BA
100
AcDbEntity
  8
0
  6
CONTINUOUS
 62
               7
100
AcDbLine
 10
-230.23989739942624
 20
65.360692478690837
 30
0.0
 11
-220.23989739942624
 21
65.360692478690837
 31
0.0
  0
LINE
  5
2BB
100
AcDbEntity
  8
0
  6
CONTINUOUS
 62
               7
100
AcDbLine
 10
-220.43989739942626
 20
22.460692478690831
 30
0.0
 11
-230.03989739942625
 21
22.460692478690831
 31
0.0
  0
LINE
  5
2BC
100
AcDbEntity
  8
0
  6
CONTINUOUS
 62
               7
100
AcDbLine
 10
-220.23989739942624
 20
27.960692478690838
 30
0.0
 11
-230.23989739942624
 21
27.960692478690838
 31
0.0
  0
LINE
  5
2BD
100
AcDbEntity
  8
0
  6
CONTINUOUS
 62
               7
100
AcDbLine
 10
-220.23989739942624
 20
52.160692478690834
 30
0.0
 11
-230.23989739942624
 21
52.160692478690834
 31
0.0
  0
LINE
  5
2BE
100
AcDbEntity
  8
0
  6
CONTINUOUS
 62
               7
100
AcDbLine
 10
-230.25989739942625
 20
24.760692478690835
 30
0.0
 11
-226.73989739942624
 21
24.760692478690835
 31
0.0
  0
LINE
  5
2BF
100
AcDbEntity
  8
0
  6
CONTINUOUS
 62
               7
100
AcDbLine
 10
-226.73989739942624
 20
22.460692478690831
 30
0.0
 11
-226.73989739942624
 21
24.760692478690835
 31
0.0
  0
LINE
  5
2C0
100
AcDbEntity
  8
0
  6
CONTINUOUS
 62
               7
100
AcDbLine
 10
-230.23989739942624
 20
22.660692478690834
 30
0.0
 11
-230.23989739942624
 21
24.073943048036767
 31
0.0
  0
ARC
  5
2C1
100
AcDbEntity
  8
0
  6
CONTINUOUS
 62
               7
100
AcDbCircle
 10
-229.94079253628513
 20
25.059797341831946
 30
0.0
 40
0.2991062025847394
100
AcDbArc
 50
179.82853033398985
 51
270.17146966600922
  0
LINE
  5
2C2
100
AcDbEntity
  8
0
  6
CENTER
 62
               2
100
AcDbLine
 10
-225.23989739942624
 20
22.056770138001511
 30
0.0
 11
-225.23989739942624
 21
88.560692478690797
 31
0.0
  0
ARC
  5
2C3
100
AcDbEntity
  8
0
  6
CONTINUOUS
 62
               7
100
AcDbCircle
 10
-230.03989739942625
 20
22.660692478690834
 30
0.0
 40
0.2
100
AcDbArc
 50
179.99999999999963
 51
269.99999999999937
  0
ARC
  5
2C4
100
AcDbEntity
  8
0
  6
CONTINUOUS
 62
               7
100
AcDbCircle
 10
-220.43989739942626
 20
22.660692478690834
 30
0.0
 40
0.2
100
AcDbArc
 50
269.99999999999937
 51
0.0
  0
LINE
  5
2C5
100
AcDbEntity
  8
0
  6
CONTINUOUS
 62
               7
100
AcDbLine
 10
-230.23989739942624
 20
24.760692478690835
 30
0.0
 11
-230.23989739942624
 21
65.360692478690837
 31
0.0
  0
LINE
  5
2C6
100
AcDbEntity
  8
0
  6
CONTINUOUS
 62
               7
100
AcDbLine
 10
-220.23989739942624
 20
22.660692478690834
 30
0.0
 11
-220.23989739942624
 21
65.360692478690837
 31
0.0
  0
CIRCLE
  5
2C7
100
AcDbEntity
  8
0
  6
CONTINUOUS
 62
               7
100
AcDbCircle
 10
-225.23989739942624
 20
60.060692478690839
 30
0.0
 40
0.75
  0
LINE
  5
2C8
100
AcDbEntity
  8
0
  6
CENTER
 62
               2
100
AcDbLine
 10
-227.88989739942625
 20
48.360692478690822
 30
0.0
 11
-230.18989739942626
 21
48.360692478690822
 31
0.0
  0
CIRCLE
  5
2C9
100
AcDbEntity
  8
0
  6
CONTINUOUS
 62
               7
100
AcDbCircle
 10
-229.04074591016843
 20
48.361665745292385
 30
0.0
 40
0.9
  0
LINE
  5
2CA
100
AcDbEntity
  8
0
  6
CENTER
 62
               2
100
AcDbLine
 10
-229.03989739942622
 20
47.210692478690817
 30
0.0
 11
-229.03989739942622
 21
49.5106924786908
 31
0.0
  0
LINE
  5
2CB
100
AcDbEntity
  8
0
  6
CENTER
 62
               2
100
AcDbLine
 10
-221.43989739942626
 20
30.610692478690822
 30
0.0
 11
-221.43989739942626
 21
32.910692478690834
 31
0.0
  0
LINE
  5
2CC
100
AcDbEntity
  8
0
  6
CENTER
 62
               2
100
AcDbLine
 10
-220.28989739942622
 20
31.7606924786908
 30
0.0
 11
-222.58989739942623
 21
31.7606924786908
 31
0.0
  0
CIRCLE
  5
2CD
100
AcDbEntity
  8
0
  6
CONTINUOUS
 62
               7
100
AcDbCircle
 10
-221.44074591016843
 20
31.76166574529239
 30
0.0
 40
0.9
  0
CIRCLE
  5
2CE
100
AcDbEntity
  8
0
  6
CONTINUOUS
 62
               2
100
AcDbCircle
 10
-225.23989739942624
 20
40.060692478690811
 30
0.0
 40
2.5
  0
CIRCLE
  5
2CF
100
AcDbEntity
  8
0
  6
CONTINUOUS
 62
               7
100
AcDbCircle
 10
-225.23989739942624
 20
40.060692478690811
 30
0.0
 40
2.1000000000000001
  0
LINE
  5
2D0
100
AcDbEntity
  8
0
  6
CENTER
 62
               2
100
AcDbLine
 10
-222.23387762338942
 20
40.060692478690811
 30
0.0
 11
-228.34391158090963
 21
40.060692478690839
 31
0.0
  0
CIRCLE
  5
2D1
100
AcDbEntity
  8
0
  6
CONTINUOUS
 62
               7
100
AcDbCircle
 10
-225.23989739942624
 20
48.460692478690817
 30
0.0
 40
1.25
  0
LINE
  5
2D2
100
AcDbEntity
  8
0
  6
CENTER
 62
               2
100
AcDbLine
 10
-223.53989739942622
 20
48.460692478690817
 30
0.0
 11
-226.93989739942626
 21
48.460692478690817
 31
0.0
  0
CIRCLE
  5
2D3
100
AcDbEntity
  8
0
  6
CONTINUOUS
 62
               2
100
AcDbCircle
 10
-225.24074591016841
 20
48.453568011050237
 30
0.0
 40
1.5
  0
CIRCLE
  5
2D4
100
AcDbEntity
  8
0
  6
CONTINUOUS
 62
               2
100
AcDbCircle
 10
-225.23989739942624
 20
31.660692478690834
 30
0.0
 40
1.5
  0
CIRCLE
  5
2D5
100
AcDbEntity
  8
0
  6
CONTINUOUS
 62
               7
100
AcDbCircle
 10
-225.23989739942624
 20
31.660692478690834
 30
0.0
 40
1.25
  0
LINE
  5
2D6
100
AcDbEntity
  8
0
  6
CENTER
 62
               2
100
AcDbLine
 10
-223.53989739942622
 20
31.660692478690834
 30
0.0
 11
-227.25288441241324
 21
31.660692478690834
 31
0.0
  0
ARC
  5
2D7
100
AcDbEntity
  8
0
  6
CONTINUOUS
 62
               4
100
AcDbCircle
 10
-230.53996572259473
 20
21.060760801859345
 30
0.0
 40
1.3999316784987346
100
AcDbArc
 50
89.997203699822904
 51
180.00279630017653
  0
ARC
  5
2D8
100
AcDbEntity
  8
0
  6
CONTINUOUS
 62
               4
100
AcDbCircle
 10
-219.94078186148238
 20
21.059808016634676
 30
0.0
 40
1.4008847412629901
100
AcDbArc
 50
0.0361742439122946
 51
89.963825756087459
  0
LINE
  5
2D9
100
AcDbEntity
  8
0
  6
CONTINUOUS
 62
               4
100
AcDbLine
 10
-236.23989739942624
 20
17.460692478690831
 30
0.0
 11
-236.23989739942624
 21
18.660692478690834
 31
0.0
  0
LINE
  5
2DA
100
AcDbEntity
  8
0
  6
CONTINUOUS
 62
               4
100
AcDbLine
 10
-214.23989739942624
 20
17.460692478690831
 30
0.0
 11
-214.23989739942624
 21
18.660692478690834
 31
0.0
  0
LINE
  5
2DB
100
AcDbEntity
  8
0
  6
CONTINUOUS
 62
               4
100
AcDbLine
 10
-219.73989739942624
 20
18.860692478690837
 30
0.0
 11
-219.73989739942624
 21
21.060692478690825
 31
0.0
  0
LINE
  5
2DC
100
AcDbEntity
  8
0
  6
CONTINUOUS
 62
               4
100
AcDbLine
 10
-218.53989739942625
 20
18.860692478690837
 30
0.0
 11
-218.53989739942625
 21
21.060692478690825
 31
0.0
  0
ARC
  5
2DD
100
AcDbEntity
  8
0
  6
CONTINUOUS
 62
               4
100
AcDbCircle
 10
-218.3407940658314
 20
18.85979581228564
 30
0.0
 40
1.3991036209254675
100
AcDbArc
 50
179.96327991479848
 51
270.03672008520033
  0
ARC
  5
2DE
100
AcDbEntity
  8
0
  6
CONTINUOUS
 62
               4
100
AcDbCircle
 10
-218.34079405938002
 20
18.859795818737027
 30
0.0
 40
0.1991053590856348
100
AcDbArc
 50
179.74197075907335
 51
270.25802924092562
  0
LINE
  5
2DF
100
AcDbEntity
  8
0
  6
CONTINUOUS
 62
               4
100
AcDbLine
 10
-218.33989739942621
 20
17.460692478690831
 30
0.0
 11
-211.23989739942624
 21
17.460692478690831
 31
0.0
  0
LINE
  5
2E0
100
AcDbEntity
  8
0
  6
CONTINUOUS
 62
               4
100
AcDbLine
 10
-218.33989739942621
 20
18.660692478690834
 30
0.0
 11
-211.23989739942624
 21
18.660692478690834
 31
0.0
  0
LINE
  5
2E1
100
AcDbEntity
  8
0
  6
CONTINUOUS
 62
               4
100
AcDbLine
 10
-211.23989739942624
 20
17.460692478690831
 30
0.0
 11
-211.23989739942624
 21
18.660692478690834
 31
0.0
  0
ARC
  5
2E2
100
AcDbEntity
  8
0
  6
CONTINUOUS
 62
               4
100
AcDbCircle
 10
-220.82467732345964
 20
20.727276014743111
 30
0.0
 40
0.6147802009733803
100
AcDbArc
 50
286.12836199114588
 51
359.94561607879228
  0
ARC
  5
2E3
100
AcDbEntity
  8
0
  6
CONTINUOUS
 62
               4
100
AcDbCircle
 10
-223.05605803482979
 20
20.725989087422406
 30
0.0
 40
0.6138397676001843
100
AcDbArc
 50
179.93434547259068
 51
253.74327317895529
  0
ARC
  5
2E4
100
AcDbEntity
  8
0
  6
CONTINUOUS
 62
               4
100
AcDbCircle
 10
-221.94089739942621
 20
24.567568577568053
 30
0.0
 40
4.6140039015589682
100
AcDbArc
 50
253.80344035262561
 51
286.19655964737319
  0
ARC
  5
2E5
100
AcDbEntity
  8
0
  6
CONTINUOUS
 62
               4
100
AcDbCircle
 10
-227.42467537259031
 20
20.727274546631264
 30
0.0
 40
0.6147782487131708
100
AcDbArc
 50
286.12822533946951
 51
359.94575273046883
  0
ARC
  5
2E6
100
AcDbEntity
  8
0
  6
CONTINUOUS
 62
               4
100
AcDbCircle
 10
-229.65605608067949
 20
20.72599055137907
 30
0.0
 40
0.613841720073419
100
AcDbArc
 50
179.93448232673219
 51
253.74313632481389
  0
ARC
  5
2E7
100
AcDbEntity
  8
0
  6
CONTINUOUS
 62
               4
100
AcDbCircle
 10
-228.54089739942623
 20
24.567568577599786
 30
0.0
 40
4.6140039015894576
100
AcDbArc
 50
253.80344035273558
 51
286.19655964726314
  0
ARC
  5
2E8
100
AcDbEntity
  8
0
  6
CONTINUOUS
 62
               4
100
AcDbCircle
 10
-232.13995408403611
 20
18.860749163300724
 30
0.0
 40
1.4000566857574084
100
AcDbArc
 50
270.00231975529556
 51
359.99768024470291
  0
ARC
  5
2E9
100
AcDbEntity
  8
0
  6
CONTINUOUS
 62
               4
100
AcDbCircle
 10
-230.5399640404936
 20
21.060759119758188
 30
0.0
 40
0.1999333700389205
100
AcDbArc
 50
89.980902377767208
 51
180.01909762223218
  0
ARC
  5
2EA
100
AcDbEntity
  8
0
  6
CONTINUOUS
 62
               4
100
AcDbCircle
 10
-219.94078187112353
 20
21.059808006993521
 30
0.0
 40
0.2008864188024893
100
AcDbArc
 50
0.2522652321918488
 51
89.747734767807131
  0
ARC
  5
2EB
100
AcDbEntity
  8
0
  6
CONTINUOUS
 62
               4
100
AcDbCircle
 10
-232.13995581280886
 20
18.860750892073469
 30
0.0
 40
0.2000584219104543
100
AcDbArc
 50
270.01672931490481
 51
359.98327068509366
  0
LINE
  5
2EC
100
AcDbEntity
  8
0
  6
CONTINUOUS
 62
               4
100
AcDbLine
 10
-220.20989739942621
 20
20.726692478690836
 30
0.0
 11
-220.20989739942621
 21
21.260692478690828
 31
0.0
  0
LINE
  5
2ED
100
AcDbEntity
  8
0
  6
CONTINUOUS
 62
               4
100
AcDbLine
 10
-223.66989739942625
 20
20.726692478690836
 30
0.0
 11
-223.66989739942625
 21
21.260692478690828
 31
0.0
  0
LINE
  5
2EE
100
AcDbEntity
  8
0
  6
CONTINUOUS
 62
               4
100
AcDbLine
 10
-226.80989739942623
 20
20.726692478690836
 30
0.0
 11
-226.80989739942623
 21
21.260692478690828
 31
0.0
  0
LINE
  5
2EF
100
AcDbEntity
  8
0
  6
CONTINUOUS
 62
               4
100
AcDbLine
 10
-230.26989739942621
 20
20.726692478690836
 30
0.0
 11
-230.26989739942621
 21
21.260692478690828
 31
0.0
  0
LINE
  5
2F0
100
AcDbEntity
  8
0
  6
CONTINUOUS
 62
               4
100
AcDbLine
 10
-231.93989739942623
 20
18.860692478690837
 30
0.0
 11
-231.93989739942623
 21
21.060692478690825
 31
0.0
  0
LINE
  5
2F1
100
AcDbEntity
  8
0
  6
CONTINUOUS
 62
               4
100
AcDbLine
 10
-230.73989739942624
 20
18.860692478690837
 30
0.0
 11
-230.73989739942624
 21
21.060692478690825
 31
0.0
  0
LINE
  5
2F2
100
AcDbEntity
  8
0
  6
CONTINUOUS
 62
               4
100
AcDbLine
 10
-230.53989739942622
 20
21.260692478690828
 30
0.0
 11
-219.93989739942623
 21
21.260692478690828
 31
0.0
  0
LINE
  5
2F3
100
AcDbEntity
  8
0
  6
CONTINUOUS
 62
               4
100
AcDbLine
 10
-239.23989739942624
 20
17.460692478690831
 30
0.0
 11
-239.23989739942624
 21
18.660692478690834
 31
0.0
  0
LINE
  5
2F4
100
AcDbEntity
  8
0
  6
CONTINUOUS
 62
               4
100
AcDbLine
 10
-239.23989739942624
 20
17.460692478690831
 30
0.0
 11
-232.13989739942622
 21
17.460692478690831
 31
0.0
  0
LINE
  5
2F5
100
AcDbEntity
  8
0
  6
CONTINUOUS
 62
               4
100
AcDbLine
 10
-239.23989739942624
 20
18.660692478690834
 30
0.0
 11
-232.13989739942622
 21
18.660692478690834
 31
0.0
  0
LINE
  5
2F6
100
AcDbEntity
  8
0
  6
CENTER
 62
             200
100
AcDbLine
 10
-214.23989739942624
 20
15.146456509172353
 30
0.0
 11
-214.23989739942624
 21
20.34821960264388
 31
0.0
  0
LINE
  5
2F7
100
AcDbEntity
  8
0
  6
CENTER
 62
             200
100
AcDbLine
 10
-236.23989739942624
 20
15.146456509172353
 30
0.0
 11
-236.23989739942624
 21
20.34821960264388
 31
0.0
  0
LINE
  5
2F8
100
AcDbEntity
  8
0
  6
CONTINUOUS
 62
               4
100
AcDbLine
 10
-219.93989739942623
 20
22.460692478690831
 30
0.0
 11
-230.53989739942622
 21
22.460692478690831
 31
0.0
  0
ARC
  5
2F9
100
AcDbEntity
  8
0
  6
CONTINUOUS
 62
               4
100
AcDbCircle
 10
-133.46186945967457
 20
65.860692507498754
 30
0.0
 40
0.5
100
AcDbArc
 50
270.00000016698061
 51
295.02078332804751
  0
ARC
  5
2FA
100
AcDbEntity
  8
0
  6
CONTINUOUS
 62
               4
100
AcDbCircle
 10
-128.84946057959093
 20
68.013214981480132
 30
0.0
 40
0.4997133381008656
100
AcDbArc
 50
294.82621547678906
 51
359.88450458733644
  0
LINE
  5
2FB
100
AcDbEntity
  8
0
  6
CONTINUOUS
 62
               4
100
AcDbLine
 10
-128.63810832949997
 20
67.560397527468695
 30
0.0
 11
-133.25039596679744
 21
65.407615293538072
 31
0.0
  0
LINE
  5
2FC
100
AcDbEntity
  8
0
  6
CONTINUOUS
 62
               4
100
AcDbLine
 10
-112.8507584103385
 20
83.016248113033456
 30
0.0
 11
-116.1881321458051
 21
83.016248103307163
 31
0.0
  0
LINE
  5
2FD
100
AcDbEntity
  8
0
  6
CONTINUOUS
 62
               4
100
AcDbLine
 10
-112.85075840654699
 20
81.715238012766761
 30
0.0
 11
-115.43863719294697
 21
81.715238005224748
 31
0.0
  0
ARC
  5
2FE
100
AcDbEntity
  8
0
  6
CONTINUOUS
 62
               4
100
AcDbCircle
 10
-137.14662293659401
 20
87.26078764340896
 30
0.0
 40
0.599904800896587
100
AcDbArc
 50
56.247418037376157
 51
90.009087444528447
  0
ARC
  5
2FF
100
AcDbEntity
  8
0
  6
CONTINUOUS
 62
               4
100
AcDbCircle
 10
-149.54780590837387
 20
87.261780465746654
 30
0.0
 40
0.598912923125741
100
AcDbArc
 50
89.89591469175501
 51
180.10408564220893
  0
LINE
  5
300
100
AcDbEntity
  8
0
  6
CONTINUOUS
 62
               4
100
AcDbLine
 10
-146.64671780820689
 20
87.260692469073277
 30
0.0
 11
-150.34671798924242
 21
87.260692458290038
 31
0.0
  0
ARC
  5
301
100
AcDbEntity
  8
0
  6
CONTINUOUS
 62
               4
100
AcDbCircle
 10
-149.84671798924248
 20
87.260692459747261
 30
0.0
 40
0.5
100
AcDbArc
 50
93.919586066633087
 51
180.00000016698186
  0
LINE
  5
302
100
AcDbEntity
  8
0
  6
CONTINUOUS
 62
               4
100
AcDbLine
 10
-137.14671808499102
 20
87.860692496760024
 30
0.0
 11
-149.54671790499103
 21
87.860692460621593
 31
0.0
  0
ARC
  5
303
100
AcDbEntity
  8
0
  6
CONTINUOUS
 62
               4
100
AcDbCircle
 10
-136.84671799724245
 20
87.260692497634281
 30
0.0
 40
0.5
100
AcDbArc
 50
0.0000001669822759
 51
90.000000166982076
  0
LINE
  5
304
100
AcDbEntity
  8
0
  6
CONTINUOUS
 62
               4
100
AcDbLine
 10
-136.84671799869963
 20
87.760692497634338
 30
0.0
 11
-138.34671799469956
 21
87.760692493262738
 31
0.0
  0
LINE
  5
305
100
AcDbEntity
  8
0
  6
CONTINUOUS
 62
               4
100
AcDbLine
 10
-138.346717994991
 20
87.860692493262732
 30
0.0
 11
-138.34671799032802
 21
86.260692493262681
 31
0.0
  0
LINE
  5
306
100
AcDbEntity
  8
0
  6
CONTINUOUS
 62
               4
100
AcDbLine
 10
-138.34671799032802
 20
86.260692493262681
 30
0.0
 11
-150.34671798632806
 21
86.260692458290009
 31
0.0
  0
LINE
  5
307
100
AcDbEntity
  8
0
  6
CONTINUOUS
 62
             200
100
AcDbLine
 10
-116.67601093587794
 20
83.864732949885337
 30
0.0
 11
-114.94368769580737
 21
80.866753158667251
 31
0.0
  0
ARC
  5
308
100
AcDbEntity
  8
0
  6
CONTINUOUS
 62
               4
100
AcDbCircle
 10
-127.94588395745578
 20
84.367587162928615
 30
0.0
 40
0.403865208170398
100
AcDbArc
 50
180.11832490249481
 51
269.88167543146591
  0
ARC
  5
309
100
AcDbEntity
  8
0
  6
CONTINUOUS
 62
               4
100
AcDbCircle
 10
-127.94682207042649
 20
84.36601975517604
 30
0.0
 40
0.4029269013737999
100
AcDbArc
 50
100.09177172437607
 51
179.8957165812306
  0
ARC
  5
30A
100
AcDbEntity
  8
0
  6
CONTINUOUS
 62
               4
100
AcDbCircle
 10
-129.34680548295898
 20
84.465726844584125
 30
0.0
 40
0.4950149226876426
100
AcDbArc
 50
53.123124908144874
 51
90.808304291558656
  0
ARC
  5
30B
100
AcDbEntity
  8
0
  6
CONTINUOUS
 62
               4
100
AcDbCircle
 10
-136.04728670887465
 20
85.665276629382603
 30
0.0
 40
0.2994663800970315
100
AcDbArc
 50
90.4709731954445
 51
180.87710093448598
  0
ARC
  5
30C
100
AcDbEntity
  8
0
  6
CONTINUOUS
 62
               4
100
AcDbCircle
 10
-128.84638515588148
 20
84.365065759337909
 30
0.0
 40
0.4966660273328702
100
AcDbArc
 50
359.37896053054396
 51
90.621039803413836
  0
LINE
  5
30D
100
AcDbEntity
  8
0
  6
CONTINUOUS
 62
               4
100
AcDbLine
 10
-121.34974829528132
 20
79.862712736531023
 30
0.0
 11
-120.3527785988813
 21
79.862712739436532
 31
0.0
  0
LINE
  5
30E
100
AcDbEntity
  8
0
  6
CONTINUOUS
 62
               4
100
AcDbLine
 10
-128.34974829128134
 20
79.862712716130574
 30
0.0
 11
-126.34873819141471
 21
79.862712721962197
 31
0.0
  0
LINE
  5
30F
100
AcDbEntity
  8
0
  6
CONTINUOUS
 62
               4
100
AcDbLine
 10
-120.35277860353841
 20
81.460692536503302
 30
0.0
 11
-128.34974829593838
 21
81.460692513197301
 31
0.0
  0
LINE
  5
310
100
AcDbEntity
  8
0
  6
CONTINUOUS
 62
               4
100
AcDbLine
 10
-120.35277860879312
 20
83.263722838503298
 30
0.0
 11
-128.34974830119307
 21
83.263722815197326
 31
0.0
  0
LINE
  5
311
100
AcDbEntity
  8
0
  6
CONTINUOUS
 62
               4
100
AcDbLine
 10
-120.35277861083317
 20
83.96372283810328
 30
0.0
 11
-127.94671800043308
 21
83.963722815971835
 31
0.0
  0
LINE
  5
312
100
AcDbEntity
  8
0
  6
CONTINUOUS
 62
               4
100
AcDbLine
 10
-120.64974830849857
 20
84.260692534037773
 30
0.0
 11
-126.5537887091653
 21
84.260692516831298
 31
0.0
  0
LINE
  5
313
100
AcDbEntity
  8
0
  6
CONTINUOUS
 62
               4
100
AcDbLine
 10
-120.35277861637626
 20
85.865743039036573
 30
0.0
 11
-121.75984932264298
 21
85.865743034935889
 31
0.0
  0
LINE
  5
314
100
AcDbEntity
  8
0
  6
CONTINUOUS
 62
               4
100
AcDbLine
 10
-120.35277861928179
 20
86.862712735436645
 30
0.0
 11
-121.85176851741514
 21
86.862712731068072
 31
0.0
  0
LINE
  5
315
100
AcDbEntity
  8
0
  6
CONTINUOUS
 62
               4
100
AcDbLine
 10
-116.53459679207188
 20
83.016248102297439
 30
0.0
 11
-120.35277860807187
 21
83.016248091169928
 31
0.0
  0
LINE
  5
316
100
AcDbEntity
  8
0
  6
CONTINUOUS
 62
             200
100
AcDbLine
 10
-117.02247558214461
 20
83.86473294887557
 30
0.0
 11
-115.29015234205355
 21
80.85968245059091
 31
0.0
  0
LINE
  5
317
100
AcDbEntity
  8
0
  6
CONTINUOUS
 62
               4
100
AcDbLine
 10
-115.78510183921364
 20
81.715238004215053
 30
0.0
 11
-120.35277860428025
 21
81.715237990903205
 31
0.0
  0
LINE
  5
318
100
AcDbEntity
  8
0
  6
CONTINUOUS
 62
               4
100
AcDbLine
 10
-135.05277860505021
 20
84.861702592729003
 30
0.0
 11
-135.05277860533869
 21
84.960692491662272
 31
0.0
  0
LINE
  5
319
100
AcDbEntity
  8
0
  6
CONTINUOUS
 62
               4
100
AcDbLine
 10
-126.95681901693141
 20
85.964732918723499
 30
0.0
 11
-136.04974830466486
 21
85.964732892223495
 31
0.0
  0
LINE
  5
31A
100
AcDbEntity
  8
0
  6
CONTINUOUS
 62
               4
100
AcDbLine
 10
-126.8507584050998
 20
83.963722819165866
 30
0.0
 11
-126.5537887091653
 21
84.260692516831298
 31
0.0
  0
LINE
  5
31B
100
AcDbEntity
  8
0
  6
CONTINUOUS
 62
               4
100
AcDbLine
 10
-126.34873819141471
 20
79.862712721962197
 30
0.0
 11
-126.34873819316628
 21
80.463722822628966
 31
0.0
  0
LINE
  5
31C
100
AcDbEntity
  8
0
  6
CONTINUOUS
 62
               4
100
AcDbLine
 10
-121.34974829703289
 20
80.463722837197736
 30
0.0
 11
-126.34873819316628
 21
80.463722822628966
 31
0.0
  0
LINE
  5
31D
100
AcDbEntity
  8
0
  6
CONTINUOUS
 62
               4
100
AcDbLine
 10
-121.34974829528132
 20
79.862712736531023
 30
0.0
 11
-121.34974829703289
 21
80.463722837197736
 31
0.0
  0
LINE
  5
31E
100
AcDbEntity
  8
0
  6
CONTINUOUS
 62
               4
100
AcDbLine
 10
-120.35277861083317
 20
83.96372283810328
 30
0.0
 11
-120.64974830849857
 21
84.260692534037773
 31
0.0
  0
LINE
  5
31F
100
AcDbEntity
  8
0
  6
CONTINUOUS
 62
               4
100
AcDbLine
 10
-129.35378870960528
 20
84.960692508271151
 30
0.0
 11
-135.05277860533869
 21
84.960692491662272
 31
0.0
  0
LINE
  5
320
100
AcDbEntity
  8
0
  6
CONTINUOUS
 62
               4
100
AcDbLine
 10
-128.01742507342831
 20
84.762712714299056
 30
0.0
 11
-121.67500083788421
 21
85.879884449316506
 31
0.0
  0
LINE
  5
321
100
AcDbEntity
  8
0
  6
CONTINUOUS
 62
               4
100
AcDbLine
 10
-120.35277861637626
 20
85.865743039036573
 30
0.0
 11
-120.35277861928179
 21
86.862712735436645
 31
0.0
  0
LINE
  5
322
100
AcDbEntity
  8
0
  6
CONTINUOUS
 62
               4
100
AcDbLine
 10
-126.95681901693141
 20
85.964732918723499
 30
0.0
 11
-121.85176851741514
 21
86.862712731068072
 31
0.0
  0
LINE
  5
323
100
AcDbEntity
  8
0
  6
CONTINUOUS
 62
               4
100
AcDbLine
 10
-120.3527785988813
 20
79.862712739436532
 30
0.0
 11
-120.35277861083317
 21
83.96372283810328
 31
0.0
  0
LINE
  5
324
100
AcDbEntity
  8
0
  6
CONTINUOUS
 62
               4
100
AcDbLine
 10
-136.3467179982502
 20
84.861702588957968
 30
0.0
 11
-128.85176850758353
 21
84.861702610800933
 31
0.0
  0
LINE
  5
325
100
AcDbEntity
  8
0
  6
CONTINUOUS
 62
               4
100
AcDbLine
 10
-112.85075840654699
 20
81.715238012766761
 30
0.0
 11
-112.8507584103385
 21
83.016248113033456
 31
0.0
  0
LINE
  5
326
100
AcDbEntity
  8
0
  6
CONTINUOUS
 62
               4
100
AcDbLine
 10
-146.64671780820689
 20
87.260692469073248
 30
0.0
 11
-146.6467178099555
 21
87.860692469073271
 31
0.0
  0
ARC
  5
327
100
AcDbEntity
  8
0
  6
CONTINUOUS
 62
               4
100
AcDbCircle
 10
-147.74562980297296
 20
87.261780471107613
 30
0.0
 40
0.5989129830170392
100
AcDbArc
 50
359.89591469175417
 51
90.104085642208119
  0
LINE
  5
328
100
AcDbEntity
  8
0
  6
CONTINUOUS
 62
               4
100
AcDbLine
 10
-109.3507584091689
 20
82.61492569028789
 30
0.0
 11
-109.35075840771171
 21
82.11492569028789
 31
0.0
  0
LINE
  5
329
100
AcDbEntity
  8
0
  6
CONTINUOUS
 62
               4
100
AcDbLine
 10
-112.85075840916896
 20
82.61492568008758
 30
0.0
 11
-109.3507584091689
 21
82.61492569028789
 31
0.0
  0
LINE
  5
32A
100
AcDbEntity
  8
0
  6
CONTINUOUS
 62
               4
100
AcDbLine
 10
-112.85075840771177
 20
82.11492568008758
 30
0.0
 11
-109.35075840771171
 21
82.11492569028789
 31
0.0
  0
LINE
  5
32B
100
AcDbEntity
  8
0
  6
CONTINUOUS
 62
               4
100
AcDbLine
 10
-128.34974830438711
 20
84.35968241053061
 30
0.0
 11
-128.34974825674473
 21
68.012207672397352
 31
0.0
  0
LINE
  5
32C
100
AcDbEntity
  8
0
  6
CONTINUOUS
 62
               4
100
AcDbLine
 10
-133.46186945821736
 20
65.360692507498754
 30
0.0
 11
-133.46186951505024
 21
84.861702597365451
 31
0.0
  0
LINE
  5
32D
100
AcDbEntity
  8
0
  6
CONTINUOUS
 62
               4
100
AcDbLine
 10
-150.3467179334173
 20
65.360692458290316
 30
0.0
 11
-150.34671799724165
 21
87.260692458290293
 31
0.0
  0
LINE
  5
32E
100
AcDbEntity
  8
0
  6
CONTINUOUS
 62
               4
100
AcDbLine
 10
-136.34671800524168
 20
87.260692499091249
 30
0.0
 11
-136.34671794141732
 21
65.360692499091272
 31
0.0
  0
LINE
  5
32F
100
AcDbEntity
  8
0
  6
CONTINUOUS
 62
               7
100
AcDbLine
 10
-134.74671791593104
 20
59.360692503754422
 30
0.0
 11
-134.74671793341727
 21
65.360692503754422
 31
0.0
  0
LINE
  5
330
100
AcDbEntity
  8
0
  6
CONTINUOUS
 62
               7
100
AcDbLine
 10
-150.3467178949476
 20
52.160692458290214
 30
0.0
 11
-150.3467179334173
 21
65.360692458290217
 31
0.0
  0
LINE
  5
331
100
AcDbEntity
  8
0
  6
CONTINUOUS
 62
               7
100
AcDbLine
 10
-150.34672074994407
 20
65.360692458290202
 30
0.0
 11
-133.46186945821736
 21
65.360692507498925
 31
0.0
  0
ARC
  5
332
100
AcDbEntity
  8
0
  6
CONTINUOUS
 62
               7
100
AcDbCircle
 10
-136.74574444252704
 20
22.859719130901869
 30
0.0
 40
0.3990278201647513
100
AcDbArc
 50
269.86023578205828
 51
0.1397645519035116
  0
LINE
  5
333
100
AcDbEntity
  8
0
  6
CONTINUOUS
 62
               7
100
AcDbLine
 10
-150.3467178949476
 20
52.160692458290214
 30
0.0
 11
-136.3467178949476
 21
52.160692499091425
 31
0.0
  0
LINE
  5
334
100
AcDbEntity
  8
0
  6
CONTINUOUS
 62
               7
100
AcDbLine
 10
-150.34671782441981
 20
27.960692458290243
 30
0.0
 11
-136.34671782441981
 21
27.960692499091447
 31
0.0
  0
LINE
  5
335
100
AcDbEntity
  8
0
  6
CONTINUOUS
 62
               7
100
AcDbLine
 10
-149.94671780839076
 20
22.460692459455977
 30
0.0
 11
-136.7467178083908
 21
22.460692497925685
 31
0.0
  0
ARC
  5
336
100
AcDbEntity
  8
0
  6
CONTINUOUS
 62
               7
100
AcDbCircle
 10
-149.94769117658032
 20
22.859719092426484
 30
0.0
 40
0.3990278201647513
100
AcDbArc
 50
179.86023578205851
 51
270.13976455190289
  0
LINE
  5
337
100
AcDbEntity
  8
0
  6
CONTINUOUS
 62
               7
100
AcDbLine
 10
-134.74671791593104
 20
59.360692503754422
 30
0.0
 11
-136.34671791126809
 21
57.760692499091419
 31
0.0
  0
LINE
  5
338
100
AcDbEntity
  8
0
  6
CONTINUOUS
 62
               7
100
AcDbLine
 10
-136.3467178949476
 20
52.160692499091425
 30
0.0
 11
-136.3467179334173
 21
65.3606924990914
 31
0.0
  0
LINE
  5
339
100
AcDbEntity
  8
0
  6
CONTINUOUS
 62
               7
100
AcDbLine
 10
-136.34671780955651
 20
22.860692499091396
 30
0.0
 11
-136.3467178949476
 21
52.160692499091425
 31
0.0
  0
LINE
  5
33A
100
AcDbEntity
  8
0
  6
CONTINUOUS
 62
               7
100
AcDbLine
 10
-150.34671780955651
 20
22.860692458290192
 30
0.0
 11
-150.3467178949476
 21
52.160692458290214
 31
0.0
  0
ARC
  5
33B
100
AcDbEntity
  8
0
  6
CONTINUOUS
 62
               7
100
AcDbCircle
 10
-136.95727178165316
 20
24.228943765965155
 30
0.0
 40
0.6105564724372723
100
AcDbArc
 50
286.22092773547132
 51
0.1641046637749775
  0
LINE
  5
33C
100
AcDbEntity
  8
0
  6
CONTINUOUS
 62
               7
100
AcDbLine
 10
-139.8667178083908
 20
22.460692488832844
 30
0.0
 11
-139.86671781509386
 21
24.760692488832927
 31
0.0
  0
LINE
  5
33D
100
AcDbEntity
  8
0
  6
CONTINUOUS
 62
               7
100
AcDbLine
 10
-136.34671781509383
 20
24.760692499091515
 30
0.0
 11
-139.86671781509386
 21
24.760692488832927
 31
0.0
  0
ARC
  5
33E
100
AcDbEntity
  8
0
  6
CONTINUOUS
 62
               7
100
AcDbCircle
 10
-138.06671782467458
 20
28.04811373081273
 30
0.0
 40
4.5876068132596712
100
AcDbArc
 50
253.79871909113808
 51
286.20128124282314
  0
ARC
  5
33F
100
AcDbEntity
  8
0
  6
CONTINUOUS
 62
               7
100
AcDbCircle
 10
-139.17494581771282
 20
24.229855208820013
 30
0.0
 40
0.6117725687931934
100
AcDbArc
 50
179.92158419354681
 51
253.69338407513101
  0
LINE
  5
340
100
AcDbEntity
  8
0
  6
CONTINUOUS
 62
               7
100
AcDbLine
 10
-139.78671781354919
 20
24.230692489066104
 30
0.0
 11
-139.78671781509382
 21
24.760692489066077
 31
0.0
  0
LINE
  5
341
100
AcDbEntity
  8
0
  6
CONTINUOUS
 62
               7
100
AcDbLine
 10
-136.34671781986134
 20
30.15971923248982
 30
0.0
 11
-137.34671781986134
 21
30.159719229575444
 31
0.0
  0
LINE
  5
342
100
AcDbEntity
  8
0
  6
CONTINUOUS
 62
               7
100
AcDbLine
 10
-136.34671782918733
 20
33.359719232489866
 30
0.0
 11
-137.34671782918733
 21
33.359719229575489
 31
0.0
  0
LINE
  5
343
100
AcDbEntity
  8
0
  6
CONTINUOUS
 62
               7
100
AcDbLine
 10
-137.34671784015458
 20
33.359719229575489
 30
0.0
 11
-137.3467178308286
 21
30.159719229575444
 31
0.0
  0
LINE
  5
344
100
AcDbEntity
  8
0
  6
CENTER
 62
               2
100
AcDbLine
 10
-149.04671784656901
 20
35.56069246207889
 30
0.0
 11
-146.04671784656901
 21
35.560692470822005
 31
0.0
  0
LINE
  5
345
100
AcDbEntity
  8
0
  6
CENTER
 62
               2
100
AcDbLine
 10
-149.04671787279835
 20
44.56069246207889
 30
0.0
 11
-146.04671787279835
 21
44.560692470822005
 31
0.0
  0
LINE
  5
346
100
AcDbEntity
  8
0
  6
CENTER
 62
               2
100
AcDbLine
 10
-147.54671786842681
 20
43.060692466450448
 30
0.0
 11
-147.54671787716993
 21
46.060692466450448
 31
0.0
  0
CIRCLE
  5
347
100
AcDbEntity
  8
0
  6
CONTINUOUS
 62
               7
100
AcDbCircle
 10
-147.54671787279835
 20
44.560692466450448
 30
0.0
 40
1.0499999999999998
  0
CIRCLE
  5
348
100
AcDbEntity
  8
0
  6
CONTINUOUS
 62
               7
100
AcDbCircle
 10
-147.54671784656901
 20
35.560692466450448
 30
0.0
 40
1.0499999999999998
  0
LINE
  5
349
100
AcDbEntity
  8
0
  6
CENTER
 62
               2
100
AcDbLine
 10
-147.54671784219747
 20
34.060692466450448
 30
0.0
 11
-147.54671785094058
 21
37.060692466450448
 31
0.0
  0
LINE
  5
34A
100
AcDbEntity
  8
0
  6
CENTER
 62
              51
100
AcDbLine
 10
-149.26288320646677
 20
48.461665728050463
 30
0.0
 11
-163.75264895165719
 21
48.461665685821899
 31
0.0
  0
LINE
  5
34B
100
AcDbEntity
  8
0
  6
CENTER
 62
              51
100
AcDbLine
 10
-149.26288315749966
 20
31.65971919484738
 30
0.0
 11
-163.75264890269008
 21
31.659719152618813
 31
0.0
  0
ARC
  5
34C
100
AcDbEntity
  8
0
  6
DASHED
 62
             200
100
AcDbCircle
 10
-161.84671784248607
 20
34.159719158173402
 30
0.0
 40
0.5
100
AcDbArc
 50
90.00000016698101
 51
180.00000016698081
  0
ARC
  5
34D
100
AcDbEntity
  8
0
  6
DASHED
 62
             200
100
AcDbCircle
 10
-161.8467178279142
 20
29.159719158173406
 30
0.0
 40
0.5
100
AcDbArc
 50
180.00000016698081
 51
270.00000016698061
  0
LINE
  5
34E
100
AcDbEntity
  8
0
  6
DASHED
 62
               7
100
AcDbLine
 10
-150.34671784394325
 20
34.65971919168868
 30
0.0
 11
-150.34671782645702
 21
28.659719191688684
 31
0.0
  0
LINE
  5
34F
100
AcDbEntity
  8
0
  6
DASHED
 62
             200
100
AcDbLine
 10
-162.34671784248607
 20
34.159719156716221
 30
0.0
 11
-162.3467178279142
 21
29.159719156716221
 31
0.0
  0
LINE
  5
350
100
AcDbEntity
  8
0
  6
DASHED
 62
             200
100
AcDbLine
 10
-159.84671784394325
 20
34.659719164002155
 30
0.0
 11
-159.84671782645702
 21
28.659719164002148
 31
0.0
  0
LINE
  5
351
100
AcDbEntity
  8
0
  6
DASHED
 62
             200
100
AcDbLine
 10
-161.84671784394325
 20
34.659719158173402
 30
0.0
 11
-161.84671782645702
 21
28.659719158173406
 31
0.0
  0
LINE
  5
352
100
AcDbEntity
  8
0
  6
DASHED
 62
             200
100
AcDbLine
 10
-150.34671782645702
 20
28.659719191688684
 30
0.0
 11
-161.84671782645702
 21
28.659719158173406
 31
0.0
  0
LINE
  5
353
100
AcDbEntity
  8
0
  6
DASHED
 62
             200
100
AcDbLine
 10
-150.34671784394325
 20
34.65971919168868
 30
0.0
 11
-161.84671784394325
 21
34.659719158173402
 31
0.0
  0
LINE
  5
354
100
AcDbEntity
  8
0
  6
DASHED
 62
             200
100
AcDbLine
 10
-150.34671787542413
 20
45.461665724891759
 30
0.0
 11
-161.84671787542413
 21
45.461665691376481
 31
0.0
  0
LINE
  5
355
100
AcDbEntity
  8
0
  6
DASHED
 62
             200
100
AcDbLine
 10
-150.34671789291036
 20
51.461665724891759
 30
0.0
 11
-161.84671789291036
 21
51.461665691376488
 31
0.0
  0
LINE
  5
356
100
AcDbEntity
  8
0
  6
DASHED
 62
             200
100
AcDbLine
 10
-161.84671787542413
 20
45.461665691376481
 30
0.0
 11
-161.84671789291036
 21
51.461665691376488
 31
0.0
  0
LINE
  5
357
100
AcDbEntity
  8
0
  6
DASHED
 62
             200
100
AcDbLine
 10
-159.84671787542413
 20
45.461665697205234
 30
0.0
 11
-159.84671789291036
 21
51.461665697205227
 31
0.0
  0
LINE
  5
358
100
AcDbEntity
  8
0
  6
DASHED
 62
             200
100
AcDbLine
 10
-162.34671787688134
 20
45.9616656899193
 30
0.0
 11
-162.34671789145318
 21
50.9616656899193
 31
0.0
  0
LINE
  5
359
100
AcDbEntity
  8
0
  6
DASHED
 62
               7
100
AcDbLine
 10
-150.34671787542413
 20
45.461665724891759
 30
0.0
 11
-150.34671789291036
 21
51.461665724891759
 31
0.0
  0
ARC
  5
35A
100
AcDbEntity
  8
0
  6
DASHED
 62
             200
100
AcDbCircle
 10
-161.84671789145318
 20
50.961665691376488
 30
0.0
 40
0.5
100
AcDbArc
 50
90.00000016698101
 51
180.00000016698081
  0
ARC
  5
35B
100
AcDbEntity
  8
0
  6
DASHED
 62
             200
100
AcDbCircle
 10
-161.84671787688134
 20
45.961665691376481
 30
0.0
 40
0.5
100
AcDbArc
 50
180.00000016698081
 51
270.00000016698061
  0
LINE
  5
35C
100
AcDbEntity
  8
0
  6
CONTINUOUS
 62
               4
100
AcDbLine
 10
-150.3467177653873
 20
17.460692458290229
 30
0.0
 11
-136.3467177653873
 21
17.460692499091433
 31
0.0
  0
LINE
  5
35D
100
AcDbEntity
  8
0
  6
CONTINUOUS
 62
               4
100
AcDbLine
 10
-150.34671776888453
 20
18.660692458290232
 30
0.0
 11
-136.34671776888453
 21
18.660692499091436
 31
0.0
  0
LINE
  5
35E
100
AcDbEntity
  8
0
  6
CONTINUOUS
 62
               4
100
AcDbLine
 10
-150.3467177938189
 20
17.460692437889623
 30
0.0
 11
-150.34671780839076
 21
22.460692458290229
 31
0.0
  0
LINE
  5
35F
100
AcDbEntity
  8
0
  6
CONTINUOUS
 62
               4
100
AcDbLine
 10
-136.3467177938189
 20
17.460692478690827
 30
0.0
 11
-136.34671780839076
 21
22.460692499091433
 31
0.0
  0
LINE
  5
360
100
AcDbEntity
  8
0
  6
CONTINUOUS
 62
               4
100
AcDbLine
 10
-139.3467177938189
 20
17.460692490348318
 30
0.0
 11
-139.34671779731613
 21
18.660692490348321
 31
0.0
  0
LINE
  5
361
100
AcDbEntity
  8
0
  6
CONTINUOUS
 62
               4
100
AcDbLine
 10
-147.3467177938189
 20
17.460692467033343
 30
0.0
 11
-147.34671779731613
 21
18.660692467033346
 31
0.0
  0
LINE
  5
362
100
AcDbEntity
  8
0
  6
CONTINUOUS
 62
               4
100
AcDbLine
 10
-150.34671780839076
 20
22.460692458290229
 30
0.0
 11
-136.34671780839076
 21
22.460692499091433
 31
0.0
  0
LINE
  5
363
100
AcDbEntity
  8
0
  6
CENTER
 62
               2
100
AcDbLine
 10
-143.34671780491988
 20
21.269736377215906
 30
0.0
 11
-143.34671800437599
 21
89.708543151492023
 31
0.0
  0
LINE
  5
364
100
AcDbEntity
  8
0
  6
CENTER
 62
               7
100
AcDbLine
 10
-143.34671780223422
 20
20.34821960264388
 30
0.0
 11
-143.34671778707434
 21
15.146456509172353
 31
0.0
  0
LINE
  5
365
100
AcDbEntity
  8
0
  6
CONTINUOUS
 62
               4
100
AcDbLine
 10
-60.203538188211553
 20
85.865742972023682
 30
0.0
 11
-54.703538188211553
 21
85.865742972023682
 31
0.0
  0
LINE
  5
366
100
AcDbEntity
  8
0
  6
CONTINUOUS
 62
               4
100
AcDbLine
 10
-60.203538188211553
 20
86.862712668423754
 30
0.0
 11
-54.703538188211553
 21
86.862712668423754
 31
0.0
  0
LINE
  5
367
100
AcDbEntity
  8
0
  6
CONTINUOUS
 62
               4
100
AcDbLine
 10
-59.203538188211553
 20
81.212692478690897
 30
0.0
 11
-59.203538188211553
 21
81.51269247869088
 31
0.0
  0
LINE
  5
368
100
AcDbEntity
  8
0
  6
CONTINUOUS
 62
               4
100
AcDbLine
 10
-71.453538188211553
 20
18.660692478690834
 30
0.0
 11
-64.35353818821153
 21
18.660692478690834
 31
0.0
  0
LINE
  5
369
100
AcDbEntity
  8
0
  6
CONTINUOUS
 62
               4
100
AcDbLine
 10
-71.453538188211553
 20
17.460692478690831
 30
0.0
 11
-64.35353818821153
 21
17.460692478690831
 31
0.0
  0
LINE
  5
36A
100
AcDbEntity
  8
0
  6
CONTINUOUS
 62
               4
100
AcDbLine
 10
-71.453538188211553
 20
17.460692478690831
 30
0.0
 11
-71.453538188211553
 21
18.660692478690834
 31
0.0
  0
LINE
  5
36B
100
AcDbEntity
  8
0
  6
CONTINUOUS
 62
               4
100
AcDbLine
 10
-62.753538188211536
 20
21.260692478690828
 30
0.0
 11
-52.153538188211542
 21
21.260692478690828
 31
0.0
  0
LINE
  5
36C
100
AcDbEntity
  8
0
  6
CONTINUOUS
 62
               4
100
AcDbLine
 10
-62.953538188211553
 20
18.860692478690837
 30
0.0
 11
-62.953538188211553
 21
21.060692478690825
 31
0.0
  0
LINE
  5
36D
100
AcDbEntity
  8
0
  6
CONTINUOUS
 62
               4
100
AcDbLine
 10
-64.153538188211542
 20
18.860692478690837
 30
0.0
 11
-64.153538188211542
 21
21.060692478690825
 31
0.0
  0
LINE
  5
36E
100
AcDbEntity
  8
0
  6
CONTINUOUS
 62
               4
100
AcDbLine
 10
-62.483538188211526
 20
20.726692478690836
 30
0.0
 11
-62.483538188211526
 21
21.260692478690828
 31
0.0
  0
LINE
  5
36F
100
AcDbEntity
  8
0
  6
CONTINUOUS
 62
               4
100
AcDbLine
 10
-59.023538188211546
 20
20.726692478690836
 30
0.0
 11
-59.023538188211546
 21
21.260692478690828
 31
0.0
  0
LINE
  5
370
100
AcDbEntity
  8
0
  6
CONTINUOUS
 62
               4
100
AcDbLine
 10
-55.88353818821156
 20
20.726692478690836
 30
0.0
 11
-55.88353818821156
 21
21.260692478690828
 31
0.0
  0
LINE
  5
371
100
AcDbEntity
  8
0
  6
CONTINUOUS
 62
               4
100
AcDbLine
 10
-52.423538188211523
 20
20.726692478690836
 30
0.0
 11
-52.423538188211523
 21
21.260692478690828
 31
0.0
  0
ARC
  5
372
100
AcDbEntity
  8
0
  6
CONTINUOUS
 62
               4
100
AcDbCircle
 10
-64.353596601594177
 20
18.860750892073469
 30
0.0
 40
0.2000584219104543
100
AcDbArc
 50
270.01672931490481
 51
359.98327068509366
  0
ARC
  5
373
100
AcDbEntity
  8
0
  6
CONTINUOUS
 62
               4
100
AcDbCircle
 10
-52.154422659908846
 20
21.059808006993521
 30
0.0
 40
0.2008864188024893
100
AcDbArc
 50
0.2522652321918488
 51
89.747734767807131
  0
ARC
  5
374
100
AcDbEntity
  8
0
  6
CONTINUOUS
 62
               4
100
AcDbCircle
 10
-62.753604829278913
 20
21.060759119758188
 30
0.0
 40
0.1999333700389205
100
AcDbArc
 50
89.980902377767208
 51
180.01909762223218
  0
ARC
  5
375
100
AcDbEntity
  8
0
  6
CONTINUOUS
 62
               4
100
AcDbCircle
 10
-64.353594872821418
 20
18.860749163300724
 30
0.0
 40
1.4000566857574084
100
AcDbArc
 50
270.00231975529556
 51
359.99768024470291
  0
ARC
  5
376
100
AcDbEntity
  8
0
  6
CONTINUOUS
 62
               4
100
AcDbCircle
 10
-60.754538188211541
 20
24.567568577599786
 30
0.0
 40
4.6140039015894576
100
AcDbArc
 50
253.80344035273558
 51
286.19655964726314
  0
ARC
  5
377
100
AcDbEntity
  8
0
  6
CONTINUOUS
 62
               4
100
AcDbCircle
 10
-61.869696869464804
 20
20.72599055137907
 30
0.0
 40
0.613841720073419
100
AcDbArc
 50
179.93448232673219
 51
253.74313632481389
  0
ARC
  5
378
100
AcDbEntity
  8
0
  6
CONTINUOUS
 62
               4
100
AcDbCircle
 10
-59.638316161375627
 20
20.727274546631264
 30
0.0
 40
0.6147782487131708
100
AcDbArc
 50
286.12822533946951
 51
359.94575273046883
  0
ARC
  5
379
100
AcDbEntity
  8
0
  6
CONTINUOUS
 62
               4
100
AcDbCircle
 10
-54.154538188211518
 20
24.567568577568053
 30
0.0
 40
4.6140039015589682
100
AcDbArc
 50
253.80344035262561
 51
286.19655964737319
  0
ARC
  5
37A
100
AcDbEntity
  8
0
  6
CONTINUOUS
 62
               4
100
AcDbCircle
 10
-55.269698823615101
 20
20.725989087422406
 30
0.0
 40
0.6138397676001843
100
AcDbArc
 50
179.93434547259068
 51
253.74327317895529
  0
ARC
  5
37B
100
AcDbEntity
  8
0
  6
CONTINUOUS
 62
               4
100
AcDbCircle
 10
-53.038318112244951
 20
20.727276014743111
 30
0.0
 40
0.6147802009733803
100
AcDbArc
 50
286.12836199114588
 51
359.94561607879228
  0
LINE
  5
37C
100
AcDbEntity
  8
0
  6
CONTINUOUS
 62
               4
100
AcDbLine
 10
-43.453538188211553
 20
17.460692478690831
 30
0.0
 11
-43.453538188211553
 21
18.660692478690834
 31
0.0
  0
LINE
  5
37D
100
AcDbEntity
  8
0
  6
CONTINUOUS
 62
               4
100
AcDbLine
 10
-50.553538188211519
 20
18.660692478690834
 30
0.0
 11
-43.453538188211553
 21
18.660692478690834
 31
0.0
  0
LINE
  5
37E
100
AcDbEntity
  8
0
  6
CONTINUOUS
 62
               4
100
AcDbLine
 10
-50.553538188211519
 20
17.460692478690831
 30
0.0
 11
-43.453538188211553
 21
17.460692478690831
 31
0.0
  0
ARC
  5
37F
100
AcDbEntity
  8
0
  6
CONTINUOUS
 62
               4
100
AcDbCircle
 10
-50.554434848165329
 20
18.859795818737027
 30
0.0
 40
0.1991053590856348
100
AcDbArc
 50
179.74197075907335
 51
270.25802924092562
  0
ARC
  5
380
100
AcDbEntity
  8
0
  6
CONTINUOUS
 62
               4
100
AcDbCircle
 10
-50.554434854616716
 20
18.85979581228564
 30
0.0
 40
1.3991036209254675
100
AcDbArc
 50
179.96327991479848
 51
270.03672008520033
  0
LINE
  5
381
100
AcDbEntity
  8
0
  6
CONTINUOUS
 62
               4
100
AcDbLine
 10
-50.753538188211564
 20
18.860692478690837
 30
0.0
 11
-50.753538188211564
 21
21.060692478690825
 31
0.0
  0
LINE
  5
382
100
AcDbEntity
  8
0
  6
CONTINUOUS
 62
               4
100
AcDbLine
 10
-51.953538188211553
 20
18.860692478690837
 30
0.0
 11
-51.953538188211553
 21
21.060692478690825
 31
0.0
  0
ARC
  5
383
100
AcDbEntity
  8
0
  6
CONTINUOUS
 62
               4
100
AcDbCircle
 10
-62.753606511380042
 20
21.060760801859345
 30
0.0
 40
1.3999316784987346
100
AcDbArc
 50
89.997203699822904
 51
180.00279630017653
  0
ARC
  5
384
100
AcDbEntity
  8
0
  6
CONTINUOUS
 62
               4
100
AcDbCircle
 10
-52.154422650267691
 20
21.059808016634676
 30
0.0
 40
1.4008847412629901
100
AcDbArc
 50
0.0361742439122946
 51
89.963825756087459
  0
LINE
  5
385
100
AcDbEntity
  8
0
  6
CONTINUOUS
 62
               4
100
AcDbLine
 10
-52.153538188211542
 20
22.460692478690831
 30
0.0
 11
-62.753538188211536
 21
22.460692478690831
 31
0.0
  0
LINE
  5
386
100
AcDbEntity
  8
0
  6
CONTINUOUS
 62
               4
100
AcDbLine
 10
-46.453538188211553
 20
17.460692478690831
 30
0.0
 11
-46.453538188211553
 21
18.660692478690834
 31
0.0
  0
LINE
  5
387
100
AcDbEntity
  8
0
  6
CONTINUOUS
 62
               4
100
AcDbLine
 10
-68.453538188211553
 20
17.460692478690831
 30
0.0
 11
-68.453538188211553
 21
18.660692478690834
 31
0.0
  0
LINE
  5
388
100
AcDbEntity
  8
0
  6
CONTINUOUS
 62
               7
100
AcDbLine
 10
-52.453538188211553
 20
22.660692478690834
 30
0.0
 11
-52.453538188211553
 21
65.360692478690837
 31
0.0
  0
LINE
  5
389
100
AcDbEntity
  8
0
  6
CONTINUOUS
 62
               7
100
AcDbLine
 10
-62.453538188211553
 20
24.760692478690835
 30
0.0
 11
-62.453538188211553
 21
65.360692478690837
 31
0.0
  0
ARC
  5
38A
100
AcDbEntity
  8
0
  6
CONTINUOUS
 62
               7
100
AcDbCircle
 10
-52.65353818821157
 20
22.660692478690834
 30
0.0
 40
0.2
100
AcDbArc
 50
269.99999999999937
 51
0.0
  0
ARC
  5
38B
100
AcDbEntity
  8
0
  6
CONTINUOUS
 62
               7
100
AcDbCircle
 10
-62.253538188211564
 20
22.660692478690834
 30
0.0
 40
0.2
100
AcDbArc
 50
179.99999999999963
 51
269.99999999999937
  0
CIRCLE
  5
38C
100
AcDbEntity
  8
0
  6
CONTINUOUS
 62
               7
100
AcDbCircle
 10
-57.453538188211553
 20
63.060692478690839
 30
0.0
 40
0.7500000000000001
  0
CIRCLE
  5
38D
100
AcDbEntity
  8
0
  6
CONTINUOUS
 62
               7
100
AcDbCircle
 10
-57.453538188211553
 20
63.060692478690839
 30
0.0
 40
1.1000000000000001
  0
LINE
  5
38E
100
AcDbEntity
  8
0
  6
CENTER
 62
               2
100
AcDbLine
 10
-57.453538188211553
 20
22.056770138001511
 30
0.0
 11
-57.453538188211553
 21
88.560692478690868
 31
0.0
  0
ARC
  5
38F
100
AcDbEntity
  8
0
  6
CONTINUOUS
 62
               7
100
AcDbCircle
 10
-62.154433325070443
 20
25.059797341831946
 30
0.0
 40
0.2991062025847394
100
AcDbArc
 50
179.82853033398985
 51
270.17146966600922
  0
LINE
  5
390
100
AcDbEntity
  8
0
  6
CONTINUOUS
 62
               7
100
AcDbLine
 10
-62.453538188211553
 20
22.660692478690834
 30
0.0
 11
-62.453538188211553
 21
24.073943048036767
 31
0.0
  0
LINE
  5
391
100
AcDbEntity
  8
0
  6
CONTINUOUS
 62
               7
100
AcDbLine
 10
-58.953538188211553
 20
22.460692478690831
 30
0.0
 11
-58.953538188211553
 21
24.760692478690835
 31
0.0
  0
LINE
  5
392
100
AcDbEntity
  8
0
  6
CONTINUOUS
 62
               7
100
AcDbLine
 10
-62.473538188211563
 20
24.760692478690835
 30
0.0
 11
-58.953538188211553
 21
24.760692478690835
 31
0.0
  0
LINE
  5
393
100
AcDbEntity
  8
0
  6
CONTINUOUS
 62
               7
100
AcDbLine
 10
-62.453538188211553
 20
52.160692478690834
 30
0.0
 11
-52.453538188211553
 21
52.160692478690834
 31
0.0
  0
LINE
  5
394
100
AcDbEntity
  8
0
  6
CONTINUOUS
 62
               7
100
AcDbLine
 10
-62.453538188211553
 20
27.960692478690838
 30
0.0
 11
-52.453538188211553
 21
27.960692478690838
 31
0.0
  0
LINE
  5
395
100
AcDbEntity
  8
0
  6
CONTINUOUS
 62
               7
100
AcDbLine
 10
-52.65353818821157
 20
22.460692478690831
 30
0.0
 11
-62.253538188211564
 21
22.460692478690831
 31
0.0
  0
CIRCLE
  5
396
100
AcDbEntity
  8
0
  6
CONTINUOUS
 62
               7
100
AcDbCircle
 10
-57.453538188211553
 20
63.060692478690839
 30
0.0
 40
1.1500000000000001
  0
CIRCLE
  5
397
100
AcDbEntity
  8
0
  6
CONTINUOUS
 62
               7
100
AcDbCircle
 10
-57.453538188211553
 20
63.060692478690839
 30
0.0
 40
1.3000000000000012
  0
LINE
  5
398
100
AcDbEntity
  8
0
  6
CENTER
 62
               2
100
AcDbLine
 10
-55.753538188211536
 20
63.060692478690839
 30
0.0
 11
-59.15353818821157
 21
63.060692478690839
 31
0.0
  0
ARC
  5
399
100
AcDbEntity
  8
0
  6
CONTINUOUS
 62
               7
100
AcDbCircle
 10
-57.453538188211553
 20
61.360692478690837
 30
0.0
 40
3.6000000000000005
100
AcDbArc
 50
179.99999999999963
 51
0.0
  0
ARC
  5
39A
100
AcDbEntity
  8
0
  6
CONTINUOUS
 62
               7
100
AcDbCircle
 10
-57.453538188211553
 20
61.360692478690837
 30
0.0
 40
2.0
100
AcDbArc
 50
179.99999999999963
 51
0.0
  0
LINE
  5
39B
100
AcDbEntity
  8
0
  6
CONTINUOUS
 62
               7
100
AcDbLine
 10
-53.853538188211559
 20
61.360692478690837
 30
0.0
 11
-53.853538188211559
 21
65.360692478690837
 31
0.0
  0
LINE
  5
39C
100
AcDbEntity
  8
0
  6
CONTINUOUS
 62
               7
100
AcDbLine
 10
-61.053538188211547
 20
61.360692478690837
 30
0.0
 11
-61.053538188211547
 21
65.360692478690837
 31
0.0
  0
LINE
  5
39D
100
AcDbEntity
  8
0
  6
CONTINUOUS
 62
               7
100
AcDbLine
 10
-55.453538188211553
 20
61.360692478690837
 30
0.0
 11
-55.453538188211553
 21
65.360692478690837
 31
0.0
  0
LINE
  5
39E
100
AcDbEntity
  8
0
  6
CONTINUOUS
 62
               7
100
AcDbLine
 10
-59.453538188211581
 20
61.360692478690837
 30
0.0
 11
-59.453538188211581
 21
65.360692478690837
 31
0.0
  0
LINE
  5
39F
100
AcDbEntity
  8
0
  6
CONTINUOUS
 62
               7
100
AcDbLine
 10
-52.453538188211553
 20
65.360692478690837
 30
0.0
 11
-62.453538188211553
 21
65.360692478690837
 31
0.0
  0
ARC
  5
3A0
100
AcDbEntity
  8
0
  6
CONTINUOUS
 62
               4
100
AcDbCircle
 10
-61.953241164005448
 20
65.860989502896942
 30
0.0
 40
0.5002971123771115
100
AcDbArc
 50
180.03401625554557
 51
269.96598374445358
  0
ARC
  5
3A1
100
AcDbEntity
  8
0
  6
CONTINUOUS
 62
               4
100
AcDbCircle
 10
-52.953241340347347
 20
65.860395630826631
 30
0.0
 40
0.4997032403068002
100
AcDbArc
 50
269.96596353714654
 51
0.0340364628527164
  0
LINE
  5
3A2
100
AcDbEntity
  8
0
  6
CONTINUOUS
 62
               4
100
AcDbLine
 10
-62.453538188211553
 20
87.860692478690879
 30
0.0
 11
-62.453538188211553
 21
65.360692478690837
 31
0.0
  0
LINE
  5
3A3
100
AcDbEntity
  8
0
  6
CONTINUOUS
 62
               4
100
AcDbLine
 10
-52.453538188211553
 20
87.860692478690879
 30
0.0
 11
-52.453538188211553
 21
65.360692478690837
 31
0.0
  0
ARC
  5
3A4
100
AcDbEntity
  8
0
  6
CONTINUOUS
 62
               4
100
AcDbCircle
 10
-55.050626193448579
 20
87.261780483927893
 30
0.0
 40
0.5989129830170392
100
AcDbArc
 50
89.895914524772735
 51
180.10408547522667
  0
ARC
  5
3A5
100
AcDbEntity
  8
0
  6
CONTINUOUS
 62
               4
100
AcDbCircle
 10
-53.249443041553349
 20
87.260787625349039
 30
0.0
 40
0.5999048608870732
100
AcDbArc
 50
359.99091272245295
 51
90.009087277546172
  0
LINE
  5
3A6
100
AcDbEntity
  8
0
  6
CONTINUOUS
 62
               4
100
AcDbLine
 10
-52.453538188211553
 20
87.260692478690871
 30
0.0
 11
-55.653538188211542
 21
87.260692478690871
 31
0.0
  0
ARC
  5
3A7
100
AcDbEntity
  8
0
  6
CONTINUOUS
 62
               4
100
AcDbCircle
 10
-61.953538188211553
 20
87.260692478690871
 30
0.0
 40
0.5
100
AcDbArc
 50
89.999999999999815
 51
179.99999999999963
  0
LINE
  5
3A8
100
AcDbEntity
  8
0
  6
CONTINUOUS
 62
               4
100
AcDbLine
 10
-55.65353818821157
 20
87.760692478690885
 30
0.0
 11
-55.65353818821157
 21
86.862712668423754
 31
0.0
  0
LINE
  5
3A9
100
AcDbEntity
  8
0
  6
CONTINUOUS
 62
               4
100
AcDbLine
 10
-55.65353818821157
 20
87.760692478690885
 30
0.0
 11
-61.953538188211553
 21
87.760692478690885
 31
0.0
  0
LINE
  5
3AA
100
AcDbEntity
  8
0
  6
CONTINUOUS
 62
               4
100
AcDbLine
 10
-52.453538188211553
 20
86.260692478690885
 30
0.0
 11
-54.703538188211553
 21
86.260692478690885
 31
0.0
  0
LINE
  5
3AB
100
AcDbEntity
  8
0
  6
CONTINUOUS
 62
               4
100
AcDbLine
 10
-52.453538188211553
 20
87.860692478690879
 30
0.0
 11
-62.453538188211553
 21
87.860692478690879
 31
0.0
  0
ARC
  5
3AC
100
AcDbEntity
  8
0
  6
CONTINUOUS
 62
               7
100
AcDbCircle
 10
-60.753538188211536
 20
28.048113715424805
 30
0.0
 40
4.5876068132596712
100
AcDbArc
 50
253.79871892415684
 51
286.20128107584191
  0
ARC
  5
3AD
100
AcDbEntity
  8
0
  6
CONTINUOUS
 62
               7
100
AcDbCircle
 10
-59.645310184045485
 20
24.229855196661802
 30
0.0
 40
0.6117725687931934
100
AcDbArc
 50
286.30661609184898
 51
0.0784159734340139
  0
LINE
  5
3AE
100
AcDbEntity
  8
0
  6
CONTINUOUS
 62
               7
100
AcDbLine
 10
-59.033538188211566
 20
24.230692478690834
 30
0.0
 11
-59.033538188211566
 21
24.760692478690835
 31
0.0
  0
ARC
  5
3AF
100
AcDbEntity
  8
0
  6
CONTINUOUS
 62
               7
100
AcDbCircle
 10
-61.862984220102504
 20
24.228943747343862
 30
0.0
 40
0.6105564724372721
100
AcDbArc
 50
179.83589550320582
 51
253.77907243150949
  0
LINE
  5
3B0
100
AcDbEntity
  8
0
  6
CONTINUOUS
 62
               7
100
AcDbLine
 10
-62.473538188211563
 20
24.230692478690834
 30
0.0
 11
-62.473538188211563
 21
24.760692478690835
 31
0.0
  0
LINE
  5
3B1
100
AcDbEntity
  8
0
  6
PHANTOM
 62
             200
100
AcDbLine
 10
-58.953538188211553
 20
72.860692478690837
 30
0.0
 11
-55.953538188211553
 21
72.860692478690837
 31
0.0
  0
LINE
  5
3B2
100
AcDbEntity
  8
0
  6
PHANTOM
 62
             200
100
AcDbLine
 10
-58.953538188211553
 20
70.860692478690837
 30
0.0
 11
-55.953538188211553
 21
70.860692478690837
 31
0.0
  0
LINE
  5
3B3
100
AcDbEntity
  8
0
  6
PHANTOM
 62
             200
100
AcDbLine
 10
-55.953538188211553
 20
72.860692478690837
 30
0.0
 11
-55.953538188211553
 21
70.860692478690837
 31
0.0
  0
LINE
  5
3B4
100
AcDbEntity
  8
0
  6
PHANTOM
 62
             200
100
AcDbLine
 10
-58.953538188211553
 20
72.860692478690837
 30
0.0
 11
-58.953538188211553
 21
70.860692478690837
 31
0.0
  0
LINE
  5
3B5
100
AcDbEntity
  8
0
  6
CENTER
 62
               2
100
AcDbLine
 10
-53.653538188211542
 20
46.410692478690819
 30
0.0
 11
-53.653538188211542
 21
50.310692478690854
 31
0.0
  0
ARC
  5
3B6
100
AcDbEntity
  8
0
  6
CONTINUOUS
 62
               7
100
AcDbCircle
 10
-53.653538188211542
 20
48.360692478690865
 30
0.0
 40
1.6000000000000003
100
AcDbArc
 50
89.999999999999815
 51
269.99999999999937
  0
LINE
  5
3B7
100
AcDbEntity
  8
0
  6
CENTER
 62
               2
100
AcDbLine
 10
-55.60353818821153
 20
48.360692478690865
 30
0.0
 11
-51.703538188211525
 21
48.360692478690865
 31
0.0
  0
CIRCLE
  5
3B8
100
AcDbEntity
  8
0
  6
CONTINUOUS
 62
               7
100
AcDbCircle
 10
-53.653538188211542
 20
48.360692478690865
 30
0.0
 40
0.8500000000000002
  0
LINE
  5
3B9
100
AcDbEntity
  8
0
  6
CONTINUOUS
 62
               7
100
AcDbLine
 10
-53.653538188211542
 20
49.960692478690888
 30
0.0
 11
-52.453538188211553
 21
49.960692478690888
 31
0.0
  0
LINE
  5
3BA
100
AcDbEntity
  8
0
  6
CONTINUOUS
 62
               7
100
AcDbLine
 10
-53.653538188211542
 20
46.760692478690842
 30
0.0
 11
-52.453538188211553
 21
46.760692478690842
 31
0.0
  0
LINE
  5
3BB
100
AcDbEntity
  8
0
  6
CENTER
 62
               2
100
AcDbLine
 10
-62.980430799590948
 20
31.760692478690842
 30
0.0
 11
-59.237024571251283
 21
31.760692478690842
 31
0.0
  0
LINE
  5
3BC
100
AcDbEntity
  8
0
  6
CONTINUOUS
 62
               7
100
AcDbLine
 10
-61.253538188211536
 20
30.160692478690819
 30
0.0
 11
-62.453538188211553
 21
30.160692478690819
 31
0.0
  0
LINE
  5
3BD
100
AcDbEntity
  8
0
  6
CONTINUOUS
 62
               7
100
AcDbLine
 10
-61.253538188211536
 20
33.360692478690837
 30
0.0
 11
-62.453538188211553
 21
33.360692478690837
 31
0.0
  0
CIRCLE
  5
3BE
100
AcDbEntity
  8
0
  6
CONTINUOUS
 62
               7
100
AcDbCircle
 10
-61.253538188211536
 20
31.760692478690842
 30
0.0
 40
0.8500000000000002
  0
ARC
  5
3BF
100
AcDbEntity
  8
0
  6
CONTINUOUS
 62
               7
100
AcDbCircle
 10
-61.253538188211536
 20
31.760692478690842
 30
0.0
 40
1.6000000000000003
100
AcDbArc
 50
270.00000000000023
 51
89.999999999999801
  0
LINE
  5
3C0
100
AcDbEntity
  8
0
  6
CENTER
 62
               2
100
AcDbLine
 10
-61.253538188211536
 20
29.810692478690825
 30
0.0
 11
-61.253538188211536
 21
33.710692478690831
 31
0.0
  0
LINE
  5
3C1
100
AcDbEntity
  8
0
  6
CONTINUOUS
 62
               4
100
AcDbLine
 10
-61.723538188211563
 20
67.55370889016767
 30
0.0
 11
-53.183538188211543
 21
67.55370889016767
 31
0.0
  0
LINE
  5
3C2
100
AcDbEntity
  8
0
  6
CONTINUOUS
 62
               4
100
AcDbLine
 10
-52.683538188211543
 20
84.362692478690903
 30
0.0
 11
-52.683538188211543
 21
68.053708890168096
 31
0.0
  0
ARC
  5
3C3
100
AcDbEntity
  8
0
  6
CONTINUOUS
 62
               4
100
AcDbCircle
 10
-53.184735612701246
 20
68.054906314657373
 30
0.0
 40
0.5011988548874781
100
AcDbArc
 50
270.1368866551544
 51
359.86311334484418
  0
LINE
  5
3C4
100
AcDbEntity
  8
0
  6
CONTINUOUS
 62
               4
100
AcDbLine
 10
-62.223538188211563
 20
84.362692478690903
 30
0.0
 11
-62.223538188211563
 21
68.053708890168096
 31
0.0
  0
ARC
  5
3C5
100
AcDbEntity
  8
0
  6
CONTINUOUS
 62
               4
100
AcDbCircle
 10
-61.72234076372186
 20
68.054906314657373
 30
0.0
 40
0.5011988548874781
100
AcDbArc
 50
180.13688665515463
 51
269.86311334484435
  0
LINE
  5
3C6
100
AcDbEntity
  8
0
  6
CONTINUOUS
 62
               4
100
AcDbLine
 10
-59.873538188211541
 20
84.26269247869088
 30
0.0
 11
-55.043538188211556
 21
84.26269247869088
 31
0.0
  0
LINE
  5
3C7
100
AcDbEntity
  8
0
  6
CONTINUOUS
 62
               4
100
AcDbLine
 10
-60.173538188211552
 20
83.962692478690897
 30
0.0
 11
-54.743538188211545
 21
83.962692478690897
 31
0.0
  0
LINE
  5
3C8
100
AcDbEntity
  8
0
  6
CONTINUOUS
 62
               4
100
AcDbLine
 10
-60.203538188211553
 20
84.962692478690897
 30
0.0
 11
-54.703538188211553
 21
84.962692478690897
 31
0.0
  0
LINE
  5
3C9
100
AcDbEntity
  8
0
  6
CONTINUOUS
 62
               4
100
AcDbLine
 10
-60.303538188211547
 20
79.862692478690903
 30
0.0
 11
-54.603538188211559
 21
79.862692478690903
 31
0.0
  0
LINE
  5
3CA
100
AcDbEntity
  8
0
  6
CONTINUOUS
 62
               4
100
AcDbLine
 10
-60.203538188211553
 20
79.962692478690897
 30
0.0
 11
-54.703538188211553
 21
79.962692478690897
 31
0.0
  0
LINE
  5
3CB
100
AcDbEntity
  8
0
  6
CONTINUOUS
 62
               4
100
AcDbLine
 10
-59.65353818821157
 20
81.51269247869088
 30
0.0
 11
-57.753538188211536
 21
81.51269247869088
 31
0.0
  0
CIRCLE
  5
3CC
100
AcDbEntity
  8
0
  6
CONTINUOUS
 62
               4
100
AcDbCircle
 10
-58.703538188211553
 20
82.462677219901835
 30
0.0
 40
0.8499675393104553
  0
LINE
  5
3CD
100
AcDbEntity
  8
0
  6
CONTINUOUS
 62
               4
100
AcDbLine
 10
-59.65353818821157
 20
83.412692478690886
 30
0.0
 11
-57.753538188211536
 21
83.412692478690886
 31
0.0
  0
LINE
  5
3CE
100
AcDbEntity
  8
0
  6
CONTINUOUS
 62
               4
100
AcDbLine
 10
-59.65353818821157
 20
83.612692478690903
 30
0.0
 11
-57.753538188211536
 21
83.612692478690903
 31
0.0
  0
ARC
  5
3CF
100
AcDbEntity
  8
0
  6
CONTINUOUS
 62
               4
100
AcDbCircle
 10
-61.953527507038274
 20
84.362681797517595
 30
0.0
 40
0.5000106812873828
100
AcDbArc
 50
90.001223946153175
 51
179.9987760538454
  0
LINE
  5
3D0
100
AcDbEntity
  8
0
  6
CONTINUOUS
 62
               4
100
AcDbLine
 10
-60.203538188211553
 20
81.462692478690897
 30
0.0
 11
-60.203538188211553
 21
79.962692478690897
 31
0.0
  0
LINE
  5
3D1
100
AcDbEntity
  8
0
  6
CONTINUOUS
 62
               4
100
AcDbLine
 10
-60.303538188211547
 20
81.362692478690903
 30
0.0
 11
-60.303538188211547
 21
79.862692478690903
 31
0.0
  0
LINE
  5
3D2
100
AcDbEntity
  8
0
  6
CONTINUOUS
 62
               4
100
AcDbLine
 10
-61.303538188211547
 20
81.362692478690903
 30
0.0
 11
-60.303538188211547
 21
81.362692478690903
 31
0.0
  0
LINE
  5
3D3
100
AcDbEntity
  8
0
  6
CONTINUOUS
 62
               4
100
AcDbLine
 10
-61.203538188211553
 20
81.462692478690897
 30
0.0
 11
-60.203538188211553
 21
81.462692478690897
 31
0.0
  0
LINE
  5
3D4
100
AcDbEntity
  8
0
  6
CONTINUOUS
 62
               4
100
AcDbLine
 10
-61.203538188211553
 20
83.26269247869088
 30
0.0
 11
-60.203538188211553
 21
83.26269247869088
 31
0.0
  0
LINE
  5
3D5
100
AcDbEntity
  8
0
  6
CONTINUOUS
 62
               4
100
AcDbLine
 10
-61.303538188211547
 20
83.362692478690903
 30
0.0
 11
-60.303538188211547
 21
83.362692478690903
 31
0.0
  0
LINE
  5
3D6
100
AcDbEntity
  8
0
  6
CONTINUOUS
 62
               4
100
AcDbLine
 10
-61.303538188211547
 20
83.362692478690903
 30
0.0
 11
-61.303538188211547
 21
81.362692478690903
 31
0.0
  0
LINE
  5
3D7
100
AcDbEntity
  8
0
  6
CONTINUOUS
 62
               4
100
AcDbLine
 10
-61.203538188211553
 20
81.462692478690897
 30
0.0
 11
-61.203538188211553
 21
83.26269247869088
 31
0.0
  0
LINE
  5
3D8
100
AcDbEntity
  8
0
  6
CONTINUOUS
 62
               4
100
AcDbLine
 10
-60.203538188211553
 20
83.922692478690905
 30
0.0
 11
-59.873538188211541
 21
84.26269247869088
 31
0.0
  0
ARC
  5
3D9
100
AcDbEntity
  8
0
  6
CONTINUOUS
 62
               4
100
AcDbCircle
 10
-61.723537272657296
 20
84.362691563136636
 30
0.0
 40
0.5000009155550945
100
AcDbArc
 50
90.000104914596918
 51
179.99989508540253
  0
LINE
  5
3DA
100
AcDbEntity
  8
0
  6
CONTINUOUS
 62
               4
100
AcDbLine
 10
-61.953538188211553
 20
84.862692478690903
 30
0.0
 11
-60.203538188211553
 21
84.862692478690903
 31
0.0
  0
LINE
  5
3DB
100
AcDbEntity
  8
0
  6
CONTINUOUS
 62
               4
100
AcDbLine
 10
-60.303538188211547
 20
84.862692478690903
 30
0.0
 11
-60.303538188211547
 21
83.362692478690903
 31
0.0
  0
LINE
  5
3DC
100
AcDbEntity
  8
0
  6
CONTINUOUS
 62
               4
100
AcDbLine
 10
-59.65353818821157
 20
83.612692478690903
 30
0.0
 11
-59.65353818821157
 21
81.51269247869088
 31
0.0
  0
LINE
  5
3DD
100
AcDbEntity
  8
0
  6
CONTINUOUS
 62
               4
100
AcDbLine
 10
-60.203538188211553
 20
86.862712668423754
 30
0.0
 11
-60.203538188211553
 21
83.26269247869088
 31
0.0
  0
LINE
  5
3DE
100
AcDbEntity
  8
0
  6
CONTINUOUS
 62
               4
100
AcDbLine
 10
-58.203538188211553
 20
81.51269247869088
 30
0.0
 11
-58.203538188211553
 21
81.212692478690897
 31
0.0
  0
LINE
  5
3DF
100
AcDbEntity
  8
0
  6
CONTINUOUS
 62
               4
100
AcDbLine
 10
-59.203538188211553
 20
81.212692478690897
 30
0.0
 11
-58.203538188211553
 21
81.212692478690897
 31
0.0
  0
LINE
  5
3E0
100
AcDbEntity
  8
0
  6
CONTINUOUS
 62
               4
100
AcDbLine
 10
-54.703538188211553
 20
86.862712668423754
 30
0.0
 11
-54.703538188211553
 21
83.26269247869088
 31
0.0
  0
LINE
  5
3E1
100
AcDbEntity
  8
0
  6
CONTINUOUS
 62
               4
100
AcDbLine
 10
-54.743538188211545
 20
83.962692478690897
 30
0.0
 11
-55.043538188211556
 21
84.26269247869088
 31
0.0
  0
LINE
  5
3E2
100
AcDbEntity
  8
0
  6
CONTINUOUS
 62
               4
100
AcDbLine
 10
-54.603538188211559
 20
84.862692478690903
 30
0.0
 11
-54.603538188211559
 21
83.362692478690903
 31
0.0
  0
LINE
  5
3E3
100
AcDbEntity
  8
0
  6
CONTINUOUS
 62
               4
100
AcDbLine
 10
-54.703538188211553
 20
81.462692478690897
 30
0.0
 11
-54.703538188211553
 21
79.962692478690897
 31
0.0
  0
LINE
  5
3E4
100
AcDbEntity
  8
0
  6
CONTINUOUS
 62
               4
100
AcDbLine
 10
-54.603538188211559
 20
81.362692478690903
 30
0.0
 11
-54.603538188211559
 21
79.862692478690903
 31
0.0
  0
LINE
  5
3E5
100
AcDbEntity
  8
0
  6
CONTINUOUS
 62
               4
100
AcDbLine
 10
-57.15353818821157
 20
83.612692478690903
 30
0.0
 11
-55.253538188211536
 21
83.612692478690903
 31
0.0
  0
LINE
  5
3E6
100
AcDbEntity
  8
0
  6
CONTINUOUS
 62
               4
100
AcDbLine
 10
-57.15353818821157
 20
83.412692478690886
 30
0.0
 11
-55.253538188211536
 21
83.412692478690886
 31
0.0
  0
LINE
  5
3E7
100
AcDbEntity
  8
0
  6
CONTINUOUS
 62
               4
100
AcDbLine
 10
-53.703538188211553
 20
81.462692478690897
 30
0.0
 11
-53.703538188211553
 21
83.26269247869088
 31
0.0
  0
LINE
  5
3E8
100
AcDbEntity
  8
0
  6
CONTINUOUS
 62
               4
100
AcDbLine
 10
-54.703538188211553
 20
83.26269247869088
 30
0.0
 11
-53.703538188211553
 21
83.26269247869088
 31
0.0
  0
LINE
  5
3E9
100
AcDbEntity
  8
0
  6
CONTINUOUS
 62
               4
100
AcDbLine
 10
-57.15353818821157
 20
81.51269247869088
 30
0.0
 11
-55.253538188211536
 21
81.51269247869088
 31
0.0
  0
LINE
  5
3EA
100
AcDbEntity
  8
0
  6
CONTINUOUS
 62
               4
100
AcDbLine
 10
-56.703538188211553
 20
81.212692478690897
 30
0.0
 11
-55.703538188211553
 21
81.212692478690897
 31
0.0
  0
LINE
  5
3EB
100
AcDbEntity
  8
0
  6
CONTINUOUS
 62
               4
100
AcDbLine
 10
-55.703538188211553
 20
81.51269247869088
 30
0.0
 11
-55.703538188211553
 21
81.212692478690897
 31
0.0
  0
LINE
  5
3EC
100
AcDbEntity
  8
0
  6
CONTINUOUS
 62
               4
100
AcDbLine
 10
-56.703538188211553
 20
81.51269247869088
 30
0.0
 11
-56.703538188211553
 21
81.212692478690897
 31
0.0
  0
LINE
  5
3ED
100
AcDbEntity
  8
0
  6
CONTINUOUS
 62
               4
100
AcDbLine
 10
-57.15353818821157
 20
83.612692478690903
 30
0.0
 11
-57.15353818821157
 21
81.51269247869088
 31
0.0
  0
LINE
  5
3EE
100
AcDbEntity
  8
0
  6
CONTINUOUS
 62
               4
100
AcDbLine
 10
-54.603538188211559
 20
81.362692478690903
 30
0.0
 11
-53.603538188211559
 21
81.362692478690903
 31
0.0
  0
LINE
  5
3EF
100
AcDbEntity
  8
0
  6
CONTINUOUS
 62
               4
100
AcDbLine
 10
-54.703538188211553
 20
81.462692478690897
 30
0.0
 11
-53.703538188211553
 21
81.462692478690897
 31
0.0
  0
LINE
  5
3F0
100
AcDbEntity
  8
0
  6
CONTINUOUS
 62
               4
100
AcDbLine
 10
-55.253538188211536
 20
83.612692478690903
 30
0.0
 11
-55.253538188211536
 21
81.51269247869088
 31
0.0
  0
CIRCLE
  5
3F1
100
AcDbEntity
  8
0
  6
CONTINUOUS
 62
               4
100
AcDbCircle
 10
-56.203538188211553
 20
82.462677219901835
 30
0.0
 40
0.8499675393104553
  0
LINE
  5
3F2
100
AcDbEntity
  8
0
  6
CONTINUOUS
 62
               4
100
AcDbLine
 10
-54.603538188211559
 20
83.362692478690903
 30
0.0
 11
-53.603538188211559
 21
83.362692478690903
 31
0.0
  0
LINE
  5
3F3
100
AcDbEntity
  8
0
  6
CONTINUOUS
 62
               4
100
AcDbLine
 10
-53.603538188211559
 20
83.362692478690903
 30
0.0
 11
-53.603538188211559
 21
81.362692478690903
 31
0.0
  0
LINE
  5
3F4
100
AcDbEntity
  8
0
  6
CONTINUOUS
 62
               4
100
AcDbLine
 10
-57.753538188211536
 20
83.612692478690903
 30
0.0
 11
-57.753538188211536
 21
81.51269247869088
 31
0.0
  0
ARC
  5
3F5
100
AcDbEntity
  8
0
  6
CONTINUOUS
 62
               4
100
AcDbCircle
 10
-52.953533610688936
 20
84.36269705621352
 30
0.0
 40
0.4999954224983215
100
AcDbArc
 50
359.99947544974214
 51
90.000524550256856
  0
ARC
  5
3F6
100
AcDbEntity
  8
0
  6
CONTINUOUS
 62
               4
100
AcDbCircle
 10
-53.18353910376581
 20
84.362691563136636
 30
0.0
 40
0.5000009155550945
100
AcDbArc
 50
0.0001049145970977
 51
89.999895085402713
  0
LINE
  5
3F7
100
AcDbEntity
  8
0
  6
CONTINUOUS
 62
               4
100
AcDbLine
 10
-54.703538188211553
 20
84.862692478690903
 30
0.0
 11
-52.953538188211553
 21
84.862692478690903
 31
0.0
  0
LINE
  5
3F8
100
AcDbEntity
  8
0
  6
CENTER
 62
               2
100
AcDbLine
 10
-54.641538188211541
 20
44.960692478690845
 30
0.0
 11
-60.36153818821154
 21
44.960692478690845
 31
0.0
  0
CIRCLE
  5
3F9
100
AcDbEntity
  8
0
  6
CONTINUOUS
 62
               2
100
AcDbCircle
 10
-57.453541239969354
 20
44.960695530448646
 30
0.0
 40
2.5
  0
CIRCLE
  5
3FA
100
AcDbEntity
  8
0
  6
CONTINUOUS
 62
               7
100
AcDbCircle
 10
-57.453541239969354
 20
44.960695530448646
 30
0.0
 40
2.1000000000000001
  0
LINE
  5
3FB
100
AcDbEntity
  8
0
  6
CENTER
 62
               2
100
AcDbLine
 10
-54.561538188211557
 20
35.160692478690834
 30
0.0
 11
-60.281538188211556
 21
35.160692478690834
 31
0.0
  0
CIRCLE
  5
3FC
100
AcDbEntity
  8
0
  6
CONTINUOUS
 62
               2
100
AcDbCircle
 10
-57.453541239969383
 20
35.160695530448635
 30
0.0
 40
2.5
  0
CIRCLE
  5
3FD
100
AcDbEntity
  8
0
  6
CONTINUOUS
 62
               7
100
AcDbCircle
 10
-57.453541239969383
 20
35.160695530448635
 30
0.0
 40
2.1000000000000001
  0
LINE
  5
3FE
100
AcDbEntity
  8
0
  6
CENTER
 62
             200
100
AcDbLine
 10
-46.453538188211553
 20
15.146456509172353
 30
0.0
 11
-46.453538188211553
 21
20.34821960264388
 31
0.0
  0
LINE
  5
3FF
100
AcDbEntity
  8
0
  6
CENTER
 62
             200
100
AcDbLine
 10
-68.453538188211553
 20
15.146456509172353
 30
0.0
 11
-68.453538188211553
 21
20.34821960264388
 31
0.0
  0
ENDSEC
  0
SECTION
  2
OBJECTS
  0
DICTIONARY
  5
19
100
AcDbDictionary
  3
ACAD_GROUP
350
1A
  3
ACAD_MLINESTYLE
350
1B
  0
DICTIONARY
  5
1A
102
{ACAD_REACTORS
330
19
102
}
100
AcDbDictionary
  0
DICTIONARY
  5
1B
102
{ACAD_REACTORS
330
19
102
}
100
AcDbDictionary
  3
STANDARD
350
1C
  0
MLINESTYLE
  5
1C
102
{ACAD_REACTORS
330
1B
102
}
100
AcDbMlineStyle
  2
Standard
 70
               0
  3

 62
               0
 51
90.0
 52
90.0
 71
               2
 49
0.5
 62
             256
  6
ByLayer
 49
-0.5
 62
             256
  6
ByLayer
  0
ENDSEC
  0
EOF
