  0
SECTION
  2
HEADER
  9
$ACADVER
  1
AC1012
  9
$DWGCODEPAGE
  3
dos932
  9
$INSBASE
 10
0.0
 20
0.0
 30
0.0
  9
$EXTMIN
 10
-281.25
 20
-195.0
 30
0.0
  9
$EXTMAX
 10
285.6319057062413
 20
195.5
 30
0.0
  9
$LIMMIN
 10
-281.25
 20
-195.0
  9
$LIMMAX
 10
285.6319057062413
 20
195.5
  9
$ORTHOMODE
 70
               0
  9
$REGENMODE
 70
               1
  9
$FILLMODE
 70
               1
  9
$QTEXTMODE
 70
               0
  9
$MIRRTEXT
 70
               1
  9
$DRAGMODE
 70
               2
  9
$LTSCALE
 40
1.0
  9
$OSMODE
 70
               0
  9
$ATTMODE
 70
               1
  9
$TEXTSIZE
 40
3.2000000476837158
  9
$TRACEWID
 40
0.05
  9
$TEXTSTYLE
  7
MX_NOTE_STANDARD
  9
$CLAYER
  8
0
  9
$CELTYPE
  6
CONTINUOUS
  9
$CECOLOR
 62
             256
  9
$CELTSCALE
 40
1.0
  9
$DELOBJ
 70
               1
  9
$DISPSILH
 70
               0
  9
$DIMSCALE
 40
1.0
  9
$DIMASZ
 40
2.5
  9
$DIMEXO
 40
1.5
  9
$DIMDLI
 40
3.75
  9
$DIMRND
 40
0.0
  9
$DIMDLE
 40
0.0
  9
$DIMEXE
 40
1.5
  9
$DIMTP
 40
0.0
  9
$DIMTM
 40
0.0
  9
$DIMTXT
 40
3.2000000476837158
  9
$DIMCEN
 40
2.5
  9
$DIMTSZ
 40
0.0
  9
$DIMTOL
 70
               0
  9
$DIMLIM
 70
               0
  9
$DIMTIH
 70
               0
  9
$DIMTOH
 70
               0
  9
$DIMSE1
 70
               0
  9
$DIMSE2
 70
               0
  9
$DIMTAD
 70
               1
  9
$DIMZIN
 70
               8
  9
$DIMBLK
  1

  9
$DIMASO
 70
               1
  9
$DIMSHO
 70
               1
  9
$DIMPOST
  1

  9
$DIMAPOST
  1

  9
$DIMALT
 70
               0
  9
$DIMALTD
 70
               4
  9
$DIMALTF
 40
0.03937007874016
  9
$DIMLFAC
 40
1.0
  9
$DIMTOFL
 70
               1
  9
$DIMTVP
 40
0.0
  9
$DIMTIX
 70
               0
  9
$DIMSOXD
 70
               0
  9
$DIMSAH
 70
               0
  9
$DIMBLK1
  1

  9
$DIMBLK2
  1

  9
$DIMSTYLE
  2
MXDIMSTYLE
  9
$DIMCLRD
 70
               0
  9
$DIMCLRE
 70
               0
  9
$DIMCLRT
 70
               0
  9
$DIMTFAC
 40
1.0
  9
$DIMGAP
 40
1.0
  9
$DIMJUST
 70
               0
  9
$DIMSD1
 70
               0
  9
$DIMSD2
 70
               0
  9
$DIMTOLJ
 70
               1
  9
$DIMTZIN
 70
               0
  9
$DIMALTZ
 70
               0
  9
$DIMALTTZ
 70
               0
  9
$DIMFIT
 70
               3
  9
$DIMUPT
 70
               1
  9
$DIMUNIT
 70
               2
  9
$DIMDEC
 70
               4
  9
$DIMTDEC
 70
               4
  9
$DIMALTU
 70
               2
  9
$DIMALTTD
 70
               4
  9
$DIMTXSTY
  7
MX_NOTE_STANDARD
  9
$DIMAUNIT
 70
               0
  9
$LUNITS
 70
               2
  9
$LUPREC
 70
               4
  9
$SKETCHINC
 40
0.1
  9
$FILLETRAD
 40
0.0
  9
$AUNITS
 70
               0
  9
$AUPREC
 70
               0
  9
$MENU
  1
acad
  9
$ELEVATION
 40
0.0
  9
$PELEVATION
 40
0.0
  9
$THICKNESS
 40
0.0
  9
$LIMCHECK
 70
               0
  9
$BLIPMODE
 70
               1
  9
$CHAMFERA
 40
0.0
  9
$CHAMFERB
 40
0.0
  9
$CHAMFERC
 40
0.0
  9
$CHAMFERD
 40
0.0
  9
$SKPOLY
 70
               0
  9
$TDCREATE
 40
2453378.356585648
  9
$TDUPDATE
 40
2453378.356585648
  9
$TDINDWG
 40
0.0000000000
  9
$TDUSRTIMER
 40
0.0000000000
  9
$USRTIMER
 70
               1
  9
$ANGBASE
 50
0.0
  9
$ANGDIR
 70
               0
  9
$PDMODE
 70
               0
  9
$PDSIZE
 40
0.0
  9
$PLINEWID
 40
0.0
  9
$COORDS
 70
               1
  9
$SPLFRAME
 70
               0
  9
$SPLINETYPE
 70
               6
  9
$SPLINESEGS
 70
               8
  9
$ATTDIA
 70
               0
  9
$ATTREQ
 70
               1
  9
$HANDLING
 70
               1
  9
$HANDSEED
  5
55F
  9
$SURFTAB1
 70
               6
  9
$SURFTAB2
 70
               6
  9
$SURFTYPE
 70
               6
  9
$SURFU
 70
               6
  9
$SURFV
 70
               6
  9
$UCSNAME
  2

  9
$UCSORG
 10
0.0
 20
0.0
 30
0.0
  9
$UCSXDIR
 10
1.0
 20
0.0
 30
0.0
  9
$UCSYDIR
 10
0.0
 20
1.0
 30
0.0
  9
$PUCSNAME
  2

  9
$PUCSORG
 10
0.0
 20
0.0
 30
0.0
  9
$PUCSXDIR
 10
1.0
 20
0.0
 30
0.0
  9
$PUCSYDIR
 10
0.0
 20
1.0
 30
0.0
  9
$USERI1
 70
               0
  9
$USERI2
 70
               0
  9
$USERI3
 70
               0
  9
$USERI4
 70
               0
  9
$USERI5
 70
               0
  9
$USERR1
 40
0.0
  9
$USERR2
 40
0.0
  9
$USERR3
 40
0.0
  9
$USERR4
 40
0.0
  9
$USERR5
 40
0.0
  9
$WORLDVIEW
 70
               1
  9
$SHADEDGE
 70
               3
  9
$SHADEDIF
 70
              70
  9
$TILEMODE
 70
               1
  9
$MAXACTVP
 70
              16
  9
$PINSBASE
 10
0.0
 20
0.0
 30
0.0
  9
$PLIMCHECK
 70
               0
  9
$PEXTMIN
 10
1.0000000000000000E+20
 20
1.0000000000000000E+20
 30
1.0000000000000000E+20
  9
$PEXTMAX
 10
-1.0000000000000000E+20
 20
-1.0000000000000000E+20
 30
-1.0000000000000000E+20
  9
$PLIMMIN
 10
0.0
 20
0.0
  9
$PLIMMAX
 10
12.0
 20
9.0
  9
$UNITMODE
 70
               0
  9
$VISRETAIN
 70
               0
  9
$PLINEGEN
 70
               1
  9
$PSLTSCALE
 70
               0
  9
$TREEDEPTH
 70
            3020
  9
$PICKSTYLE
 70
               1
  9
$CMLSTYLE
  2
Standard
  9
$CMLJUST
 70
               0
  9
$CMLSCALE
 40
1.0
  9
$SAVEIMAGES
 70
               0
  0
ENDSEC
  0
SECTION
  2
CLASSES
  0
CLASS
  1
LWPOLYLINE
  2
AcDbPolyline
  3
"AutoCAD"
 90
        0
280
               0
281
               1
  0
CLASS
  1
IMAGE
  2
AcDbRasterImage
  3
ISM
 90
      127
280
               0
281
               1
  0
CLASS
  1
OLE2FRAME
  2
AcDbOle2Frame
  3
""
 90
        0
280
               0
281
               1
  0
CLASS
  1
HATCH
  2
AcDbHatch
  3
"ACAD_SEDONA"
 90
        0
280
               0
281
               1
  0
CLASS
  1
DICTIONARYVAR
  2
AcDbDictionaryVar
  3
"AutoCAD"
 90
        0
280
               0
281
               0
  0
CLASS
  1
RASTERVARIABLES
  2
AcDbRasterVariables
  3
ISM
 90
        0
280
               0
281
               0
  0
CLASS
  1
IMAGEDEF
  2
AcDbRasterImageDef
  3
ISM
 90
        0
280
               0
281
               0
  0
CLASS
  1
IMAGEDEF_REACTOR
  2
AcDbRasterImageDefReactor
  3
ISM
 90
        1
280
               0
281
               0
  0
CLASS
  1
IDBUFFER
  2
AcDbIdBuffer
  3
"Acad"
 90
        0
280
               0
281
               0
  0
CLASS
  1
SPATIAL_FILTER
  2
AcDbSpatialFilter
  3
"Acad"
 90
        0
280
               0
281
               0
  0
CLASS
  1
XRECORD
  2
AcDbXrecord
  3
"<Built In>"
 90
        0
280
               0
281
               0
  0
CLASS
  1
SORTENTSTABLE
  2
AcDbSortentsTable
  3
"AutoCAD"
 90
        0
280
               0
281
               0
  0
CLASS
  1
LAYER_INDEX
  2
AcDbLayerIndex
  3
"Acad"
 90
        0
280
               0
281
               0
  0
CLASS
  1
SPATIAL_INDEX
  2
AcDbSpatialIndex
  3
"Acad"
 90
        0
280
               0
281
               0
  0
CLASS
  1
OBJECT_PTR
  2
CAseDLPNTableRecord
  3
"ASE-LPNTableRecord"
 90
        1
280
               0
281
               0
  0
CLASS
  1
LAYOUT
  2
AcDbLayout
  3
"AutoCAD 2000"
 90
        1
280
               0
281
               0
  0
CLASS
  1
PLOTSETTINGS
  2
AcDbPlotSettings
  3
"AutoCAD 2000"
 90
        1
280
               0
281
               0
  0
CLASS
  1
ACDBDICTIONARYWDFLT
  2
AcDbDictionaryWithDefault
  3
"AutoCAD 2000"
 90
        1
280
               0
281
               0
  0
CLASS
  1
ACDBPLACEHOLDER
  2
AcDbPlaceHolder
  3
"AutoCAD 2000"
 90
        1
280
               0
281
               0
  0
ENDSEC
  0
SECTION
  2
TABLES
  0
TABLE
  2
VPORT
  5
7
100
AcDbSymbolTable
 70
               1
  0
VPORT
  5
15
100
AcDbSymbolTableRecord
100
AcDbViewportTableRecord
  2
*ACTIVE
 70
               0
 10
0.0
 20
0.0
 11
1.0
 21
1.0
 12
2.1909528531206206
 22
0.25
 13
0.0
 23
0.0
 14
1.0
 24
1.0
 15
0.0
 25
0.0
 16
0.0
 26
0.0
 36
1.0
 17
0.0
 27
0.0
 37
0.0
 40
394.40500000000003
 41
1.7320508075688772
 42
50.0
 43
0.0
 44
0.0
 50
0.0
 51
0.0
 71
               0
 72
             100
 73
               1
 74
               1
 75
               0
 76
               0
 77
               0
 78
               0
  0
ENDTAB
  0
TABLE
  2
LTYPE
  5
4
100
AcDbSymbolTable
 70
               6
  0
LTYPE
  5
11
100
AcDbSymbolTableRecord
100
AcDbLinetypeTableRecord
  2
BYBLOCK
 70
              64
  3

 72
              65
 73
               0
 40
0.0
  0
LTYPE
  5
12
100
AcDbSymbolTableRecord
100
AcDbLinetypeTableRecord
  2
BYLAYER
 70
              64
  3

 72
              65
 73
               0
 40
0.0
  0
LTYPE
  5
13
100
AcDbSymbolTableRecord
100
AcDbLinetypeTableRecord
  2
CONTINUOUS
 70
              64
  3
Solid line
 72
              65
 73
               0
 40
0.0
  0
LTYPE
  5
34
100
AcDbSymbolTableRecord
100
AcDbLinetypeTableRecord
  2
CENTER
 70
              64
  3
Center ____ _ ____ _ ____ _ ____ _ ____ _ ____
 72
              65
 73
               4
 40
26.0
 49
20.0
 74
               0
 49
-2.0
 74
               0
 49
2.0
 74
               0
 49
-2.0
 74
               0
  0
LTYPE
  5
36
100
AcDbSymbolTableRecord
100
AcDbLinetypeTableRecord
  2
DASHED
 70
              64
  3
Dashed __ __ __ __ __ __ __ __ __ __ __ __ __ _
 72
              65
 73
               2
 40
4.0
 49
2.0
 74
               0
 49
-2.0
 74
               0
  0
LTYPE
  5
116
100
AcDbSymbolTableRecord
100
AcDbLinetypeTableRecord
  2
PHANTOM
 70
              64
  3
Phantom ______  __  __  ______  __  __  ______
 72
              65
 73
               6
 40
30.0
 49
20.0
 74
               0
 49
-2.0
 74
               0
 49
2.0
 74
               0
 49
-2.0
 74
               0
 49
2.0
 74
               0
 49
-2.0
 74
               0
  0
ENDTAB
  0
TABLE
  2
LAYER
  5
2
100
AcDbSymbolTable
 70
               2
  0
LAYER
  5
14
100
AcDbSymbolTableRecord
100
AcDbLayerTableRecord
  2
0
 70
               0
 62
               7
  6
CONTINUOUS
  0
LAYER
  5
1D
100
AcDbSymbolTableRecord
100
AcDbLayerTableRecord
  2
DEFPOINTS
 70
               0
 62
               7
  6
CONTINUOUS
  0
ENDTAB
  0
TABLE
  2
STYLE
  5
3
100
AcDbSymbolTable
 70
               1
  0
STYLE
  5
17
100
AcDbSymbolTableRecord
100
AcDbTextStyleTableRecord
  2
MX_NOTE_STANDARD
 70
               0
 40
0.0
 41
1.0
 50
0.0
 71
               0
 42
3.2000000476837158
  3
txt.shx
  4
extfont.shx
  0
ENDTAB
  0
TABLE
  2
VIEW
  5
5
100
AcDbSymbolTable
 70
               0
  0
ENDTAB
  0
TABLE
  2
UCS
  5
6
100
AcDbSymbolTable
 70
               0
  0
ENDTAB
  0
TABLE
  2
APPID
  5
8
100
AcDbSymbolTable
 70
               1
  0
APPID
  5
16
100
AcDbSymbolTableRecord
100
AcDbRegAppTableRecord
  2
ACAD
 70
               0
  0
ENDTAB
  0
TABLE
  2
DIMSTYLE
  5
9
100
AcDbSymbolTable
 70
               1
  0
DIMSTYLE
105
18
100
AcDbSymbolTableRecord
100
AcDbDimStyleTableRecord
  2
MXDIMSTYLE
 70
               0
  3

  4

  5

  6

  7

 40
1.0
 41
2.5
 42
1.5
 43
3.75
 44
1.5
 45
0.0
 46
0.0
 47
0.0
 48
0.0
 71
               0
 72
               0
 73
               0
 74
               0
 75
               0
 76
               0
 77
               1
 78
               8
140
3.2000000476837158
141
2.5
142
0.0
143
0.03937007874016
144
1.0
145
0.0
146
1.0
147
1.0
170
               0
171
               4
172
               1
173
               0
174
               0
175
               0
176
               0
177
               0
178
               0
270
               2
271
               4
272
               4
273
               2
274
               4
275
               0
280
               0
281
               0
282
               0
283
               1
284
               0
285
               0
286
               0
287
               3
288
               1
340
17
  0
ENDTAB
  0
TABLE
  2
BLOCK_RECORD
  5
1
100
AcDbSymbolTable
 70
               0
  0
BLOCK_RECORD
  5
A
100
AcDbSymbolTableRecord
100
AcDbBlockTableRecord
  2
*MODEL_SPACE
  0
BLOCK_RECORD
  5
B
100
AcDbSymbolTableRecord
100
AcDbBlockTableRecord
  2
*PAPER_SPACE
  0
ENDTAB
  0
ENDSEC
  0
SECTION
  2
BLOCKS
  0
BLOCK
  5
D
100
AcDbEntity
  8
0
100
AcDbBlockBegin
  2
*MODEL_SPACE
 70
               0
 10
0.0
 20
0.0
 30
0.0
  3
*MODEL_SPACE
  1

  0
ENDBLK
  5
E
100
AcDbEntity
  8
0
100
AcDbBlockEnd
  0
BLOCK
  5
F
100
AcDbEntity
 67
               1
  8
0
100
AcDbBlockBegin
  2
*PAPER_SPACE
 70
               0
 10
0.0
 20
0.0
 30
0.0
  3
*PAPER_SPACE
  1

  0
ENDBLK
  5
10
100
AcDbEntity
 67
               1
  8
0
100
AcDbBlockEnd
  0
ENDSEC
  0
SECTION
  2
ENTITIES
  0
MTEXT
  5
1E
100
AcDbEntity
  8
0
  6
CONTINUOUS
 62
               7
100
AcDbMText
 10
-268.27722776173874
 20
160.5
 30
0.0
 40
6.3000001907348633
 41
0.0
 71
               4
 72
               1
  1
\W1.069;\A1;MODEL:JC10A6-25-PL
  0
LINE
  5
1F
100
AcDbEntity
  8
0
  6
CONTINUOUS
 62
               7
100
AcDbLine
 10
-281.25
 20
-195.0
 30
0.0
 11
282.099853515625
 21
-195.0
 31
0.0
  0
LINE
  5
20
100
AcDbEntity
  8
0
  6
CONTINUOUS
 62
               7
100
AcDbLine
 10
-281.25
 20
195.5
 30
0.0
 11
-281.25
 21
-195.0
 31
0.0
  0
LINE
  5
21
100
AcDbEntity
  8
0
  6
CONTINUOUS
 62
               7
100
AcDbLine
 10
-281.25
 20
195.5
 30
0.0
 11
282.099853515625
 21
195.5
 31
0.0
  0
LINE
  5
22
100
AcDbEntity
  8
0
  6
CONTINUOUS
 62
               7
100
AcDbLine
 10
282.099853515625
 20
195.5
 30
0.0
 11
282.099853515625
 21
-195.0
 31
0.0
  0
LINE
  5
23
100
AcDbEntity
  8
0
  6
CONTINUOUS
 62
               7
100
AcDbLine
 10
162.0999755859375
 20
195.5
 30
0.0
 11
162.0999755859375
 21
175.5
 31
0.0
  0
LINE
  5
24
100
AcDbEntity
  8
0
  6
CONTINUOUS
 62
               7
100
AcDbLine
 10
162.0999755859375
 20
175.5
 30
0.0
 11
282.099853515625
 21
175.5
 31
0.0
  0
MTEXT
  5
25
100
AcDbEntity
  8
0
  6
CONTINUOUS
 62
               7
100
AcDbMText
 10
198.27702406779611
 20
185.5
 30
0.0
 40
6.3000001907348633
 41
0.0
 71
               4
 72
               1
  1
\W1.311;\A1;Ver. 1.0
  0
MTEXT
  5
26
100
AcDbEntity
  8
0
  6
CONTINUOUS
 62
               7
100
AcDbMText
 10
170.28099805280428
 20
-185.0
 30
0.0
 40
9.0
 41
0.0
 71
               4
 72
               1
  1
\W1.121;\A1;KOGANEI CORP.
  0
LINE
  5
27
100
AcDbEntity
  8
0
  6
CONTINUOUS
 62
               7
100
AcDbLine
 10
162.0999755859375
 20
-175.0
 30
0.0
 11
282.099853515625
 21
-175.0
 31
0.0
  0
LINE
  5
28
100
AcDbEntity
  8
0
  6
CONTINUOUS
 62
               7
100
AcDbLine
 10
162.0999755859375
 20
-175.0
 30
0.0
 11
162.0999755859375
 21
-195.0
 31
0.0
  0
LINE
  5
29
100
AcDbEntity
  8
0
  6
CONTINUOUS
 62
               7
100
AcDbLine
 10
-161.25
 20
195.5
 30
0.0
 11
-161.25
 21
175.5
 31
0.0
  0
LINE
  5
2A
100
AcDbEntity
  8
0
  6
CONTINUOUS
 62
               7
100
AcDbLine
 10
-281.25
 20
175.5
 30
0.0
 11
-161.25
 21
175.5
 31
0.0
  0
MTEXT
  5
2B
100
AcDbEntity
  8
0
  6
CONTINUOUS
 62
               7
100
AcDbMText
 10
-257.88333446177035
 20
185.5
 30
0.0
 40
6.3000001907348633
 41
0.0
 71
               4
 72
               1
  1
\W1.111;\A1;JC･JE SERIES
  0
LINE
  5
2C
100
AcDbEntity
  8
0
  6
CONTINUOUS
 62
               7
100
AcDbLine
 10
-281.25
 20
-38.799999999999983
 30
0.0
 11
282.099853515625
 21
-38.799999999999983
 31
0.0
  0
MTEXT
  5
2D
100
AcDbEntity
  8
0
  6
CONTINUOUS
 62
               7
100
AcDbMText
 10
13.397698996073721
 20
160.5
 30
0.0
 40
6.3000001907348633
 41
0.0
 71
               4
 72
               1
  1
\W1.069;\A1;MODEL:JC10A6-25-PS
  0
MTEXT
  5
2E
100
AcDbEntity
  8
0
  6
CONTINUOUS
 62
               7
100
AcDbMText
 10
-268.27722776173874
 20
-53.799999999999983
 30
0.0
 40
6.3000001907348633
 41
0.0
 71
               4
 72
               1
  1
\W1.069;\A1;MODEL:JC10A6-25-GL
  0
MTEXT
  5
2F
100
AcDbEntity
  8
0
  6
CONTINUOUS
 62
               7
100
AcDbMText
 10
51.166927879969272
 20
150.5
 30
0.0
 40
6.3000001907348633
 41
0.0
 71
               4
 72
               1
  1
\W1.040;\A1;JC10LA6-25-PS
  0
MTEXT
  5
30
100
AcDbEntity
  8
0
  6
CONTINUOUS
 62
               7
100
AcDbMText
 10
51.166927879969272
 20
140.5
 30
0.0
 40
6.3000001907348633
 41
0.0
 71
               4
 72
               1
  1
\W1.040;\A1;JC10SA6-25-PS
  0
MTEXT
  5
31
100
AcDbEntity
  8
0
  6
CONTINUOUS
 62
               7
100
AcDbMText
 10
-230.50799887784322
 20
150.5
 30
0.0
 40
6.3000001907348633
 41
0.0
 71
               4
 72
               1
  1
\W1.040;\A1;JC10LA6-25-PL
  0
MTEXT
  5
32
100
AcDbEntity
  8
0
  6
CONTINUOUS
 62
               7
100
AcDbMText
 10
-230.50799887784322
 20
140.5
 30
0.0
 40
6.3000001907348633
 41
0.0
 71
               4
 72
               1
  1
\W1.040;\A1;JC10SA6-25-PL
  0
LINE
  5
33
100
AcDbEntity
  8
0
  6
CONTINUOUS
 62
               7
100
AcDbLine
 10
0.4249267578125
 20
-38.799999999999983
 30
0.0
 11
0.4249267578125
 21
195.5
 31
0.0
  0
LINE
  5
35
100
AcDbEntity
  8
0
  6
CENTER
 62
               2
100
AcDbLine
 10
11.829053871948418
 20
-76.063948755054696
 30
0.0
 11
11.829053871948418
 21
-173.02981271283522
 31
0.0
  0
LINE
  5
37
100
AcDbEntity
  8
0
  6
DASHED
 62
               2
100
AcDbLine
 10
18.82905105542163
 20
-145.29688073394496
 30
0.0
 11
17.733979026108997
 21
-145.29688073394496
 31
0.0
  0
LINE
  5
38
100
AcDbEntity
  8
0
  6
DASHED
 62
               2
100
AcDbLine
 10
18.82905105542163
 20
-143.79688073394496
 30
0.0
 11
17.733979026108997
 21
-143.79688073394496
 31
0.0
  0
LINE
  5
39
100
AcDbEntity
  8
0
  6
CENTER
 62
               2
100
AcDbLine
 10
17.266371079660118
 20
-144.54688073394496
 30
0.0
 11
19.547030074498977
 21
-144.54688073394496
 31
0.0
  0
LINE
  5
3A
100
AcDbEntity
  8
0
  6
DASHED
 62
               2
100
AcDbLine
 10
18.82905105542163
 20
-103.79688073394497
 30
0.0
 11
17.733979026108997
 21
-103.79688073394497
 31
0.0
  0
LINE
  5
3B
100
AcDbEntity
  8
0
  6
DASHED
 62
               2
100
AcDbLine
 10
18.82905105542163
 20
-105.29688073394497
 30
0.0
 11
17.733979026108997
 21
-105.29688073394497
 31
0.0
  0
LINE
  5
3C
100
AcDbEntity
  8
0
  6
CONTINUOUS
 62
               7
100
AcDbLine
 10
19.529053879773073
 20
-108.0468807339449
 30
0.0
 11
35.529053879773073
 21
-108.0468807339449
 31
0.0
  0
LINE
  5
3D
100
AcDbEntity
  8
0
  6
CONTINUOUS
 62
               7
100
AcDbLine
 10
19.529053879773073
 20
-141.0468807339449
 30
0.0
 11
35.529053871948406
 21
-141.0468807339449
 31
0.0
  0
CIRCLE
  5
3E
100
AcDbEntity
  8
0
  6
CONTINUOUS
 62
               7
100
AcDbCircle
 10
30.529053871948406
 20
-132.9448807339449
 30
0.0
 40
2.1000000000000001
  0
CIRCLE
  5
3F
100
AcDbEntity
  8
0
  6
CONTINUOUS
 62
               7
100
AcDbCircle
 10
24.529053871948406
 20
-124.5468807339449
 30
0.0
 40
2.1000000000000001
  0
CIRCLE
  5
40
100
AcDbEntity
  8
0
  6
CONTINUOUS
 62
               2
100
AcDbCircle
 10
30.529053871948406
 20
-132.9448807339449
 30
0.0
 40
2.5
  0
CIRCLE
  5
41
100
AcDbEntity
  8
0
  6
CONTINUOUS
 62
               2
100
AcDbCircle
 10
24.529053871948406
 20
-124.5468807339449
 30
0.0
 40
2.5
  0
LINE
  5
42
100
AcDbEntity
  8
0
  6
CONTINUOUS
 62
               7
100
AcDbLine
 10
35.529053871948406
 20
-141.0468807339449
 30
0.0
 11
35.529053871948406
 21
-108.0468807339449
 31
0.0
  0
LINE
  5
43
100
AcDbEntity
  8
0
  6
CONTINUOUS
 62
               7
100
AcDbLine
 10
19.529053871948406
 20
-141.0468807339449
 30
0.0
 11
19.529053871948406
 21
-108.0468807339449
 31
0.0
  0
LINE
  5
44
100
AcDbEntity
  8
0
  6
CENTER
 62
               2
100
AcDbLine
 10
26.529053871948406
 20
-132.9448807339449
 30
0.0
 11
34.529053871948406
 21
-132.9448807339449
 31
0.0
  0
LINE
  5
45
100
AcDbEntity
  8
0
  6
CENTER
 62
               2
100
AcDbLine
 10
20.529053871948406
 20
-124.5468807339449
 30
0.0
 11
28.529053871948406
 21
-124.5468807339449
 31
0.0
  0
LINE
  5
46
100
AcDbEntity
  8
0
  6
CENTER
 62
               2
100
AcDbLine
 10
24.529053871948406
 20
-120.5468807339449
 30
0.0
 11
24.529053871948406
 21
-128.5468807339449
 31
0.0
  0
LINE
  5
47
100
AcDbEntity
  8
0
  6
CENTER
 62
               2
100
AcDbLine
 10
30.529053871948406
 20
-128.9448807339449
 30
0.0
 11
30.529053871948406
 21
-136.9448807339449
 31
0.0
  0
LINE
  5
48
100
AcDbEntity
  8
0
  6
CONTINUOUS
 62
               7
100
AcDbLine
 10
18.829053871948403
 20
-112.54785400054649
 30
0.0
 11
19.529053871948406
 21
-112.54785400054649
 31
0.0
  0
LINE
  5
49
100
AcDbEntity
  8
0
  6
CONTINUOUS
 62
               7
100
AcDbLine
 10
18.829053871948403
 20
-136.54785400054647
 30
0.0
 11
19.529053871948406
 21
-136.54785400054647
 31
0.0
  0
LINE
  5
4A
100
AcDbEntity
  8
0
  6
CENTER
 62
               2
100
AcDbLine
 10
17.266371079660118
 20
-104.54688073394497
 30
0.0
 11
19.547030074498977
 21
-104.54688073394497
 31
0.0
  0
LINE
  5
4B
100
AcDbEntity
  8
0
  6
CONTINUOUS
 62
               7
100
AcDbLine
 10
3.229051055421607
 20
-143.84688073394497
 30
0.0
 11
4.8290510554216297
 21
-142.24688073394498
 31
0.0
  0
LINE
  5
4C
100
AcDbEntity
  8
0
  6
CONTINUOUS
 62
               7
100
AcDbLine
 10
3.229051055421607
 20
-143.84688073394497
 30
0.0
 11
3.229051055421607
 21
-149.84688073394497
 31
0.0
  0
ARC
  5
4D
100
AcDbEntity
  8
0
  6
CONTINUOUS
 62
               7
100
AcDbCircle
 10
5.8279630501846071
 20
-132.74796873822831
 30
0.0
 40
0.5989129830170392
100
AcDbArc
 50
179.89591452477254
 51
270.10408547522644
  0
LINE
  5
4E
100
AcDbEntity
  8
0
  6
CONTINUOUS
 62
               7
100
AcDbLine
 10
3.229051055421607
 20
-105.24688073394498
 30
0.0
 11
4.8290510554216297
 21
-106.84688073394499
 31
0.0
  0
LINE
  5
4F
100
AcDbEntity
  8
0
  6
CONTINUOUS
 62
               7
100
AcDbLine
 10
18.82905105542163
 20
-136.64688073394495
 30
0.0
 11
4.8290510554216297
 21
-136.64688073394495
 31
0.0
  0
LINE
  5
50
100
AcDbEntity
  8
0
  6
CONTINUOUS
 62
               7
100
AcDbLine
 10
18.82905105542163
 20
-112.44688073394498
 30
0.0
 11
4.8290510554216297
 21
-112.44688073394498
 31
0.0
  0
LINE
  5
51
100
AcDbEntity
  8
0
  6
CONTINUOUS
 62
               7
100
AcDbLine
 10
4.8290538719484033
 20
-149.84688073394494
 30
0.0
 11
4.8290538719484033
 21
-99.246880733945005
 31
0.0
  0
LINE
  5
52
100
AcDbEntity
  8
0
  6
CONTINUOUS
 62
               7
100
AcDbLine
 10
18.829053871948403
 20
-149.84688073394497
 30
0.0
 11
18.829053871948403
 21
-99.246880733944977
 31
0.0
  0
LINE
  5
53
100
AcDbEntity
  8
0
  6
CONTINUOUS
 62
               7
100
AcDbLine
 10
3.229051055421607
 20
-105.24688073394498
 30
0.0
 11
3.229051055421607
 21
-99.246880733944977
 31
0.0
  0
LINE
  5
54
100
AcDbEntity
  8
0
  6
CONTINUOUS
 62
               7
100
AcDbLine
 10
5.8290510563752918
 20
-133.44688073394497
 30
0.0
 11
4.8290510554216297
 21
-133.44688073394497
 31
0.0
  0
LINE
  5
55
100
AcDbEntity
  8
0
  6
CONTINUOUS
 62
               7
100
AcDbLine
 10
5.8290510563752918
 20
-130.24688073394498
 30
0.0
 11
4.8290510554216297
 21
-130.24688073394498
 31
0.0
  0
LINE
  5
56
100
AcDbEntity
  8
0
  6
CONTINUOUS
 62
               7
100
AcDbLine
 10
5.8290510554216297
 20
-133.44688073394497
 30
0.0
 11
5.8290510554216297
 21
-130.24688073394498
 31
0.0
  0
LINE
  5
57
100
AcDbEntity
  8
0
  6
CONTINUOUS
 62
               7
100
AcDbLine
 10
5.229050067167563
 20
-132.74796873822831
 30
0.0
 11
5.229050067167563
 21
-130.94579272775428
 31
0.0
  0
ARC
  5
58
100
AcDbEntity
  8
0
  6
CONTINUOUS
 62
               7
100
AcDbCircle
 10
5.8279630501846071
 20
-130.94579272775428
 30
0.0
 40
0.5989129830170392
100
AcDbArc
 50
89.895914524772735
 51
180.10408547522667
  0
LINE
  5
59
100
AcDbEntity
  8
0
  6
CONTINUOUS
 62
               4
100
AcDbLine
 10
4.8290538719485312
 20
-99.246880733944977
 30
0.0
 11
4.8290538719485312
 21
-77.346880739012704
 31
0.0
  0
LINE
  5
5A
100
AcDbEntity
  8
0
  6
CONTINUOUS
 62
               4
100
AcDbLine
 10
18.829053871948418
 20
-77.346880733945
 30
0.0
 11
18.829053871948418
 21
-99.246880733944977
 31
0.0
  0
LINE
  5
5B
100
AcDbEntity
  8
0
  6
CONTINUOUS
 62
               4
100
AcDbLine
 10
1.8290510554217008
 20
-99.246880733944977
 30
0.0
 11
1.8290510554217008
 21
-80.748880733945043
 31
0.0
  0
LINE
  5
5C
100
AcDbEntity
  8
0
  6
CONTINUOUS
 62
               4
100
AcDbLine
 10
1.8290510554217008
 20
-99.246880733944977
 30
0.0
 11
-0.4829489445784247
 21
-98.168880733945002
 31
0.0
  0
ARC
  5
5D
100
AcDbEntity
  8
0
  6
CONTINUOUS
 62
               4
100
AcDbCircle
 10
-0.2704845000604337
 20
-97.715753509228762
 30
0.0
 40
0.5004652055472239
100
AcDbArc
 50
179.9000802353213
 51
244.87883575679555
  0
ARC
  5
5E
100
AcDbEntity
  8
0
  6
CONTINUOUS
 62
               4
100
AcDbCircle
 10
-1.4709489445782538
 20
-82.248880733945043
 30
0.0
 40
0.5
100
AcDbArc
 50
89.999999999999815
 51
179.99999999999963
  0
ARC
  5
5F
100
AcDbEntity
  8
0
  6
CONTINUOUS
 62
               4
100
AcDbCircle
 10
-1.4709489445782538
 20
-86.248880733945043
 30
0.0
 40
0.5
100
AcDbArc
 50
179.99999999999963
 51
269.99999999999937
  0
LINE
  5
60
100
AcDbEntity
  8
0
  6
CONTINUOUS
 62
               4
100
AcDbLine
 10
-0.7709489445784357
 20
-81.748880733945043
 30
0.0
 11
-1.4709489445782538
 21
-81.748880733945043
 31
0.0
  0
LINE
  5
61
100
AcDbEntity
  8
0
  6
CONTINUOUS
 62
               4
100
AcDbLine
 10
-1.9709489445782538
 20
-86.248880733945043
 30
0.0
 11
-1.9709489445782538
 21
-82.248880733945043
 31
0.0
  0
LINE
  5
62
100
AcDbEntity
  8
0
  6
CONTINUOUS
 62
               4
100
AcDbLine
 10
-0.7709489445784357
 20
-86.748880733945043
 30
0.0
 11
-1.4709489445782538
 21
-86.748880733945043
 31
0.0
  0
LINE
  5
63
100
AcDbEntity
  8
0
  6
CONTINUOUS
 62
               4
100
AcDbLine
 10
-7.4678500672558812
 20
-83.599698116757622
 30
0.0
 11
-7.4678500672558812
 21
-84.899698116757577
 31
0.0
  0
LINE
  5
64
100
AcDbEntity
  8
0
  6
CONTINUOUS
 62
             200
100
AcDbLine
 10
-3.6018500672558957
 20
-82.998880733945043
 30
0.0
 11
-5.0458500672558557
 21
-85.498880733945043
 31
0.0
  0
LINE
  5
65
100
AcDbEntity
  8
0
  6
CONTINUOUS
 62
               4
100
AcDbLine
 10
-3.9478500672558994
 20
-83.598880733945066
 30
0.0
 11
-7.4678500672558812
 21
-83.598880733945066
 31
0.0
  0
LINE
  5
66
100
AcDbEntity
  8
0
  6
CONTINUOUS
 62
               4
100
AcDbLine
 10
-4.6978500672558994
 20
-84.89888073394502
 30
0.0
 11
-7.4678500672558812
 21
-84.89888073394502
 31
0.0
  0
LINE
  5
67
100
AcDbEntity
  8
0
  6
CONTINUOUS
 62
             200
100
AcDbLine
 10
-3.1018500672558957
 20
-82.998880733945043
 30
0.0
 11
-4.5458500672558557
 21
-85.498880733945043
 31
0.0
  0
LINE
  5
68
100
AcDbEntity
  8
0
  6
CONTINUOUS
 62
               4
100
AcDbLine
 10
-0.7709489445784357
 20
-81.248880733945043
 30
0.0
 11
-0.7709489445784357
 21
-81.748880733945043
 31
0.0
  0
ARC
  5
69
100
AcDbEntity
  8
0
  6
CONTINUOUS
 62
               4
100
AcDbCircle
 10
-0.2709864685838284
 20
-81.24884320993965
 30
0.0
 40
0.4999624774027422
100
AcDbArc
 50
89.995699743000799
 51
180.00430025699865
  0
LINE
  5
6A
100
AcDbEntity
  8
0
  6
CONTINUOUS
 62
               4
100
AcDbLine
 10
4.8290510554217008
 20
-80.748880733945043
 30
0.0
 11
-0.2709489445784357
 21
-80.748880733945043
 31
0.0
  0
LINE
  5
6B
100
AcDbEntity
  8
0
  6
CONTINUOUS
 62
               4
100
AcDbLine
 10
-1.9709489445782538
 20
-84.89888073394502
 30
0.0
 11
-4.1978500672558994
 21
-84.89888073394502
 31
0.0
  0
LINE
  5
6C
100
AcDbEntity
  8
0
  6
CONTINUOUS
 62
               4
100
AcDbLine
 10
-1.9709489445782538
 20
-83.598880733945066
 30
0.0
 11
-3.4478500672558994
 21
-83.598880733945066
 31
0.0
  0
LINE
  5
6D
100
AcDbEntity
  8
0
  6
CONTINUOUS
 62
               4
100
AcDbLine
 10
8.5290538719483493
 20
-77.346880733944886
 30
0.0
 11
8.5290538719483493
 21
-76.746880733944977
 31
0.0
  0
LINE
  5
6E
100
AcDbEntity
  8
0
  6
CONTINUOUS
 62
               4
100
AcDbLine
 10
5.5119587252901283
 20
-76.746880733944977
 30
0.0
 11
16.829056688475134
 21
-76.746880733944977
 31
0.0
  0
ARC
  5
6F
100
AcDbEntity
  8
0
  6
CONTINUOUS
 62
               4
100
AcDbCircle
 10
7.3131418771854442
 20
-77.345792728708034
 30
0.0
 40
0.5989129830170392
100
AcDbArc
 50
359.89591452477293
 51
90.104085475226867
  0
ARC
  5
70
100
AcDbEntity
  8
0
  6
CONTINUOUS
 62
               4
100
AcDbCircle
 10
5.511958725290242
 20
-77.346785587286831
 30
0.0
 40
0.5999048608870732
100
AcDbArc
 50
123.56005066674096
 51
180.00908727754583
  0
LINE
  5
71
100
AcDbEntity
  8
0
  6
CONTINUOUS
 62
               4
100
AcDbLine
 10
4.8290538719485312
 20
-77.346880733944886
 30
0.0
 11
8.5290538719483493
 21
-77.346880733944886
 31
0.0
  0
LINE
  5
72
100
AcDbEntity
  8
0
  6
CONTINUOUS
 62
               4
100
AcDbLine
 10
16.829056688475134
 20
-76.746880733944977
 30
0.0
 11
16.829056688475134
 21
-78.346880733944886
 31
0.0
  0
LINE
  5
73
100
AcDbEntity
  8
0
  6
CONTINUOUS
 62
               4
100
AcDbLine
 10
4.8290538719484175
 20
-78.346880733944886
 30
0.0
 11
16.829056688475134
 21
-78.346880733944886
 31
0.0
  0
LINE
  5
74
100
AcDbEntity
  8
0
  6
CONTINUOUS
 62
               4
100
AcDbLine
 10
18.329053871948531
 20
-76.846880733945
 30
0.0
 11
16.829053871948531
 21
-76.846880733945
 31
0.0
  0
ARC
  5
75
100
AcDbEntity
  8
0
  6
CONTINUOUS
 62
               4
100
AcDbCircle
 10
18.329053871948531
 20
-77.346880733945
 30
0.0
 40
0.5
100
AcDbArc
 50
0.0
 51
89.999999999999815
  0
ARC
  5
76
100
AcDbEntity
  8
0
  6
CONTINUOUS
 62
               4
100
AcDbCircle
 10
5.3290538719485312
 20
-77.346880733945
 30
0.0
 40
0.5
100
AcDbArc
 50
114.73039869686018
 51
179.99999999999963
  0
ARC
  5
77
100
AcDbEntity
  8
0
  6
CONTINUOUS
 62
               4
100
AcDbCircle
 10
5.511958725290242
 20
-77.346785587286831
 30
0.0
 40
0.5999048608870732
100
AcDbArc
 50
89.99091272245343
 51
123.56005066674096
  0
LINE
  5
78
100
AcDbEntity
  8
0
  6
CONTINUOUS
 62
               4
100
AcDbLine
 10
-7.4678500672558812
 20
-83.998880733945043
 30
0.0
 11
-10.967850067255881
 21
-83.998880733944816
 31
0.0
  0
LINE
  5
79
100
AcDbEntity
  8
0
  6
CONTINUOUS
 62
               4
100
AcDbLine
 10
-7.4678500672558812
 20
-84.498880733945043
 30
0.0
 11
-10.967850067255881
 21
-84.498880733944816
 31
0.0
  0
LINE
  5
7A
100
AcDbEntity
  8
0
  6
CONTINUOUS
 62
               4
100
AcDbLine
 10
-10.967850067255881
 20
-83.998880733944816
 30
0.0
 11
-10.967850067255881
 21
-84.498880733944816
 31
0.0
  0
LINE
  5
7B
100
AcDbEntity
  8
0
  6
CONTINUOUS
 62
               4
100
AcDbLine
 10
-0.7709489445784357
 20
-81.748880733945043
 30
0.0
 11
-0.7709489445784357
 21
-97.714880733945051
 31
0.0
  0
LINE
  5
7C
100
AcDbEntity
  8
0
  6
CONTINUOUS
 62
               4
100
AcDbLine
 10
4.8290538719485312
 20
-149.84688073394506
 30
0.0
 11
4.8290538719487586
 21
-171.74688072887733
 31
0.0
  0
LINE
  5
7D
100
AcDbEntity
  8
0
  6
CONTINUOUS
 62
               4
100
AcDbLine
 10
18.829053871948531
 20
-171.74688073394492
 30
0.0
 11
18.829053871948418
 21
-149.84688073394494
 31
0.0
  0
LINE
  5
7E
100
AcDbEntity
  8
0
  6
CONTINUOUS
 62
               4
100
AcDbLine
 10
1.8290510554217008
 20
-149.84688073394506
 30
0.0
 11
1.8290510554219281
 21
-168.34488073394499
 31
0.0
  0
ARC
  5
7F
100
AcDbEntity
  8
0
  6
CONTINUOUS
 62
               4
100
AcDbCircle
 10
-0.2704845000604337
 20
-151.37800795866127
 30
0.0
 40
0.5004652055472239
100
AcDbArc
 50
115.12116424320405
 51
180.09991976467833
  0
ARC
  5
80
100
AcDbEntity
  8
0
  6
CONTINUOUS
 62
               4
100
AcDbCircle
 10
-1.4709489445782538
 20
-166.84488073394499
 30
0.0
 40
0.5
100
AcDbArc
 50
180.0
 51
269.99999999999983
  0
ARC
  5
81
100
AcDbEntity
  8
0
  6
CONTINUOUS
 62
               4
100
AcDbCircle
 10
-1.4709489445782538
 20
-162.84488073394499
 30
0.0
 40
0.5
100
AcDbArc
 50
90.000000000000199
 51
180.0
  0
LINE
  5
82
100
AcDbEntity
  8
0
  6
CONTINUOUS
 62
               4
100
AcDbLine
 10
-0.7709489445782083
 20
-167.34488073394499
 30
0.0
 11
-1.4709489445780264
 21
-167.34488073394499
 31
0.0
  0
LINE
  5
83
100
AcDbEntity
  8
0
  6
CONTINUOUS
 62
               4
100
AcDbLine
 10
-1.9709489445782538
 20
-162.84488073394499
 30
0.0
 11
-1.9709489445782538
 21
-166.84488073394499
 31
0.0
  0
LINE
  5
84
100
AcDbEntity
  8
0
  6
CONTINUOUS
 62
               4
100
AcDbLine
 10
-0.7709489445784357
 20
-162.34488073394499
 30
0.0
 11
-1.4709489445782538
 21
-162.34488073394499
 31
0.0
  0
LINE
  5
85
100
AcDbEntity
  8
0
  6
CONTINUOUS
 62
               4
100
AcDbLine
 10
-7.4678500672558812
 20
-165.49406335113252
 30
0.0
 11
-7.4678500672558812
 21
-164.19406335113257
 31
0.0
  0
LINE
  5
86
100
AcDbEntity
  8
0
  6
CONTINUOUS
 62
             200
100
AcDbLine
 10
-3.6018500672558957
 20
-166.09488073394499
 30
0.0
 11
-5.0458500672558557
 21
-163.59488073394499
 31
0.0
  0
LINE
  5
87
100
AcDbEntity
  8
0
  6
CONTINUOUS
 62
               4
100
AcDbLine
 10
-3.9478500672558994
 20
-165.49488073394497
 30
0.0
 11
-7.4678500672558812
 21
-165.49488073394508
 31
0.0
  0
LINE
  5
88
100
AcDbEntity
  8
0
  6
CONTINUOUS
 62
               4
100
AcDbLine
 10
-4.6978500672558994
 20
-164.19488073394501
 30
0.0
 11
-7.4678500672558812
 21
-164.19488073394513
 31
0.0
  0
LINE
  5
89
100
AcDbEntity
  8
0
  6
CONTINUOUS
 62
             200
100
AcDbLine
 10
-3.1018500672558957
 20
-166.09488073394499
 30
0.0
 11
-4.5458500672558557
 21
-163.59488073394499
 31
0.0
  0
LINE
  5
8A
100
AcDbEntity
  8
0
  6
CONTINUOUS
 62
               4
100
AcDbLine
 10
-0.7709489445782083
 20
-167.84488073394499
 30
0.0
 11
-0.7709489445782083
 21
-167.34488073394499
 31
0.0
  0
ARC
  5
8B
100
AcDbEntity
  8
0
  6
CONTINUOUS
 62
               4
100
AcDbCircle
 10
-0.270986468583601
 20
-167.84491825795038
 30
0.0
 40
0.4999624774027422
100
AcDbArc
 50
179.99569974300096
 51
270.00430025699887
  0
LINE
  5
8C
100
AcDbEntity
  8
0
  6
CONTINUOUS
 62
               4
100
AcDbLine
 10
4.8290510554219281
 20
-168.34488073394499
 30
0.0
 11
-0.2709489445782083
 21
-168.34488073394499
 31
0.0
  0
LINE
  5
8D
100
AcDbEntity
  8
0
  6
CONTINUOUS
 62
               4
100
AcDbLine
 10
-1.9709489445782538
 20
-164.19488073394501
 30
0.0
 11
-4.1978500672558994
 21
-164.19488073394501
 31
0.0
  0
LINE
  5
8E
100
AcDbEntity
  8
0
  6
CONTINUOUS
 62
               4
100
AcDbLine
 10
-1.9709489445782538
 20
-165.49488073394497
 30
0.0
 11
-3.4478500672558994
 21
-165.49488073394497
 31
0.0
  0
LINE
  5
8F
100
AcDbEntity
  8
0
  6
CONTINUOUS
 62
               4
100
AcDbLine
 10
15.129053871948486
 20
-171.74688073394503
 30
0.0
 11
15.129053871948486
 21
-172.34688073394494
 31
0.0
  0
LINE
  5
90
100
AcDbEntity
  8
0
  6
CONTINUOUS
 62
               4
100
AcDbLine
 10
18.146149018606707
 20
-172.34688073394494
 30
0.0
 11
6.8290510554217008
 21
-172.34688073394506
 31
0.0
  0
ARC
  5
91
100
AcDbEntity
  8
0
  6
CONTINUOUS
 62
               4
100
AcDbCircle
 10
16.344965866711505
 20
-171.74796873918189
 30
0.0
 40
0.5989129830170392
100
AcDbArc
 50
179.89591452477302
 51
270.1040854752269
  0
ARC
  5
92
100
AcDbEntity
  8
0
  6
CONTINUOUS
 62
               4
100
AcDbCircle
 10
18.146149018606707
 20
-171.74697588060309
 30
0.0
 40
0.5999048608870732
100
AcDbArc
 50
303.56005066674174
 51
0.0090872775466285
  0
LINE
  5
93
100
AcDbEntity
  8
0
  6
CONTINUOUS
 62
               4
100
AcDbLine
 10
18.829053871948531
 20
-171.74688073394503
 30
0.0
 11
15.129053871948486
 21
-171.74688073394503
 31
0.0
  0
LINE
  5
94
100
AcDbEntity
  8
0
  6
CONTINUOUS
 62
               4
100
AcDbLine
 10
6.8290510554217008
 20
-172.34688073394506
 30
0.0
 11
6.8290510554217008
 21
-170.74688073394515
 31
0.0
  0
LINE
  5
95
100
AcDbEntity
  8
0
  6
CONTINUOUS
 62
               4
100
AcDbLine
 10
18.829053871948531
 20
-170.74688073394503
 30
0.0
 11
6.8290510554217008
 21
-170.74688073394515
 31
0.0
  0
LINE
  5
96
100
AcDbEntity
  8
0
  6
CONTINUOUS
 62
               4
100
AcDbLine
 10
5.3290538719485312
 20
-172.24688073394503
 30
0.0
 11
6.8290538719485312
 21
-172.24688073394503
 31
0.0
  0
ARC
  5
97
100
AcDbEntity
  8
0
  6
CONTINUOUS
 62
               4
100
AcDbCircle
 10
5.3290538719485312
 20
-171.74688073394503
 30
0.0
 40
0.5
100
AcDbArc
 50
180.0
 51
269.99999999999983
  0
ARC
  5
98
100
AcDbEntity
  8
0
  6
CONTINUOUS
 62
               4
100
AcDbCircle
 10
18.329053871948531
 20
-171.74688073394492
 30
0.0
 40
0.5
100
AcDbArc
 50
294.73039869686102
 51
0.0000000000004071
  0
ARC
  5
99
100
AcDbEntity
  8
0
  6
CONTINUOUS
 62
               4
100
AcDbCircle
 10
18.146149018606707
 20
-171.74697588060309
 30
0.0
 40
0.5999048608870732
100
AcDbArc
 50
269.9909127224534
 51
303.56005066674095
  0
LINE
  5
9A
100
AcDbEntity
  8
0
  6
CONTINUOUS
 62
               4
100
AcDbLine
 10
-7.4678500672558812
 20
-165.0948807339451
 30
0.0
 11
-10.967850067255881
 21
-165.09488073394533
 31
0.0
  0
LINE
  5
9B
100
AcDbEntity
  8
0
  6
CONTINUOUS
 62
               4
100
AcDbLine
 10
-7.4678500672558812
 20
-164.5948807339451
 30
0.0
 11
-10.967850067255881
 21
-164.59488073394533
 31
0.0
  0
LINE
  5
9C
100
AcDbEntity
  8
0
  6
CONTINUOUS
 62
               4
100
AcDbLine
 10
-10.967850067255881
 20
-165.09488073394533
 30
0.0
 11
-10.967850067255881
 21
-164.59488073394533
 31
0.0
  0
LINE
  5
9D
100
AcDbEntity
  8
0
  6
CONTINUOUS
 62
               4
100
AcDbLine
 10
-0.7709489445782083
 20
-167.34488073394499
 30
0.0
 11
-0.7709489445784357
 21
-151.37888073394498
 31
0.0
  0
LINE
  5
9E
100
AcDbEntity
  8
0
  6
CONTINUOUS
 62
               4
100
AcDbLine
 10
18.829053871948418
 20
-149.84688073394494
 30
0.0
 11
1.8290510554217008
 21
-149.84688073394506
 31
0.0
  0
LINE
  5
9F
100
AcDbEntity
  8
0
  6
CONTINUOUS
 62
               4
100
AcDbLine
 10
18.829053871948418
 20
-99.246880733944977
 30
0.0
 11
1.8290510554217008
 21
-99.246880733944977
 31
0.0
  0
LINE
  5
A0
100
AcDbEntity
  8
0
  6
CONTINUOUS
 62
               4
100
AcDbLine
 10
1.8290510554217008
 20
-149.84688073394506
 30
0.0
 11
-0.4829489445784247
 21
-150.92488073394503
 31
0.0
  0
LINE
  5
A1
100
AcDbEntity
  8
0
  6
CENTER
 62
               2
100
AcDbLine
 10
33.029053871948406
 20
-111.04688073394489
 30
0.0
 11
38.029053871948406
 21
-111.04688073394489
 31
0.0
  0
LINE
  5
A2
100
AcDbEntity
  8
0
  6
CENTER
 62
               2
100
AcDbLine
 10
33.029053871948406
 20
-138.04688073394487
 30
0.0
 11
38.029053871948406
 21
-138.04688073394487
 31
0.0
  0
LINE
  5
A3
100
AcDbEntity
  8
0
  6
CENTER
 62
               2
100
AcDbLine
 10
16.329053859109706
 20
-117.24688073394498
 30
0.0
 11
21.329053859109706
 21
-117.24688073394498
 31
0.0
  0
LINE
  5
A4
100
AcDbEntity
  8
0
  6
CENTER
 62
               2
100
AcDbLine
 10
16.329053859109706
 20
-131.84688073394497
 30
0.0
 11
21.329053871948418
 21
-131.84688073394497
 31
0.0
  0
LINE
  5
A5
100
AcDbEntity
  8
0
  6
CONTINUOUS
 62
               7
100
AcDbLine
 10
-164.10655245975101
 20
-141.04688073394487
 30
0.0
 11
-148.10655244594159
 21
-141.04688073394487
 31
0.0
  0
LINE
  5
A6
100
AcDbEntity
  8
0
  6
CONTINUOUS
 62
               7
100
AcDbLine
 10
-164.10655245975101
 20
-108.04688073394489
 30
0.0
 11
-148.10655245975101
 21
-108.04688073394489
 31
0.0
  0
LINE
  5
A7
100
AcDbEntity
  8
0
  6
CENTER
 62
               2
100
AcDbLine
 10
-153.10655244594159
 20
-132.74688073394486
 30
0.0
 11
-153.10655244594159
 21
-124.74688073394488
 31
0.0
  0
CIRCLE
  5
A8
100
AcDbEntity
  8
0
  6
CONTINUOUS
 62
               7
100
AcDbCircle
 10
-153.10655244594159
 20
-128.74688073394486
 30
0.0
 40
2.1000000000000001
  0
CIRCLE
  5
A9
100
AcDbEntity
  8
0
  6
CONTINUOUS
 62
               7
100
AcDbCircle
 10
-159.10655244594159
 20
-120.3468807339449
 30
0.0
 40
2.1000000000000001
  0
CIRCLE
  5
AA
100
AcDbEntity
  8
0
  6
CONTINUOUS
 62
               2
100
AcDbCircle
 10
-159.10655244594159
 20
-120.3468807339449
 30
0.0
 40
2.5
  0
CIRCLE
  5
AB
100
AcDbEntity
  8
0
  6
CONTINUOUS
 62
               2
100
AcDbCircle
 10
-153.10655244594159
 20
-128.74688073394486
 30
0.0
 40
2.5
  0
LINE
  5
AC
100
AcDbEntity
  8
0
  6
CENTER
 62
               2
100
AcDbLine
 10
-157.10655244594159
 20
-128.74688073394486
 30
0.0
 11
-149.10655244594159
 21
-128.74688073394486
 31
0.0
  0
LINE
  5
AD
100
AcDbEntity
  8
0
  6
CENTER
 62
               2
100
AcDbLine
 10
-163.10655244594159
 20
-120.3468807339449
 30
0.0
 11
-155.10655244594159
 21
-120.3468807339449
 31
0.0
  0
LINE
  5
AE
100
AcDbEntity
  8
0
  6
CONTINUOUS
 62
               7
100
AcDbLine
 10
-164.10655244594159
 20
-141.04688073394487
 30
0.0
 11
-164.10655244594159
 21
-108.04688073394489
 31
0.0
  0
LINE
  5
AF
100
AcDbEntity
  8
0
  6
CONTINUOUS
 62
               7
100
AcDbLine
 10
-148.10655244594159
 20
-141.04688073394487
 30
0.0
 11
-148.10655244594159
 21
-108.04688073394489
 31
0.0
  0
LINE
  5
B0
100
AcDbEntity
  8
0
  6
CENTER
 62
               2
100
AcDbLine
 10
-159.10655244594159
 20
-124.3468807339449
 30
0.0
 11
-159.10655244594159
 21
-116.3468807339449
 31
0.0
  0
LINE
  5
B1
100
AcDbEntity
  8
0
  6
CONTINUOUS
 62
               7
100
AcDbLine
 10
-147.4065524459416
 20
-136.54785400054647
 30
0.0
 11
-148.10655526246833
 21
-136.54785400054647
 31
0.0
  0
LINE
  5
B2
100
AcDbEntity
  8
0
  6
CONTINUOUS
 62
               7
100
AcDbLine
 10
-147.4065524459416
 20
-112.54785400054648
 30
0.0
 11
-148.10655526246836
 21
-112.54785400054648
 31
0.0
  0
ARC
  5
B3
100
AcDbEntity
  8
0
  6
CONTINUOUS
 62
               7
100
AcDbCircle
 10
-134.20655526246836
 20
-118.34688073489868
 30
0.0
 40
0.4
100
AcDbArc
 50
270.00000000000023
 51
0.0
  0
ARC
  5
B4
100
AcDbEntity
  8
0
  6
CONTINUOUS
 62
               7
100
AcDbCircle
 10
-134.20655526246836
 20
-116.14688073489867
 30
0.0
 40
0.4
100
AcDbArc
 50
0.0
 51
89.999999999999815
  0
LINE
  5
B5
100
AcDbEntity
  8
0
  6
CONTINUOUS
 62
               7
100
AcDbLine
 10
-133.80655526246835
 20
-116.14688073489867
 30
0.0
 11
-133.80655526246835
 21
-118.34688073489868
 31
0.0
  0
LINE
  5
B6
100
AcDbEntity
  8
0
  6
CONTINUOUS
 62
               7
100
AcDbLine
 10
-134.40655526246837
 20
-118.74688073489867
 30
0.0
 11
-134.20655526246836
 21
-118.74688073489867
 31
0.0
  0
LINE
  5
B7
100
AcDbEntity
  8
0
  6
CONTINUOUS
 62
               7
100
AcDbLine
 10
-134.40655526246837
 20
-115.74688073489867
 30
0.0
 11
-134.20655526246836
 21
-115.74688073489867
 31
0.0
  0
LINE
  5
B8
100
AcDbEntity
  8
0
  6
CENTER
 62
               2
100
AcDbLine
 10
-140.4065524459416
 20
-76.063948755054696
 30
0.0
 11
-140.4065524459416
 21
-173.02981271283525
 31
0.0
  0
LINE
  5
B9
100
AcDbEntity
  8
0
  6
CONTINUOUS
 62
               7
100
AcDbLine
 10
-131.80655526246835
 20
-143.84688073394497
 30
0.0
 11
-133.40655526246837
 21
-142.24688073394498
 31
0.0
  0
LINE
  5
BA
100
AcDbEntity
  8
0
  6
CONTINUOUS
 62
               7
100
AcDbLine
 10
-131.80655526246835
 20
-143.84688073394497
 30
0.0
 11
-131.80655526246835
 21
-149.84688073394497
 31
0.0
  0
LINE
  5
BB
100
AcDbEntity
  8
0
  6
CONTINUOUS
 62
               7
100
AcDbLine
 10
-147.4065524459416
 20
-149.84688073394497
 30
0.0
 11
-147.4065524459416
 21
-99.246880733944991
 31
0.0
  0
LINE
  5
BC
100
AcDbEntity
  8
0
  6
CONTINUOUS
 62
               7
100
AcDbLine
 10
-134.40655526246837
 20
-115.64688073394498
 30
0.0
 11
-134.40655526246837
 21
-118.84688073394497
 31
0.0
  0
LINE
  5
BD
100
AcDbEntity
  8
0
  6
CONTINUOUS
 62
               7
100
AcDbLine
 10
-134.40655526342201
 20
-118.84688073394497
 30
0.0
 11
-133.40655526246837
 21
-118.84688073394497
 31
0.0
  0
LINE
  5
BE
100
AcDbEntity
  8
0
  6
CONTINUOUS
 62
               7
100
AcDbLine
 10
-134.40655526342201
 20
-115.64688073394498
 30
0.0
 11
-133.40655526246837
 21
-115.64688073394498
 31
0.0
  0
LINE
  5
BF
100
AcDbEntity
  8
0
  6
CONTINUOUS
 62
               7
100
AcDbLine
 10
-131.80655526246835
 20
-105.24688073394498
 30
0.0
 11
-131.80655526246835
 21
-99.246880733944977
 31
0.0
  0
LINE
  5
C0
100
AcDbEntity
  8
0
  6
CONTINUOUS
 62
               7
100
AcDbLine
 10
-133.4065524459416
 20
-149.84688073394494
 30
0.0
 11
-133.4065524459416
 21
-99.246880733945005
 31
0.0
  0
LINE
  5
C1
100
AcDbEntity
  8
0
  6
CONTINUOUS
 62
               7
100
AcDbLine
 10
-147.40655526246837
 20
-112.44688073394498
 30
0.0
 11
-133.40655526246837
 21
-112.44688073394498
 31
0.0
  0
LINE
  5
C2
100
AcDbEntity
  8
0
  6
CONTINUOUS
 62
               7
100
AcDbLine
 10
-147.40655526246837
 20
-136.64688073394495
 30
0.0
 11
-133.40655526246837
 21
-136.64688073394495
 31
0.0
  0
LINE
  5
C3
100
AcDbEntity
  8
0
  6
CONTINUOUS
 62
               7
100
AcDbLine
 10
-131.80655526246835
 20
-105.24688073394498
 30
0.0
 11
-133.40655526246837
 21
-107.54688073394499
 31
0.0
  0
LINE
  5
C4
100
AcDbEntity
  8
0
  6
CONTINUOUS
 62
               4
100
AcDbLine
 10
-133.40655244594171
 20
-99.246880733944991
 30
0.0
 11
-133.40655244594171
 21
-77.346880739012718
 31
0.0
  0
LINE
  5
C5
100
AcDbEntity
  8
0
  6
CONTINUOUS
 62
               4
100
AcDbLine
 10
-147.4065524459416
 20
-77.346880733945014
 30
0.0
 11
-147.4065524459416
 21
-99.246880733944991
 31
0.0
  0
LINE
  5
C6
100
AcDbEntity
  8
0
  6
CONTINUOUS
 62
               4
100
AcDbLine
 10
-130.40654962941488
 20
-99.246880733944991
 30
0.0
 11
-130.40654962941488
 21
-80.748880733945057
 31
0.0
  0
LINE
  5
C7
100
AcDbEntity
  8
0
  6
CONTINUOUS
 62
               4
100
AcDbLine
 10
-127.80654962941475
 20
-81.748880733945057
 30
0.0
 11
-127.80654962941475
 21
-97.714880733945066
 31
0.0
  0
LINE
  5
C8
100
AcDbEntity
  8
0
  6
CONTINUOUS
 62
               4
100
AcDbLine
 10
-117.6096485067373
 20
-83.99888073394483
 30
0.0
 11
-117.6096485067373
 21
-84.49888073394483
 31
0.0
  0
LINE
  5
C9
100
AcDbEntity
  8
0
  6
CONTINUOUS
 62
               4
100
AcDbLine
 10
-121.1096485067373
 20
-84.498880733945057
 30
0.0
 11
-117.6096485067373
 21
-84.49888073394483
 31
0.0
  0
LINE
  5
CA
100
AcDbEntity
  8
0
  6
CONTINUOUS
 62
               4
100
AcDbLine
 10
-121.1096485067373
 20
-83.998880733945057
 30
0.0
 11
-117.6096485067373
 21
-83.99888073394483
 31
0.0
  0
ARC
  5
CB
100
AcDbEntity
  8
0
  6
CONTINUOUS
 62
               4
100
AcDbCircle
 10
-146.72364759259978
 20
-77.346785587286845
 30
0.0
 40
0.5999048608870732
100
AcDbArc
 50
89.99091272245343
 51
123.56005066674096
  0
ARC
  5
CC
100
AcDbEntity
  8
0
  6
CONTINUOUS
 62
               4
100
AcDbCircle
 10
-146.90655244594149
 20
-77.346880733945014
 30
0.0
 40
0.5
100
AcDbArc
 50
114.73039869686018
 51
179.99999999999963
  0
ARC
  5
CD
100
AcDbEntity
  8
0
  6
CONTINUOUS
 62
               4
100
AcDbCircle
 10
-133.90655244594149
 20
-77.346880733945014
 30
0.0
 40
0.5
100
AcDbArc
 50
0.0
 51
89.999999999999815
  0
LINE
  5
CE
100
AcDbEntity
  8
0
  6
CONTINUOUS
 62
               4
100
AcDbLine
 10
-133.90655244594149
 20
-76.846880733945014
 30
0.0
 11
-135.40655244594149
 21
-76.846880733945014
 31
0.0
  0
LINE
  5
CF
100
AcDbEntity
  8
0
  6
CONTINUOUS
 62
               4
100
AcDbLine
 10
-147.4065524459416
 20
-78.3468807339449
 30
0.0
 11
-135.40654962941488
 21
-78.3468807339449
 31
0.0
  0
LINE
  5
D0
100
AcDbEntity
  8
0
  6
CONTINUOUS
 62
               4
100
AcDbLine
 10
-135.40654962941488
 20
-76.746880733944991
 30
0.0
 11
-135.40654962941488
 21
-78.3468807339449
 31
0.0
  0
LINE
  5
D1
100
AcDbEntity
  8
0
  6
CONTINUOUS
 62
               4
100
AcDbLine
 10
-147.40655244594149
 20
-77.3468807339449
 30
0.0
 11
-143.70655244594167
 21
-77.3468807339449
 31
0.0
  0
ARC
  5
D2
100
AcDbEntity
  8
0
  6
CONTINUOUS
 62
               4
100
AcDbCircle
 10
-146.72364759259978
 20
-77.346785587286845
 30
0.0
 40
0.5999048608870732
100
AcDbArc
 50
123.56005066674096
 51
180.00908727754583
  0
ARC
  5
D3
100
AcDbEntity
  8
0
  6
CONTINUOUS
 62
               4
100
AcDbCircle
 10
-144.92246444070457
 20
-77.345792728708048
 30
0.0
 40
0.5989129830170392
100
AcDbArc
 50
359.89591452477293
 51
90.104085475226867
  0
LINE
  5
D4
100
AcDbEntity
  8
0
  6
CONTINUOUS
 62
               4
100
AcDbLine
 10
-146.72364759259989
 20
-76.746880733944991
 30
0.0
 11
-135.40654962941488
 21
-76.746880733944991
 31
0.0
  0
LINE
  5
D5
100
AcDbEntity
  8
0
  6
CONTINUOUS
 62
               4
100
AcDbLine
 10
-143.70655244594167
 20
-77.3468807339449
 30
0.0
 11
-143.70655244594167
 21
-76.746880733944991
 31
0.0
  0
LINE
  5
D6
100
AcDbEntity
  8
0
  6
CONTINUOUS
 62
               4
100
AcDbLine
 10
-126.60654962941493
 20
-83.59888073394508
 30
0.0
 11
-125.12964850673728
 21
-83.59888073394508
 31
0.0
  0
LINE
  5
D7
100
AcDbEntity
  8
0
  6
CONTINUOUS
 62
               4
100
AcDbLine
 10
-126.60654962941493
 20
-84.898880733945035
 30
0.0
 11
-124.37964850673728
 21
-84.898880733945035
 31
0.0
  0
LINE
  5
D8
100
AcDbEntity
  8
0
  6
CONTINUOUS
 62
               4
100
AcDbLine
 10
-133.40654962941488
 20
-80.748880733945057
 30
0.0
 11
-128.30654962941475
 21
-80.748880733945057
 31
0.0
  0
ARC
  5
D9
100
AcDbEntity
  8
0
  6
CONTINUOUS
 62
               4
100
AcDbCircle
 10
-128.30651210540935
 20
-81.248843209939665
 30
0.0
 40
0.4999624774027422
100
AcDbArc
 50
359.99569974300096
 51
90.004300256998803
  0
LINE
  5
DA
100
AcDbEntity
  8
0
  6
CONTINUOUS
 62
               4
100
AcDbLine
 10
-127.80654962941475
 20
-81.248880733945057
 30
0.0
 11
-127.80654962941475
 21
-81.748880733945057
 31
0.0
  0
LINE
  5
DB
100
AcDbEntity
  8
0
  6
CONTINUOUS
 62
             200
100
AcDbLine
 10
-125.47564850673729
 20
-82.998880733945057
 30
0.0
 11
-124.03164850673733
 21
-85.498880733945057
 31
0.0
  0
LINE
  5
DC
100
AcDbEntity
  8
0
  6
CONTINUOUS
 62
               4
100
AcDbLine
 10
-123.87964850673728
 20
-84.898880733945035
 30
0.0
 11
-121.1096485067373
 21
-84.898880733945035
 31
0.0
  0
LINE
  5
DD
100
AcDbEntity
  8
0
  6
CONTINUOUS
 62
               4
100
AcDbLine
 10
-124.62964850673728
 20
-83.59888073394508
 30
0.0
 11
-121.1096485067373
 21
-83.59888073394508
 31
0.0
  0
LINE
  5
DE
100
AcDbEntity
  8
0
  6
CONTINUOUS
 62
             200
100
AcDbLine
 10
-124.97564850673729
 20
-82.998880733945057
 30
0.0
 11
-123.53164850673733
 21
-85.498880733945057
 31
0.0
  0
LINE
  5
DF
100
AcDbEntity
  8
0
  6
CONTINUOUS
 62
               4
100
AcDbLine
 10
-121.1096485067373
 20
-83.599698116757637
 30
0.0
 11
-121.1096485067373
 21
-84.899698116757591
 31
0.0
  0
LINE
  5
E0
100
AcDbEntity
  8
0
  6
CONTINUOUS
 62
               4
100
AcDbLine
 10
-127.80654962941475
 20
-86.748880733945057
 30
0.0
 11
-127.10654962941493
 21
-86.748880733945057
 31
0.0
  0
LINE
  5
E1
100
AcDbEntity
  8
0
  6
CONTINUOUS
 62
               4
100
AcDbLine
 10
-126.60654962941493
 20
-86.248880733945057
 30
0.0
 11
-126.60654962941493
 21
-82.248880733945057
 31
0.0
  0
LINE
  5
E2
100
AcDbEntity
  8
0
  6
CONTINUOUS
 62
               4
100
AcDbLine
 10
-127.80654962941475
 20
-81.748880733945057
 30
0.0
 11
-127.10654962941493
 21
-81.748880733945057
 31
0.0
  0
ARC
  5
E3
100
AcDbEntity
  8
0
  6
CONTINUOUS
 62
               4
100
AcDbCircle
 10
-127.10654962941493
 20
-86.248880733945057
 30
0.0
 40
0.5
100
AcDbArc
 50
270.00000000000023
 51
0.0
  0
ARC
  5
E4
100
AcDbEntity
  8
0
  6
CONTINUOUS
 62
               4
100
AcDbCircle
 10
-127.10654962941493
 20
-82.248880733945057
 30
0.0
 40
0.5
100
AcDbArc
 50
0.0
 51
89.999999999999815
  0
LINE
  5
E5
100
AcDbEntity
  8
0
  6
CONTINUOUS
 62
               4
100
AcDbLine
 10
-133.40655244594171
 20
-149.84688073394506
 30
0.0
 11
-133.40655244594194
 21
-171.74688072887733
 31
0.0
  0
LINE
  5
E6
100
AcDbEntity
  8
0
  6
CONTINUOUS
 62
               4
100
AcDbLine
 10
-147.40655244594171
 20
-171.74688073394492
 30
0.0
 11
-147.4065524459416
 21
-149.84688073394494
 31
0.0
  0
LINE
  5
E7
100
AcDbEntity
  8
0
  6
CONTINUOUS
 62
               4
100
AcDbLine
 10
-130.40654962941488
 20
-149.84688073394506
 30
0.0
 11
-130.40654962941511
 21
-168.34488073394499
 31
0.0
  0
LINE
  5
E8
100
AcDbEntity
  8
0
  6
CONTINUOUS
 62
               4
100
AcDbLine
 10
-127.80654962941497
 20
-167.34488073394499
 30
0.0
 11
-127.80654962941475
 21
-151.37888073394498
 31
0.0
  0
LINE
  5
E9
100
AcDbEntity
  8
0
  6
CONTINUOUS
 62
               4
100
AcDbLine
 10
-117.6096485067373
 20
-165.09488073394533
 30
0.0
 11
-117.6096485067373
 21
-164.59488073394533
 31
0.0
  0
LINE
  5
EA
100
AcDbEntity
  8
0
  6
CONTINUOUS
 62
               4
100
AcDbLine
 10
-121.1096485067373
 20
-164.5948807339451
 30
0.0
 11
-117.6096485067373
 21
-164.59488073394533
 31
0.0
  0
LINE
  5
EB
100
AcDbEntity
  8
0
  6
CONTINUOUS
 62
               4
100
AcDbLine
 10
-121.1096485067373
 20
-165.0948807339451
 30
0.0
 11
-117.6096485067373
 21
-165.09488073394533
 31
0.0
  0
ARC
  5
EC
100
AcDbEntity
  8
0
  6
CONTINUOUS
 62
               4
100
AcDbCircle
 10
-134.08945729928331
 20
-171.74697588060309
 30
0.0
 40
0.5999048608870732
100
AcDbArc
 50
269.9909127224534
 51
303.56005066674095
  0
ARC
  5
ED
100
AcDbEntity
  8
0
  6
CONTINUOUS
 62
               4
100
AcDbCircle
 10
-133.90655244594149
 20
-171.74688073394492
 30
0.0
 40
0.5
100
AcDbArc
 50
294.73039869686102
 51
0.0000000000004071
  0
ARC
  5
EE
100
AcDbEntity
  8
0
  6
CONTINUOUS
 62
               4
100
AcDbCircle
 10
-146.90655244594149
 20
-171.74688073394503
 30
0.0
 40
0.5
100
AcDbArc
 50
180.0
 51
269.99999999999983
  0
LINE
  5
EF
100
AcDbEntity
  8
0
  6
CONTINUOUS
 62
               4
100
AcDbLine
 10
-146.90655244594149
 20
-172.24688073394503
 30
0.0
 11
-145.40655244594149
 21
-172.24688073394503
 31
0.0
  0
LINE
  5
F0
100
AcDbEntity
  8
0
  6
CONTINUOUS
 62
               4
100
AcDbLine
 10
-133.40655244594149
 20
-170.74688073394503
 30
0.0
 11
-145.40655526246832
 21
-170.74688073394515
 31
0.0
  0
LINE
  5
F1
100
AcDbEntity
  8
0
  6
CONTINUOUS
 62
               4
100
AcDbLine
 10
-145.40655526246832
 20
-172.34688073394506
 30
0.0
 11
-145.40655526246832
 21
-170.74688073394515
 31
0.0
  0
LINE
  5
F2
100
AcDbEntity
  8
0
  6
CONTINUOUS
 62
               4
100
AcDbLine
 10
-133.40655244594149
 20
-171.74688073394503
 30
0.0
 11
-137.10655244594153
 21
-171.74688073394503
 31
0.0
  0
ARC
  5
F3
100
AcDbEntity
  8
0
  6
CONTINUOUS
 62
               4
100
AcDbCircle
 10
-134.08945729928331
 20
-171.74697588060309
 30
0.0
 40
0.5999048608870732
100
AcDbArc
 50
303.56005066674174
 51
0.0090872775466285
  0
ARC
  5
F4
100
AcDbEntity
  8
0
  6
CONTINUOUS
 62
               4
100
AcDbCircle
 10
-135.89064045117851
 20
-171.74796873918189
 30
0.0
 40
0.5989129830170392
100
AcDbArc
 50
179.89591452477302
 51
270.1040854752269
  0
LINE
  5
F5
100
AcDbEntity
  8
0
  6
CONTINUOUS
 62
               4
100
AcDbLine
 10
-134.08945729928331
 20
-172.34688073394494
 30
0.0
 11
-145.40655526246832
 21
-172.34688073394506
 31
0.0
  0
LINE
  5
F6
100
AcDbEntity
  8
0
  6
CONTINUOUS
 62
               4
100
AcDbLine
 10
-137.10655244594153
 20
-171.74688073394503
 30
0.0
 11
-137.10655244594153
 21
-172.34688073394494
 31
0.0
  0
LINE
  5
F7
100
AcDbEntity
  8
0
  6
CONTINUOUS
 62
               4
100
AcDbLine
 10
-126.60654962941493
 20
-165.49488073394497
 30
0.0
 11
-125.12964850673728
 21
-165.49488073394497
 31
0.0
  0
LINE
  5
F8
100
AcDbEntity
  8
0
  6
CONTINUOUS
 62
               4
100
AcDbLine
 10
-126.60654962941493
 20
-164.19488073394501
 30
0.0
 11
-124.37964850673728
 21
-164.19488073394501
 31
0.0
  0
LINE
  5
F9
100
AcDbEntity
  8
0
  6
CONTINUOUS
 62
               4
100
AcDbLine
 10
-133.40654962941511
 20
-168.34488073394499
 30
0.0
 11
-128.30654962941497
 21
-168.34488073394499
 31
0.0
  0
ARC
  5
FA
100
AcDbEntity
  8
0
  6
CONTINUOUS
 62
               4
100
AcDbCircle
 10
-128.30651210540958
 20
-167.84491825795038
 30
0.0
 40
0.4999624774027422
100
AcDbArc
 50
269.99569974299999
 51
0.0043002569986451
  0
LINE
  5
FB
100
AcDbEntity
  8
0
  6
CONTINUOUS
 62
               4
100
AcDbLine
 10
-127.80654962941497
 20
-167.84488073394499
 30
0.0
 11
-127.80654962941497
 21
-167.34488073394499
 31
0.0
  0
LINE
  5
FC
100
AcDbEntity
  8
0
  6
CONTINUOUS
 62
             200
100
AcDbLine
 10
-125.47564850673729
 20
-166.09488073394499
 30
0.0
 11
-124.03164850673733
 21
-163.59488073394499
 31
0.0
  0
LINE
  5
FD
100
AcDbEntity
  8
0
  6
CONTINUOUS
 62
               4
100
AcDbLine
 10
-123.87964850673728
 20
-164.19488073394501
 30
0.0
 11
-121.1096485067373
 21
-164.19488073394513
 31
0.0
  0
LINE
  5
FE
100
AcDbEntity
  8
0
  6
CONTINUOUS
 62
               4
100
AcDbLine
 10
-124.62964850673728
 20
-165.49488073394497
 30
0.0
 11
-121.1096485067373
 21
-165.49488073394508
 31
0.0
  0
LINE
  5
FF
100
AcDbEntity
  8
0
  6
CONTINUOUS
 62
             200
100
AcDbLine
 10
-124.97564850673729
 20
-166.09488073394499
 30
0.0
 11
-123.53164850673733
 21
-163.59488073394499
 31
0.0
  0
LINE
  5
100
100
AcDbEntity
  8
0
  6
CONTINUOUS
 62
               4
100
AcDbLine
 10
-121.1096485067373
 20
-165.49406335113252
 30
0.0
 11
-121.1096485067373
 21
-164.19406335113257
 31
0.0
  0
LINE
  5
101
100
AcDbEntity
  8
0
  6
CONTINUOUS
 62
               4
100
AcDbLine
 10
-127.80654962941475
 20
-162.34488073394499
 30
0.0
 11
-127.10654962941493
 21
-162.34488073394499
 31
0.0
  0
LINE
  5
102
100
AcDbEntity
  8
0
  6
CONTINUOUS
 62
               4
100
AcDbLine
 10
-126.60654962941493
 20
-162.84488073394499
 30
0.0
 11
-126.60654962941493
 21
-166.84488073394499
 31
0.0
  0
LINE
  5
103
100
AcDbEntity
  8
0
  6
CONTINUOUS
 62
               4
100
AcDbLine
 10
-127.80654962941497
 20
-167.34488073394499
 30
0.0
 11
-127.10654962941516
 21
-167.34488073394499
 31
0.0
  0
ARC
  5
104
100
AcDbEntity
  8
0
  6
CONTINUOUS
 62
               4
100
AcDbCircle
 10
-127.10654962941493
 20
-162.84488073394499
 30
0.0
 40
0.5
100
AcDbArc
 50
359.99999999999881
 51
89.999999999999389
  0
ARC
  5
105
100
AcDbEntity
  8
0
  6
CONTINUOUS
 62
               4
100
AcDbCircle
 10
-127.10654962941493
 20
-166.84488073394499
 30
0.0
 40
0.5
100
AcDbArc
 50
269.99999999999898
 51
359.99999999999881
  0
LINE
  5
106
100
AcDbEntity
  8
0
  6
CONTINUOUS
 62
               4
100
AcDbLine
 10
-147.4065524459416
 20
-149.84688073394494
 30
0.0
 11
-130.40654962941488
 21
-149.84688073394506
 31
0.0
  0
ARC
  5
107
100
AcDbEntity
  8
0
  6
CONTINUOUS
 62
               4
100
AcDbCircle
 10
-128.30701407393275
 20
-151.37800795866127
 30
0.0
 40
0.5004652055472239
100
AcDbArc
 50
359.90008023532044
 51
64.87883575679551
  0
LINE
  5
108
100
AcDbEntity
  8
0
  6
CONTINUOUS
 62
               4
100
AcDbLine
 10
-130.40654962941488
 20
-149.84688073394506
 30
0.0
 11
-128.09454962941476
 21
-150.92488073394503
 31
0.0
  0
LINE
  5
109
100
AcDbEntity
  8
0
  6
CONTINUOUS
 62
               4
100
AcDbLine
 10
-147.4065524459416
 20
-99.246880733944991
 30
0.0
 11
-130.40654962941488
 21
-99.246880733944991
 31
0.0
  0
ARC
  5
10A
100
AcDbEntity
  8
0
  6
CONTINUOUS
 62
               4
100
AcDbCircle
 10
-128.30701407393275
 20
-97.715753509228776
 30
0.0
 40
0.5004652055472239
100
AcDbArc
 50
295.12116424320402
 51
0.0999197646782735
  0
LINE
  5
10B
100
AcDbEntity
  8
0
  6
CONTINUOUS
 62
               4
100
AcDbLine
 10
-130.40654962941488
 20
-99.246880733944991
 30
0.0
 11
-128.09454962941476
 21
-98.168880733945016
 31
0.0
  0
LINE
  5
10C
100
AcDbEntity
  8
0
  6
CENTER
 62
               2
100
AcDbLine
 10
-166.60655245271269
 20
-111.04688073394489
 30
0.0
 11
-161.60655244594159
 21
-111.04688073394489
 31
0.0
  0
LINE
  5
10D
100
AcDbEntity
  8
0
  6
CENTER
 62
               2
100
AcDbLine
 10
-166.60655245271269
 20
-138.04688073394487
 30
0.0
 11
-161.60655244594159
 21
-138.04688073394487
 31
0.0
  0
LINE
  5
10E
100
AcDbEntity
  8
0
  6
CENTER
 62
               2
100
AcDbLine
 10
-149.90655245878031
 20
-117.24688073394498
 30
0.0
 11
-144.90655245878031
 21
-117.24688073394498
 31
0.0
  0
LINE
  5
10F
100
AcDbEntity
  8
0
  6
CENTER
 62
               2
100
AcDbLine
 10
-149.90655245878031
 20
-131.84688073394497
 30
0.0
 11
-144.9065524459416
 21
-131.84688073394497
 31
0.0
  0
LINE
  5
110
100
AcDbEntity
  8
0
  6
CONTINUOUS
 62
               7
100
AcDbLine
 10
-71.064125725834316
 20
-141.04688073394487
 30
0.0
 11
-69.064125725834231
 21
-141.04688073394487
 31
0.0
  0
LINE
  5
111
100
AcDbEntity
  8
0
  6
CONTINUOUS
 62
               7
100
AcDbLine
 10
-71.064125725834316
 20
-108.04688073394489
 30
0.0
 11
-69.064125725834231
 21
-108.04688073394489
 31
0.0
  0
LINE
  5
112
100
AcDbEntity
  8
0
  6
CONTINUOUS
 62
               7
100
AcDbLine
 10
-71.064125725834316
 20
-141.04688073394487
 30
0.0
 11
-71.064125725834316
 21
-108.04688073394489
 31
0.0
  0
LINE
  5
113
100
AcDbEntity
  8
0
  6
CENTER
 62
               2
100
AcDbLine
 10
-54.064125725834316
 20
-113.54688073394489
 30
0.0
 11
-54.064125725834316
 21
-108.54688073394489
 31
0.0
  0
LINE
  5
114
100
AcDbEntity
  8
0
  6
CENTER
 62
               2
100
AcDbLine
 10
-54.064125725834316
 20
-140.54688073024562
 30
0.0
 11
-54.064125725834316
 21
-135.54688073024562
 31
0.0
  0
LINE
  5
115
100
AcDbEntity
  8
0
  6
CENTER
 62
               2
100
AcDbLine
 10
-53.547919520196359
 20
-132.94585400054643
 30
0.0
 11
-35.934125725834321
 21
-132.94585400054643
 31
0.0
  0
LINE
  5
117
100
AcDbEntity
  8
0
  6
PHANTOM
 62
             200
100
AcDbLine
 10
-51.064125725834316
 20
-128.94585400054643
 30
0.0
 11
-37.564125725834316
 21
-128.94585400054643
 31
0.0
  0
LINE
  5
118
100
AcDbEntity
  8
0
  6
PHANTOM
 62
             200
100
AcDbLine
 10
-51.064125725834316
 20
-136.94585400054643
 30
0.0
 11
-37.564125725834316
 21
-136.94585400054643
 31
0.0
  0
ARC
  5
119
100
AcDbEntity
  8
0
  6
PHANTOM
 62
             200
100
AcDbCircle
 10
-37.564125725834316
 20
-129.44585400054643
 30
0.0
 40
0.5
100
AcDbArc
 50
0.0
 51
89.999999999999815
  0
ARC
  5
11A
100
AcDbEntity
  8
0
  6
PHANTOM
 62
             200
100
AcDbCircle
 10
-37.564125725834316
 20
-136.44585400054643
 30
0.0
 40
0.5
100
AcDbArc
 50
269.99999999999937
 51
0.0
  0
LINE
  5
11B
100
AcDbEntity
  8
0
  6
PHANTOM
 62
             200
100
AcDbLine
 10
-37.064125725834316
 20
-129.44585400054643
 30
0.0
 11
-37.064125725834316
 21
-136.44585400054643
 31
0.0
  0
LINE
  5
11C
100
AcDbEntity
  8
0
  6
PHANTOM
 62
             200
100
AcDbLine
 10
-39.564125725834316
 20
-128.94585400054643
 30
0.0
 11
-39.564125725834316
 21
-136.94585400054643
 31
0.0
  0
LINE
  5
11D
100
AcDbEntity
  8
0
  6
PHANTOM
 62
             200
100
AcDbLine
 10
-37.564125725834316
 20
-128.94585400054643
 30
0.0
 11
-37.564125725834316
 21
-136.94585400054643
 31
0.0
  0
CIRCLE
  5
11E
100
AcDbEntity
  8
0
  6
CONTINUOUS
 62
               7
100
AcDbCircle
 10
-54.064125725834316
 20
-111.04688073394489
 30
0.0
 40
1.6000000000000001
  0
CIRCLE
  5
11F
100
AcDbEntity
  8
0
  6
CONTINUOUS
 62
               7
100
AcDbCircle
 10
-54.064125725834316
 20
-138.04688073394487
 30
0.0
 40
1.6000000000000001
  0
LINE
  5
120
100
AcDbEntity
  8
0
  6
CONTINUOUS
 62
               7
100
AcDbLine
 10
-51.064125725834316
 20
-141.04688073394487
 30
0.0
 11
-51.064125725834316
 21
-108.04688073394489
 31
0.0
  0
LINE
  5
121
100
AcDbEntity
  8
0
  6
CONTINUOUS
 62
               7
100
AcDbLine
 10
-59.064125725834231
 20
-141.04688073394487
 30
0.0
 11
-51.064125725834316
 21
-141.04688073394487
 31
0.0
  0
LINE
  5
122
100
AcDbEntity
  8
0
  6
CONTINUOUS
 62
               7
100
AcDbLine
 10
-59.064125725834231
 20
-108.04688073394489
 30
0.0
 11
-51.064125725834316
 21
-108.04688073394489
 31
0.0
  0
LINE
  5
123
100
AcDbEntity
  8
0
  6
CENTER
 62
               2
100
AcDbLine
 10
-56.564125725834316
 20
-111.04688073394489
 30
0.0
 11
-51.564125725834316
 21
-111.04688073394489
 31
0.0
  0
LINE
  5
124
100
AcDbEntity
  8
0
  6
CENTER
 62
               2
100
AcDbLine
 10
-56.564125725834316
 20
-138.04688073394487
 30
0.0
 11
-51.564125725834316
 21
-138.04688073394487
 31
0.0
  0
CIRCLE
  5
125
100
AcDbEntity
  8
0
  6
CONTINUOUS
 62
               7
100
AcDbCircle
 10
-64.064125725834231
 20
-147.54688073394499
 30
0.0
 40
0.7500000000000001
  0
CIRCLE
  5
126
100
AcDbEntity
  8
0
  6
CONTINUOUS
 62
               7
100
AcDbCircle
 10
-64.064125725834231
 20
-147.54688073394499
 30
0.0
 40
1.1000000000000001
  0
CIRCLE
  5
127
100
AcDbEntity
  8
0
  6
CONTINUOUS
 62
               7
100
AcDbCircle
 10
-64.064125725834231
 20
-147.54688073394499
 30
0.0
 40
1.1500000000000001
  0
CIRCLE
  5
128
100
AcDbEntity
  8
0
  6
CONTINUOUS
 62
               7
100
AcDbCircle
 10
-64.064125725834231
 20
-147.54688073394499
 30
0.0
 40
1.3000000000000012
  0
LINE
  5
129
100
AcDbEntity
  8
0
  6
CENTER
 62
               2
100
AcDbLine
 10
-65.764125725834248
 20
-147.54688073394499
 30
0.0
 11
-62.364125725834214
 21
-147.54688073394499
 31
0.0
  0
ARC
  5
12A
100
AcDbEntity
  8
0
  6
CONTINUOUS
 62
               7
100
AcDbCircle
 10
-64.064125725834231
 20
-145.84688073394497
 30
0.0
 40
3.6000000000000005
100
AcDbArc
 50
0.0
 51
179.99999999999963
  0
ARC
  5
12B
100
AcDbEntity
  8
0
  6
CONTINUOUS
 62
               7
100
AcDbCircle
 10
-64.064125725834231
 20
-145.84688073394497
 30
0.0
 40
2.0
100
AcDbArc
 50
0.0
 51
179.99999999999963
  0
LINE
  5
12C
100
AcDbEntity
  8
0
  6
CONTINUOUS
 62
               7
100
AcDbLine
 10
-67.664125725834225
 20
-145.84688073394497
 30
0.0
 11
-67.664125725834225
 21
-149.84688073394497
 31
0.0
  0
LINE
  5
12D
100
AcDbEntity
  8
0
  6
CONTINUOUS
 62
               7
100
AcDbLine
 10
-60.464125725834236
 20
-145.84688073394497
 30
0.0
 11
-60.464125725834236
 21
-149.84688073394497
 31
0.0
  0
LINE
  5
12E
100
AcDbEntity
  8
0
  6
CONTINUOUS
 62
               7
100
AcDbLine
 10
-66.064125725834231
 20
-145.84688073394497
 30
0.0
 11
-66.064125725834231
 21
-149.84688073394497
 31
0.0
  0
LINE
  5
12F
100
AcDbEntity
  8
0
  6
CONTINUOUS
 62
               7
100
AcDbLine
 10
-62.064125725834202
 20
-145.84688073394497
 30
0.0
 11
-62.064125725834202
 21
-149.84688073394497
 31
0.0
  0
LINE
  5
130
100
AcDbEntity
  8
0
  6
CONTINUOUS
 62
               7
100
AcDbLine
 10
-59.064125725834231
 20
-149.84688073394497
 30
0.0
 11
-59.064125725834231
 21
-132.74688073394498
 31
0.0
  0
LINE
  5
131
100
AcDbEntity
  8
0
  6
CONTINUOUS
 62
               4
100
AcDbLine
 10
-59.064125725834231
 20
-99.246880733944977
 30
0.0
 11
-69.064125725834231
 21
-99.246880733944977
 31
0.0
  0
LINE
  5
132
100
AcDbEntity
  8
0
  6
CONTINUOUS
 62
               7
100
AcDbLine
 10
-66.064125725834259
 20
-103.24688073394498
 30
0.0
 11
-66.064125725834259
 21
-99.246880733944977
 31
0.0
  0
LINE
  5
133
100
AcDbEntity
  8
0
  6
CONTINUOUS
 62
               7
100
AcDbLine
 10
-62.064125725834231
 20
-103.24688073394498
 30
0.0
 11
-62.064125725834231
 21
-99.246880733944977
 31
0.0
  0
LINE
  5
134
100
AcDbEntity
  8
0
  6
CONTINUOUS
 62
               7
100
AcDbLine
 10
-67.664125725834225
 20
-103.24688073394498
 30
0.0
 11
-67.664125725834225
 21
-99.246880733944977
 31
0.0
  0
LINE
  5
135
100
AcDbEntity
  8
0
  6
CONTINUOUS
 62
               7
100
AcDbLine
 10
-60.464125725834236
 20
-103.24688073394498
 30
0.0
 11
-60.464125725834236
 21
-99.246880733944977
 31
0.0
  0
ARC
  5
136
100
AcDbEntity
  8
0
  6
CONTINUOUS
 62
               7
100
AcDbCircle
 10
-64.064125725834231
 20
-103.24688073394498
 30
0.0
 40
2.0
100
AcDbArc
 50
179.99999999999963
 51
0.0
  0
ARC
  5
137
100
AcDbEntity
  8
0
  6
CONTINUOUS
 62
               7
100
AcDbCircle
 10
-64.064125725834231
 20
-103.24688073394498
 30
0.0
 40
3.6000000000000005
100
AcDbArc
 50
179.99999999999963
 51
0.0
  0
LINE
  5
138
100
AcDbEntity
  8
0
  6
CENTER
 62
               2
100
AcDbLine
 10
-62.364125725834214
 20
-101.54688073394497
 30
0.0
 11
-65.764125725834248
 21
-101.54688073394497
 31
0.0
  0
CIRCLE
  5
139
100
AcDbEntity
  8
0
  6
CONTINUOUS
 62
               7
100
AcDbCircle
 10
-64.064125725834231
 20
-101.54688073394497
 30
0.0
 40
1.3000000000000012
  0
CIRCLE
  5
13A
100
AcDbEntity
  8
0
  6
CONTINUOUS
 62
               7
100
AcDbCircle
 10
-64.064125725834231
 20
-101.54688073394497
 30
0.0
 40
1.1500000000000001
  0
LINE
  5
13B
100
AcDbEntity
  8
0
  6
CONTINUOUS
 62
               7
100
AcDbLine
 10
-69.064125725834231
 20
-136.64688073394498
 30
0.0
 11
-59.064125725834231
 21
-136.64688073394498
 31
0.0
  0
LINE
  5
13C
100
AcDbEntity
  8
0
  6
CONTINUOUS
 62
               7
100
AcDbLine
 10
-69.064125725834231
 20
-112.44688073394498
 30
0.0
 11
-59.064125725834231
 21
-112.44688073394498
 31
0.0
  0
CIRCLE
  5
13D
100
AcDbEntity
  8
0
  6
CONTINUOUS
 62
               7
100
AcDbCircle
 10
-64.064125725834231
 20
-101.54688073394497
 30
0.0
 40
1.1000000000000001
  0
CIRCLE
  5
13E
100
AcDbEntity
  8
0
  6
CONTINUOUS
 62
               7
100
AcDbCircle
 10
-64.064125725834231
 20
-101.54688073394497
 30
0.0
 40
0.7500000000000001
  0
LINE
  5
13F
100
AcDbEntity
  8
0
  6
CONTINUOUS
 62
               7
100
AcDbLine
 10
-69.064125725834231
 20
-149.84688073394497
 30
0.0
 11
-69.064125725834231
 21
-118.146880733945
 31
0.0
  0
LINE
  5
140
100
AcDbEntity
  8
0
  6
CONTINUOUS
 62
               7
100
AcDbLine
 10
-69.064125725834231
 20
-116.34688073394496
 30
0.0
 11
-69.064125725834231
 21
-99.246880733944977
 31
0.0
  0
LINE
  5
141
100
AcDbEntity
  8
0
  6
CONTINUOUS
 62
               7
100
AcDbLine
 10
-59.064125725834231
 20
-130.94688073394497
 30
0.0
 11
-59.064125725834231
 21
-99.246880733944977
 31
0.0
  0
LINE
  5
142
100
AcDbEntity
  8
0
  6
CONTINUOUS
 62
               4
100
AcDbLine
 10
-69.064125725834231
 20
-76.746880733944977
 30
0.0
 11
-69.064125725834231
 21
-99.246880733944977
 31
0.0
  0
LINE
  5
143
100
AcDbEntity
  8
0
  6
CONTINUOUS
 62
               4
100
AcDbLine
 10
-59.064125725834231
 20
-76.746880733944977
 30
0.0
 11
-59.064125725834231
 21
-99.246880733944977
 31
0.0
  0
LINE
  5
144
100
AcDbEntity
  8
0
  6
CENTER
 62
               2
100
AcDbLine
 10
-64.064125725834231
 20
-76.048880733945012
 30
0.0
 11
-64.064125725834231
 21
-173.04488073394498
 31
0.0
  0
ARC
  5
145
100
AcDbEntity
  8
0
  6
CONTINUOUS
 62
               4
100
AcDbCircle
 10
-59.860030579176112
 20
-77.346785587286831
 30
0.0
 40
0.5999048608870732
100
AcDbArc
 50
359.99091272245295
 51
90.009087277546172
  0
ARC
  5
146
100
AcDbEntity
  8
0
  6
CONTINUOUS
 62
               4
100
AcDbCircle
 10
-60.001318349300675
 20
-97.669688114748169
 30
0.0
 40
0.4991932763770037
100
AcDbArc
 50
269.90733190886618
 51
0.0926680911333844
  0
ARC
  5
147
100
AcDbEntity
  8
0
  6
CONTINUOUS
 62
               4
100
AcDbCircle
 10
-60.001550129791951
 20
-81.246305137902709
 30
0.0
 40
0.499424735650256
100
AcDbArc
 50
359.93396556302804
 51
90.066034436970796
  0
ARC
  5
148
100
AcDbEntity
  8
0
  6
CONTINUOUS
 62
               4
100
AcDbCircle
 10
-59.563828877970138
 20
-81.246583886080771
 30
0.0
 40
0.4997032403068001
100
AcDbArc
 50
359.96596353714654
 51
90.034036462852711
  0
LINE
  5
149
100
AcDbEntity
  8
0
  6
CONTINUOUS
 62
               4
100
AcDbLine
 10
-59.502125725834333
 20
-81.246880733944977
 30
0.0
 11
-59.502125725834333
 21
-97.668880738214511
 31
0.0
  0
ARC
  5
14A
100
AcDbEntity
  8
0
  6
CONTINUOUS
 62
               4
100
AcDbCircle
 10
-61.661213731071314
 20
-77.345792728708034
 30
0.0
 40
0.5989129830170392
100
AcDbArc
 50
89.895914524772735
 51
180.10408547522667
  0
CIRCLE
  5
14B
100
AcDbEntity
  8
0
  6
CONTINUOUS
 62
               4
100
AcDbCircle
 10
-65.313531853763891
 20
-84.246880733944977
 30
0.0
 40
0.7250000000000001
  0
CIRCLE
  5
14C
100
AcDbEntity
  8
0
  6
CONTINUOUS
 62
               4
100
AcDbCircle
 10
-62.813531853763891
 20
-84.246880733944977
 30
0.0
 40
0.7250000000000001
  0
LINE
  5
14D
100
AcDbEntity
  8
0
  6
CONTINUOUS
 62
               4
100
AcDbLine
 10
-62.814125725834231
 20
-86.246880733944977
 30
0.0
 11
-65.314125725834231
 21
-86.246880733944977
 31
0.0
  0
LINE
  5
14E
100
AcDbEntity
  8
0
  6
CONTINUOUS
 62
               4
100
AcDbLine
 10
-62.814125725834231
 20
-82.246880733944977
 30
0.0
 11
-65.314125725834231
 21
-82.246880733944977
 31
0.0
  0
ARC
  5
14F
100
AcDbEntity
  8
0
  6
CONTINUOUS
 62
               4
100
AcDbCircle
 10
-65.314125725834231
 20
-84.246880733944977
 30
0.0
 40
2.0000000881710065
100
AcDbArc
 50
89.999999999999815
 51
269.99999999999937
  0
ARC
  5
150
100
AcDbEntity
  8
0
  6
CONTINUOUS
 62
               4
100
AcDbCircle
 10
-62.814125725834231
 20
-84.246880733944977
 30
0.0
 40
2.0000000881710065
100
AcDbArc
 50
269.99999999999937
 51
89.999999999999801
  0
ARC
  5
151
100
AcDbEntity
  8
0
  6
CONTINUOUS
 62
               4
100
AcDbCircle
 10
-68.126339286625182
 20
-97.66909429900528
 30
0.0
 40
0.4997864848369056
100
AcDbArc
 50
179.97551728042748
 51
270.02448271957149
  0
ARC
  5
152
100
AcDbEntity
  8
0
  6
CONTINUOUS
 62
               4
100
AcDbCircle
 10
-68.563828701628211
 20
-81.247177758151111
 30
0.0
 40
0.5002971123771114
100
AcDbArc
 50
90.034016255545609
 51
179.96598374445358
  0
ARC
  5
153
100
AcDbEntity
  8
0
  6
CONTINUOUS
 62
               4
100
AcDbCircle
 10
-68.126107781176472
 20
-81.246898678602975
 30
0.0
 40
0.5000179449799356
100
AcDbArc
 50
90.002056232531103
 51
179.99794376746806
  0
LINE
  5
154
100
AcDbEntity
  8
0
  6
CONTINUOUS
 62
               4
100
AcDbLine
 10
-68.626125725834356
 20
-81.246880733944977
 30
0.0
 11
-68.626125725834356
 21
-97.668880738214511
 31
0.0
  0
CIRCLE
  5
155
100
AcDbEntity
  8
0
  6
CONTINUOUS
 62
               4
100
AcDbCircle
 10
-65.313531853763891
 20
-84.246880733944977
 30
0.0
 40
0.25
  0
CIRCLE
  5
156
100
AcDbEntity
  8
0
  6
CONTINUOUS
 62
               4
100
AcDbCircle
 10
-62.813531853763891
 20
-84.246880733944977
 30
0.0
 40
0.25
  0
ARC
  5
157
100
AcDbEntity
  8
0
  6
CONTINUOUS
 62
               4
100
AcDbCircle
 10
-68.564125725834231
 20
-77.346880733945
 30
0.0
 40
0.5
100
AcDbArc
 50
89.999999999999815
 51
179.99999999999963
  0
LINE
  5
158
100
AcDbEntity
  8
0
  6
CONTINUOUS
 62
               4
100
AcDbLine
 10
-62.264125725834276
 20
-76.846880733945
 30
0.0
 11
-62.264125725834276
 21
-78.346880733945
 31
0.0
  0
LINE
  5
159
100
AcDbEntity
  8
0
  6
CONTINUOUS
 62
               4
100
AcDbLine
 10
-62.264125725834276
 20
-76.846880733945
 30
0.0
 11
-68.564125725834231
 21
-76.846880733945
 31
0.0
  0
LINE
  5
15A
100
AcDbEntity
  8
0
  6
PHANTOM
 62
               4
100
AcDbLine
 10
-65.564144036381151
 20
-91.746880738214486
 30
0.0
 11
-62.564144036381151
 21
-91.746880738214486
 31
0.0
  0
LINE
  5
15B
100
AcDbEntity
  8
0
  6
PHANTOM
 62
               4
100
AcDbLine
 10
-65.564144036381151
 20
-93.746880738214486
 30
0.0
 11
-62.564144036381151
 21
-93.746880738214486
 31
0.0
  0
LINE
  5
15C
100
AcDbEntity
  8
0
  6
PHANTOM
 62
               4
100
AcDbLine
 10
-62.564144036381151
 20
-91.746880738214486
 30
0.0
 11
-62.564144036381151
 21
-93.746880738214486
 31
0.0
  0
LINE
  5
15D
100
AcDbEntity
  8
0
  6
PHANTOM
 62
               4
100
AcDbLine
 10
-65.564144036381151
 20
-91.746880738214486
 30
0.0
 11
-65.564144036381151
 21
-93.746880738214486
 31
0.0
  0
LINE
  5
15E
100
AcDbEntity
  8
0
  6
CONTINUOUS
 62
               4
100
AcDbLine
 10
-59.064125725834231
 20
-77.346880733945
 30
0.0
 11
-62.264125725834276
 21
-77.346880733945
 31
0.0
  0
LINE
  5
15F
100
AcDbEntity
  8
0
  6
CONTINUOUS
 62
               4
100
AcDbLine
 10
-59.064125725834231
 20
-76.746880733944977
 30
0.0
 11
-69.064125725834231
 21
-76.746880733944977
 31
0.0
  0
LINE
  5
160
100
AcDbEntity
  8
0
  6
CONTINUOUS
 62
               4
100
AcDbLine
 10
-59.064125725834231
 20
-78.346880733945
 30
0.0
 11
-62.264125725834276
 21
-78.346880733945
 31
0.0
  0
LINE
  5
161
100
AcDbEntity
  8
0
  6
CONTINUOUS
 62
               4
100
AcDbLine
 10
-59.564125725834231
 20
-80.746880733944977
 30
0.0
 11
-68.564125725834231
 21
-80.746880733944977
 31
0.0
  0
LINE
  5
162
100
AcDbEntity
  8
0
  6
CONTINUOUS
 62
               4
100
AcDbLine
 10
-60.002125725834333
 20
-98.168880738214511
 30
0.0
 11
-68.126125725834356
 21
-98.168880738214511
 31
0.0
  0
ARC
  5
163
100
AcDbEntity
  8
0
  6
CONTINUOUS
 62
               4
100
AcDbCircle
 10
-59.564422750040478
 20
-150.34717775815108
 30
0.0
 40
0.5002971123771115
100
AcDbArc
 50
0.034016255545966
 51
89.965983744453979
  0
LINE
  5
164
100
AcDbEntity
  8
0
  6
CONTINUOUS
 62
               4
100
AcDbLine
 10
-59.064125725834231
 20
-172.34688073394494
 30
0.0
 11
-59.064125725834231
 21
-149.84688073394494
 31
0.0
  0
ARC
  5
165
100
AcDbEntity
  8
0
  6
CONTINUOUS
 62
               4
100
AcDbCircle
 10
-68.56442257369855
 20
-150.34658388608074
 30
0.0
 40
0.4997032403068001
100
AcDbArc
 50
89.965963537146934
 51
180.03403646285233
  0
LINE
  5
166
100
AcDbEntity
  8
0
  6
CONTINUOUS
 62
               4
100
AcDbLine
 10
-69.064125725834231
 20
-172.34688073394494
 30
0.0
 11
-69.064125725834231
 21
-149.84688073394494
 31
0.0
  0
LINE
  5
167
100
AcDbEntity
  8
0
  6
CONTINUOUS
 62
               4
100
AcDbLine
 10
-68.126125725834356
 20
-150.92488072967541
 30
0.0
 11
-60.002125725834333
 21
-150.92488072967541
 31
0.0
  0
LINE
  5
168
100
AcDbEntity
  8
0
  6
CONTINUOUS
 62
               4
100
AcDbLine
 10
-68.564125725834231
 20
-168.34688073394494
 30
0.0
 11
-59.564125725834231
 21
-168.34688073394494
 31
0.0
  0
LINE
  5
169
100
AcDbEntity
  8
0
  6
CONTINUOUS
 62
               4
100
AcDbLine
 10
-69.064125725834231
 20
-170.74688073394492
 30
0.0
 11
-65.864125725834185
 21
-170.74688073394492
 31
0.0
  0
LINE
  5
16A
100
AcDbEntity
  8
0
  6
CONTINUOUS
 62
               4
100
AcDbLine
 10
-69.064125725834231
 20
-172.34688073394494
 30
0.0
 11
-59.064125725834231
 21
-172.34688073394494
 31
0.0
  0
LINE
  5
16B
100
AcDbEntity
  8
0
  6
CONTINUOUS
 62
               4
100
AcDbLine
 10
-69.064125725834231
 20
-171.74688073394492
 30
0.0
 11
-65.864125725834185
 21
-171.74688073394492
 31
0.0
  0
LINE
  5
16C
100
AcDbEntity
  8
0
  6
PHANTOM
 62
               4
100
AcDbLine
 10
-62.56410741528731
 20
-157.34688072967543
 30
0.0
 11
-62.56410741528731
 21
-155.34688072967543
 31
0.0
  0
LINE
  5
16D
100
AcDbEntity
  8
0
  6
PHANTOM
 62
               4
100
AcDbLine
 10
-65.56410741528731
 20
-157.34688072967543
 30
0.0
 11
-65.56410741528731
 21
-155.34688072967543
 31
0.0
  0
LINE
  5
16E
100
AcDbEntity
  8
0
  6
PHANTOM
 62
               4
100
AcDbLine
 10
-62.56410741528731
 20
-155.34688072967543
 30
0.0
 11
-65.56410741528731
 21
-155.34688072967543
 31
0.0
  0
LINE
  5
16F
100
AcDbEntity
  8
0
  6
PHANTOM
 62
               4
100
AcDbLine
 10
-62.56410741528731
 20
-157.34688072967543
 30
0.0
 11
-65.56410741528731
 21
-157.34688072967543
 31
0.0
  0
LINE
  5
170
100
AcDbEntity
  8
0
  6
CONTINUOUS
 62
               4
100
AcDbLine
 10
-65.864125725834185
 20
-172.24688073394492
 30
0.0
 11
-59.564125725834231
 21
-172.24688073394492
 31
0.0
  0
LINE
  5
171
100
AcDbEntity
  8
0
  6
CONTINUOUS
 62
               4
100
AcDbLine
 10
-65.864125725834185
 20
-172.24688073394492
 30
0.0
 11
-65.864125725834185
 21
-170.74688073394492
 31
0.0
  0
ARC
  5
172
100
AcDbEntity
  8
0
  6
CONTINUOUS
 62
               4
100
AcDbCircle
 10
-59.564125725834231
 20
-171.74688073394492
 30
0.0
 40
0.5
100
AcDbArc
 50
269.99999999999937
 51
0.0
  0
CIRCLE
  5
173
100
AcDbEntity
  8
0
  6
CONTINUOUS
 62
               4
100
AcDbCircle
 10
-65.31471959790457
 20
-164.84688073394494
 30
0.0
 40
0.25
  0
CIRCLE
  5
174
100
AcDbEntity
  8
0
  6
CONTINUOUS
 62
               4
100
AcDbCircle
 10
-62.81471959790457
 20
-164.84688073394494
 30
0.0
 40
0.25
  0
LINE
  5
175
100
AcDbEntity
  8
0
  6
CONTINUOUS
 62
               4
100
AcDbLine
 10
-59.502125725834333
 20
-167.84688073394494
 30
0.0
 11
-59.502125725834333
 21
-151.42488072967541
 31
0.0
  0
ARC
  5
176
100
AcDbEntity
  8
0
  6
CONTINUOUS
 62
               4
100
AcDbCircle
 10
-60.002143670492217
 20
-167.84686278928694
 30
0.0
 40
0.5000179449799356
100
AcDbArc
 50
270.00205623253072
 51
359.99794376746769
  0
ARC
  5
177
100
AcDbEntity
  8
0
  6
CONTINUOUS
 62
               4
100
AcDbCircle
 10
-59.564422750040478
 20
-167.84658370973881
 30
0.0
 40
0.5002971123771114
100
AcDbArc
 50
270.03401625554523
 51
359.96598374445318
  0
ARC
  5
178
100
AcDbEntity
  8
0
  6
CONTINUOUS
 62
               4
100
AcDbCircle
 10
-60.001912165043507
 20
-151.42466716888464
 30
0.0
 40
0.4997864848369056
100
AcDbArc
 50
359.97551728042708
 51
90.024482719571907
  0
ARC
  5
179
100
AcDbEntity
  8
0
  6
CONTINUOUS
 62
               4
100
AcDbCircle
 10
-65.314125725834231
 20
-164.84688073394494
 30
0.0
 40
2.0000000881710065
100
AcDbArc
 50
89.999999999999815
 51
269.99999999999937
  0
ARC
  5
17A
100
AcDbEntity
  8
0
  6
CONTINUOUS
 62
               4
100
AcDbCircle
 10
-62.814125725834231
 20
-164.84688073394494
 30
0.0
 40
2.0000000881710065
100
AcDbArc
 50
269.99999999999937
 51
89.999999999999801
  0
LINE
  5
17B
100
AcDbEntity
  8
0
  6
CONTINUOUS
 62
               4
100
AcDbLine
 10
-65.314125725834231
 20
-166.84688073394494
 30
0.0
 11
-62.814125725834231
 21
-166.84688073394494
 31
0.0
  0
LINE
  5
17C
100
AcDbEntity
  8
0
  6
CONTINUOUS
 62
               4
100
AcDbLine
 10
-65.314125725834231
 20
-162.84688073394494
 30
0.0
 11
-62.814125725834231
 21
-162.84688073394494
 31
0.0
  0
CIRCLE
  5
17D
100
AcDbEntity
  8
0
  6
CONTINUOUS
 62
               4
100
AcDbCircle
 10
-65.31471959790457
 20
-164.84688073394494
 30
0.0
 40
0.7250000000000001
  0
CIRCLE
  5
17E
100
AcDbEntity
  8
0
  6
CONTINUOUS
 62
               4
100
AcDbCircle
 10
-62.81471959790457
 20
-164.84688073394494
 30
0.0
 40
0.7250000000000001
  0
ARC
  5
17F
100
AcDbEntity
  8
0
  6
CONTINUOUS
 62
               4
100
AcDbCircle
 10
-66.467037720597148
 20
-171.74796873918189
 30
0.0
 40
0.5989129830170392
100
AcDbArc
 50
269.89591452477231
 51
0.1040854752270701
  0
LINE
  5
180
100
AcDbEntity
  8
0
  6
CONTINUOUS
 62
               4
100
AcDbLine
 10
-68.626125725834356
 20
-167.84688073394494
 30
0.0
 11
-68.626125725834356
 21
-151.42488072967541
 31
0.0
  0
ARC
  5
181
100
AcDbEntity
  8
0
  6
CONTINUOUS
 62
               4
100
AcDbCircle
 10
-68.56442257369855
 20
-167.84717758180915
 30
0.0
 40
0.4997032403068001
100
AcDbArc
 50
179.96596353714693
 51
270.03403646285233
  0
ARC
  5
182
100
AcDbEntity
  8
0
  6
CONTINUOUS
 62
               4
100
AcDbCircle
 10
-68.12670132187651
 20
-167.84745632998721
 30
0.0
 40
0.499424735650256
100
AcDbArc
 50
179.93396556302844
 51
270.06603443697037
  0
ARC
  5
183
100
AcDbEntity
  8
0
  6
CONTINUOUS
 62
               4
100
AcDbCircle
 10
-68.126933102368014
 20
-151.42407335314175
 30
0.0
 40
0.4991932763770037
100
AcDbArc
 50
89.907331908866567
 51
180.09266809113299
  0
ARC
  5
184
100
AcDbEntity
  8
0
  6
CONTINUOUS
 62
               4
100
AcDbCircle
 10
-68.26822087249235
 20
-171.74697588060309
 30
0.0
 40
0.5999048608870732
100
AcDbArc
 50
179.99091272245337
 51
270.00908727754575
  0
ARC
  5
185
100
AcDbEntity
  8
0
  6
CONTINUOUS
 62
               4
100
AcDbCircle
 10
-68.563828701628211
 20
-98.746583709738843
 30
0.0
 40
0.5002971123771115
100
AcDbArc
 50
180.03401625554557
 51
269.96598374445358
  0
ARC
  5
186
100
AcDbEntity
  8
0
  6
CONTINUOUS
 62
               4
100
AcDbCircle
 10
-59.563828877970138
 20
-98.747177581809183
 30
0.0
 40
0.4997032403068001
100
AcDbArc
 50
269.96596353714654
 51
0.0340364628527164
  0
LINE
  5
187
100
AcDbEntity
  8
0
  6
CONTINUOUS
 62
               7
100
AcDbLine
 10
-69.064125725834231
 20
-149.84688073394494
 30
0.0
 11
-59.064125725834231
 21
-149.84688073394494
 31
0.0
  0
LINE
  5
188
100
AcDbEntity
  8
0
  6
CONTINUOUS
 62
               4
100
AcDbLine
 10
-59.064125725834231
 20
-149.84688073394494
 30
0.0
 11
-69.064125725834231
 21
-149.84688073394494
 31
0.0
  0
LINE
  5
189
100
AcDbEntity
  8
0
  6
CONTINUOUS
 62
               7
100
AcDbLine
 10
-68.571232507020795
 20
-116.53977395275844
 30
0.0
 11
-67.157018944647689
 21
-117.95398751513153
 31
0.0
  0
LINE
  5
18A
100
AcDbEntity
  8
0
  6
CONTINUOUS
 62
               7
100
AcDbLine
 10
-67.157018944647689
 20
-116.53977395275844
 30
0.0
 11
-68.571232507020795
 21
-117.95398751513153
 31
0.0
  0
LINE
  5
18B
100
AcDbEntity
  8
0
  6
CONTINUOUS
 62
               7
100
AcDbLine
 10
-67.864125725834242
 20
-118.84688073394499
 30
0.0
 11
-69.064125725834231
 21
-118.84688073394499
 31
0.0
  0
LINE
  5
18C
100
AcDbEntity
  8
0
  6
CONTINUOUS
 62
               7
100
AcDbLine
 10
-67.864125725834242
 20
-115.64688073394498
 30
0.0
 11
-69.064125725834231
 21
-115.64688073394498
 31
0.0
  0
ARC
  5
18D
100
AcDbEntity
  8
0
  6
CONTINUOUS
 62
               7
100
AcDbCircle
 10
-67.864125725834242
 20
-117.24688073394498
 30
0.0
 40
1.6000000000000001
100
AcDbArc
 50
269.99999999999937
 51
89.999999999999801
  0
CIRCLE
  5
18E
100
AcDbEntity
  8
0
  6
CONTINUOUS
 62
               7
100
AcDbCircle
 10
-67.864125725834242
 20
-117.24688073394498
 30
0.0
 40
1.5
  0
LINE
  5
18F
100
AcDbEntity
  8
0
  6
CONTINUOUS
 62
               7
100
AcDbLine
 10
-60.971232507020773
 20
-131.13977395275845
 30
0.0
 11
-59.557018944647666
 21
-132.55398751513152
 31
0.0
  0
LINE
  5
190
100
AcDbEntity
  8
0
  6
CONTINUOUS
 62
               7
100
AcDbLine
 10
-59.557018944647666
 20
-131.13977395275845
 30
0.0
 11
-60.971232507020773
 21
-132.55398751513152
 31
0.0
  0
LINE
  5
191
100
AcDbEntity
  8
0
  6
CONTINUOUS
 62
               7
100
AcDbLine
 10
-60.264125725834219
 20
-133.44688073394497
 30
0.0
 11
-59.064125725834231
 21
-133.44688073394497
 31
0.0
  0
LINE
  5
192
100
AcDbEntity
  8
0
  6
CONTINUOUS
 62
               7
100
AcDbLine
 10
-60.264125725834219
 20
-130.24688073394498
 30
0.0
 11
-59.064125725834231
 21
-130.24688073394498
 31
0.0
  0
CIRCLE
  5
193
100
AcDbEntity
  8
0
  6
CONTINUOUS
 62
               7
100
AcDbCircle
 10
-60.264125725834219
 20
-131.84688073394497
 30
0.0
 40
1.5
  0
ARC
  5
194
100
AcDbEntity
  8
0
  6
CONTINUOUS
 62
               7
100
AcDbCircle
 10
-60.264125725834219
 20
-131.84688073394497
 30
0.0
 40
1.6000000000000001
100
AcDbArc
 50
89.999999999999815
 51
269.99999999999937
  0
LINE
  5
195
100
AcDbEntity
  8
0
  6
DASHED
 62
               2
100
AcDbLine
 10
219.25706637192516
 20
35.905119083434812
 30
0.0
 11
218.16199434261253
 21
35.905119083434812
 31
0.0
  0
LINE
  5
196
100
AcDbEntity
  8
0
  6
DASHED
 62
               2
100
AcDbLine
 10
219.25706637192516
 20
37.405119083434812
 30
0.0
 11
218.16199434261253
 21
37.405119083434812
 31
0.0
  0
LINE
  5
197
100
AcDbEntity
  8
0
  6
CENTER
 62
               2
100
AcDbLine
 10
217.69438639616365
 20
36.655119083434812
 30
0.0
 11
219.97504539100251
 21
36.655119083434812
 31
0.0
  0
LINE
  5
198
100
AcDbEntity
  8
0
  6
DASHED
 62
               2
100
AcDbLine
 10
219.25706637192516
 20
77.405119083434798
 30
0.0
 11
218.16199434261253
 21
77.405119083434798
 31
0.0
  0
LINE
  5
199
100
AcDbEntity
  8
0
  6
DASHED
 62
               2
100
AcDbLine
 10
219.25706637192516
 20
75.905119083434798
 30
0.0
 11
218.16199434261253
 21
75.905119083434798
 31
0.0
  0
LINE
  5
19A
100
AcDbEntity
  8
0
  6
CONTINUOUS
 62
               7
100
AcDbLine
 10
219.95706919627662
 20
73.155119083434869
 30
0.0
 11
235.95706919627659
 21
73.155119083434869
 31
0.0
  0
LINE
  5
19B
100
AcDbEntity
  8
0
  6
CONTINUOUS
 62
               7
100
AcDbLine
 10
219.95706919627662
 20
40.155119083434869
 30
0.0
 11
235.95706918845198
 21
40.155119083434869
 31
0.0
  0
CIRCLE
  5
19C
100
AcDbEntity
  8
0
  6
CONTINUOUS
 62
               7
100
AcDbCircle
 10
230.95706918845195
 20
48.257119083434873
 30
0.0
 40
2.1000000000000001
  0
CIRCLE
  5
19D
100
AcDbEntity
  8
0
  6
CONTINUOUS
 62
               7
100
AcDbCircle
 10
224.95706918845195
 20
56.655119083434869
 30
0.0
 40
2.1000000000000001
  0
CIRCLE
  5
19E
100
AcDbEntity
  8
0
  6
CONTINUOUS
 62
               2
100
AcDbCircle
 10
230.95706918845195
 20
48.257119083434873
 30
0.0
 40
2.5
  0
CIRCLE
  5
19F
100
AcDbEntity
  8
0
  6
CONTINUOUS
 62
               2
100
AcDbCircle
 10
224.95706918845195
 20
56.655119083434869
 30
0.0
 40
2.5
  0
LINE
  5
1A0
100
AcDbEntity
  8
0
  6
CONTINUOUS
 62
               7
100
AcDbLine
 10
235.95706918845198
 20
40.155119083434869
 30
0.0
 11
235.95706918845198
 21
73.155119083434869
 31
0.0
  0
LINE
  5
1A1
100
AcDbEntity
  8
0
  6
CONTINUOUS
 62
               7
100
AcDbLine
 10
219.95706918845195
 20
40.155119083434869
 30
0.0
 11
219.95706918845195
 21
73.155119083434869
 31
0.0
  0
LINE
  5
1A2
100
AcDbEntity
  8
0
  6
CENTER
 62
               2
100
AcDbLine
 10
226.95706918845195
 20
48.257119083434873
 30
0.0
 11
234.95706918845198
 21
48.257119083434873
 31
0.0
  0
LINE
  5
1A3
100
AcDbEntity
  8
0
  6
CENTER
 62
               2
100
AcDbLine
 10
220.95706918845195
 20
56.655119083434869
 30
0.0
 11
228.95706918845195
 21
56.655119083434869
 31
0.0
  0
LINE
  5
1A4
100
AcDbEntity
  8
0
  6
CENTER
 62
               2
100
AcDbLine
 10
224.95706918845195
 20
60.655119083434869
 30
0.0
 11
224.95706918845195
 21
52.655119083434869
 31
0.0
  0
LINE
  5
1A5
100
AcDbEntity
  8
0
  6
CENTER
 62
               2
100
AcDbLine
 10
230.95706918845195
 20
52.257119083434873
 30
0.0
 11
230.95706918845195
 21
44.257119083434873
 31
0.0
  0
LINE
  5
1A6
100
AcDbEntity
  8
0
  6
CONTINUOUS
 62
               7
100
AcDbLine
 10
219.25706918845194
 20
68.654145816833278
 30
0.0
 11
219.95706918845195
 21
68.654145816833278
 31
0.0
  0
LINE
  5
1A7
100
AcDbEntity
  8
0
  6
CONTINUOUS
 62
               7
100
AcDbLine
 10
219.25706918845194
 20
44.654145816833307
 30
0.0
 11
219.95706918845195
 21
44.654145816833307
 31
0.0
  0
LINE
  5
1A8
100
AcDbEntity
  8
0
  6
CENTER
 62
               2
100
AcDbLine
 10
217.69438639616365
 20
76.655119083434798
 30
0.0
 11
219.97504539100251
 21
76.655119083434798
 31
0.0
  0
LINE
  5
1A9
100
AcDbEntity
  8
0
  6
CONTINUOUS
 62
               7
100
AcDbLine
 10
203.65706637192514
 20
37.355119083434801
 30
0.0
 11
205.25706637192516
 21
38.955119083434809
 31
0.0
  0
LINE
  5
1AA
100
AcDbEntity
  8
0
  6
CONTINUOUS
 62
               7
100
AcDbLine
 10
203.65706637192514
 20
37.355119083434801
 30
0.0
 11
203.65706637192514
 21
31.355119083434801
 31
0.0
  0
ARC
  5
1AB
100
AcDbEntity
  8
0
  6
CONTINUOUS
 62
               7
100
AcDbCircle
 10
206.25597836668814
 20
48.454031079151463
 30
0.0
 40
0.5989129830170392
100
AcDbArc
 50
179.89591452477254
 51
270.10408547522644
  0
LINE
  5
1AC
100
AcDbEntity
  8
0
  6
CONTINUOUS
 62
               7
100
AcDbLine
 10
203.65706637192514
 20
75.955119083434795
 30
0.0
 11
205.25706637192516
 21
74.355119083434786
 31
0.0
  0
LINE
  5
1AD
100
AcDbEntity
  8
0
  6
CONTINUOUS
 62
               7
100
AcDbLine
 10
219.25706637192516
 20
44.555119083434818
 30
0.0
 11
205.25706637192516
 21
44.555119083434818
 31
0.0
  0
LINE
  5
1AE
100
AcDbEntity
  8
0
  6
CONTINUOUS
 62
               7
100
AcDbLine
 10
219.25706637192516
 20
68.755119083434792
 30
0.0
 11
205.25706637192516
 21
68.755119083434792
 31
0.0
  0
LINE
  5
1AF
100
AcDbEntity
  8
0
  6
CONTINUOUS
 62
               7
100
AcDbLine
 10
205.25706918845194
 20
31.355119083434829
 30
0.0
 11
205.25706918845194
 21
81.955119083434766
 31
0.0
  0
LINE
  5
1B0
100
AcDbEntity
  8
0
  6
CONTINUOUS
 62
               7
100
AcDbLine
 10
219.25706918845194
 20
31.355119083434801
 30
0.0
 11
219.25706918845194
 21
81.955119083434795
 31
0.0
  0
LINE
  5
1B1
100
AcDbEntity
  8
0
  6
CONTINUOUS
 62
               7
100
AcDbLine
 10
203.65706637192514
 20
75.955119083434795
 30
0.0
 11
203.65706637192514
 21
81.955119083434795
 31
0.0
  0
LINE
  5
1B2
100
AcDbEntity
  8
0
  6
CONTINUOUS
 62
               7
100
AcDbLine
 10
206.25706637287882
 20
47.755119083434792
 30
0.0
 11
205.25706637192516
 21
47.755119083434792
 31
0.0
  0
LINE
  5
1B3
100
AcDbEntity
  8
0
  6
CONTINUOUS
 62
               7
100
AcDbLine
 10
206.25706637287882
 20
50.955119083434781
 30
0.0
 11
205.25706637192516
 21
50.955119083434781
 31
0.0
  0
LINE
  5
1B4
100
AcDbEntity
  8
0
  6
CONTINUOUS
 62
               7
100
AcDbLine
 10
206.25706637192516
 20
47.755119083434792
 30
0.0
 11
206.25706637192516
 21
50.955119083434781
 31
0.0
  0
LINE
  5
1B5
100
AcDbEntity
  8
0
  6
CONTINUOUS
 62
               7
100
AcDbLine
 10
205.6570653836711
 20
48.454031079151463
 30
0.0
 11
205.6570653836711
 21
50.256207089625491
 31
0.0
  0
ARC
  5
1B6
100
AcDbEntity
  8
0
  6
CONTINUOUS
 62
               7
100
AcDbCircle
 10
206.25597836668814
 20
50.256207089625491
 30
0.0
 40
0.5989129830170392
100
AcDbArc
 50
89.895914524772735
 51
180.10408547522667
  0
LINE
  5
1B7
100
AcDbEntity
  8
0
  6
CENTER
 62
               2
100
AcDbLine
 10
212.25706918845194
 20
105.13805106232509
 30
0.0
 11
212.25706918845194
 21
8.172187104544534
 31
0.0
  0
LINE
  5
1B8
100
AcDbEntity
  8
0
  6
CONTINUOUS
 62
               4
100
AcDbLine
 10
202.25201868911867
 20
81.961179700634545
 30
0.0
 11
202.25201868911867
 21
101.45511908343471
 31
0.0
  0
LINE
  5
1B9
100
AcDbEntity
  8
0
  6
CONTINUOUS
 62
               4
100
AcDbLine
 10
219.25706918845194
 20
103.8551190834348
 30
0.0
 11
219.25706918845194
 21
81.955119083434795
 31
0.0
  0
LINE
  5
1BA
100
AcDbEntity
  8
0
  6
CONTINUOUS
 62
               4
100
AcDbLine
 10
205.25706918845194
 20
81.955119083434795
 30
0.0
 11
205.25706918845194
 21
103.85511907836707
 31
0.0
  0
LINE
  5
1BB
100
AcDbEntity
  8
0
  6
CONTINUOUS
 62
               4
100
AcDbLine
 10
197.25302879298542
 20
100.96016958876803
 30
0.0
 11
197.25302879298542
 21
84.599563526355112
 31
0.0
  0
LINE
  5
1BC
100
AcDbEntity
  8
0
  6
CONTINUOUS
 62
             200
100
AcDbLine
 10
198.25706919645208
 20
112.77835140476806
 30
0.0
 11
201.25504899271877
 21
114.5106746361014
 31
0.0
  0
LINE
  5
1BD
100
AcDbEntity
  8
0
  6
CONTINUOUS
 62
             200
100
AcDbLine
 10
198.25706919645208
 20
113.12481605103473
 30
0.0
 11
201.25504899271877
 21
114.85713928236801
 31
0.0
  0
LINE
  5
1BE
100
AcDbEntity
  8
0
  6
CONTINUOUS
 62
               4
100
AcDbLine
 10
199.50858434725214
 20
120.45006857210139
 30
0.0
 11
199.50858434725214
 21
116.95006857410137
 31
0.0
  0
LINE
  5
1BF
100
AcDbEntity
  8
0
  6
CONTINUOUS
 62
               4
100
AcDbLine
 10
200.00353384191871
 20
120.45006857210139
 30
0.0
 11
200.00353384191871
 21
116.95006857410137
 31
0.0
  0
LINE
  5
1C0
100
AcDbEntity
  8
0
  6
CONTINUOUS
 62
               4
100
AcDbLine
 10
200.40656414471877
 20
116.95006857410137
 30
0.0
 11
199.10555404445208
 21
116.95006857410137
 31
0.0
  0
LINE
  5
1C1
100
AcDbEntity
  8
0
  6
CONTINUOUS
 62
               4
100
AcDbLine
 10
200.40656414471877
 20
116.95006857410137
 30
0.0
 11
200.40656414471877
 21
114.36926049476803
 31
0.0
  0
LINE
  5
1C2
100
AcDbEntity
  8
0
  6
CONTINUOUS
 62
               4
100
AcDbLine
 10
199.10555404445208
 20
116.95006857410137
 30
0.0
 11
199.10555404445208
 21
113.61976554570136
 31
0.0
  0
LINE
  5
1C3
100
AcDbEntity
  8
0
  6
CONTINUOUS
 62
               4
100
AcDbLine
 10
200.00353384191871
 20
120.45006857210139
 30
0.0
 11
199.50858434725214
 21
120.45006857210139
 31
0.0
  0
ARC
  5
1C4
100
AcDbEntity
  8
0
  6
CONTINUOUS
 62
               4
100
AcDbCircle
 10
197.75514806575401
 20
101.86162584312839
 30
0.0
 40
0.4029462287748787
100
AcDbArc
 50
190.60882798227402
 51
359.50566908284389
  0
ARC
  5
1C5
100
AcDbEntity
  8
0
  6
CONTINUOUS
 62
               4
100
AcDbCircle
 10
197.65708224758518
 20
100.45545143407921
 30
0.0
 40
0.5030505883944908
100
AcDbArc
 50
143.43739164534688
 51
179.69271070880976
  0
ARC
  5
1C6
100
AcDbEntity
  8
0
  6
CONTINUOUS
 62
               4
100
AcDbCircle
 10
196.45917307036015
 20
93.760253263742868
 30
0.0
 40
0.3021474965435785
100
AcDbArc
 50
180.97363298451145
 51
269.02636701548755
  0
ARC
  5
1C7
100
AcDbEntity
  8
0
  6
CONTINUOUS
 62
               4
100
AcDbCircle
 10
197.75323506917343
 20
100.95488821541832
 30
0.0
 40
0.5002341568128574
100
AcDbArc
 50
89.792236286845736
 51
179.39507124653611
  0
LINE
  5
1C8
100
AcDbEntity
  8
0
  6
CONTINUOUS
 62
               4
100
AcDbLine
 10
201.7570691944521
 20
108.4551190794347
 30
0.0
 11
201.7570691944521
 21
103.45612918330133
 31
0.0
  0
LINE
  5
1C9
100
AcDbEntity
  8
0
  6
CONTINUOUS
 62
               4
100
AcDbLine
 10
202.25201868911867
 20
103.45612918330133
 30
0.0
 11
202.25201868911867
 21
101.45511908343471
 31
0.0
  0
LINE
  5
1CA
100
AcDbEntity
  8
0
  6
CONTINUOUS
 62
               4
100
AcDbLine
 10
202.25201868911867
 20
109.4551190834347
 30
0.0
 11
202.25201868911867
 21
108.4551190794347
 31
0.0
  0
LINE
  5
1CB
100
AcDbEntity
  8
0
  6
CONTINUOUS
 62
               4
100
AcDbLine
 10
197.25302879298542
 20
93.557139289967949
 30
0.0
 11
197.15403889405215
 21
93.458149391034624
 31
0.0
  0
LINE
  5
1CC
100
AcDbEntity
  8
0
  6
CONTINUOUS
 62
               4
100
AcDbLine
 10
197.25302879298542
 20
94.759159491301318
 30
0.0
 11
197.15403889405215
 21
94.759159491301318
 31
0.0
  0
LINE
  5
1CD
100
AcDbEntity
  8
0
  6
CONTINUOUS
 62
               4
100
AcDbLine
 10
197.15403889405215
 20
93.458149391034624
 30
0.0
 11
196.45403889445205
 21
93.458149391034624
 31
0.0
  0
LINE
  5
1CE
100
AcDbEntity
  8
0
  6
CONTINUOUS
 62
               4
100
AcDbLine
 10
196.15706919765202
 20
102.85511908263467
 30
0.0
 11
196.15706919765202
 21
93.755119087834657
 31
0.0
  0
LINE
  5
1CF
100
AcDbEntity
  8
0
  6
CONTINUOUS
 62
               4
100
AcDbLine
 10
198.15807929751881
 20
102.95410898156806
 30
0.0
 11
197.85403889365202
 21
103.25814938543468
 31
0.0
  0
LINE
  5
1D0
100
AcDbEntity
  8
0
  6
CONTINUOUS
 62
               4
100
AcDbLine
 10
202.25201868911867
 20
103.45612918330133
 30
0.0
 11
201.7570691944521
 21
103.45612918330133
 31
0.0
  0
LINE
  5
1D1
100
AcDbEntity
  8
0
  6
CONTINUOUS
 62
               4
100
AcDbLine
 10
202.25201868911867
 20
108.4551190794347
 30
0.0
 11
201.7570691944521
 21
108.4551190794347
 31
0.0
  0
LINE
  5
1D2
100
AcDbEntity
  8
0
  6
CONTINUOUS
 62
               4
100
AcDbLine
 10
198.15807929751881
 20
109.4551190834347
 30
0.0
 11
197.85403889365202
 21
109.15107867956802
 31
0.0
  0
LINE
  5
1D3
100
AcDbEntity
  8
0
  6
CONTINUOUS
 62
               4
100
AcDbLine
 10
197.85403889365202
 20
109.15107867956802
 30
0.0
 11
197.85403889365202
 21
103.25814938543468
 31
0.0
  0
LINE
  5
1D4
100
AcDbEntity
  8
0
  6
CONTINUOUS
 62
               4
100
AcDbLine
 10
198.15807929751881
 20
109.4551190834347
 30
0.0
 11
198.15807929751881
 21
101.85814938623471
 31
0.0
  0
LINE
  5
1D5
100
AcDbEntity
  8
0
  6
CONTINUOUS
 62
               4
100
AcDbLine
 10
197.15403889405215
 20
100.45814938703469
 30
0.0
 11
197.15403889405215
 21
94.759159491301318
 31
0.0
  0
LINE
  5
1D6
100
AcDbEntity
  8
0
  6
CONTINUOUS
 62
               4
100
AcDbLine
 10
197.35908939898545
 20
101.78744231556803
 30
0.0
 11
196.25605909658529
 21
108.0495827032442
 31
0.0
  0
LINE
  5
1D7
100
AcDbEntity
  8
0
  6
CONTINUOUS
 62
               4
100
AcDbLine
 10
196.25605909658529
 20
109.4551190834347
 30
0.0
 11
195.25908940018539
 21
109.4551190834347
 31
0.0
  0
LINE
  5
1D8
100
AcDbEntity
  8
0
  6
CONTINUOUS
 62
               4
100
AcDbLine
 10
196.25605909658529
 20
109.4551190834347
 30
0.0
 11
196.25605909658529
 21
108.0495827032442
 31
0.0
  0
LINE
  5
1D9
100
AcDbEntity
  8
0
  6
CONTINUOUS
 62
               4
100
AcDbLine
 10
196.15706919765202
 20
102.85511908263467
 30
0.0
 11
195.25908940018539
 21
107.96016958476801
 31
0.0
  0
LINE
  5
1DA
100
AcDbEntity
  8
0
  6
CONTINUOUS
 62
               4
100
AcDbLine
 10
195.25908940018539
 20
109.4551190834347
 30
0.0
 11
195.25908940018539
 21
107.96016958476801
 31
0.0
  0
LINE
  5
1DB
100
AcDbEntity
  8
0
  6
CONTINUOUS
 62
               4
100
AcDbLine
 10
198.85807929711868
 20
109.4551190834347
 30
0.0
 11
198.85807929711868
 21
101.45511908343471
 31
0.0
  0
LINE
  5
1DC
100
AcDbEntity
  8
0
  6
CONTINUOUS
 62
               4
100
AcDbLine
 10
200.65403889205217
 20
109.4551190834347
 30
0.0
 11
200.65403889205217
 21
101.45511908343471
 31
0.0
  0
LINE
  5
1DD
100
AcDbEntity
  8
0
  6
CONTINUOUS
 62
               4
100
AcDbLine
 10
202.25201868911867
 20
109.4551190834347
 30
0.0
 11
198.15807929751881
 21
109.4551190834347
 31
0.0
  0
LINE
  5
1DE
100
AcDbEntity
  8
0
  6
CONTINUOUS
 62
               4
100
AcDbLine
 10
205.25706919245212
 20
101.45511908343471
 30
0.0
 11
197.75504899471875
 21
101.45511908343471
 31
0.0
  0
LINE
  5
1DF
100
AcDbEntity
  8
0
  6
CONTINUOUS
 62
               4
100
AcDbLine
 10
217.25706918845194
 20
102.85511908343486
 30
0.0
 11
205.25706919245189
 21
102.85511908343486
 31
0.0
  0
LINE
  5
1E0
100
AcDbEntity
  8
0
  6
CONTINUOUS
 62
               4
100
AcDbLine
 10
217.25706918845194
 20
104.45511908343482
 30
0.0
 11
217.25706918845194
 21
102.85511908343486
 31
0.0
  0
ARC
  5
1E1
100
AcDbEntity
  8
0
  6
CONTINUOUS
 62
               4
100
AcDbCircle
 10
218.75706918445175
 20
103.85511908343486
 30
0.0
 40
0.5
100
AcDbArc
 50
0.0
 51
89.999999999999815
  0
ARC
  5
1E2
100
AcDbEntity
  8
0
  6
CONTINUOUS
 62
               4
100
AcDbCircle
 10
205.75706919245189
 20
103.85511908343486
 30
0.0
 40
0.5
100
AcDbArc
 50
93.919585899650798
 51
179.99999999999963
  0
ARC
  5
1E3
100
AcDbEntity
  8
0
  6
CONTINUOUS
 62
               4
100
AcDbCircle
 10
206.05598127332368
 20
103.85620708856302
 30
0.0
 40
0.5989129231257409
100
AcDbArc
 50
89.895914524772735
 51
180.10408547522667
  0
ARC
  5
1E4
100
AcDbEntity
  8
0
  6
CONTINUOUS
 62
               4
100
AcDbCircle
 10
218.45716424510042
 20
103.85521423008348
 30
0.0
 40
0.5999048008965869
100
AcDbArc
 50
56.247417870393882
 51
90.009087277546172
  0
LINE
  5
1E5
100
AcDbEntity
  8
0
  6
CONTINUOUS
 62
               4
100
AcDbLine
 10
218.4570690984518
 20
104.45511908343482
 30
0.0
 11
206.05706927845185
 21
104.45511908343482
 31
0.0
  0
LINE
  5
1E6
100
AcDbEntity
  8
0
  6
CONTINUOUS
 62
               4
100
AcDbLine
 10
218.75706918445175
 20
104.35511908343486
 30
0.0
 11
217.25706918845194
 21
104.35511908343486
 31
0.0
  0
LINE
  5
1E7
100
AcDbEntity
  8
0
  6
CONTINUOUS
 62
               4
100
AcDbLine
 10
207.95706918845175
 20
103.85511908343486
 30
0.0
 11
205.25706919245189
 21
103.85511908343486
 31
0.0
  0
LINE
  5
1E8
100
AcDbEntity
  8
0
  6
CONTINUOUS
 62
               4
100
AcDbLine
 10
207.95706918845175
 20
104.45511908343482
 30
0.0
 11
207.95706918845175
 21
103.85511908343486
 31
0.0
  0
LINE
  5
1E9
100
AcDbEntity
  8
0
  6
CONTINUOUS
 62
               4
100
AcDbLine
 10
200.40656414471877
 20
114.02279584850136
 30
0.0
 11
200.40656414471877
 21
109.4551190834347
 31
0.0
  0
LINE
  5
1EA
100
AcDbEntity
  8
0
  6
CONTINUOUS
 62
               4
100
AcDbLine
 10
199.10555404445208
 20
113.27330089943469
 30
0.0
 11
199.10555404445208
 21
109.4551190834347
 31
0.0
  0
LINE
  5
1EB
100
AcDbEntity
  8
0
  6
CONTINUOUS
 62
               4
100
AcDbLine
 10
202.25201868911867
 20
31.349058466235022
 30
0.0
 11
202.25201868911867
 21
11.855119083434886
 31
0.0
  0
LINE
  5
1EC
100
AcDbEntity
  8
0
  6
CONTINUOUS
 62
               4
100
AcDbLine
 10
202.25201868911867
 20
31.355119083434886
 30
0.0
 11
197.54292778271869
 21
29.163199892768148
 31
0.0
  0
LINE
  5
1ED
100
AcDbEntity
  8
0
  6
CONTINUOUS
 62
               4
100
AcDbLine
 10
219.25706918845194
 20
9.4551190834347949
 30
0.0
 11
219.25706918845194
 21
31.355119083434772
 31
0.0
  0
LINE
  5
1EE
100
AcDbEntity
  8
0
  6
CONTINUOUS
 62
               4
100
AcDbLine
 10
205.25706918845194
 20
31.355119083434772
 30
0.0
 11
205.25706918845194
 21
9.4551190885024994
 31
0.0
  0
ARC
  5
1EF
100
AcDbEntity
  8
0
  6
CONTINUOUS
 62
               4
100
AcDbCircle
 10
197.75514806575401
 20
11.448612323741202
 30
0.0
 40
0.4029462287748787
100
AcDbArc
 50
0.4943309171552727
 51
169.39117201772518
  0
ARC
  5
1F0
100
AcDbEntity
  8
0
  6
CONTINUOUS
 62
               4
100
AcDbCircle
 10
197.65708224758518
 20
12.854786732790387
 30
0.0
 40
0.5030505883944908
100
AcDbArc
 50
180.30728929118945
 51
216.56260835465233
  0
ARC
  5
1F1
100
AcDbEntity
  8
0
  6
CONTINUOUS
 62
               4
100
AcDbCircle
 10
196.45917307036015
 20
19.549984903126699
 30
0.0
 40
0.3021474965435785
100
AcDbArc
 50
90.973632984511639
 51
179.02636701548775
  0
ARC
  5
1F2
100
AcDbEntity
  8
0
  6
CONTINUOUS
 62
               4
100
AcDbCircle
 10
197.75323506917343
 20
12.355349951451274
 30
0.0
 40
0.5002341568128574
100
AcDbArc
 50
180.6049287534631
 51
270.20776371315344
  0
ARC
  5
1F3
100
AcDbEntity
  8
0
  6
CONTINUOUS
 62
               4
100
AcDbCircle
 10
197.75903613088289
 20
28.70563458594313
 30
0.0
 40
0.5060324378497572
100
AcDbArc
 50
115.28139190005253
 51
179.42932783011443
  0
LINE
  5
1F4
100
AcDbEntity
  8
0
  6
CONTINUOUS
 62
               4
100
AcDbLine
 10
201.7570691944521
 20
4.8551190874348435
 30
0.0
 11
201.7570691944521
 21
9.8541089835682101
 31
0.0
  0
LINE
  5
1F5
100
AcDbEntity
  8
0
  6
CONTINUOUS
 62
               4
100
AcDbLine
 10
202.25201868911867
 20
9.8541089835682101
 30
0.0
 11
202.25201868911867
 21
11.855119083434886
 31
0.0
  0
LINE
  5
1F6
100
AcDbEntity
  8
0
  6
CONTINUOUS
 62
               4
100
AcDbLine
 10
202.25201868911867
 20
3.8551190834348859
 30
0.0
 11
202.25201868911867
 21
4.8551190874348435
 31
0.0
  0
LINE
  5
1F7
100
AcDbEntity
  8
0
  6
CONTINUOUS
 62
               4
100
AcDbLine
 10
199.10555404445208
 20
0.0369372674348938
 30
0.0
 11
199.10555404445208
 21
3.8551190834348859
 31
0.0
  0
LINE
  5
1F8
100
AcDbEntity
  8
0
  6
CONTINUOUS
 62
             200
100
AcDbLine
 10
198.25706919645208
 20
0.5318867621014647
 30
0.0
 11
201.25504899271877
 21
-1.2004364692318745
 31
0.0
  0
LINE
  5
1F9
100
AcDbEntity
  8
0
  6
CONTINUOUS
 62
             200
100
AcDbLine
 10
198.25706919645208
 20
0.1854221158347968
 30
0.0
 11
201.25504899271877
 21
-1.5469011154984287
 31
0.0
  0
LINE
  5
1FA
100
AcDbEntity
  8
0
  6
CONTINUOUS
 62
               4
100
AcDbLine
 10
199.50858434725214
 20
-7.1398304052318053
 30
0.0
 11
199.50858434725214
 21
-3.6398304072317842
 31
0.0
  0
LINE
  5
1FB
100
AcDbEntity
  8
0
  6
CONTINUOUS
 62
               4
100
AcDbLine
 10
200.00353384191871
 20
-7.1398304052318053
 30
0.0
 11
200.00353384191871
 21
-3.6398304072317842
 31
0.0
  0
LINE
  5
1FC
100
AcDbEntity
  8
0
  6
CONTINUOUS
 62
               4
100
AcDbLine
 10
200.40656414471877
 20
-3.6398304072317842
 30
0.0
 11
199.10555404445208
 21
-3.6398304072317842
 31
0.0
  0
LINE
  5
1FD
100
AcDbEntity
  8
0
  6
CONTINUOUS
 62
               4
100
AcDbLine
 10
200.40656414471877
 20
-3.6398304072317842
 30
0.0
 11
200.40656414471877
 21
-1.0590223278985036
 31
0.0
  0
LINE
  5
1FE
100
AcDbEntity
  8
0
  6
CONTINUOUS
 62
               4
100
AcDbLine
 10
199.10555404445208
 20
-3.6398304072317842
 30
0.0
 11
199.10555404445208
 21
-0.3095273788317741
 31
0.0
  0
LINE
  5
1FF
100
AcDbEntity
  8
0
  6
CONTINUOUS
 62
               4
100
AcDbLine
 10
200.40656414471877
 20
-0.7125576816318358
 30
0.0
 11
200.40656414471877
 21
3.8551190834348859
 31
0.0
  0
LINE
  5
200
100
AcDbEntity
  8
0
  6
CONTINUOUS
 62
               4
100
AcDbLine
 10
197.25302879298542
 20
19.753098876901618
 30
0.0
 11
197.15403889405215
 21
19.852088775834943
 31
0.0
  0
LINE
  5
201
100
AcDbEntity
  8
0
  6
CONTINUOUS
 62
               4
100
AcDbLine
 10
197.25302879298542
 20
18.551078675568249
 30
0.0
 11
197.15403889405215
 21
18.551078675568249
 31
0.0
  0
LINE
  5
202
100
AcDbEntity
  8
0
  6
CONTINUOUS
 62
               4
100
AcDbLine
 10
197.15403889405215
 20
19.852088775834943
 30
0.0
 11
196.45403889445205
 21
19.852088775834943
 31
0.0
  0
LINE
  5
203
100
AcDbEntity
  8
0
  6
CONTINUOUS
 62
               4
100
AcDbLine
 10
196.15706919765202
 20
10.455119084234923
 30
0.0
 11
196.15706919765202
 21
19.55511907903491
 31
0.0
  0
LINE
  5
204
100
AcDbEntity
  8
0
  6
CONTINUOUS
 62
               4
100
AcDbLine
 10
198.15807929751881
 20
10.35612918530154
 30
0.0
 11
197.85403889365202
 21
10.052088781434861
 31
0.0
  0
LINE
  5
205
100
AcDbEntity
  8
0
  6
CONTINUOUS
 62
               4
100
AcDbLine
 10
202.25201868911867
 20
9.8541089835682101
 30
0.0
 11
201.7570691944521
 21
9.8541089835682101
 31
0.0
  0
LINE
  5
206
100
AcDbEntity
  8
0
  6
CONTINUOUS
 62
               4
100
AcDbLine
 10
202.25201868911867
 20
4.8551190874348435
 30
0.0
 11
201.7570691944521
 21
4.8551190874348435
 31
0.0
  0
LINE
  5
207
100
AcDbEntity
  8
0
  6
CONTINUOUS
 62
               4
100
AcDbLine
 10
198.15807929751881
 20
3.8551190834348859
 30
0.0
 11
197.85403889365202
 21
4.1591594873015652
 31
0.0
  0
LINE
  5
208
100
AcDbEntity
  8
0
  6
CONTINUOUS
 62
               4
100
AcDbLine
 10
197.85403889365202
 20
4.1591594873015652
 30
0.0
 11
197.85403889365202
 21
10.052088781434861
 31
0.0
  0
LINE
  5
209
100
AcDbEntity
  8
0
  6
CONTINUOUS
 62
               4
100
AcDbLine
 10
198.15807929751881
 20
3.8551190834348859
 30
0.0
 11
198.15807929751881
 21
11.452088780634824
 31
0.0
  0
LINE
  5
20A
100
AcDbEntity
  8
0
  6
CONTINUOUS
 62
               4
100
AcDbLine
 10
197.15403889405215
 20
12.852088779834901
 30
0.0
 11
197.15403889405215
 21
18.551078675568249
 31
0.0
  0
LINE
  5
20B
100
AcDbEntity
  8
0
  6
CONTINUOUS
 62
               4
100
AcDbLine
 10
197.35908939898545
 20
11.52279585130151
 30
0.0
 11
196.25605909658529
 21
5.2606554636253691
 31
0.0
  0
LINE
  5
20C
100
AcDbEntity
  8
0
  6
CONTINUOUS
 62
               4
100
AcDbLine
 10
196.25605909658529
 20
3.8551190834348859
 30
0.0
 11
195.25908940018539
 21
3.8551190834348859
 31
0.0
  0
LINE
  5
20D
100
AcDbEntity
  8
0
  6
CONTINUOUS
 62
               4
100
AcDbLine
 10
196.25605909658529
 20
3.8551190834348859
 30
0.0
 11
196.25605909658529
 21
5.2606554636253691
 31
0.0
  0
LINE
  5
20E
100
AcDbEntity
  8
0
  6
CONTINUOUS
 62
               4
100
AcDbLine
 10
196.15706919765202
 20
10.455119084234923
 30
0.0
 11
195.25908940018539
 21
5.3500685821015281
 31
0.0
  0
LINE
  5
20F
100
AcDbEntity
  8
0
  6
CONTINUOUS
 62
               4
100
AcDbLine
 10
195.25908940018539
 20
3.8551190834348859
 30
0.0
 11
195.25908940018539
 21
5.3500685821015281
 31
0.0
  0
LINE
  5
210
100
AcDbEntity
  8
0
  6
CONTINUOUS
 62
               4
100
AcDbLine
 10
198.85807929711868
 20
3.8551190834348859
 30
0.0
 11
198.85807929711868
 21
11.855119083434886
 31
0.0
  0
LINE
  5
211
100
AcDbEntity
  8
0
  6
CONTINUOUS
 62
               4
100
AcDbLine
 10
200.65403889205217
 20
3.8551190834348859
 30
0.0
 11
200.65403889205217
 21
11.855119083434886
 31
0.0
  0
LINE
  5
212
100
AcDbEntity
  8
0
  6
CONTINUOUS
 62
               4
100
AcDbLine
 10
202.25201868911867
 20
3.8551190834348859
 30
0.0
 11
198.15807929751881
 21
3.8551190834348859
 31
0.0
  0
LINE
  5
213
100
AcDbEntity
  8
0
  6
CONTINUOUS
 62
               4
100
AcDbLine
 10
197.25302879298542
 20
12.35006857810157
 30
0.0
 11
197.25302879298542
 21
28.704614023301644
 31
0.0
  0
LINE
  5
214
100
AcDbEntity
  8
0
  6
CONTINUOUS
 62
               4
100
AcDbLine
 10
205.25706919245212
 20
11.855119083434886
 30
0.0
 11
197.75504899471875
 21
11.855119083434886
 31
0.0
  0
LINE
  5
215
100
AcDbEntity
  8
0
  6
CONTINUOUS
 62
               4
100
AcDbLine
 10
207.25706918845194
 20
10.455119083434681
 30
0.0
 11
219.25706918445198
 21
10.455119083434681
 31
0.0
  0
LINE
  5
216
100
AcDbEntity
  8
0
  6
CONTINUOUS
 62
               4
100
AcDbLine
 10
207.25706918845194
 20
8.8551190834347722
 30
0.0
 11
207.25706918845194
 21
10.455119083434681
 31
0.0
  0
ARC
  5
217
100
AcDbEntity
  8
0
  6
CONTINUOUS
 62
               4
100
AcDbCircle
 10
205.75706919245212
 20
9.4551190834346812
 30
0.0
 40
0.5
100
AcDbArc
 50
179.99999999999963
 51
269.99999999999937
  0
ARC
  5
218
100
AcDbEntity
  8
0
  6
CONTINUOUS
 62
               4
100
AcDbCircle
 10
218.75706918445198
 20
9.4551190834346812
 30
0.0
 40
0.5
100
AcDbArc
 50
273.91958589965037
 51
0.0
  0
ARC
  5
219
100
AcDbEntity
  8
0
  6
CONTINUOUS
 62
               4
100
AcDbCircle
 10
218.45815710358019
 20
9.4540310783065138
 30
0.0
 40
0.5989129231257409
100
AcDbArc
 50
269.89591452477231
 51
0.1040854752270701
  0
ARC
  5
21A
100
AcDbEntity
  8
0
  6
CONTINUOUS
 62
               4
100
AcDbCircle
 10
206.05697413180346
 20
9.4550239367860627
 30
0.0
 40
0.5999048008965869
100
AcDbArc
 50
236.24741787039349
 51
270.00908727754575
  0
LINE
  5
21B
100
AcDbEntity
  8
0
  6
CONTINUOUS
 62
               4
100
AcDbLine
 10
206.05706927845208
 20
8.8551190834347722
 30
0.0
 11
218.45706909845202
 21
8.8551190834347722
 31
0.0
  0
LINE
  5
21C
100
AcDbEntity
  8
0
  6
CONTINUOUS
 62
               4
100
AcDbLine
 10
205.75706919245212
 20
8.9551190834346812
 30
0.0
 11
207.25706918845194
 21
8.9551190834346812
 31
0.0
  0
LINE
  5
21D
100
AcDbEntity
  8
0
  6
CONTINUOUS
 62
               4
100
AcDbLine
 10
216.55706918845212
 20
9.4551190834346812
 30
0.0
 11
219.25706918445198
 21
9.4551190834346812
 31
0.0
  0
LINE
  5
21E
100
AcDbEntity
  8
0
  6
CONTINUOUS
 62
               4
100
AcDbLine
 10
216.55706918845212
 20
8.8551190834347722
 30
0.0
 11
216.55706918845212
 21
9.4551190834346812
 31
0.0
  0
LINE
  5
21F
100
AcDbEntity
  8
0
  6
CONTINUOUS
 62
               4
100
AcDbLine
 10
200.00353384191871
 20
-7.1398304052318053
 30
0.0
 11
199.50858434725214
 21
-7.1398304052318053
 31
0.0
  0
LINE
  5
220
100
AcDbEntity
  8
0
  6
CONTINUOUS
 62
               4
100
AcDbLine
 10
219.25706918845194
 20
81.955119083434795
 30
0.0
 11
202.25201868911867
 21
81.955119083434795
 31
0.0
  0
LINE
  5
221
100
AcDbEntity
  8
0
  6
CONTINUOUS
 62
               4
100
AcDbLine
 10
219.25706918845194
 20
31.355119083434772
 30
0.0
 11
202.25201868911867
 21
31.355119083434772
 31
0.0
  0
ARC
  5
222
100
AcDbEntity
  8
0
  6
CONTINUOUS
 62
               4
100
AcDbCircle
 10
197.75903613088289
 20
84.604603580926437
 30
0.0
 40
0.5060324378497572
100
AcDbArc
 50
180.57067216988474
 51
244.71860809994666
  0
LINE
  5
223
100
AcDbEntity
  8
0
  6
CONTINUOUS
 62
               4
100
AcDbLine
 10
202.25201868911867
 20
81.95511908343471
 30
0.0
 11
197.54292778271869
 21
84.147038274101419
 31
0.0
  0
LINE
  5
224
100
AcDbEntity
  8
0
  6
CENTER
 62
               2
100
AcDbLine
 10
233.45706918845198
 20
70.155119083434883
 30
0.0
 11
238.45706921084786
 21
70.155119083434883
 31
0.0
  0
LINE
  5
225
100
AcDbEntity
  8
0
  6
CENTER
 62
               2
100
AcDbLine
 10
233.45706918845198
 20
43.155119083434883
 30
0.0
 11
238.45706921084786
 21
43.155119083434883
 31
0.0
  0
LINE
  5
226
100
AcDbEntity
  8
0
  6
CENTER
 62
               2
100
AcDbLine
 10
216.75706917561325
 20
63.955119083434788
 30
0.0
 11
221.75706917561325
 21
63.955119083434788
 31
0.0
  0
LINE
  5
227
100
AcDbEntity
  8
0
  6
CENTER
 62
               2
100
AcDbLine
 10
216.75706917561325
 20
49.355119083434793
 30
0.0
 11
221.75706918845196
 21
49.355119083434793
 31
0.0
  0
LINE
  5
228
100
AcDbEntity
  8
0
  6
CONTINUOUS
 62
               7
100
AcDbLine
 10
36.321462856752532
 20
40.155119083434883
 30
0.0
 11
52.321462870561959
 21
40.155119083434883
 31
0.0
  0
LINE
  5
229
100
AcDbEntity
  8
0
  6
CONTINUOUS
 62
               7
100
AcDbLine
 10
36.321462856752532
 20
73.155119083434883
 30
0.0
 11
52.321462856752532
 21
73.155119083434883
 31
0.0
  0
LINE
  5
22A
100
AcDbEntity
  8
0
  6
CENTER
 62
               2
100
AcDbLine
 10
47.321462870561959
 20
48.455119083434894
 30
0.0
 11
47.321462870561959
 21
56.455119083434894
 31
0.0
  0
CIRCLE
  5
22B
100
AcDbEntity
  8
0
  6
CONTINUOUS
 62
               7
100
AcDbCircle
 10
47.321462870561959
 20
52.455119083434894
 30
0.0
 40
2.1000000000000001
  0
CIRCLE
  5
22C
100
AcDbEntity
  8
0
  6
CONTINUOUS
 62
               7
100
AcDbCircle
 10
41.321462870561959
 20
60.855119083434872
 30
0.0
 40
2.1000000000000001
  0
CIRCLE
  5
22D
100
AcDbEntity
  8
0
  6
CONTINUOUS
 62
               2
100
AcDbCircle
 10
41.321462870561959
 20
60.855119083434872
 30
0.0
 40
2.5
  0
CIRCLE
  5
22E
100
AcDbEntity
  8
0
  6
CONTINUOUS
 62
               2
100
AcDbCircle
 10
47.321462870561959
 20
52.455119083434894
 30
0.0
 40
2.5
  0
LINE
  5
22F
100
AcDbEntity
  8
0
  6
CENTER
 62
               2
100
AcDbLine
 10
43.321462870561959
 20
52.455119083434894
 30
0.0
 11
51.321462870561959
 21
52.455119083434894
 31
0.0
  0
LINE
  5
230
100
AcDbEntity
  8
0
  6
CENTER
 62
               2
100
AcDbLine
 10
37.321462870561959
 20
60.855119083434872
 30
0.0
 11
45.321462870561959
 21
60.855119083434872
 31
0.0
  0
LINE
  5
231
100
AcDbEntity
  8
0
  6
CONTINUOUS
 62
               7
100
AcDbLine
 10
36.321462870561959
 20
40.155119083434883
 30
0.0
 11
36.321462870561959
 21
73.155119083434883
 31
0.0
  0
LINE
  5
232
100
AcDbEntity
  8
0
  6
CONTINUOUS
 62
               7
100
AcDbLine
 10
52.321462870561959
 20
40.155119083434883
 30
0.0
 11
52.321462870561959
 21
73.155119083434883
 31
0.0
  0
LINE
  5
233
100
AcDbEntity
  8
0
  6
CENTER
 62
               2
100
AcDbLine
 10
41.321462870561959
 20
56.855119083434872
 30
0.0
 11
41.321462870561959
 21
64.855119083434872
 31
0.0
  0
LINE
  5
234
100
AcDbEntity
  8
0
  6
CONTINUOUS
 62
               7
100
AcDbLine
 10
53.021462870561948
 20
44.654145816833321
 30
0.0
 11
52.321460054035214
 21
44.654145816833321
 31
0.0
  0
LINE
  5
235
100
AcDbEntity
  8
0
  6
CONTINUOUS
 62
               7
100
AcDbLine
 10
53.021462870561948
 20
68.654145816833292
 30
0.0
 11
52.321460054035185
 21
68.654145816833292
 31
0.0
  0
ARC
  5
236
100
AcDbEntity
  8
0
  6
CONTINUOUS
 62
               7
100
AcDbCircle
 10
66.221460054035191
 20
62.85511908248111
 30
0.0
 40
0.4
100
AcDbArc
 50
270.00000000000023
 51
0.0
  0
ARC
  5
237
100
AcDbEntity
  8
0
  6
CONTINUOUS
 62
               7
100
AcDbCircle
 10
66.221460054035191
 20
65.055119082481113
 30
0.0
 40
0.4
100
AcDbArc
 50
0.0
 51
89.999999999999815
  0
LINE
  5
238
100
AcDbEntity
  8
0
  6
CONTINUOUS
 62
               7
100
AcDbLine
 10
66.621460054035197
 20
65.055119082481113
 30
0.0
 11
66.621460054035197
 21
62.85511908248111
 31
0.0
  0
LINE
  5
239
100
AcDbEntity
  8
0
  6
CONTINUOUS
 62
               7
100
AcDbLine
 10
66.021460054035174
 20
62.455119082481119
 30
0.0
 11
66.221460054035191
 21
62.455119082481119
 31
0.0
  0
LINE
  5
23A
100
AcDbEntity
  8
0
  6
CONTINUOUS
 62
               7
100
AcDbLine
 10
66.021460054035174
 20
65.455119082481119
 30
0.0
 11
66.221460054035191
 21
65.455119082481119
 31
0.0
  0
LINE
  5
23B
100
AcDbEntity
  8
0
  6
CONTINUOUS
 62
               7
100
AcDbLine
 10
68.621460054035197
 20
37.355119083434801
 30
0.0
 11
67.021460054035174
 21
38.955119083434809
 31
0.0
  0
LINE
  5
23C
100
AcDbEntity
  8
0
  6
CONTINUOUS
 62
               7
100
AcDbLine
 10
68.621460054035197
 20
37.355119083434801
 30
0.0
 11
68.621460054035197
 21
31.355119083434801
 31
0.0
  0
LINE
  5
23D
100
AcDbEntity
  8
0
  6
CONTINUOUS
 62
               7
100
AcDbLine
 10
53.021462870561948
 20
31.355119083434801
 30
0.0
 11
53.021462870561948
 21
81.955119083434781
 31
0.0
  0
LINE
  5
23E
100
AcDbEntity
  8
0
  6
CONTINUOUS
 62
               7
100
AcDbLine
 10
66.021460054035174
 20
65.555119083434803
 30
0.0
 11
66.021460054035174
 21
62.355119083434815
 31
0.0
  0
LINE
  5
23F
100
AcDbEntity
  8
0
  6
CONTINUOUS
 62
               7
100
AcDbLine
 10
66.02146005308154
 20
62.355119083434815
 30
0.0
 11
67.021460054035174
 21
62.355119083434815
 31
0.0
  0
LINE
  5
240
100
AcDbEntity
  8
0
  6
CONTINUOUS
 62
               7
100
AcDbLine
 10
66.02146005308154
 20
65.555119083434803
 30
0.0
 11
67.021460054035174
 21
65.555119083434803
 31
0.0
  0
LINE
  5
241
100
AcDbEntity
  8
0
  6
CONTINUOUS
 62
               7
100
AcDbLine
 10
68.621460054035197
 20
75.955119083434795
 30
0.0
 11
68.621460054035197
 21
81.955119083434795
 31
0.0
  0
LINE
  5
242
100
AcDbEntity
  8
0
  6
CONTINUOUS
 62
               7
100
AcDbLine
 10
67.021462870561948
 20
31.355119083434829
 30
0.0
 11
67.021462870561948
 21
81.955119083434766
 31
0.0
  0
LINE
  5
243
100
AcDbEntity
  8
0
  6
CONTINUOUS
 62
               7
100
AcDbLine
 10
53.021460054035174
 20
68.755119083434792
 30
0.0
 11
67.021460054035174
 21
68.755119083434792
 31
0.0
  0
LINE
  5
244
100
AcDbEntity
  8
0
  6
CONTINUOUS
 62
               7
100
AcDbLine
 10
53.021460054035174
 20
44.555119083434818
 30
0.0
 11
67.021460054035174
 21
44.555119083434818
 31
0.0
  0
LINE
  5
245
100
AcDbEntity
  8
0
  6
CONTINUOUS
 62
               7
100
AcDbLine
 10
68.621460054035197
 20
75.955119083434795
 30
0.0
 11
67.021460054035174
 21
73.655119083434784
 31
0.0
  0
LINE
  5
246
100
AcDbEntity
  8
0
  6
CENTER
 62
               2
100
AcDbLine
 10
60.021462870561948
 20
105.13805106232503
 30
0.0
 11
60.021462870561948
 21
8.1571190834347931
 31
0.0
  0
LINE
  5
247
100
AcDbEntity
  8
0
  6
CONTINUOUS
 62
               4
100
AcDbLine
 10
70.026513369895213
 20
81.961179700634531
 30
0.0
 11
70.026513369895213
 21
101.4551190834347
 31
0.0
  0
LINE
  5
248
100
AcDbEntity
  8
0
  6
CONTINUOUS
 62
               4
100
AcDbLine
 10
70.026513369895213
 20
81.955119083434695
 30
0.0
 11
74.735604276295192
 21
84.147038274101405
 31
0.0
  0
LINE
  5
249
100
AcDbEntity
  8
0
  6
CONTINUOUS
 62
               4
100
AcDbLine
 10
53.021462870561948
 20
103.85511908343479
 30
0.0
 11
53.021462870561948
 21
81.955119083434781
 31
0.0
  0
LINE
  5
24A
100
AcDbEntity
  8
0
  6
CONTINUOUS
 62
               4
100
AcDbLine
 10
67.021462870561948
 20
81.955119083434781
 30
0.0
 11
67.021462870561948
 21
103.85511907836705
 31
0.0
  0
LINE
  5
24B
100
AcDbEntity
  8
0
  6
CONTINUOUS
 62
               4
100
AcDbLine
 10
73.172978014561807
 20
113.27330089943467
 30
0.0
 11
73.172978014561807
 21
109.45511908343468
 31
0.0
  0
LINE
  5
24C
100
AcDbEntity
  8
0
  6
CONTINUOUS
 62
               4
100
AcDbLine
 10
71.871967914295112
 20
114.02279584850135
 30
0.0
 11
71.871967914295112
 21
109.45511908343468
 31
0.0
  0
LINE
  5
24D
100
AcDbEntity
  8
0
  6
CONTINUOUS
 62
               4
100
AcDbLine
 10
55.721462870561766
 20
104.45511908343481
 30
0.0
 11
55.721462870561766
 21
103.85511908343484
 31
0.0
  0
LINE
  5
24E
100
AcDbEntity
  8
0
  6
CONTINUOUS
 62
               4
100
AcDbLine
 10
55.721462870561766
 20
103.85511908343484
 30
0.0
 11
53.021462874561905
 21
103.85511908343484
 31
0.0
  0
LINE
  5
24F
100
AcDbEntity
  8
0
  6
CONTINUOUS
 62
               4
100
AcDbLine
 10
66.521462866561762
 20
104.35511908343484
 30
0.0
 11
65.021462870561948
 21
104.35511908343484
 31
0.0
  0
LINE
  5
250
100
AcDbEntity
  8
0
  6
CONTINUOUS
 62
               4
100
AcDbLine
 10
66.221462780561808
 20
104.45511908343481
 30
0.0
 11
53.82146296056186
 21
104.45511908343481
 31
0.0
  0
ARC
  5
251
100
AcDbEntity
  8
0
  6
CONTINUOUS
 62
               4
100
AcDbCircle
 10
66.221557927210426
 20
103.85521423008346
 30
0.0
 40
0.5999048008965869
100
AcDbArc
 50
56.247417870393882
 51
90.009087277546172
  0
ARC
  5
252
100
AcDbEntity
  8
0
  6
CONTINUOUS
 62
               4
100
AcDbCircle
 10
53.820374955433692
 20
103.85620708856301
 30
0.0
 40
0.5989129231257409
100
AcDbArc
 50
89.895914524772735
 51
180.10408547522667
  0
ARC
  5
253
100
AcDbEntity
  8
0
  6
CONTINUOUS
 62
               4
100
AcDbCircle
 10
53.521462874561905
 20
103.85511908343484
 30
0.0
 40
0.5
100
AcDbArc
 50
93.919585899650798
 51
179.99999999999963
  0
ARC
  5
254
100
AcDbEntity
  8
0
  6
CONTINUOUS
 62
               4
100
AcDbCircle
 10
66.521462866561762
 20
103.85511908343484
 30
0.0
 40
0.5
100
AcDbArc
 50
0.0
 51
89.999999999999815
  0
LINE
  5
255
100
AcDbEntity
  8
0
  6
CONTINUOUS
 62
               4
100
AcDbLine
 10
65.021462870561948
 20
104.45511908343481
 30
0.0
 11
65.021462870561948
 21
102.85511908343484
 31
0.0
  0
LINE
  5
256
100
AcDbEntity
  8
0
  6
CONTINUOUS
 62
               4
100
AcDbLine
 10
65.021462870561948
 20
102.85511908343484
 30
0.0
 11
53.021462874561905
 21
102.85511908343484
 31
0.0
  0
LINE
  5
257
100
AcDbEntity
  8
0
  6
CONTINUOUS
 62
               4
100
AcDbLine
 10
67.021462866561762
 20
101.4551190834347
 30
0.0
 11
74.523483064295135
 21
101.4551190834347
 31
0.0
  0
LINE
  5
258
100
AcDbEntity
  8
0
  6
CONTINUOUS
 62
               4
100
AcDbLine
 10
75.025503266028466
 20
100.96016958876801
 30
0.0
 11
75.025503266028466
 21
84.599563526355098
 31
0.0
  0
LINE
  5
259
100
AcDbEntity
  8
0
  6
CONTINUOUS
 62
               4
100
AcDbLine
 10
70.026513369895213
 20
109.45511908343468
 30
0.0
 11
74.120452761495073
 21
109.45511908343468
 31
0.0
  0
LINE
  5
25A
100
AcDbEntity
  8
0
  6
CONTINUOUS
 62
               4
100
AcDbLine
 10
71.624493166961713
 20
109.45511908343468
 30
0.0
 11
71.624493166961713
 21
101.4551190834347
 31
0.0
  0
LINE
  5
25B
100
AcDbEntity
  8
0
  6
CONTINUOUS
 62
               4
100
AcDbLine
 10
73.420452761895206
 20
109.45511908343468
 30
0.0
 11
73.420452761895206
 21
101.4551190834347
 31
0.0
  0
LINE
  5
25C
100
AcDbEntity
  8
0
  6
CONTINUOUS
 62
               4
100
AcDbLine
 10
77.019442658828495
 20
109.45511908343468
 30
0.0
 11
77.019442658828495
 21
107.960169584768
 31
0.0
  0
LINE
  5
25D
100
AcDbEntity
  8
0
  6
CONTINUOUS
 62
               4
100
AcDbLine
 10
76.121462861361863
 20
102.85511908263466
 30
0.0
 11
77.019442658828495
 21
107.960169584768
 31
0.0
  0
LINE
  5
25E
100
AcDbEntity
  8
0
  6
CONTINUOUS
 62
               4
100
AcDbLine
 10
76.022472962428594
 20
109.45511908343468
 30
0.0
 11
76.022472962428594
 21
108.04958270324418
 31
0.0
  0
LINE
  5
25F
100
AcDbEntity
  8
0
  6
CONTINUOUS
 62
               4
100
AcDbLine
 10
76.022472962428594
 20
109.45511908343468
 30
0.0
 11
77.019442658828495
 21
109.45511908343468
 31
0.0
  0
LINE
  5
260
100
AcDbEntity
  8
0
  6
CONTINUOUS
 62
               4
100
AcDbLine
 10
74.919442660028437
 20
101.78744231556801
 30
0.0
 11
76.022472962428594
 21
108.04958270324418
 31
0.0
  0
LINE
  5
261
100
AcDbEntity
  8
0
  6
CONTINUOUS
 62
               4
100
AcDbLine
 10
75.124493164961734
 20
100.45814938703468
 30
0.0
 11
75.124493164961734
 21
94.759159491301304
 31
0.0
  0
LINE
  5
262
100
AcDbEntity
  8
0
  6
CONTINUOUS
 62
               4
100
AcDbLine
 10
74.120452761495073
 20
109.45511908343468
 30
0.0
 11
74.120452761495073
 21
101.8581493862347
 31
0.0
  0
LINE
  5
263
100
AcDbEntity
  8
0
  6
CONTINUOUS
 62
               4
100
AcDbLine
 10
74.424493165361866
 20
109.151078679568
 30
0.0
 11
74.424493165361866
 21
103.25814938543466
 31
0.0
  0
LINE
  5
264
100
AcDbEntity
  8
0
  6
CONTINUOUS
 62
               4
100
AcDbLine
 10
74.120452761495073
 20
109.45511908343468
 30
0.0
 11
74.424493165361866
 21
109.151078679568
 31
0.0
  0
LINE
  5
265
100
AcDbEntity
  8
0
  6
CONTINUOUS
 62
               4
100
AcDbLine
 10
70.026513369895213
 20
108.45511907943468
 30
0.0
 11
70.521462864561784
 21
108.45511907943468
 31
0.0
  0
LINE
  5
266
100
AcDbEntity
  8
0
  6
CONTINUOUS
 62
               4
100
AcDbLine
 10
70.026513369895213
 20
103.45612918330131
 30
0.0
 11
70.521462864561784
 21
103.45612918330131
 31
0.0
  0
LINE
  5
267
100
AcDbEntity
  8
0
  6
CONTINUOUS
 62
               4
100
AcDbLine
 10
74.120452761495073
 20
102.95410898156804
 30
0.0
 11
74.424493165361866
 21
103.25814938543466
 31
0.0
  0
LINE
  5
268
100
AcDbEntity
  8
0
  6
CONTINUOUS
 62
               4
100
AcDbLine
 10
76.121462861361863
 20
102.85511908263466
 30
0.0
 11
76.121462861361863
 21
93.755119087834643
 31
0.0
  0
LINE
  5
269
100
AcDbEntity
  8
0
  6
CONTINUOUS
 62
               4
100
AcDbLine
 10
75.124493164961734
 20
93.45814939103461
 30
0.0
 11
75.824493164561829
 21
93.45814939103461
 31
0.0
  0
LINE
  5
26A
100
AcDbEntity
  8
0
  6
CONTINUOUS
 62
               4
100
AcDbLine
 10
75.025503266028466
 20
94.759159491301304
 30
0.0
 11
75.124493164961734
 21
94.759159491301304
 31
0.0
  0
LINE
  5
26B
100
AcDbEntity
  8
0
  6
CONTINUOUS
 62
               4
100
AcDbLine
 10
75.025503266028466
 20
93.557139289967935
 30
0.0
 11
75.124493164961734
 21
93.45814939103461
 31
0.0
  0
LINE
  5
26C
100
AcDbEntity
  8
0
  6
CONTINUOUS
 62
               4
100
AcDbLine
 10
70.026513369895213
 20
109.45511908343468
 30
0.0
 11
70.026513369895213
 21
108.45511907943468
 31
0.0
  0
LINE
  5
26D
100
AcDbEntity
  8
0
  6
CONTINUOUS
 62
               4
100
AcDbLine
 10
70.026513369895213
 20
103.45612918330131
 30
0.0
 11
70.026513369895213
 21
101.4551190834347
 31
0.0
  0
LINE
  5
26E
100
AcDbEntity
  8
0
  6
CONTINUOUS
 62
               4
100
AcDbLine
 10
70.521462864561784
 20
108.45511907943468
 30
0.0
 11
70.521462864561784
 21
103.45612918330131
 31
0.0
  0
ARC
  5
26F
100
AcDbEntity
  8
0
  6
CONTINUOUS
 62
               4
100
AcDbCircle
 10
74.519495928130993
 20
84.604603580926423
 30
0.0
 40
0.5060324378497572
100
AcDbArc
 50
295.28139190005214
 51
359.42932783011406
  0
ARC
  5
270
100
AcDbEntity
  8
0
  6
CONTINUOUS
 62
               4
100
AcDbCircle
 10
74.525296989840456
 20
100.95488821541831
 30
0.0
 40
0.5002341568128574
100
AcDbArc
 50
0.6049287534634878
 51
90.207763713153867
  0
ARC
  5
271
100
AcDbEntity
  8
0
  6
CONTINUOUS
 62
               4
100
AcDbCircle
 10
75.819358988653732
 20
93.760253263742854
 30
0.0
 40
0.3021474965435785
100
AcDbArc
 50
270.97363298451126
 51
359.02636701548732
  0
ARC
  5
272
100
AcDbEntity
  8
0
  6
CONTINUOUS
 62
               4
100
AcDbCircle
 10
74.621449811428704
 20
100.45545143407919
 30
0.0
 40
0.5030505883944908
100
AcDbArc
 50
0.3072892911898554
 51
36.562608354652731
  0
ARC
  5
273
100
AcDbEntity
  8
0
  6
CONTINUOUS
 62
               4
100
AcDbCircle
 10
74.52338399325987
 20
101.86162584312838
 30
0.0
 40
0.4029462287748787
100
AcDbArc
 50
180.49433091715488
 51
349.39117201772478
  0
LINE
  5
274
100
AcDbEntity
  8
0
  6
CONTINUOUS
 62
               4
100
AcDbLine
 10
72.274998217095174
 20
120.45006857210137
 30
0.0
 11
72.769947711761745
 21
120.45006857210137
 31
0.0
  0
LINE
  5
275
100
AcDbEntity
  8
0
  6
CONTINUOUS
 62
               4
100
AcDbLine
 10
73.172978014561807
 20
116.95006857410135
 30
0.0
 11
73.172978014561807
 21
113.61976554570134
 31
0.0
  0
LINE
  5
276
100
AcDbEntity
  8
0
  6
CONTINUOUS
 62
               4
100
AcDbLine
 10
71.871967914295112
 20
116.95006857410135
 30
0.0
 11
71.871967914295112
 21
114.36926049476801
 31
0.0
  0
LINE
  5
277
100
AcDbEntity
  8
0
  6
CONTINUOUS
 62
               4
100
AcDbLine
 10
71.871967914295112
 20
116.95006857410135
 30
0.0
 11
73.172978014561807
 21
116.95006857410135
 31
0.0
  0
LINE
  5
278
100
AcDbEntity
  8
0
  6
CONTINUOUS
 62
               4
100
AcDbLine
 10
72.274998217095174
 20
120.45006857210137
 30
0.0
 11
72.274998217095174
 21
116.95006857410135
 31
0.0
  0
LINE
  5
279
100
AcDbEntity
  8
0
  6
CONTINUOUS
 62
               4
100
AcDbLine
 10
72.769947711761745
 20
120.45006857210137
 30
0.0
 11
72.769947711761745
 21
116.95006857410135
 31
0.0
  0
LINE
  5
27A
100
AcDbEntity
  8
0
  6
CONTINUOUS
 62
             200
100
AcDbLine
 10
74.021462862561805
 20
113.12481605103471
 30
0.0
 11
71.023483066295114
 21
114.857139282368
 31
0.0
  0
LINE
  5
27B
100
AcDbEntity
  8
0
  6
CONTINUOUS
 62
             200
100
AcDbLine
 10
74.021462862561805
 20
112.77835140476805
 30
0.0
 11
71.023483066295114
 21
114.51067463610138
 31
0.0
  0
LINE
  5
27C
100
AcDbEntity
  8
0
  6
CONTINUOUS
 62
               4
100
AcDbLine
 10
53.021462870561948
 20
81.955119083434781
 30
0.0
 11
70.026513369895213
 21
81.955119083434781
 31
0.0
  0
LINE
  5
27D
100
AcDbEntity
  8
0
  6
CONTINUOUS
 62
               4
100
AcDbLine
 10
70.026513369895213
 20
31.349058466235007
 30
0.0
 11
70.026513369895213
 21
11.855119083434872
 31
0.0
  0
LINE
  5
27E
100
AcDbEntity
  8
0
  6
CONTINUOUS
 62
               4
100
AcDbLine
 10
70.026513369895213
 20
31.355119083434872
 30
0.0
 11
74.735604276295192
 21
29.163199892768134
 31
0.0
  0
LINE
  5
27F
100
AcDbEntity
  8
0
  6
CONTINUOUS
 62
               4
100
AcDbLine
 10
53.021462870561948
 20
9.4551190834347807
 30
0.0
 11
53.021462870561948
 21
31.355119083434758
 31
0.0
  0
LINE
  5
280
100
AcDbEntity
  8
0
  6
CONTINUOUS
 62
               4
100
AcDbLine
 10
67.021462870561948
 20
31.355119083434758
 30
0.0
 11
67.021462870561948
 21
9.4551190885024852
 31
0.0
  0
LINE
  5
281
100
AcDbEntity
  8
0
  6
CONTINUOUS
 62
               4
100
AcDbLine
 10
72.274998217095174
 20
-7.1398304052318196
 30
0.0
 11
72.769947711761745
 21
-7.1398304052318196
 31
0.0
  0
LINE
  5
282
100
AcDbEntity
  8
0
  6
CONTINUOUS
 62
               4
100
AcDbLine
 10
64.321462870562129
 20
8.855119083434758
 30
0.0
 11
64.321462870562129
 21
9.455119083434667
 31
0.0
  0
LINE
  5
283
100
AcDbEntity
  8
0
  6
CONTINUOUS
 62
               4
100
AcDbLine
 10
64.321462870562129
 20
9.455119083434667
 30
0.0
 11
67.02146286656199
 21
9.455119083434667
 31
0.0
  0
LINE
  5
284
100
AcDbEntity
  8
0
  6
CONTINUOUS
 62
               4
100
AcDbLine
 10
53.521462874562133
 20
8.955119083434667
 30
0.0
 11
55.021462870561948
 21
8.955119083434667
 31
0.0
  0
LINE
  5
285
100
AcDbEntity
  8
0
  6
CONTINUOUS
 62
               4
100
AcDbLine
 10
53.821462960562087
 20
8.855119083434758
 30
0.0
 11
66.221462780562035
 21
8.855119083434758
 31
0.0
  0
ARC
  5
286
100
AcDbEntity
  8
0
  6
CONTINUOUS
 62
               4
100
AcDbCircle
 10
53.821367813913469
 20
9.4550239367860485
 30
0.0
 40
0.5999048008965869
100
AcDbArc
 50
236.24741787039349
 51
270.00908727754575
  0
ARC
  5
287
100
AcDbEntity
  8
0
  6
CONTINUOUS
 62
               4
100
AcDbCircle
 10
66.222550785690203
 20
9.4540310783064996
 30
0.0
 40
0.5989129231257409
100
AcDbArc
 50
269.89591452477231
 51
0.1040854752270701
  0
ARC
  5
288
100
AcDbEntity
  8
0
  6
CONTINUOUS
 62
               4
100
AcDbCircle
 10
66.52146286656199
 20
9.455119083434667
 30
0.0
 40
0.5
100
AcDbArc
 50
273.91958589965037
 51
0.0
  0
ARC
  5
289
100
AcDbEntity
  8
0
  6
CONTINUOUS
 62
               4
100
AcDbCircle
 10
53.521462874562133
 20
9.455119083434667
 30
0.0
 40
0.5
100
AcDbArc
 50
179.99999999999963
 51
269.99999999999937
  0
LINE
  5
28A
100
AcDbEntity
  8
0
  6
CONTINUOUS
 62
               4
100
AcDbLine
 10
55.021462870561948
 20
8.855119083434758
 30
0.0
 11
55.021462870561948
 21
10.455119083434667
 31
0.0
  0
LINE
  5
28B
100
AcDbEntity
  8
0
  6
CONTINUOUS
 62
               4
100
AcDbLine
 10
55.021462870561948
 20
10.455119083434667
 30
0.0
 11
67.02146286656199
 21
10.455119083434667
 31
0.0
  0
LINE
  5
28C
100
AcDbEntity
  8
0
  6
CONTINUOUS
 62
               4
100
AcDbLine
 10
67.021462866561762
 20
11.855119083434872
 30
0.0
 11
74.523483064295135
 21
11.855119083434872
 31
0.0
  0
LINE
  5
28D
100
AcDbEntity
  8
0
  6
CONTINUOUS
 62
               4
100
AcDbLine
 10
75.025503266028466
 20
12.350068578101556
 30
0.0
 11
75.025503266028466
 21
28.70461402330163
 31
0.0
  0
LINE
  5
28E
100
AcDbEntity
  8
0
  6
CONTINUOUS
 62
               4
100
AcDbLine
 10
70.026513369895213
 20
3.8551190834348716
 30
0.0
 11
74.120452761495073
 21
3.8551190834348716
 31
0.0
  0
LINE
  5
28F
100
AcDbEntity
  8
0
  6
CONTINUOUS
 62
               4
100
AcDbLine
 10
71.624493166961713
 20
3.8551190834348716
 30
0.0
 11
71.624493166961713
 21
11.855119083434872
 31
0.0
  0
LINE
  5
290
100
AcDbEntity
  8
0
  6
CONTINUOUS
 62
               4
100
AcDbLine
 10
73.420452761895206
 20
3.8551190834348716
 30
0.0
 11
73.420452761895206
 21
11.855119083434872
 31
0.0
  0
LINE
  5
291
100
AcDbEntity
  8
0
  6
CONTINUOUS
 62
               4
100
AcDbLine
 10
77.019442658828495
 20
3.8551190834348716
 30
0.0
 11
77.019442658828495
 21
5.3500685821015139
 31
0.0
  0
LINE
  5
292
100
AcDbEntity
  8
0
  6
CONTINUOUS
 62
               4
100
AcDbLine
 10
76.121462861361863
 20
10.455119084234909
 30
0.0
 11
77.019442658828495
 21
5.3500685821015139
 31
0.0
  0
LINE
  5
293
100
AcDbEntity
  8
0
  6
CONTINUOUS
 62
               4
100
AcDbLine
 10
76.022472962428594
 20
3.8551190834348716
 30
0.0
 11
76.022472962428594
 21
5.2606554636253549
 31
0.0
  0
LINE
  5
294
100
AcDbEntity
  8
0
  6
CONTINUOUS
 62
               4
100
AcDbLine
 10
76.022472962428594
 20
3.8551190834348716
 30
0.0
 11
77.019442658828495
 21
3.8551190834348716
 31
0.0
  0
LINE
  5
295
100
AcDbEntity
  8
0
  6
CONTINUOUS
 62
               4
100
AcDbLine
 10
74.919442660028437
 20
11.522795851301495
 30
0.0
 11
76.022472962428594
 21
5.2606554636253549
 31
0.0
  0
LINE
  5
296
100
AcDbEntity
  8
0
  6
CONTINUOUS
 62
               4
100
AcDbLine
 10
75.124493164961734
 20
12.852088779834887
 30
0.0
 11
75.124493164961734
 21
18.551078675568235
 31
0.0
  0
LINE
  5
297
100
AcDbEntity
  8
0
  6
CONTINUOUS
 62
               4
100
AcDbLine
 10
74.120452761495073
 20
3.8551190834348716
 30
0.0
 11
74.120452761495073
 21
11.45208878063481
 31
0.0
  0
LINE
  5
298
100
AcDbEntity
  8
0
  6
CONTINUOUS
 62
               4
100
AcDbLine
 10
74.424493165361866
 20
4.1591594873015509
 30
0.0
 11
74.424493165361866
 21
10.052088781434847
 31
0.0
  0
LINE
  5
299
100
AcDbEntity
  8
0
  6
CONTINUOUS
 62
               4
100
AcDbLine
 10
74.120452761495073
 20
3.8551190834348716
 30
0.0
 11
74.424493165361866
 21
4.1591594873015509
 31
0.0
  0
LINE
  5
29A
100
AcDbEntity
  8
0
  6
CONTINUOUS
 62
               4
100
AcDbLine
 10
70.026513369895213
 20
4.8551190874348293
 30
0.0
 11
70.521462864561784
 21
4.8551190874348293
 31
0.0
  0
LINE
  5
29B
100
AcDbEntity
  8
0
  6
CONTINUOUS
 62
               4
100
AcDbLine
 10
70.026513369895213
 20
9.8541089835681959
 30
0.0
 11
70.521462864561784
 21
9.8541089835681959
 31
0.0
  0
LINE
  5
29C
100
AcDbEntity
  8
0
  6
CONTINUOUS
 62
               4
100
AcDbLine
 10
74.120452761495073
 20
10.356129185301526
 30
0.0
 11
74.424493165361866
 21
10.052088781434847
 31
0.0
  0
LINE
  5
29D
100
AcDbEntity
  8
0
  6
CONTINUOUS
 62
               4
100
AcDbLine
 10
76.121462861361863
 20
10.455119084234909
 30
0.0
 11
76.121462861361863
 21
19.555119079034895
 31
0.0
  0
LINE
  5
29E
100
AcDbEntity
  8
0
  6
CONTINUOUS
 62
               4
100
AcDbLine
 10
75.124493164961734
 20
19.852088775834929
 30
0.0
 11
75.824493164561829
 21
19.852088775834929
 31
0.0
  0
LINE
  5
29F
100
AcDbEntity
  8
0
  6
CONTINUOUS
 62
               4
100
AcDbLine
 10
75.025503266028466
 20
18.551078675568235
 30
0.0
 11
75.124493164961734
 21
18.551078675568235
 31
0.0
  0
LINE
  5
2A0
100
AcDbEntity
  8
0
  6
CONTINUOUS
 62
               4
100
AcDbLine
 10
75.025503266028466
 20
19.753098876901603
 30
0.0
 11
75.124493164961734
 21
19.852088775834929
 31
0.0
  0
LINE
  5
2A1
100
AcDbEntity
  8
0
  6
CONTINUOUS
 62
               4
100
AcDbLine
 10
71.871967914295112
 20
-0.71255768163185
 30
0.0
 11
71.871967914295112
 21
3.8551190834348716
 31
0.0
  0
LINE
  5
2A2
100
AcDbEntity
  8
0
  6
CONTINUOUS
 62
               4
100
AcDbLine
 10
73.172978014561807
 20
-3.6398304072317984
 30
0.0
 11
73.172978014561807
 21
-0.3095273788317883
 31
0.0
  0
LINE
  5
2A3
100
AcDbEntity
  8
0
  6
CONTINUOUS
 62
               4
100
AcDbLine
 10
71.871967914295112
 20
-3.6398304072317984
 30
0.0
 11
71.871967914295112
 21
-1.0590223278985178
 31
0.0
  0
LINE
  5
2A4
100
AcDbEntity
  8
0
  6
CONTINUOUS
 62
               4
100
AcDbLine
 10
71.871967914295112
 20
-3.6398304072317984
 30
0.0
 11
73.172978014561807
 21
-3.6398304072317984
 31
0.0
  0
LINE
  5
2A5
100
AcDbEntity
  8
0
  6
CONTINUOUS
 62
               4
100
AcDbLine
 10
72.274998217095174
 20
-7.1398304052318196
 30
0.0
 11
72.274998217095174
 21
-3.6398304072317984
 31
0.0
  0
LINE
  5
2A6
100
AcDbEntity
  8
0
  6
CONTINUOUS
 62
               4
100
AcDbLine
 10
72.769947711761745
 20
-7.1398304052318196
 30
0.0
 11
72.769947711761745
 21
-3.6398304072317984
 31
0.0
  0
LINE
  5
2A7
100
AcDbEntity
  8
0
  6
CONTINUOUS
 62
             200
100
AcDbLine
 10
74.021462862561805
 20
0.1854221158347826
 30
0.0
 11
71.023483066295114
 21
-1.5469011154984429
 31
0.0
  0
LINE
  5
2A8
100
AcDbEntity
  8
0
  6
CONTINUOUS
 62
             200
100
AcDbLine
 10
74.021462862561805
 20
0.5318867621014505
 30
0.0
 11
71.023483066295114
 21
-1.2004364692318887
 31
0.0
  0
LINE
  5
2A9
100
AcDbEntity
  8
0
  6
CONTINUOUS
 62
               4
100
AcDbLine
 10
73.172978014561807
 20
0.0369372674348796
 30
0.0
 11
73.172978014561807
 21
3.8551190834348716
 31
0.0
  0
LINE
  5
2AA
100
AcDbEntity
  8
0
  6
CONTINUOUS
 62
               4
100
AcDbLine
 10
70.026513369895213
 20
3.8551190834348716
 30
0.0
 11
70.026513369895213
 21
4.8551190874348293
 31
0.0
  0
LINE
  5
2AB
100
AcDbEntity
  8
0
  6
CONTINUOUS
 62
               4
100
AcDbLine
 10
70.026513369895213
 20
9.8541089835681959
 30
0.0
 11
70.026513369895213
 21
11.855119083434872
 31
0.0
  0
LINE
  5
2AC
100
AcDbEntity
  8
0
  6
CONTINUOUS
 62
               4
100
AcDbLine
 10
70.521462864561784
 20
4.8551190874348293
 30
0.0
 11
70.521462864561784
 21
9.8541089835681959
 31
0.0
  0
ARC
  5
2AD
100
AcDbEntity
  8
0
  6
CONTINUOUS
 62
               4
100
AcDbCircle
 10
74.519495928130993
 20
28.705634585943116
 30
0.0
 40
0.5060324378497572
100
AcDbArc
 50
0.570672169885155
 51
64.718608099947076
  0
ARC
  5
2AE
100
AcDbEntity
  8
0
  6
CONTINUOUS
 62
               4
100
AcDbCircle
 10
74.525296989840456
 20
12.355349951451259
 30
0.0
 40
0.5002341568128574
100
AcDbArc
 50
269.79223628684531
 51
359.39507124653568
  0
ARC
  5
2AF
100
AcDbEntity
  8
0
  6
CONTINUOUS
 62
               4
100
AcDbCircle
 10
75.819358988653732
 20
19.549984903126685
 30
0.0
 40
0.3021474965435785
100
AcDbArc
 50
0.9736329845118463
 51
89.026367015487978
  0
ARC
  5
2B0
100
AcDbEntity
  8
0
  6
CONTINUOUS
 62
               4
100
AcDbCircle
 10
74.621449811428704
 20
12.854786732790373
 30
0.0
 40
0.5030505883944908
100
AcDbArc
 50
323.43739164534645
 51
359.69271070880933
  0
ARC
  5
2B1
100
AcDbEntity
  8
0
  6
CONTINUOUS
 62
               4
100
AcDbCircle
 10
74.52338399325987
 20
11.448612323741187
 30
0.0
 40
0.4029462287748787
100
AcDbArc
 50
10.608827982274413
 51
179.50566908284432
  0
LINE
  5
2B2
100
AcDbEntity
  8
0
  6
CONTINUOUS
 62
               4
100
AcDbLine
 10
53.021462870561948
 20
31.355119083434758
 30
0.0
 11
70.026513369895213
 21
31.355119083434758
 31
0.0
  0
LINE
  5
2B3
100
AcDbEntity
  8
0
  6
CENTER
 62
               2
100
AcDbLine
 10
33.821462869644165
 20
70.155119083434883
 30
0.0
 11
38.821462870561959
 21
70.155119083434883
 31
0.0
  0
LINE
  5
2B4
100
AcDbEntity
  8
0
  6
CENTER
 62
               2
100
AcDbLine
 10
33.821462869644165
 20
43.155119083434883
 30
0.0
 11
38.821462870561959
 21
43.155119083434883
 31
0.0
  0
LINE
  5
2B5
100
AcDbEntity
  8
0
  6
CENTER
 62
               2
100
AcDbLine
 10
50.521462857723236
 20
63.955119083434788
 30
0.0
 11
55.521462857723236
 21
63.955119083434788
 31
0.0
  0
LINE
  5
2B6
100
AcDbEntity
  8
0
  6
CENTER
 62
               2
100
AcDbLine
 10
50.521462857723236
 20
49.355119083434793
 30
0.0
 11
55.521462870561948
 21
49.355119083434793
 31
0.0
  0
LINE
  5
2B7
100
AcDbEntity
  8
0
  6
CONTINUOUS
 62
               7
100
AcDbLine
 10
129.36388959066923
 20
40.155119083434883
 30
0.0
 11
131.36388959066932
 21
40.155119083434883
 31
0.0
  0
LINE
  5
2B8
100
AcDbEntity
  8
0
  6
CONTINUOUS
 62
               7
100
AcDbLine
 10
129.36388959066923
 20
73.155119083434883
 30
0.0
 11
131.36388959066932
 21
73.155119083434883
 31
0.0
  0
LINE
  5
2B9
100
AcDbEntity
  8
0
  6
CONTINUOUS
 62
               7
100
AcDbLine
 10
129.36388959066923
 20
40.155119083434883
 30
0.0
 11
129.36388959066923
 21
73.155119083434883
 31
0.0
  0
LINE
  5
2BA
100
AcDbEntity
  8
0
  6
CENTER
 62
               2
100
AcDbLine
 10
146.36388959066923
 20
67.655119083434883
 30
0.0
 11
146.36388959066923
 21
72.655119083434883
 31
0.0
  0
LINE
  5
2BB
100
AcDbEntity
  8
0
  6
CENTER
 62
               2
100
AcDbLine
 10
146.36388959066923
 20
40.655119087134139
 30
0.0
 11
146.36388959066923
 21
45.655119087134139
 31
0.0
  0
LINE
  5
2BC
100
AcDbEntity
  8
0
  6
CENTER
 62
               2
100
AcDbLine
 10
146.88009579630719
 20
48.256145816833325
 30
0.0
 11
164.49388959066923
 21
48.256145816833325
 31
0.0
  0
LINE
  5
2BD
100
AcDbEntity
  8
0
  6
PHANTOM
 62
             200
100
AcDbLine
 10
149.36388959066923
 20
52.256145816833325
 30
0.0
 11
162.86388959066923
 21
52.256145816833325
 31
0.0
  0
LINE
  5
2BE
100
AcDbEntity
  8
0
  6
PHANTOM
 62
             200
100
AcDbLine
 10
149.36388959066923
 20
44.256145816833325
 30
0.0
 11
162.86388959066923
 21
44.256145816833325
 31
0.0
  0
ARC
  5
2BF
100
AcDbEntity
  8
0
  6
PHANTOM
 62
             200
100
AcDbCircle
 10
162.86388959066923
 20
51.756145816833325
 30
0.0
 40
0.5
100
AcDbArc
 50
0.0
 51
89.999999999999815
  0
ARC
  5
2C0
100
AcDbEntity
  8
0
  6
PHANTOM
 62
             200
100
AcDbCircle
 10
162.86388959066923
 20
44.756145816833325
 30
0.0
 40
0.5
100
AcDbArc
 50
269.99999999999937
 51
0.0
  0
LINE
  5
2C1
100
AcDbEntity
  8
0
  6
PHANTOM
 62
             200
100
AcDbLine
 10
163.36388959066923
 20
51.756145816833325
 30
0.0
 11
163.36388959066923
 21
44.756145816833325
 31
0.0
  0
LINE
  5
2C2
100
AcDbEntity
  8
0
  6
PHANTOM
 62
             200
100
AcDbLine
 10
160.86388959066923
 20
52.256145816833325
 30
0.0
 11
160.86388959066923
 21
44.256145816833325
 31
0.0
  0
LINE
  5
2C3
100
AcDbEntity
  8
0
  6
PHANTOM
 62
             200
100
AcDbLine
 10
162.86388959066923
 20
52.256145816833325
 30
0.0
 11
162.86388959066923
 21
44.256145816833325
 31
0.0
  0
CIRCLE
  5
2C4
100
AcDbEntity
  8
0
  6
CONTINUOUS
 62
               7
100
AcDbCircle
 10
146.36388959066923
 20
70.155119083434883
 30
0.0
 40
1.6000000000000001
  0
CIRCLE
  5
2C5
100
AcDbEntity
  8
0
  6
CONTINUOUS
 62
               7
100
AcDbCircle
 10
146.36388959066923
 20
43.155119083434883
 30
0.0
 40
1.6000000000000001
  0
LINE
  5
2C6
100
AcDbEntity
  8
0
  6
CONTINUOUS
 62
               7
100
AcDbLine
 10
149.36388959066923
 20
40.155119083434883
 30
0.0
 11
149.36388959066923
 21
73.155119083434883
 31
0.0
  0
LINE
  5
2C7
100
AcDbEntity
  8
0
  6
CONTINUOUS
 62
               7
100
AcDbLine
 10
141.36388959066932
 20
40.155119083434883
 30
0.0
 11
149.36388959066923
 21
40.155119083434883
 31
0.0
  0
LINE
  5
2C8
100
AcDbEntity
  8
0
  6
CONTINUOUS
 62
               7
100
AcDbLine
 10
141.36388959066932
 20
73.155119083434883
 30
0.0
 11
149.36388959066923
 21
73.155119083434883
 31
0.0
  0
LINE
  5
2C9
100
AcDbEntity
  8
0
  6
CENTER
 62
               2
100
AcDbLine
 10
143.86388959066923
 20
70.155119083434883
 30
0.0
 11
148.86388959066923
 21
70.155119083434883
 31
0.0
  0
LINE
  5
2CA
100
AcDbEntity
  8
0
  6
CENTER
 62
               2
100
AcDbLine
 10
143.86388959066923
 20
43.155119083434883
 30
0.0
 11
148.86388959066923
 21
43.155119083434883
 31
0.0
  0
CIRCLE
  5
2CB
100
AcDbEntity
  8
0
  6
CONTINUOUS
 62
               7
100
AcDbCircle
 10
136.36388959066932
 20
33.655119083434798
 30
0.0
 40
0.7500000000000001
  0
CIRCLE
  5
2CC
100
AcDbEntity
  8
0
  6
CONTINUOUS
 62
               7
100
AcDbCircle
 10
136.36388959066932
 20
33.655119083434798
 30
0.0
 40
1.1000000000000001
  0
CIRCLE
  5
2CD
100
AcDbEntity
  8
0
  6
CONTINUOUS
 62
               7
100
AcDbCircle
 10
136.36388959066932
 20
33.655119083434798
 30
0.0
 40
1.1500000000000001
  0
CIRCLE
  5
2CE
100
AcDbEntity
  8
0
  6
CONTINUOUS
 62
               7
100
AcDbCircle
 10
136.36388959066932
 20
33.655119083434798
 30
0.0
 40
1.3000000000000012
  0
LINE
  5
2CF
100
AcDbEntity
  8
0
  6
CENTER
 62
               2
100
AcDbLine
 10
134.6638895906693
 20
33.655119083434798
 30
0.0
 11
138.06388959066933
 21
33.655119083434798
 31
0.0
  0
ARC
  5
2D0
100
AcDbEntity
  8
0
  6
CONTINUOUS
 62
               7
100
AcDbCircle
 10
136.36388959066932
 20
35.355119083434801
 30
0.0
 40
3.6000000000000005
100
AcDbArc
 50
0.0
 51
179.99999999999963
  0
ARC
  5
2D1
100
AcDbEntity
  8
0
  6
CONTINUOUS
 62
               7
100
AcDbCircle
 10
136.36388959066932
 20
35.355119083434801
 30
0.0
 40
2.0
100
AcDbArc
 50
0.0
 51
179.99999999999963
  0
LINE
  5
2D2
100
AcDbEntity
  8
0
  6
CONTINUOUS
 62
               7
100
AcDbLine
 10
132.76388959066932
 20
35.355119083434801
 30
0.0
 11
132.76388959066932
 21
31.355119083434801
 31
0.0
  0
LINE
  5
2D3
100
AcDbEntity
  8
0
  6
CONTINUOUS
 62
               7
100
AcDbLine
 10
139.96388959066931
 20
35.355119083434801
 30
0.0
 11
139.96388959066931
 21
31.355119083434801
 31
0.0
  0
LINE
  5
2D4
100
AcDbEntity
  8
0
  6
CONTINUOUS
 62
               7
100
AcDbLine
 10
134.36388959066932
 20
35.355119083434801
 30
0.0
 11
134.36388959066932
 21
31.355119083434801
 31
0.0
  0
LINE
  5
2D5
100
AcDbEntity
  8
0
  6
CONTINUOUS
 62
               7
100
AcDbLine
 10
138.36388959066934
 20
35.355119083434801
 30
0.0
 11
138.36388959066934
 21
31.355119083434801
 31
0.0
  0
LINE
  5
2D6
100
AcDbEntity
  8
0
  6
CONTINUOUS
 62
               4
100
AcDbLine
 10
131.36388959066932
 20
31.355119083434801
 30
0.0
 11
141.36388959066932
 21
31.355119083434801
 31
0.0
  0
LINE
  5
2D7
100
AcDbEntity
  8
0
  6
CONTINUOUS
 62
               7
100
AcDbLine
 10
141.36388959066932
 20
31.355119083434801
 30
0.0
 11
141.36388959066932
 21
48.455119083434781
 31
0.0
  0
LINE
  5
2D8
100
AcDbEntity
  8
0
  6
CONTINUOUS
 62
               4
100
AcDbLine
 10
141.36388959066932
 20
81.955119083434795
 30
0.0
 11
131.36388959066932
 21
81.955119083434795
 31
0.0
  0
LINE
  5
2D9
100
AcDbEntity
  8
0
  6
CONTINUOUS
 62
               7
100
AcDbLine
 10
134.36388959066929
 20
77.955119083434795
 30
0.0
 11
134.36388959066929
 21
81.955119083434795
 31
0.0
  0
LINE
  5
2DA
100
AcDbEntity
  8
0
  6
CONTINUOUS
 62
               7
100
AcDbLine
 10
138.36388959066932
 20
77.955119083434795
 30
0.0
 11
138.36388959066932
 21
81.955119083434795
 31
0.0
  0
LINE
  5
2DB
100
AcDbEntity
  8
0
  6
CONTINUOUS
 62
               7
100
AcDbLine
 10
132.76388959066932
 20
77.955119083434795
 30
0.0
 11
132.76388959066932
 21
81.955119083434795
 31
0.0
  0
LINE
  5
2DC
100
AcDbEntity
  8
0
  6
CONTINUOUS
 62
               7
100
AcDbLine
 10
139.96388959066931
 20
77.955119083434795
 30
0.0
 11
139.96388959066931
 21
81.955119083434795
 31
0.0
  0
ARC
  5
2DD
100
AcDbEntity
  8
0
  6
CONTINUOUS
 62
               7
100
AcDbCircle
 10
136.36388959066932
 20
77.955119083434795
 30
0.0
 40
2.0
100
AcDbArc
 50
179.99999999999963
 51
0.0
  0
ARC
  5
2DE
100
AcDbEntity
  8
0
  6
CONTINUOUS
 62
               7
100
AcDbCircle
 10
136.36388959066932
 20
77.955119083434795
 30
0.0
 40
3.6000000000000005
100
AcDbArc
 50
179.99999999999963
 51
0.0
  0
LINE
  5
2DF
100
AcDbEntity
  8
0
  6
CENTER
 62
               2
100
AcDbLine
 10
138.06388959066933
 20
79.655119083434798
 30
0.0
 11
134.6638895906693
 21
79.655119083434798
 31
0.0
  0
CIRCLE
  5
2E0
100
AcDbEntity
  8
0
  6
CONTINUOUS
 62
               7
100
AcDbCircle
 10
136.36388959066932
 20
79.655119083434798
 30
0.0
 40
1.3000000000000012
  0
CIRCLE
  5
2E1
100
AcDbEntity
  8
0
  6
CONTINUOUS
 62
               7
100
AcDbCircle
 10
136.36388959066932
 20
79.655119083434798
 30
0.0
 40
1.1500000000000001
  0
LINE
  5
2E2
100
AcDbEntity
  8
0
  6
CONTINUOUS
 62
               7
100
AcDbLine
 10
131.36388959066932
 20
44.555119083434789
 30
0.0
 11
141.36388959066932
 21
44.555119083434789
 31
0.0
  0
LINE
  5
2E3
100
AcDbEntity
  8
0
  6
CONTINUOUS
 62
               7
100
AcDbLine
 10
131.36388959066932
 20
68.755119083434792
 30
0.0
 11
141.36388959066932
 21
68.755119083434792
 31
0.0
  0
CIRCLE
  5
2E4
100
AcDbEntity
  8
0
  6
CONTINUOUS
 62
               7
100
AcDbCircle
 10
136.36388959066932
 20
79.655119083434798
 30
0.0
 40
1.1000000000000001
  0
CIRCLE
  5
2E5
100
AcDbEntity
  8
0
  6
CONTINUOUS
 62
               7
100
AcDbCircle
 10
136.36388959066932
 20
79.655119083434798
 30
0.0
 40
0.7500000000000001
  0
LINE
  5
2E6
100
AcDbEntity
  8
0
  6
CONTINUOUS
 62
               7
100
AcDbLine
 10
131.36388959066932
 20
31.355119083434801
 30
0.0
 11
131.36388959066932
 21
63.055119083434775
 31
0.0
  0
LINE
  5
2E7
100
AcDbEntity
  8
0
  6
CONTINUOUS
 62
               7
100
AcDbLine
 10
131.36388959066932
 20
64.855119083434801
 30
0.0
 11
131.36388959066932
 21
81.955119083434795
 31
0.0
  0
LINE
  5
2E8
100
AcDbEntity
  8
0
  6
CONTINUOUS
 62
               7
100
AcDbLine
 10
141.36388959066932
 20
50.255119083434806
 30
0.0
 11
141.36388959066932
 21
81.955119083434795
 31
0.0
  0
ARC
  5
2E9
100
AcDbEntity
  8
0
  6
CONTINUOUS
 62
               4
100
AcDbCircle
 10
140.86418643853364
 20
82.454822235570589
 30
0.0
 40
0.4997032403068001
100
AcDbArc
 50
269.96596353714654
 51
0.0340364628527164
  0
LINE
  5
2EA
100
AcDbEntity
  8
0
  6
CONTINUOUS
 62
               4
100
AcDbLine
 10
141.36388959066932
 20
104.45511908343479
 30
0.0
 11
141.36388959066932
 21
81.955119083434795
 31
0.0
  0
LINE
  5
2EB
100
AcDbEntity
  8
0
  6
CONTINUOUS
 62
               4
100
AcDbLine
 10
131.36388959066932
 20
104.45511908770416
 30
0.0
 11
131.36388959066932
 21
81.955119083434795
 31
0.0
  0
ARC
  5
2EC
100
AcDbEntity
  8
0
  6
CONTINUOUS
 62
               4
100
AcDbCircle
 10
131.86386670259986
 20
82.455114505912036
 30
0.0
 40
0.4999954224983215
100
AcDbArc
 50
179.99947544974256
 51
270.00052455025656
  0
ARC
  5
2ED
100
AcDbEntity
  8
0
  6
CONTINUOUS
 62
               4
100
AcDbCircle
 10
140.86386059894909
 20
82.45512976460796
 30
0.0
 40
0.5000106812873828
100
AcDbArc
 50
270.00122394615329
 51
359.9987760538454
  0
LINE
  5
2EE
100
AcDbEntity
  8
0
  6
CENTER
 62
               2
100
AcDbLine
 10
136.36388959066932
 20
110.71050000239158
 30
0.0
 11
136.36388959066932
 21
2.599738164478012
 31
0.0
  0
LINE
  5
2EF
100
AcDbEntity
  8
0
  6
CONTINUOUS
 62
             200
100
AcDbLine
 10
132.61388959066932
 20
113.93511908343466
 30
0.0
 11
140.11388959066932
 21
111.92511908343467
 31
0.0
  0
LINE
  5
2F0
100
AcDbEntity
  8
0
  6
CONTINUOUS
 62
               4
100
AcDbLine
 10
135.76388959066941
 20
113.09511908343468
 30
0.0
 11
135.76388959066941
 21
109.45511908343464
 31
0.0
  0
LINE
  5
2F1
100
AcDbEntity
  8
0
  6
CONTINUOUS
 62
               4
100
AcDbLine
 10
134.46388959066923
 20
113.44511908343465
 30
0.0
 11
134.46388959066923
 21
109.45511908343464
 31
0.0
  0
LINE
  5
2F2
100
AcDbEntity
  8
0
  6
CONTINUOUS
 62
               4
100
AcDbLine
 10
136.96388959066923
 20
112.77511908343469
 30
0.0
 11
136.96388959066923
 21
109.45511908343464
 31
0.0
  0
LINE
  5
2F3
100
AcDbEntity
  8
0
  6
CONTINUOUS
 62
               4
100
AcDbLine
 10
131.3638896197586
 20
104.45511908770416
 30
0.0
 11
132.61388959066932
 21
104.45511908770416
 31
0.0
  0
ARC
  5
2F4
100
AcDbEntity
  8
0
  6
CONTINUOUS
 62
               4
100
AcDbCircle
 10
140.56798473732744
 20
103.85521423436231
 30
0.0
 40
0.5999048608870732
100
AcDbArc
 50
359.99091272245295
 51
90.009087277546172
  0
ARC
  5
2F5
100
AcDbEntity
  8
0
  6
CONTINUOUS
 62
               4
100
AcDbCircle
 10
131.86388959066932
 20
103.85511908770414
 30
0.0
 40
0.5
100
AcDbArc
 50
89.999999999999815
 51
179.99999999999963
  0
LINE
  5
2F6
100
AcDbEntity
  8
0
  6
CONTINUOUS
 62
               4
100
AcDbLine
 10
132.61388959066932
 20
104.35511908770414
 30
0.0
 11
131.86388959066932
 21
104.35511908770414
 31
0.0
  0
LINE
  5
2F7
100
AcDbEntity
  8
0
  6
CONTINUOUS
 62
               4
100
AcDbLine
 10
141.36388959066932
 20
102.85511908770414
 30
0.0
 11
140.1138712801224
 21
102.85511908770414
 31
0.0
  0
LINE
  5
2F8
100
AcDbEntity
  8
0
  6
CONTINUOUS
 62
               4
100
AcDbLine
 10
141.36388959066932
 20
104.45511908770416
 30
0.0
 11
140.11388959066932
 21
104.45511908770416
 31
0.0
  0
LINE
  5
2F9
100
AcDbEntity
  8
0
  6
CONTINUOUS
 62
               4
100
AcDbLine
 10
141.36388959066932
 20
103.85511908770414
 30
0.0
 11
140.1138712801224
 21
103.85511908770414
 31
0.0
  0
LINE
  5
2FA
100
AcDbEntity
  8
0
  6
CONTINUOUS
 62
               4
100
AcDbLine
 10
131.3638712801224
 20
101.45511908343465
 30
0.0
 11
131.8638712801224
 21
101.45511908343465
 31
0.0
  0
LINE
  5
2FB
100
AcDbEntity
  8
0
  6
CONTINUOUS
 62
               4
100
AcDbLine
 10
131.8638712801224
 20
101.45511908343465
 30
0.0
 11
133.61388959066932
 21
101.45511908343465
 31
0.0
  0
LINE
  5
2FC
100
AcDbEntity
  8
0
  6
CONTINUOUS
 62
               4
100
AcDbLine
 10
141.13387128012238
 20
100.95511908343465
 30
0.0
 11
141.13387128012238
 21
84.647038274085844
 31
0.0
  0
LINE
  5
2FD
100
AcDbEntity
  8
0
  6
CONTINUOUS
 62
               4
100
AcDbLine
 10
131.59387128012241
 20
100.95511908343465
 30
0.0
 11
131.59387128012241
 21
84.647038274101419
 31
0.0
  0
LINE
  5
2FE
100
AcDbEntity
  8
0
  6
CONTINUOUS
 62
               4
100
AcDbLine
 10
132.09387128012241
 20
84.147038274101391
 30
0.0
 11
140.63387128012238
 21
84.147038274101391
 31
0.0
  0
LINE
  5
2FF
100
AcDbEntity
  8
0
  6
CONTINUOUS
 62
               4
100
AcDbLine
 10
140.8638712801224
 20
101.45511908343465
 30
0.0
 11
141.3638712801224
 21
101.45511908343465
 31
0.0
  0
LINE
  5
300
100
AcDbEntity
  8
0
  6
CONTINUOUS
 62
               4
100
AcDbLine
 10
133.61388959066932
 20
93.455119083434681
 30
0.0
 11
139.11388959066932
 21
93.455119083434681
 31
0.0
  0
LINE
  5
301
100
AcDbEntity
  8
0
  6
CONTINUOUS
 62
               4
100
AcDbLine
 10
139.11388959066932
 20
101.45511908343465
 30
0.0
 11
140.8638712801224
 21
101.45511908343465
 31
0.0
  0
LINE
  5
302
100
AcDbEntity
  8
0
  6
CONTINUOUS
 62
               4
100
AcDbLine
 10
133.61388959066932
 20
109.45511908343464
 30
0.0
 11
133.61388959066932
 21
93.455119083434681
 31
0.0
  0
LINE
  5
303
100
AcDbEntity
  8
0
  6
CONTINUOUS
 62
               4
100
AcDbLine
 10
132.61388959066932
 20
109.45511908343464
 30
0.0
 11
132.61388959066932
 21
101.45511908343465
 31
0.0
  0
LINE
  5
304
100
AcDbEntity
  8
0
  6
CONTINUOUS
 62
               4
100
AcDbLine
 10
133.61388959066932
 20
107.95511908343465
 30
0.0
 11
139.11388959066932
 21
107.95511908343465
 31
0.0
  0
LINE
  5
305
100
AcDbEntity
  8
0
  6
CONTINUOUS
 62
               4
100
AcDbLine
 10
139.11388959066932
 20
109.45511908343464
 30
0.0
 11
139.11388959066932
 21
93.455119083434681
 31
0.0
  0
LINE
  5
306
100
AcDbEntity
  8
0
  6
CONTINUOUS
 62
               4
100
AcDbLine
 10
140.11388959066932
 20
109.45511908343464
 30
0.0
 11
140.11388959066932
 21
101.45511908343465
 31
0.0
  0
LINE
  5
307
100
AcDbEntity
  8
0
  6
CONTINUOUS
 62
               4
100
AcDbLine
 10
132.61388959066932
 20
109.45511908343464
 30
0.0
 11
140.11388959066932
 21
109.45511908343464
 31
0.0
  0
ARC
  5
308
100
AcDbEntity
  8
0
  6
CONTINUOUS
 62
               4
100
AcDbCircle
 10
132.09505956402774
 20
84.648226558006655
 30
0.0
 40
0.5011896925741138
100
AcDbArc
 50
180.13584420715239
 51
269.86415579284636
  0
ARC
  5
309
100
AcDbEntity
  8
0
  6
CONTINUOUS
 62
               4
100
AcDbCircle
 10
140.63266777401083
 20
84.648241780213141
 30
0.0
 40
0.5012049510586274
100
AcDbArc
 50
270.13758021931233
 51
359.86241978068648
  0
ARC
  5
30A
100
AcDbEntity
  8
0
  6
CONTINUOUS
 62
               4
100
AcDbCircle
 10
140.6338688386432
 20
100.95511664195539
 30
0.0
 40
0.500002441485227
100
AcDbArc
 50
0.0002797715494944
 51
89.999720228450514
  0
ARC
  5
30B
100
AcDbEntity
  8
0
  6
CONTINUOUS
 62
               4
100
AcDbCircle
 10
132.09385846278479
 20
100.95513190077239
 30
0.0
 40
0.4999871828265524
100
AcDbArc
 50
89.998531203634272
 51
180.00146879636483
  0
ARC
  5
30C
100
AcDbEntity
  8
0
  6
CONTINUOUS
 62
               4
100
AcDbCircle
 10
131.86386059899115
 20
100.95512976456604
 30
0.0
 40
0.4999893189827007
100
AcDbArc
 50
89.998776006354774
 51
180.00122399364432
  0
ARC
  5
30D
100
AcDbEntity
  8
0
  6
CONTINUOUS
 62
               4
100
AcDbCircle
 10
140.86386670237158
 20
100.95511450568387
 30
0.0
 40
0.5000045777717621
100
AcDbArc
 50
0.0005245667992071
 51
89.9994754332008
  0
LINE
  5
30E
100
AcDbEntity
  8
0
  6
CONTINUOUS
 62
               4
100
AcDbLine
 10
138.26388959066941
 20
112.42511908343467
 30
0.0
 11
138.26388959066941
 21
109.45511908343464
 31
0.0
  0
LINE
  5
30F
100
AcDbEntity
  8
0
  6
PHANTOM
 62
             200
100
AcDbLine
 10
137.8638712801224
 20
89.455119083434681
 30
0.0
 11
137.8638712801224
 21
87.455119083434681
 31
0.0
  0
LINE
  5
310
100
AcDbEntity
  8
0
  6
PHANTOM
 62
             200
100
AcDbLine
 10
134.8638712801224
 20
89.455119083434681
 30
0.0
 11
134.8638712801224
 21
87.455119083434681
 31
0.0
  0
LINE
  5
311
100
AcDbEntity
  8
0
  6
PHANTOM
 62
             200
100
AcDbLine
 10
134.8638712801224
 20
87.455119083434681
 30
0.0
 11
137.8638712801224
 21
87.455119083434681
 31
0.0
  0
LINE
  5
312
100
AcDbEntity
  8
0
  6
PHANTOM
 62
             200
100
AcDbLine
 10
134.8638712801224
 20
89.455119083434681
 30
0.0
 11
137.8638712801224
 21
89.455119083434681
 31
0.0
  0
LINE
  5
313
100
AcDbEntity
  8
0
  6
CONTINUOUS
 62
               4
100
AcDbLine
 10
137.36388959066932
 20
120.44804835436817
 30
0.0
 11
137.86388959066932
 21
120.44804835436817
 31
0.0
  0
LINE
  5
314
100
AcDbEntity
  8
0
  6
CONTINUOUS
 62
               4
100
AcDbLine
 10
134.86388959066932
 20
120.44804835436817
 30
0.0
 11
135.36388959066932
 21
120.44804835436817
 31
0.0
  0
LINE
  5
315
100
AcDbEntity
  8
0
  6
CONTINUOUS
 62
               4
100
AcDbLine
 10
138.26388959066941
 20
116.94804835636815
 30
0.0
 11
138.26388959066941
 21
113.45511908343464
 31
0.0
  0
LINE
  5
316
100
AcDbEntity
  8
0
  6
CONTINUOUS
 62
               4
100
AcDbLine
 10
136.96388959066923
 20
116.94804835636815
 30
0.0
 11
136.96388959066923
 21
113.80511908343466
 31
0.0
  0
LINE
  5
317
100
AcDbEntity
  8
0
  6
CONTINUOUS
 62
               4
100
AcDbLine
 10
135.36388959066932
 20
120.44804835436817
 30
0.0
 11
135.36388959066932
 21
116.94804835636815
 31
0.0
  0
LINE
  5
318
100
AcDbEntity
  8
0
  6
CONTINUOUS
 62
               4
100
AcDbLine
 10
134.86388959066932
 20
120.44804835436817
 30
0.0
 11
134.86388959066932
 21
116.94804835636815
 31
0.0
  0
LINE
  5
319
100
AcDbEntity
  8
0
  6
CONTINUOUS
 62
               4
100
AcDbLine
 10
135.76388959066941
 20
116.94804835636815
 30
0.0
 11
135.76388959066941
 21
114.12511908343465
 31
0.0
  0
LINE
  5
31A
100
AcDbEntity
  8
0
  6
CONTINUOUS
 62
               4
100
AcDbLine
 10
134.46388959066923
 20
116.94804835636815
 30
0.0
 11
134.46388959066923
 21
114.47511908343468
 31
0.0
  0
LINE
  5
31B
100
AcDbEntity
  8
0
  6
CONTINUOUS
 62
               4
100
AcDbLine
 10
137.86388959066932
 20
120.44804835436817
 30
0.0
 11
137.86388959066932
 21
116.94804835636815
 31
0.0
  0
LINE
  5
31C
100
AcDbEntity
  8
0
  6
CONTINUOUS
 62
               4
100
AcDbLine
 10
137.36388959066932
 20
120.44804835436817
 30
0.0
 11
137.36388959066932
 21
116.94804835636815
 31
0.0
  0
LINE
  5
31D
100
AcDbEntity
  8
0
  6
CONTINUOUS
 62
               4
100
AcDbLine
 10
134.46388959066923
 20
116.94804835636815
 30
0.0
 11
135.76388959066941
 21
116.94804835636815
 31
0.0
  0
LINE
  5
31E
100
AcDbEntity
  8
0
  6
CONTINUOUS
 62
             200
100
AcDbLine
 10
132.61388959066932
 20
114.97511908343468
 30
0.0
 11
140.11388959066932
 21
112.96511908343469
 31
0.0
  0
LINE
  5
31F
100
AcDbEntity
  8
0
  6
CONTINUOUS
 62
               4
100
AcDbLine
 10
136.96388959066923
 20
116.94804835636815
 30
0.0
 11
138.26388959066941
 21
116.94804835636815
 31
0.0
  0
ARC
  5
320
100
AcDbEntity
  8
0
  6
CONTINUOUS
 62
               4
100
AcDbCircle
 10
131.86359274280522
 20
30.855415931299014
 30
0.0
 40
0.4997032403068001
100
AcDbArc
 50
89.965963537146934
 51
180.03403646285233
  0
LINE
  5
321
100
AcDbEntity
  8
0
  6
CONTINUOUS
 62
               4
100
AcDbLine
 10
131.36388959066932
 20
8.8551190834348077
 30
0.0
 11
131.36388959066932
 21
31.355119083434808
 31
0.0
  0
LINE
  5
322
100
AcDbEntity
  8
0
  6
CONTINUOUS
 62
               4
100
AcDbLine
 10
141.36388959066932
 20
8.8551190791654122
 30
0.0
 11
141.36388959066932
 21
31.355119083434808
 31
0.0
  0
ARC
  5
323
100
AcDbEntity
  8
0
  6
CONTINUOUS
 62
               4
100
AcDbCircle
 10
140.86391247873877
 20
30.855123660957567
 30
0.0
 40
0.4999954224983215
100
AcDbArc
 50
359.99947544974214
 51
90.000524550256955
  0
ARC
  5
324
100
AcDbEntity
  8
0
  6
CONTINUOUS
 62
               4
100
AcDbCircle
 10
131.86391858238954
 20
30.855108402261614
 30
0.0
 40
0.5000106812873828
100
AcDbArc
 50
90.001223946153672
 51
179.99877605384583
  0
LINE
  5
325
100
AcDbEntity
  8
0
  6
CONTINUOUS
 62
               4
100
AcDbLine
 10
135.36388959066932
 20
-7.1378101874985447
 30
0.0
 11
134.86388959066932
 21
-7.1378101874985447
 31
0.0
  0
LINE
  5
326
100
AcDbEntity
  8
0
  6
CONTINUOUS
 62
               4
100
AcDbLine
 10
137.86388959066932
 20
-7.1378101874985447
 30
0.0
 11
137.36388959066932
 21
-7.1378101874985447
 31
0.0
  0
LINE
  5
327
100
AcDbEntity
  8
0
  6
CONTINUOUS
 62
               4
100
AcDbLine
 10
141.36388956158027
 20
8.8551190791654122
 30
0.0
 11
140.11388959066932
 21
8.8551190791654122
 31
0.0
  0
ARC
  5
328
100
AcDbEntity
  8
0
  6
CONTINUOUS
 62
               4
100
AcDbCircle
 10
132.1597944440112
 20
9.4550239325072667
 30
0.0
 40
0.5999048608870732
100
AcDbArc
 50
179.99091272245337
 51
270.00908727754575
  0
ARC
  5
329
100
AcDbEntity
  8
0
  6
CONTINUOUS
 62
               4
100
AcDbCircle
 10
140.86388959066932
 20
9.4551190791654349
 30
0.0
 40
0.5
100
AcDbArc
 50
269.99999999999937
 51
0.0
  0
LINE
  5
32A
100
AcDbEntity
  8
0
  6
CONTINUOUS
 62
               4
100
AcDbLine
 10
140.11388959066932
 20
8.9551190791654349
 30
0.0
 11
140.86388959066932
 21
8.9551190791654349
 31
0.0
  0
LINE
  5
32B
100
AcDbEntity
  8
0
  6
CONTINUOUS
 62
               4
100
AcDbLine
 10
131.36388959066932
 20
10.455119079165435
 30
0.0
 11
132.61390790121624
 21
10.455119079165435
 31
0.0
  0
LINE
  5
32C
100
AcDbEntity
  8
0
  6
CONTINUOUS
 62
               4
100
AcDbLine
 10
131.36388959066932
 20
8.8551190791654122
 30
0.0
 11
132.61388959066932
 21
8.8551190791654122
 31
0.0
  0
LINE
  5
32D
100
AcDbEntity
  8
0
  6
CONTINUOUS
 62
               4
100
AcDbLine
 10
131.36388959066932
 20
9.4551190791654349
 30
0.0
 11
132.61390790121624
 21
9.4551190791654349
 31
0.0
  0
LINE
  5
32E
100
AcDbEntity
  8
0
  6
CONTINUOUS
 62
               4
100
AcDbLine
 10
141.36390790121624
 20
11.855119083434921
 30
0.0
 11
140.86390790121624
 21
11.855119083434921
 31
0.0
  0
LINE
  5
32F
100
AcDbEntity
  8
0
  6
CONTINUOUS
 62
               4
100
AcDbLine
 10
140.86390790121624
 20
11.855119083434921
 30
0.0
 11
139.11388959066932
 21
11.855119083434921
 31
0.0
  0
LINE
  5
330
100
AcDbEntity
  8
0
  6
CONTINUOUS
 62
               4
100
AcDbLine
 10
131.59390790121626
 20
12.355119083434921
 30
0.0
 11
131.59390790121626
 21
28.663199892783759
 31
0.0
  0
LINE
  5
331
100
AcDbEntity
  8
0
  6
CONTINUOUS
 62
               4
100
AcDbLine
 10
141.13390790121622
 20
12.355119083434921
 30
0.0
 11
141.13390790121622
 21
28.663199892768183
 31
0.0
  0
LINE
  5
332
100
AcDbEntity
  8
0
  6
CONTINUOUS
 62
               4
100
AcDbLine
 10
140.63390790121622
 20
29.16319989276824
 30
0.0
 11
132.09390790121626
 21
29.16319989276824
 31
0.0
  0
LINE
  5
333
100
AcDbEntity
  8
0
  6
CONTINUOUS
 62
               4
100
AcDbLine
 10
131.86390790121624
 20
11.855119083434921
 30
0.0
 11
131.36390790121624
 21
11.855119083434921
 31
0.0
  0
LINE
  5
334
100
AcDbEntity
  8
0
  6
CONTINUOUS
 62
               4
100
AcDbLine
 10
139.11388959066932
 20
19.855119083434921
 30
0.0
 11
133.61388959066932
 21
19.855119083434921
 31
0.0
  0
LINE
  5
335
100
AcDbEntity
  8
0
  6
CONTINUOUS
 62
               4
100
AcDbLine
 10
133.61388959066932
 20
11.855119083434921
 30
0.0
 11
131.86390790121624
 21
11.855119083434921
 31
0.0
  0
LINE
  5
336
100
AcDbEntity
  8
0
  6
CONTINUOUS
 62
               4
100
AcDbLine
 10
139.11388959066932
 20
3.8551190834349285
 30
0.0
 11
139.11388959066932
 21
19.855119083434921
 31
0.0
  0
LINE
  5
337
100
AcDbEntity
  8
0
  6
CONTINUOUS
 62
               4
100
AcDbLine
 10
140.11388959066932
 20
3.8551190834349285
 30
0.0
 11
140.11388959066932
 21
11.855119083434921
 31
0.0
  0
LINE
  5
338
100
AcDbEntity
  8
0
  6
CONTINUOUS
 62
               4
100
AcDbLine
 10
139.11388959066932
 20
5.3551190834349285
 30
0.0
 11
133.61388959066932
 21
5.3551190834349285
 31
0.0
  0
LINE
  5
339
100
AcDbEntity
  8
0
  6
CONTINUOUS
 62
               4
100
AcDbLine
 10
133.61388959066932
 20
3.8551190834349285
 30
0.0
 11
133.61388959066932
 21
19.855119083434921
 31
0.0
  0
LINE
  5
33A
100
AcDbEntity
  8
0
  6
CONTINUOUS
 62
               4
100
AcDbLine
 10
132.61388959066932
 20
3.8551190834349285
 30
0.0
 11
132.61388959066932
 21
11.855119083434921
 31
0.0
  0
LINE
  5
33B
100
AcDbEntity
  8
0
  6
CONTINUOUS
 62
               4
100
AcDbLine
 10
140.11388959066932
 20
3.8551190834349285
 30
0.0
 11
132.61388959066932
 21
3.8551190834349285
 31
0.0
  0
ARC
  5
33C
100
AcDbEntity
  8
0
  6
CONTINUOUS
 62
               4
100
AcDbCircle
 10
140.6327196173109
 20
28.662011608862919
 30
0.0
 40
0.5011896925741138
100
AcDbArc
 50
0.1358442071527786
 51
89.864155792846745
  0
ARC
  5
33D
100
AcDbEntity
  8
0
  6
CONTINUOUS
 62
               4
100
AcDbCircle
 10
132.09511140732803
 20
28.661996386656462
 30
0.0
 40
0.5012049510586274
100
AcDbArc
 50
90.137580219312724
 51
179.86241978068688
  0
ARC
  5
33E
100
AcDbEntity
  8
0
  6
CONTINUOUS
 62
               4
100
AcDbCircle
 10
132.09391034269544
 20
12.355121524914217
 30
0.0
 40
0.500002441485227
100
AcDbArc
 50
180.00027977154909
 51
269.99972022845009
  0
ARC
  5
33F
100
AcDbEntity
  8
0
  6
CONTINUOUS
 62
               4
100
AcDbCircle
 10
140.63392071855407
 20
12.355106266097188
 30
0.0
 40
0.4999871828265524
100
AcDbArc
 50
269.99853120363389
 51
0.0014687963652481
  0
ARC
  5
340
100
AcDbEntity
  8
0
  6
CONTINUOUS
 62
               4
100
AcDbCircle
 10
140.86391858234771
 20
12.355108402303564
 30
0.0
 40
0.4999893189827007
100
AcDbArc
 50
269.99877600635432
 51
0.0012239936446972
  0
ARC
  5
341
100
AcDbEntity
  8
0
  6
CONTINUOUS
 62
               4
100
AcDbCircle
 10
131.86391247896705
 20
12.355123661185736
 30
0.0
 40
0.5000045777717621
100
AcDbArc
 50
180.00052456679882
 51
269.99947543320042
  0
LINE
  5
342
100
AcDbEntity
  8
0
  6
CONTINUOUS
 62
               4
100
AcDbLine
 10
134.46388959066945
 20
-3.6378101894985235
 30
0.0
 11
134.46388959066945
 21
-0.1448809165650715
 31
0.0
  0
LINE
  5
343
100
AcDbEntity
  8
0
  6
CONTINUOUS
 62
               4
100
AcDbLine
 10
135.76388959066941
 20
-3.6378101894985235
 30
0.0
 11
135.76388959066941
 21
-0.4948809165650943
 31
0.0
  0
LINE
  5
344
100
AcDbEntity
  8
0
  6
CONTINUOUS
 62
               4
100
AcDbLine
 10
137.36388959066932
 20
-7.1378101874985447
 30
0.0
 11
137.36388959066932
 21
-3.6378101894985235
 31
0.0
  0
LINE
  5
345
100
AcDbEntity
  8
0
  6
CONTINUOUS
 62
               4
100
AcDbLine
 10
137.86388959066932
 20
-7.1378101874985447
 30
0.0
 11
137.86388959066932
 21
-3.6378101894985235
 31
0.0
  0
LINE
  5
346
100
AcDbEntity
  8
0
  6
CONTINUOUS
 62
               4
100
AcDbLine
 10
134.46388959066945
 20
0.885119083434958
 30
0.0
 11
134.46388959066945
 21
3.8551190834349285
 31
0.0
  0
LINE
  5
347
100
AcDbEntity
  8
0
  6
CONTINUOUS
 62
               4
100
AcDbLine
 10
135.76388959066941
 20
0.5351190834349353
 30
0.0
 11
135.76388959066941
 21
3.8551190834349285
 31
0.0
  0
LINE
  5
348
100
AcDbEntity
  8
0
  6
CONTINUOUS
 62
               4
100
AcDbLine
 10
138.26388959066941
 20
-0.1348809165650806
 30
0.0
 11
138.26388959066941
 21
3.8551190834349285
 31
0.0
  0
LINE
  5
349
100
AcDbEntity
  8
0
  6
CONTINUOUS
 62
               4
100
AcDbLine
 10
136.96388959066945
 20
-3.6378101894985235
 30
0.0
 11
136.96388959066945
 21
-0.8148809165650306
 31
0.0
  0
LINE
  5
34A
100
AcDbEntity
  8
0
  6
CONTINUOUS
 62
               4
100
AcDbLine
 10
138.26388959066941
 20
-3.6378101894985235
 30
0.0
 11
138.26388959066941
 21
-1.1648809165650533
 31
0.0
  0
LINE
  5
34B
100
AcDbEntity
  8
0
  6
CONTINUOUS
 62
               4
100
AcDbLine
 10
134.86388959066932
 20
-7.1378101874985447
 30
0.0
 11
134.86388959066932
 21
-3.6378101894985235
 31
0.0
  0
LINE
  5
34C
100
AcDbEntity
  8
0
  6
CONTINUOUS
 62
               4
100
AcDbLine
 10
135.36388959066932
 20
-7.1378101874985447
 30
0.0
 11
135.36388959066932
 21
-3.6378101894985235
 31
0.0
  0
LINE
  5
34D
100
AcDbEntity
  8
0
  6
CONTINUOUS
 62
               4
100
AcDbLine
 10
136.96388959066945
 20
0.2151190834349421
 30
0.0
 11
136.96388959066945
 21
3.8551190834349285
 31
0.0
  0
LINE
  5
34E
100
AcDbEntity
  8
0
  6
CONTINUOUS
 62
               4
100
AcDbLine
 10
138.26388959066941
 20
-3.6378101894985235
 30
0.0
 11
136.96388959066945
 21
-3.6378101894985235
 31
0.0
  0
LINE
  5
34F
100
AcDbEntity
  8
0
  6
CONTINUOUS
 62
             200
100
AcDbLine
 10
140.11388959066932
 20
-0.6248809165650897
 30
0.0
 11
132.61388959066932
 21
1.385119083434958
 31
0.0
  0
LINE
  5
350
100
AcDbEntity
  8
0
  6
CONTINUOUS
 62
             200
100
AcDbLine
 10
140.11388959066932
 20
-1.6648809165650533
 30
0.0
 11
132.61388959066932
 21
0.3451190834349376
 31
0.0
  0
LINE
  5
351
100
AcDbEntity
  8
0
  6
CONTINUOUS
 62
               4
100
AcDbLine
 10
135.76388959066941
 20
-3.6378101894985235
 30
0.0
 11
134.46388959066945
 21
-3.6378101894985235
 31
0.0
  0
LINE
  5
352
100
AcDbEntity
  8
0
  6
PHANTOM
 62
             200
100
AcDbLine
 10
134.86390790121624
 20
23.855119083434921
 30
0.0
 11
134.86390790121624
 21
25.855119083434921
 31
0.0
  0
LINE
  5
353
100
AcDbEntity
  8
0
  6
PHANTOM
 62
             200
100
AcDbLine
 10
137.86390790121624
 20
23.855119083434921
 30
0.0
 11
137.86390790121624
 21
25.855119083434921
 31
0.0
  0
LINE
  5
354
100
AcDbEntity
  8
0
  6
PHANTOM
 62
             200
100
AcDbLine
 10
137.86390790121624
 20
25.855119083434921
 30
0.0
 11
134.86390790121624
 21
25.855119083434921
 31
0.0
  0
LINE
  5
355
100
AcDbEntity
  8
0
  6
PHANTOM
 62
             200
100
AcDbLine
 10
137.86390790121624
 20
23.855119083434921
 30
0.0
 11
134.86390790121624
 21
23.855119083434921
 31
0.0
  0
LINE
  5
356
100
AcDbEntity
  8
0
  6
CONTINUOUS
 62
               7
100
AcDbLine
 10
131.85678280948275
 20
64.662225864621334
 30
0.0
 11
133.27099637185586
 21
63.248012302248242
 31
0.0
  0
LINE
  5
357
100
AcDbEntity
  8
0
  6
CONTINUOUS
 62
               7
100
AcDbLine
 10
133.27099637185586
 20
64.662225864621334
 30
0.0
 11
131.85678280948275
 21
63.248012302248242
 31
0.0
  0
LINE
  5
358
100
AcDbEntity
  8
0
  6
CONTINUOUS
 62
               7
100
AcDbLine
 10
132.56388959066931
 20
62.355119083434786
 30
0.0
 11
131.36388959066932
 21
62.355119083434786
 31
0.0
  0
LINE
  5
359
100
AcDbEntity
  8
0
  6
CONTINUOUS
 62
               7
100
AcDbLine
 10
132.56388959066931
 20
65.555119083434789
 30
0.0
 11
131.36388959066932
 21
65.555119083434789
 31
0.0
  0
ARC
  5
35A
100
AcDbEntity
  8
0
  6
CONTINUOUS
 62
               7
100
AcDbCircle
 10
132.56388959066931
 20
63.955119083434788
 30
0.0
 40
1.6000000000000001
100
AcDbArc
 50
269.99999999999937
 51
89.999999999999801
  0
CIRCLE
  5
35B
100
AcDbEntity
  8
0
  6
CONTINUOUS
 62
               7
100
AcDbCircle
 10
132.56388959066931
 20
63.955119083434788
 30
0.0
 40
1.5
  0
LINE
  5
35C
100
AcDbEntity
  8
0
  6
CONTINUOUS
 62
               7
100
AcDbLine
 10
139.45678280948277
 20
50.06222586462134
 30
0.0
 11
140.87099637185588
 21
48.648012302248247
 31
0.0
  0
LINE
  5
35D
100
AcDbEntity
  8
0
  6
CONTINUOUS
 62
               7
100
AcDbLine
 10
140.87099637185588
 20
50.06222586462134
 30
0.0
 11
139.45678280948277
 21
48.648012302248247
 31
0.0
  0
LINE
  5
35E
100
AcDbEntity
  8
0
  6
CONTINUOUS
 62
               7
100
AcDbLine
 10
140.16388959066933
 20
47.755119083434792
 30
0.0
 11
141.36388959066932
 21
47.755119083434792
 31
0.0
  0
LINE
  5
35F
100
AcDbEntity
  8
0
  6
CONTINUOUS
 62
               7
100
AcDbLine
 10
140.16388959066933
 20
50.955119083434795
 30
0.0
 11
141.36388959066932
 21
50.955119083434795
 31
0.0
  0
CIRCLE
  5
360
100
AcDbEntity
  8
0
  6
CONTINUOUS
 62
               7
100
AcDbCircle
 10
140.16388959066933
 20
49.355119083434793
 30
0.0
 40
1.5
  0
ARC
  5
361
100
AcDbEntity
  8
0
  6
CONTINUOUS
 62
               7
100
AcDbCircle
 10
140.16388959066933
 20
49.355119083434793
 30
0.0
 40
1.6000000000000001
100
AcDbArc
 50
89.999999999999815
 51
269.99999999999937
  0
ARC
  5
362
100
AcDbEntity
  8
0
  6
CONTINUOUS
 62
               7
100
AcDbCircle
 10
-75.418948391124346
 20
50.256207089625491
 30
0.0
 40
0.5989129830170392
100
AcDbArc
 50
89.895914524772735
 51
180.10408547522667
  0
LINE
  5
363
100
AcDbEntity
  8
0
  6
CONTINUOUS
 62
               7
100
AcDbLine
 10
-76.01786137414139
 20
48.454031079151463
 30
0.0
 11
-76.01786137414139
 21
50.256207089625491
 31
0.0
  0
LINE
  5
364
100
AcDbEntity
  8
0
  6
CONTINUOUS
 62
               7
100
AcDbLine
 10
-75.417860385887323
 20
47.755119083434792
 30
0.0
 11
-75.417860385887323
 21
50.955119083434781
 31
0.0
  0
LINE
  5
365
100
AcDbEntity
  8
0
  6
CONTINUOUS
 62
               7
100
AcDbLine
 10
-75.417860384933661
 20
50.955119083434781
 30
0.0
 11
-76.417860385887323
 21
50.955119083434781
 31
0.0
  0
LINE
  5
366
100
AcDbEntity
  8
0
  6
CONTINUOUS
 62
               7
100
AcDbLine
 10
-75.417860384933661
 20
47.755119083434792
 30
0.0
 11
-76.417860385887323
 21
47.755119083434792
 31
0.0
  0
LINE
  5
367
100
AcDbEntity
  8
0
  6
CONTINUOUS
 62
               7
100
AcDbLine
 10
-78.017860385887346
 20
75.955119083434795
 30
0.0
 11
-78.017860385887346
 21
81.955119083434795
 31
0.0
  0
LINE
  5
368
100
AcDbEntity
  8
0
  6
CONTINUOUS
 62
               7
100
AcDbLine
 10
-62.41785756936055
 20
81.955119083434795
 30
0.0
 11
-78.017860385887346
 21
81.955119083434766
 31
0.0
  0
LINE
  5
369
100
AcDbEntity
  8
0
  6
CONTINUOUS
 62
               7
100
AcDbLine
 10
-62.41785756936055
 20
31.355119083434801
 30
0.0
 11
-62.41785756936055
 21
81.955119083434795
 31
0.0
  0
LINE
  5
36A
100
AcDbEntity
  8
0
  6
CONTINUOUS
 62
               7
100
AcDbLine
 10
-76.41785756936055
 20
31.355119083434829
 30
0.0
 11
-76.41785756936055
 21
81.955119083434766
 31
0.0
  0
LINE
  5
36B
100
AcDbEntity
  8
0
  6
CONTINUOUS
 62
               7
100
AcDbLine
 10
-62.417860385887323
 20
68.755119083434792
 30
0.0
 11
-76.417860385887323
 21
68.755119083434792
 31
0.0
  0
LINE
  5
36C
100
AcDbEntity
  8
0
  6
CONTINUOUS
 62
               7
100
AcDbLine
 10
-62.417860385887323
 20
44.555119083434818
 30
0.0
 11
-76.417860385887323
 21
44.555119083434818
 31
0.0
  0
LINE
  5
36D
100
AcDbEntity
  8
0
  6
CONTINUOUS
 62
               7
100
AcDbLine
 10
-78.017860385887346
 20
75.955119083434795
 30
0.0
 11
-76.417860385887323
 21
74.355119083434786
 31
0.0
  0
ARC
  5
36E
100
AcDbEntity
  8
0
  6
CONTINUOUS
 62
               7
100
AcDbCircle
 10
-75.418948391124346
 20
48.454031079151463
 30
0.0
 40
0.5989129830170392
100
AcDbArc
 50
179.89591452477254
 51
270.10408547522644
  0
LINE
  5
36F
100
AcDbEntity
  8
0
  6
CONTINUOUS
 62
               7
100
AcDbLine
 10
-78.017860385887346
 20
37.355119083434801
 30
0.0
 11
-78.017860385887346
 21
31.355119083434801
 31
0.0
  0
LINE
  5
370
100
AcDbEntity
  8
0
  6
CONTINUOUS
 62
               7
100
AcDbLine
 10
-62.41785756936055
 20
31.355119083434801
 30
0.0
 11
-78.017860385887346
 21
31.355119083434829
 31
0.0
  0
LINE
  5
371
100
AcDbEntity
  8
0
  6
CONTINUOUS
 62
               7
100
AcDbLine
 10
-78.017860385887346
 20
37.355119083434801
 30
0.0
 11
-76.417860385887323
 21
38.955119083434809
 31
0.0
  0
LINE
  5
372
100
AcDbEntity
  8
0
  6
CENTER
 62
               2
100
AcDbLine
 10
-63.980540361648835
 20
76.655119083434798
 30
0.0
 11
-61.699881366809976
 21
76.655119083434798
 31
0.0
  0
LINE
  5
373
100
AcDbEntity
  8
0
  6
CONTINUOUS
 62
               7
100
AcDbLine
 10
-62.41785756936055
 20
44.654145816833307
 30
0.0
 11
-61.717857569360547
 21
44.654145816833307
 31
0.0
  0
LINE
  5
374
100
AcDbEntity
  8
0
  6
CONTINUOUS
 62
               7
100
AcDbLine
 10
-62.41785756936055
 20
68.654145816833278
 30
0.0
 11
-61.717857569360547
 21
68.654145816833278
 31
0.0
  0
LINE
  5
375
100
AcDbEntity
  8
0
  6
CENTER
 62
               2
100
AcDbLine
 10
-50.717857569360547
 20
52.257119083434873
 30
0.0
 11
-50.717857569360547
 21
44.257119083434873
 31
0.0
  0
LINE
  5
376
100
AcDbEntity
  8
0
  6
CENTER
 62
               2
100
AcDbLine
 10
-56.717857569360547
 20
60.655119083434869
 30
0.0
 11
-56.717857569360547
 21
52.655119083434869
 31
0.0
  0
LINE
  5
377
100
AcDbEntity
  8
0
  6
CENTER
 62
               2
100
AcDbLine
 10
-60.717857569360547
 20
56.655119083434869
 30
0.0
 11
-52.717857569360547
 21
56.655119083434869
 31
0.0
  0
LINE
  5
378
100
AcDbEntity
  8
0
  6
CENTER
 62
               2
100
AcDbLine
 10
-54.717857569360547
 20
48.257119083434873
 30
0.0
 11
-46.717857569360547
 21
48.257119083434873
 31
0.0
  0
LINE
  5
379
100
AcDbEntity
  8
0
  6
CONTINUOUS
 62
               7
100
AcDbLine
 10
-61.717857569360547
 20
40.155119083434869
 30
0.0
 11
-61.717857569360547
 21
73.155119083434869
 31
0.0
  0
LINE
  5
37A
100
AcDbEntity
  8
0
  6
CONTINUOUS
 62
               7
100
AcDbLine
 10
-45.717857569360547
 20
40.155119083434869
 30
0.0
 11
-45.717857569360547
 21
73.155119083434869
 31
0.0
  0
CIRCLE
  5
37B
100
AcDbEntity
  8
0
  6
CONTINUOUS
 62
               2
100
AcDbCircle
 10
-56.717857569360547
 20
56.655119083434869
 30
0.0
 40
2.5
  0
CIRCLE
  5
37C
100
AcDbEntity
  8
0
  6
CONTINUOUS
 62
               2
100
AcDbCircle
 10
-50.717857569360547
 20
48.257119083434873
 30
0.0
 40
2.5
  0
CIRCLE
  5
37D
100
AcDbEntity
  8
0
  6
CONTINUOUS
 62
               7
100
AcDbCircle
 10
-56.717857569360547
 20
56.655119083434869
 30
0.0
 40
2.1000000000000001
  0
CIRCLE
  5
37E
100
AcDbEntity
  8
0
  6
CONTINUOUS
 62
               7
100
AcDbCircle
 10
-50.717857569360547
 20
48.257119083434873
 30
0.0
 40
2.1000000000000001
  0
LINE
  5
37F
100
AcDbEntity
  8
0
  6
CONTINUOUS
 62
               7
100
AcDbLine
 10
-61.71785756153588
 20
40.155119083434869
 30
0.0
 11
-45.717857569360547
 21
40.155119083434869
 31
0.0
  0
LINE
  5
380
100
AcDbEntity
  8
0
  6
CONTINUOUS
 62
               7
100
AcDbLine
 10
-61.71785756153588
 20
73.155119083434869
 30
0.0
 11
-45.71785756153588
 21
73.155119083434869
 31
0.0
  0
LINE
  5
381
100
AcDbEntity
  8
0
  6
DASHED
 62
               2
100
AcDbLine
 10
-62.417860385887323
 20
75.905119083434798
 30
0.0
 11
-63.512932415199955
 21
75.905119083434798
 31
0.0
  0
LINE
  5
382
100
AcDbEntity
  8
0
  6
DASHED
 62
               2
100
AcDbLine
 10
-62.417860385887323
 20
77.405119083434798
 30
0.0
 11
-63.512932415199955
 21
77.405119083434798
 31
0.0
  0
LINE
  5
383
100
AcDbEntity
  8
0
  6
CENTER
 62
               2
100
AcDbLine
 10
-63.980540361648835
 20
36.655119083434812
 30
0.0
 11
-61.699881366809976
 21
36.655119083434812
 31
0.0
  0
LINE
  5
384
100
AcDbEntity
  8
0
  6
DASHED
 62
               2
100
AcDbLine
 10
-62.417860385887323
 20
37.405119083434812
 30
0.0
 11
-63.512932415199955
 21
37.405119083434812
 31
0.0
  0
LINE
  5
385
100
AcDbEntity
  8
0
  6
DASHED
 62
               2
100
AcDbLine
 10
-62.417860385887323
 20
35.905119083434812
 30
0.0
 11
-63.512932415199955
 21
35.905119083434812
 31
0.0
  0
LINE
  5
386
100
AcDbEntity
  8
0
  6
CENTER
 62
               2
100
AcDbLine
 10
-69.417857569360535
 20
105.13805106232508
 30
0.0
 11
-69.417857569360535
 21
8.172187104544534
 31
0.0
  0
LINE
  5
387
100
AcDbEntity
  8
0
  6
CONTINUOUS
 62
               4
100
AcDbLine
 10
-79.302706044560466
 20
81.955119083434596
 30
0.0
 11
-79.302706044560921
 21
101.45612917330129
 31
0.0
  0
LINE
  5
388
100
AcDbEntity
  8
0
  6
CONTINUOUS
 62
               4
100
AcDbLine
 10
-62.417857569360535
 20
81.95511908343488
 30
0.0
 11
-62.41785756936099
 21
103.85511908343486
 31
0.0
  0
LINE
  5
389
100
AcDbEntity
  8
0
  6
CONTINUOUS
 62
               4
100
AcDbLine
 10
-76.417857561361018
 20
103.85511908343463
 30
0.0
 11
-76.417857561360563
 21
81.955119083434653
 31
0.0
  0
LINE
  5
38A
100
AcDbEntity
  8
0
  6
CONTINUOUS
 62
               4
100
AcDbLine
 10
-84.126467179688746
 20
84.154824089346306
 30
0.0
 11
-79.514179536117183
 21
82.002041868857617
 31
0.0
  0
LINE
  5
38B
100
AcDbEntity
  8
0
  6
CONTINUOUS
 62
               4
100
AcDbLine
 10
-84.414827253760961
 20
100.95410897156782
 30
0.0
 11
-84.414827253760734
 21
84.606634233434562
 31
0.0
  0
LINE
  5
38C
100
AcDbEntity
  8
0
  6
CONTINUOUS
 62
               4
100
AcDbLine
 10
-99.913817143894164
 20
98.709352195955006
 30
0.0
 11
-103.41381714389428
 21
98.709352195955006
 31
0.0
  0
LINE
  5
38D
100
AcDbEntity
  8
0
  6
CONTINUOUS
 62
               4
100
AcDbLine
 10
-99.913817143894164
 20
99.209352195955006
 30
0.0
 11
-103.41381714389428
 21
99.209352195955006
 31
0.0
  0
LINE
  5
38E
100
AcDbEntity
  8
0
  6
CONTINUOUS
 62
               4
100
AcDbLine
 10
-103.41381714389428
 20
99.209352195955006
 30
0.0
 11
-103.41381714389428
 21
98.709352195955006
 31
0.0
  0
ARC
  5
38F
100
AcDbEntity
  8
0
  6
CONTINUOUS
 62
               4
100
AcDbCircle
 10
-73.816769375088256
 20
103.85620708867165
 30
0.0
 40
0.5989129830170392
100
AcDbArc
 50
359.89591452477299
 51
90.104085475226924
  0
LINE
  5
390
100
AcDbEntity
  8
0
  6
CONTINUOUS
 62
               4
100
AcDbLine
 10
-72.717857380325313
 20
103.85511908343463
 30
0.0
 11
-72.717857380325313
 21
104.45511908343465
 31
0.0
  0
LINE
  5
391
100
AcDbEntity
  8
0
  6
CONTINUOUS
 62
               4
100
AcDbLine
 10
-99.91381714389405
 20
98.309664528634158
 30
0.0
 11
-99.913817143894278
 21
99.610674628900853
 31
0.0
  0
LINE
  5
392
100
AcDbEntity
  8
0
  6
CONTINUOUS
 62
               4
100
AcDbLine
 10
-76.41785756136079
 20
101.45612917330132
 30
0.0
 11
-83.912807052027631
 21
101.45612917330124
 31
0.0
  0
LINE
  5
393
100
AcDbEntity
  8
0
  6
CONTINUOUS
 62
               4
100
AcDbLine
 10
-92.411796946160905
 20
96.457139277167613
 30
0.0
 11
-92.411796946160905
 21
100.55814937583435
 31
0.0
  0
LINE
  5
394
100
AcDbEntity
  8
0
  6
CONTINUOUS
 62
               4
100
AcDbLine
 10
-85.807756545894392
 20
102.55915947570119
 30
0.0
 11
-90.912807048027673
 21
103.45713927316777
 31
0.0
  0
LINE
  5
395
100
AcDbEntity
  8
0
  6
CONTINUOUS
 62
               4
100
AcDbLine
 10
-92.411796946160905
 20
102.46016957676764
 30
0.0
 11
-92.411796946160905
 21
103.45713927316771
 31
0.0
  0
LINE
  5
396
100
AcDbEntity
  8
0
  6
CONTINUOUS
 62
               4
100
AcDbLine
 10
-84.747150485894338
 20
101.35713927436777
 30
0.0
 11
-91.08957472469416
 21
102.47431099090105
 31
0.0
  0
LINE
  5
397
100
AcDbEntity
  8
0
  6
CONTINUOUS
 62
               4
100
AcDbLine
 10
-83.410786850294301
 20
101.55511907223453
 30
0.0
 11
-77.711796954560953
 21
101.55511907223462
 31
0.0
  0
LINE
  5
398
100
AcDbEntity
  8
0
  6
CONTINUOUS
 62
               4
100
AcDbLine
 10
-92.411796946160905
 20
100.55814937583435
 30
0.0
 11
-92.114827249360872
 21
100.85511907263432
 31
0.0
  0
LINE
  5
399
100
AcDbEntity
  8
0
  6
CONTINUOUS
 62
               4
100
AcDbLine
 10
-91.414827249760776
 20
96.45713927716767
 30
0.0
 11
-91.414827249760776
 21
97.058149377834383
 31
0.0
  0
LINE
  5
39A
100
AcDbEntity
  8
0
  6
CONTINUOUS
 62
               4
100
AcDbLine
 10
-91.414827249760776
 20
97.058149377834383
 30
0.0
 11
-86.415837353627523
 21
97.058149377834496
 31
0.0
  0
LINE
  5
39B
100
AcDbEntity
  8
0
  6
CONTINUOUS
 62
               4
100
AcDbLine
 10
-86.415837353627523
 20
96.457139277167727
 30
0.0
 11
-86.415837353627523
 21
97.058149377834496
 31
0.0
  0
LINE
  5
39C
100
AcDbEntity
  8
0
  6
CONTINUOUS
 62
               4
100
AcDbLine
 10
-85.913817151894193
 20
100.55814937583446
 30
0.0
 11
-86.210786848694227
 21
100.85511907263444
 31
0.0
  0
LINE
  5
39D
100
AcDbEntity
  8
0
  6
CONTINUOUS
 62
               4
100
AcDbLine
 10
-85.807756545894392
 20
102.55915947570119
 30
0.0
 11
-76.714827258160824
 21
102.55915947570136
 31
0.0
  0
LINE
  5
39E
100
AcDbEntity
  8
0
  6
CONTINUOUS
 62
               4
100
AcDbLine
 10
-77.711796954560953
 20
101.45612917330135
 30
0.0
 11
-77.711796954560953
 21
101.55511907223462
 31
0.0
  0
LINE
  5
39F
100
AcDbEntity
  8
0
  6
CONTINUOUS
 62
               4
100
AcDbLine
 10
-96.979473711227513
 20
98.309664528634215
 30
0.0
 11
-92.411796946160905
 21
98.309664528634272
 31
0.0
  0
LINE
  5
3A0
100
AcDbEntity
  8
0
  6
CONTINUOUS
 62
             200
100
AcDbLine
 10
-95.742099974560972
 20
100.45915947690091
 30
0.0
 11
-97.474423205894084
 21
97.454108973567628
 31
0.0
  0
LINE
  5
3A1
100
AcDbEntity
  8
0
  6
CONTINUOUS
 62
               4
100
AcDbLine
 10
-96.229978762160783
 20
99.61067462890091
 30
0.0
 11
-92.411796946160905
 21
99.610674628901023
 31
0.0
  0
LINE
  5
3A2
100
AcDbEntity
  8
0
  6
CONTINUOUS
 62
               4
100
AcDbLine
 10
-92.411796946160905
 20
103.45713927316771
 30
0.0
 11
-90.912807048027673
 21
103.45713927316777
 31
0.0
  0
LINE
  5
3A3
100
AcDbEntity
  8
0
  6
CONTINUOUS
 62
               4
100
AcDbLine
 10
-92.411796946160905
 20
102.46016957676764
 30
0.0
 11
-91.004726239894183
 21
102.4601695767677
 31
0.0
  0
LINE
  5
3A4
100
AcDbEntity
  8
0
  6
CONTINUOUS
 62
               4
100
AcDbLine
 10
-92.114827249360872
 20
100.85511907263432
 30
0.0
 11
-86.210786848694227
 21
100.85511907263444
 31
0.0
  0
LINE
  5
3A5
100
AcDbEntity
  8
0
  6
CONTINUOUS
 62
               4
100
AcDbLine
 10
-92.411796946160905
 20
100.55814937583435
 30
0.0
 11
-84.817857556561023
 21
100.55814937583446
 31
0.0
  0
LINE
  5
3A6
100
AcDbEntity
  8
0
  6
CONTINUOUS
 62
               4
100
AcDbLine
 10
-92.411796946160905
 20
99.858149376234365
 30
0.0
 11
-84.414827253760961
 21
99.858149376234536
 31
0.0
  0
LINE
  5
3A7
100
AcDbEntity
  8
0
  6
CONTINUOUS
 62
               4
100
AcDbLine
 10
-92.411796946160905
 20
98.055119074234398
 30
0.0
 11
-84.414827253760961
 21
98.055119074234511
 31
0.0
  0
LINE
  5
3A8
100
AcDbEntity
  8
0
  6
CONTINUOUS
 62
               4
100
AcDbLine
 10
-84.414827253760734
 20
96.457139277167784
 30
0.0
 11
-86.415837353627523
 21
96.457139277167727
 31
0.0
  0
LINE
  5
3A9
100
AcDbEntity
  8
0
  6
CONTINUOUS
 62
               4
100
AcDbLine
 10
-91.414827249760776
 20
96.45713927716767
 30
0.0
 11
-92.411796946160905
 21
96.457139277167613
 31
0.0
  0
ARC
  5
3AA
100
AcDbEntity
  8
0
  6
CONTINUOUS
 62
               4
100
AcDbCircle
 10
-83.918190402282164
 20
100.95949232182252
 30
0.0
 40
0.4966660273328702
100
AcDbArc
 50
89.378960363566961
 51
180.62103963643685
  0
ARC
  5
3AB
100
AcDbEntity
  8
0
  6
CONTINUOUS
 62
               4
100
AcDbCircle
 10
-76.717288853078401
 20
102.25970321285334
 30
0.0
 40
0.2994663800970315
100
AcDbArc
 50
359.12289923249404
 51
89.529026971536297
  0
ARC
  5
3AC
100
AcDbEntity
  8
0
  6
CONTINUOUS
 62
               4
100
AcDbCircle
 10
-83.41777007549814
 20
101.06015340852716
 30
0.0
 40
0.4950149226876426
100
AcDbArc
 50
89.191695875422141
 51
126.87687525883594
  0
ARC
  5
3AD
100
AcDbEntity
  8
0
  6
CONTINUOUS
 62
               4
100
AcDbCircle
 10
-84.817753487740049
 20
100.96044631503898
 30
0.0
 40
0.4029269013737999
100
AcDbArc
 50
0.1042835857501941
 51
79.908228442604724
  0
ARC
  5
3AE
100
AcDbEntity
  8
0
  6
CONTINUOUS
 62
               4
100
AcDbCircle
 10
-84.81869160071534
 20
100.96201372278884
 30
0.0
 40
0.403865208170398
100
AcDbArc
 50
270.11832473551408
 51
359.88167526448518
  0
LINE
  5
3AF
100
AcDbEntity
  8
0
  6
CONTINUOUS
 62
             200
100
AcDbLine
 10
-96.08856462082764
 20
100.45915947690096
 30
0.0
 11
-97.820887852160979
 21
97.461179680634217
 31
0.0
  0
LINE
  5
3B0
100
AcDbEntity
  8
0
  6
CONTINUOUS
 62
               4
100
AcDbLine
 10
-64.417857565360862
 20
102.8551190834348
 30
0.0
 11
-76.417857561360847
 21
102.85511908343457
 31
0.0
  0
LINE
  5
3B1
100
AcDbEntity
  8
0
  6
CONTINUOUS
 62
               4
100
AcDbLine
 10
-64.417857565360862
 20
104.45511908343485
 30
0.0
 11
-64.417857565360862
 21
102.8551190834348
 31
0.0
  0
LINE
  5
3B2
100
AcDbEntity
  8
0
  6
CONTINUOUS
 62
               4
100
AcDbLine
 10
-62.91785756936082
 20
104.35511908343491
 30
0.0
 11
-64.417857565360862
 21
104.35511908343486
 31
0.0
  0
ARC
  5
3B3
100
AcDbEntity
  8
0
  6
CONTINUOUS
 62
               4
100
AcDbCircle
 10
-62.91785756936082
 20
103.85511908343486
 30
0.0
 40
0.5
100
AcDbArc
 50
0.0000000000010687
 51
90.000000000000867
  0
LINE
  5
3B4
100
AcDbEntity
  8
0
  6
CONTINUOUS
 62
               4
100
AcDbLine
 10
-63.217857655360774
 20
104.45511908343488
 30
0.0
 11
-75.617857475360893
 21
104.45511908343465
 31
0.0
  0
ARC
  5
3B5
100
AcDbEntity
  8
0
  6
CONTINUOUS
 62
               4
100
AcDbCircle
 10
-75.917857561360961
 20
103.85511908343463
 30
0.0
 40
0.5
100
AcDbArc
 50
93.919585899651864
 51
180.00000000000065
  0
LINE
  5
3B6
100
AcDbEntity
  8
0
  6
CONTINUOUS
 62
               4
100
AcDbLine
 10
-72.717857380325313
 20
103.85511908343469
 30
0.0
 11
-76.417857561360847
 21
103.85511908343463
 31
0.0
  0
ARC
  5
3B7
100
AcDbEntity
  8
0
  6
CONTINUOUS
 62
               4
100
AcDbCircle
 10
-75.618945480489174
 20
103.85620708856291
 30
0.0
 40
0.598912923125741
100
AcDbArc
 50
89.895914524773801
 51
180.10408547522775
  0
ARC
  5
3B8
100
AcDbEntity
  8
0
  6
CONTINUOUS
 62
               4
100
AcDbCircle
 10
-63.217762508712156
 20
103.85521423008353
 30
0.0
 40
0.599904800896587
100
AcDbArc
 50
56.247417870394948
 51
90.009087277547238
  0
LINE
  5
3B9
100
AcDbEntity
  8
0
  6
CONTINUOUS
 62
               4
100
AcDbLine
 10
-99.91381714389405
 20
98.309664528634158
 30
0.0
 11
-97.330607692349588
 21
98.309664528634215
 31
0.0
  0
LINE
  5
3BA
100
AcDbEntity
  8
0
  6
CONTINUOUS
 62
               4
100
AcDbLine
 10
-99.913817143894278
 20
99.610674628900853
 30
0.0
 11
-96.578844780638917
 21
99.61067462890091
 31
0.0
  0
ARC
  5
3BB
100
AcDbEntity
  8
0
  6
CONTINUOUS
 62
               4
100
AcDbCircle
 10
-83.915114930917355
 20
84.607641543973699
 30
0.0
 40
0.4997133381008656
100
AcDbArc
 50
180.11549557964355
 51
245.17378469019093
  0
LINE
  5
3BC
100
AcDbEntity
  8
0
  6
CONTINUOUS
 62
               4
100
AcDbLine
 10
-79.302706044560466
 20
31.355119083435042
 30
0.0
 11
-79.302706044560693
 21
11.854108993568317
 31
0.0
  0
LINE
  5
3BD
100
AcDbEntity
  8
0
  6
CONTINUOUS
 62
               4
100
AcDbLine
 10
-62.417857569360535
 20
31.355119083434815
 30
0.0
 11
-62.417857569360876
 21
9.4551190834348375
 31
0.0
  0
LINE
  5
3BE
100
AcDbEntity
  8
0
  6
CONTINUOUS
 62
               4
100
AcDbLine
 10
-76.41785756136079
 20
9.4551190834350081
 30
0.0
 11
-76.417857561360563
 21
31.355119083434985
 31
0.0
  0
LINE
  5
3BF
100
AcDbEntity
  8
0
  6
CONTINUOUS
 62
               4
100
AcDbLine
 10
-84.414827253760734
 20
12.356129195301762
 30
0.0
 11
-84.414827253760734
 21
28.703603933435019
 31
0.0
  0
LINE
  5
3C0
100
AcDbEntity
  8
0
  6
CONTINUOUS
 62
               4
100
AcDbLine
 10
-99.91381714389405
 20
14.100885970914575
 30
0.0
 11
-103.41381714389428
 21
14.100885970914575
 31
0.0
  0
LINE
  5
3C1
100
AcDbEntity
  8
0
  6
CONTINUOUS
 62
               4
100
AcDbLine
 10
-99.91381714389405
 20
14.600885970914575
 30
0.0
 11
-103.41381714389428
 21
14.600885970914575
 31
0.0
  0
ARC
  5
3C2
100
AcDbEntity
  8
0
  6
CONTINUOUS
 62
               4
100
AcDbCircle
 10
-65.018945763632701
 20
9.4540310781980423
 30
0.0
 40
0.5989129830170392
100
AcDbArc
 50
179.89591452477279
 51
270.10408547522673
  0
LINE
  5
3C3
100
AcDbEntity
  8
0
  6
CONTINUOUS
 62
               4
100
AcDbLine
 10
-66.117857758395644
 20
9.4551190834350649
 30
0.0
 11
-66.117857758395644
 21
8.8551190834350422
 31
0.0
  0
LINE
  5
3C4
100
AcDbEntity
  8
0
  6
CONTINUOUS
 62
               4
100
AcDbLine
 10
-99.91381714389405
 20
15.000573638235423
 30
0.0
 11
-99.913817143894278
 21
13.699563537968729
 31
0.0
  0
LINE
  5
3C5
100
AcDbEntity
  8
0
  6
CONTINUOUS
 62
               4
100
AcDbLine
 10
-76.41785756136079
 20
11.854108993568317
 30
0.0
 11
-83.912807052027404
 21
11.854108993568374
 31
0.0
  0
LINE
  5
3C6
100
AcDbEntity
  8
0
  6
CONTINUOUS
 62
               4
100
AcDbLine
 10
-92.411796946160905
 20
16.853098889701968
 30
0.0
 11
-92.411796946160678
 21
12.752088791035234
 31
0.0
  0
LINE
  5
3C7
100
AcDbEntity
  8
0
  6
CONTINUOUS
 62
               4
100
AcDbLine
 10
-85.807756545894165
 20
10.751078691168388
 30
0.0
 11
-90.912807048027446
 21
9.8530988937018691
 31
0.0
  0
LINE
  5
3C8
100
AcDbEntity
  8
0
  6
CONTINUOUS
 62
               4
100
AcDbLine
 10
-92.411796946160905
 20
10.850068590101941
 30
0.0
 11
-92.411796946160905
 21
9.8530988937018691
 31
0.0
  0
LINE
  5
3C9
100
AcDbEntity
  8
0
  6
CONTINUOUS
 62
               4
100
AcDbLine
 10
-84.74715048589411
 20
11.953098892501814
 30
0.0
 11
-91.08957472469416
 21
10.835927175968592
 31
0.0
  0
LINE
  5
3CA
100
AcDbEntity
  8
0
  6
CONTINUOUS
 62
               4
100
AcDbLine
 10
-83.410786850294073
 20
11.755119094635106
 30
0.0
 11
-77.711796954560725
 21
11.755119094635049
 31
0.0
  0
LINE
  5
3CB
100
AcDbEntity
  8
0
  6
CONTINUOUS
 62
               4
100
AcDbLine
 10
-92.411796946160678
 20
12.752088791035234
 30
0.0
 11
-92.114827249360872
 21
12.455119094235258
 31
0.0
  0
LINE
  5
3CC
100
AcDbEntity
  8
0
  6
CONTINUOUS
 62
               4
100
AcDbLine
 10
-91.414827249760776
 20
16.853098889701968
 30
0.0
 11
-91.414827249760776
 21
16.252088789035255
 31
0.0
  0
LINE
  5
3CD
100
AcDbEntity
  8
0
  6
CONTINUOUS
 62
               4
100
AcDbLine
 10
-91.414827249760776
 20
16.252088789035255
 30
0.0
 11
-86.415837353627523
 21
16.252088789035085
 31
0.0
  0
LINE
  5
3CE
100
AcDbEntity
  8
0
  6
CONTINUOUS
 62
               4
100
AcDbLine
 10
-86.415837353627523
 20
16.853098889701911
 30
0.0
 11
-86.415837353627523
 21
16.252088789035085
 31
0.0
  0
LINE
  5
3CF
100
AcDbEntity
  8
0
  6
CONTINUOUS
 62
               4
100
AcDbLine
 10
-85.913817151894193
 20
12.752088791035121
 30
0.0
 11
-86.210786848693999
 21
12.455119094235144
 31
0.0
  0
LINE
  5
3D0
100
AcDbEntity
  8
0
  6
CONTINUOUS
 62
               4
100
AcDbLine
 10
-85.807756545894165
 20
10.751078691168388
 30
0.0
 11
-76.714827258160824
 21
10.751078691168274
 31
0.0
  0
LINE
  5
3D1
100
AcDbEntity
  8
0
  6
CONTINUOUS
 62
               4
100
AcDbLine
 10
-77.711796954560725
 20
11.854108993568317
 30
0.0
 11
-77.711796954560725
 21
11.755119094635049
 31
0.0
  0
LINE
  5
3D2
100
AcDbEntity
  8
0
  6
CONTINUOUS
 62
               4
100
AcDbLine
 10
-96.981220591797012
 20
15.000573638235366
 30
0.0
 11
-92.411796946160905
 21
15.000573638235309
 31
0.0
  0
LINE
  5
3D3
100
AcDbEntity
  8
0
  6
CONTINUOUS
 62
             200
100
AcDbLine
 10
-95.742099974560972
 20
12.851078689968674
 30
0.0
 11
-97.474423205894084
 21
15.856129193301953
 31
0.0
  0
LINE
  5
3D4
100
AcDbEntity
  8
0
  6
CONTINUOUS
 62
               4
100
AcDbLine
 10
-96.229978762160783
 20
13.699563537968672
 30
0.0
 11
-92.411796946160905
 21
13.699563537968558
 31
0.0
  0
LINE
  5
3D5
100
AcDbEntity
  8
0
  6
CONTINUOUS
 62
               4
100
AcDbLine
 10
-92.411796946160905
 20
9.8530988937018691
 30
0.0
 11
-90.912807048027446
 21
9.8530988937018691
 31
0.0
  0
LINE
  5
3D6
100
AcDbEntity
  8
0
  6
CONTINUOUS
 62
               4
100
AcDbLine
 10
-92.411796946160905
 20
10.850068590101941
 30
0.0
 11
-91.004726239894183
 21
10.850068590101884
 31
0.0
  0
LINE
  5
3D7
100
AcDbEntity
  8
0
  6
CONTINUOUS
 62
               4
100
AcDbLine
 10
-92.114827249360872
 20
12.455119094235258
 30
0.0
 11
-86.210786848693999
 21
12.455119094235144
 31
0.0
  0
LINE
  5
3D8
100
AcDbEntity
  8
0
  6
CONTINUOUS
 62
               4
100
AcDbLine
 10
-92.411796946160678
 20
12.752088791035234
 30
0.0
 11
-84.817857556560796
 21
12.752088791035121
 31
0.0
  0
LINE
  5
3D9
100
AcDbEntity
  8
0
  6
CONTINUOUS
 62
               4
100
AcDbLine
 10
-92.411796946160905
 20
13.452088790635216
 30
0.0
 11
-84.414827253760961
 21
13.452088790635045
 31
0.0
  0
LINE
  5
3DA
100
AcDbEntity
  8
0
  6
CONTINUOUS
 62
               4
100
AcDbLine
 10
-92.411796946160905
 20
15.255119092635184
 30
0.0
 11
-84.414827253760961
 21
15.25511909263507
 31
0.0
  0
LINE
  5
3DB
100
AcDbEntity
  8
0
  6
CONTINUOUS
 62
               4
100
AcDbLine
 10
-84.414827253760734
 20
16.853098889701798
 30
0.0
 11
-86.415837353627523
 21
16.853098889701911
 31
0.0
  0
LINE
  5
3DC
100
AcDbEntity
  8
0
  6
CONTINUOUS
 62
               4
100
AcDbLine
 10
-91.414827249760776
 20
16.853098889701968
 30
0.0
 11
-92.411796946160905
 21
16.853098889701968
 31
0.0
  0
ARC
  5
3DD
100
AcDbEntity
  8
0
  6
CONTINUOUS
 62
               4
100
AcDbCircle
 10
-83.918190402282164
 20
12.350745845047115
 30
0.0
 40
0.4966660273328702
100
AcDbArc
 50
179.3789603635625
 51
270.62103963643239
  0
ARC
  5
3DE
100
AcDbEntity
  8
0
  6
CONTINUOUS
 62
               4
100
AcDbCircle
 10
-76.717288853078173
 20
11.0505349540163
 30
0.0
 40
0.2994663800970315
100
AcDbArc
 50
270.4709730284639
 51
0.8771007675053801
  0
ARC
  5
3DF
100
AcDbEntity
  8
0
  6
CONTINUOUS
 62
               4
100
AcDbCircle
 10
-83.417770075497913
 20
12.250084758342481
 30
0.0
 40
0.4950149226876426
100
AcDbArc
 50
233.12312474116354
 51
270.80830412457732
  0
ARC
  5
3E0
100
AcDbEntity
  8
0
  6
CONTINUOUS
 62
               4
100
AcDbCircle
 10
-84.817753487739822
 20
12.349791851830602
 30
0.0
 40
0.4029269013737999
100
AcDbArc
 50
280.09177155739474
 51
359.89571641424925
  0
ARC
  5
3E1
100
AcDbEntity
  8
0
  6
CONTINUOUS
 62
               4
100
AcDbCircle
 10
-84.818691600715113
 20
12.348224444080799
 30
0.0
 40
0.403865208170398
100
AcDbArc
 50
0.1183247355141921
 51
89.881675264485295
  0
LINE
  5
3E2
100
AcDbEntity
  8
0
  6
CONTINUOUS
 62
             200
100
AcDbLine
 10
-96.08856462082764
 20
12.851078689968617
 30
0.0
 11
-97.820887852160979
 21
15.849058486235364
 31
0.0
  0
LINE
  5
3E3
100
AcDbEntity
  8
0
  6
CONTINUOUS
 62
               4
100
AcDbLine
 10
-74.417857573360152
 20
10.455119083434894
 30
0.0
 11
-62.417857577360053
 21
10.455119083435122
 31
0.0
  0
LINE
  5
3E4
100
AcDbEntity
  8
0
  6
CONTINUOUS
 62
               4
100
AcDbLine
 10
-74.417857573360152
 20
8.8551190834348148
 30
0.0
 11
-74.417857573360152
 21
10.455119083434894
 31
0.0
  0
LINE
  5
3E5
100
AcDbEntity
  8
0
  6
CONTINUOUS
 62
               4
100
AcDbLine
 10
-75.917857569360081
 20
8.9551190834347238
 30
0.0
 11
-74.417857573360152
 21
8.9551190834347807
 31
0.0
  0
ARC
  5
3E6
100
AcDbEntity
  8
0
  6
CONTINUOUS
 62
               4
100
AcDbCircle
 10
-75.917857569360081
 20
9.4551190834347807
 30
0.0
 40
0.5
100
AcDbArc
 50
180.00000000000091
 51
270.00000000000074
  0
LINE
  5
3E7
100
AcDbEntity
  8
0
  6
CONTINUOUS
 62
               4
100
AcDbLine
 10
-75.617857483360126
 20
8.855119083434758
 30
0.0
 11
-63.217857663360007
 21
8.8551190834350422
 31
0.0
  0
ARC
  5
3E8
100
AcDbEntity
  8
0
  6
CONTINUOUS
 62
               4
100
AcDbCircle
 10
-62.917857577360053
 20
9.4551190834350649
 30
0.0
 40
0.5
100
AcDbArc
 50
273.91958589965162
 51
0.0000000000012213
  0
LINE
  5
3E9
100
AcDbEntity
  8
0
  6
CONTINUOUS
 62
               4
100
AcDbLine
 10
-66.117857758395644
 20
9.4551190834350081
 30
0.0
 11
-62.417857577360053
 21
9.4551190834350649
 31
0.0
  0
ARC
  5
3EA
100
AcDbEntity
  8
0
  6
CONTINUOUS
 62
               4
100
AcDbCircle
 10
-63.21676965823184
 20
9.4540310783067838
 30
0.0
 40
0.598912923125741
100
AcDbArc
 50
269.89591452477362
 51
0.1040854752283423
  0
ARC
  5
3EB
100
AcDbEntity
  8
0
  6
CONTINUOUS
 62
               4
100
AcDbCircle
 10
-75.617952630008745
 20
9.4550239367861053
 30
0.0
 40
0.599904800896587
100
AcDbArc
 50
236.24741787039483
 51
270.00908727754711
  0
LINE
  5
3EC
100
AcDbEntity
  8
0
  6
CONTINUOUS
 62
               4
100
AcDbLine
 10
-99.91381714389405
 20
15.000573638235423
 30
0.0
 11
-97.330607692349588
 21
15.000573638235366
 31
0.0
  0
LINE
  5
3ED
100
AcDbEntity
  8
0
  6
CONTINUOUS
 62
               4
100
AcDbLine
 10
-99.913817143894278
 20
13.699563537968729
 30
0.0
 11
-96.576443408427679
 21
13.699563537968672
 31
0.0
  0
LINE
  5
3EE
100
AcDbEntity
  8
0
  6
CONTINUOUS
 62
               4
100
AcDbLine
 10
-103.41381714389428
 20
14.600885970914575
 30
0.0
 11
-103.41381714389428
 21
14.100885970914575
 31
0.0
  0
LINE
  5
3EF
100
AcDbEntity
  8
0
  6
CONTINUOUS
 62
               4
100
AcDbLine
 10
-62.417857569360535
 20
31.355119083434857
 30
0.0
 11
-79.302706044560466
 21
31.355119083434886
 31
0.0
  0
LINE
  5
3F0
100
AcDbEntity
  8
0
  6
CONTINUOUS
 62
               4
100
AcDbLine
 10
-62.417857569360535
 20
81.955119083434823
 30
0.0
 11
-79.302706044560466
 21
81.955119083434766
 31
0.0
  0
ARC
  5
3F1
100
AcDbEntity
  8
0
  6
CONTINUOUS
 62
               4
100
AcDbCircle
 10
-79.302706044560466
 20
82.455119083434596
 30
0.0
 40
0.5
100
AcDbArc
 50
244.9792168389325
 51
269.99999999999937
  0
LINE
  5
3F2
100
AcDbEntity
  8
0
  6
CONTINUOUS
 62
               4
100
AcDbLine
 10
-84.126467179688746
 20
29.155414077523275
 30
0.0
 11
-79.514179536117183
 21
31.308196298012021
 31
0.0
  0
ARC
  5
3F3
100
AcDbEntity
  8
0
  6
CONTINUOUS
 62
               4
100
AcDbCircle
 10
-79.302706044560466
 20
30.855119083435042
 30
0.0
 40
0.5
100
AcDbArc
 50
90.0
 51
115.02078316106694
  0
ARC
  5
3F4
100
AcDbEntity
  8
0
  6
CONTINUOUS
 62
               4
100
AcDbCircle
 10
-83.915114930917355
 20
28.702596622895882
 30
0.0
 40
0.4997133381008656
100
AcDbArc
 50
114.82621530980848
 51
179.88450442035585
  0
LINE
  5
3F5
100
AcDbEntity
  8
0
  6
CENTER
 62
               2
100
AcDbLine
 10
-48.217857569360547
 20
70.155119083434883
 30
0.0
 11
-43.217857569360547
 21
70.155119083434883
 31
0.0
  0
LINE
  5
3F6
100
AcDbEntity
  8
0
  6
CENTER
 62
               2
100
AcDbLine
 10
-48.217857569360547
 20
43.155119083434883
 30
0.0
 11
-43.217857569360547
 21
43.155119083434883
 31
0.0
  0
LINE
  5
3F7
100
AcDbEntity
  8
0
  6
CENTER
 62
               2
100
AcDbLine
 10
-64.917857582199247
 20
63.955119083434788
 30
0.0
 11
-59.917857582199247
 21
63.955119083434788
 31
0.0
  0
LINE
  5
3F8
100
AcDbEntity
  8
0
  6
CENTER
 62
               2
100
AcDbLine
 10
-64.917857582199247
 20
49.355119083434793
 30
0.0
 11
-59.917857569360535
 21
49.355119083434793
 31
0.0
  0
LINE
  5
3F9
100
AcDbEntity
  8
0
  6
CONTINUOUS
 62
               7
100
AcDbLine
 10
-213.0534667037773
 20
75.955119083434795
 30
0.0
 11
-214.65346670377733
 21
73.655119083434784
 31
0.0
  0
LINE
  5
3FA
100
AcDbEntity
  8
0
  6
CONTINUOUS
 62
               7
100
AcDbLine
 10
-228.65346670377733
 20
44.555119083434818
 30
0.0
 11
-214.65346670377733
 21
44.555119083434818
 31
0.0
  0
LINE
  5
3FB
100
AcDbEntity
  8
0
  6
CONTINUOUS
 62
               7
100
AcDbLine
 10
-228.65346670377733
 20
68.755119083434792
 30
0.0
 11
-214.65346670377733
 21
68.755119083434792
 31
0.0
  0
LINE
  5
3FC
100
AcDbEntity
  8
0
  6
CONTINUOUS
 62
               7
100
AcDbLine
 10
-214.65346388725055
 20
31.355119083434829
 30
0.0
 11
-214.65346388725055
 21
81.955119083434766
 31
0.0
  0
LINE
  5
3FD
100
AcDbEntity
  8
0
  6
CONTINUOUS
 62
               7
100
AcDbLine
 10
-213.0534667037773
 20
75.955119083434795
 30
0.0
 11
-213.0534667037773
 21
81.955119083434795
 31
0.0
  0
LINE
  5
3FE
100
AcDbEntity
  8
0
  6
CONTINUOUS
 62
               7
100
AcDbLine
 10
-215.65346670473096
 20
65.555119083434803
 30
0.0
 11
-214.65346670377733
 21
65.555119083434803
 31
0.0
  0
LINE
  5
3FF
100
AcDbEntity
  8
0
  6
CONTINUOUS
 62
               7
100
AcDbLine
 10
-215.65346670473096
 20
62.355119083434815
 30
0.0
 11
-214.65346670377733
 21
62.355119083434815
 31
0.0
  0
LINE
  5
400
100
AcDbEntity
  8
0
  6
CONTINUOUS
 62
               7
100
AcDbLine
 10
-215.65346670377733
 20
65.555119083434803
 30
0.0
 11
-215.65346670377733
 21
62.355119083434815
 31
0.0
  0
LINE
  5
401
100
AcDbEntity
  8
0
  6
CONTINUOUS
 62
               7
100
AcDbLine
 10
-228.65346388725055
 20
31.355119083434801
 30
0.0
 11
-228.65346388725055
 21
81.955119083434781
 31
0.0
  0
LINE
  5
402
100
AcDbEntity
  8
0
  6
CONTINUOUS
 62
               7
100
AcDbLine
 10
-213.0534667037773
 20
37.355119083434801
 30
0.0
 11
-213.0534667037773
 21
31.355119083434801
 31
0.0
  0
LINE
  5
403
100
AcDbEntity
  8
0
  6
CONTINUOUS
 62
               7
100
AcDbLine
 10
-213.0534667037773
 20
37.355119083434801
 30
0.0
 11
-214.65346670377733
 21
38.955119083434809
 31
0.0
  0
LINE
  5
404
100
AcDbEntity
  8
0
  6
CENTER
 62
               2
100
AcDbLine
 10
-221.65346388725055
 20
105.13805106232508
 30
0.0
 11
-221.65346388725055
 21
8.1721871045445198
 31
0.0
  0
LINE
  5
405
100
AcDbEntity
  8
0
  6
CONTINUOUS
 62
               7
100
AcDbLine
 10
-215.65346670377733
 20
65.455119082481119
 30
0.0
 11
-215.45346670377731
 21
65.455119082481119
 31
0.0
  0
LINE
  5
406
100
AcDbEntity
  8
0
  6
CONTINUOUS
 62
               7
100
AcDbLine
 10
-215.65346670377733
 20
62.455119082481119
 30
0.0
 11
-215.45346670377731
 21
62.455119082481119
 31
0.0
  0
LINE
  5
407
100
AcDbEntity
  8
0
  6
CONTINUOUS
 62
               7
100
AcDbLine
 10
-215.0534667037773
 20
65.055119082481113
 30
0.0
 11
-215.0534667037773
 21
62.85511908248111
 31
0.0
  0
ARC
  5
408
100
AcDbEntity
  8
0
  6
CONTINUOUS
 62
               7
100
AcDbCircle
 10
-215.45346670377731
 20
65.055119082481113
 30
0.0
 40
0.4
100
AcDbArc
 50
0.0
 51
89.999999999999815
  0
ARC
  5
409
100
AcDbEntity
  8
0
  6
CONTINUOUS
 62
               7
100
AcDbCircle
 10
-215.45346670377731
 20
62.85511908248111
 30
0.0
 40
0.4
100
AcDbArc
 50
270.00000000000023
 51
0.0
  0
LINE
  5
40A
100
AcDbEntity
  8
0
  6
CONTINUOUS
 62
               7
100
AcDbLine
 10
-228.65346388725055
 20
68.654145816833292
 30
0.0
 11
-229.35346670377731
 21
68.654145816833292
 31
0.0
  0
LINE
  5
40B
100
AcDbEntity
  8
0
  6
CONTINUOUS
 62
               7
100
AcDbLine
 10
-228.65346388725055
 20
44.654145816833321
 30
0.0
 11
-229.35346670377729
 21
44.654145816833321
 31
0.0
  0
LINE
  5
40C
100
AcDbEntity
  8
0
  6
CENTER
 62
               2
100
AcDbLine
 10
-240.35346388725054
 20
56.855119083434872
 30
0.0
 11
-240.35346388725054
 21
64.855119083434872
 31
0.0
  0
LINE
  5
40D
100
AcDbEntity
  8
0
  6
CONTINUOUS
 62
               7
100
AcDbLine
 10
-229.35346388725054
 20
40.155119083434883
 30
0.0
 11
-229.35346388725054
 21
73.155119083434883
 31
0.0
  0
LINE
  5
40E
100
AcDbEntity
  8
0
  6
CONTINUOUS
 62
               7
100
AcDbLine
 10
-245.35346388725054
 20
40.155119083434883
 30
0.0
 11
-245.35346388725054
 21
73.155119083434883
 31
0.0
  0
LINE
  5
40F
100
AcDbEntity
  8
0
  6
CENTER
 62
               2
100
AcDbLine
 10
-244.35346388725054
 20
60.855119083434872
 30
0.0
 11
-236.35346388725054
 21
60.855119083434872
 31
0.0
  0
LINE
  5
410
100
AcDbEntity
  8
0
  6
CENTER
 62
               2
100
AcDbLine
 10
-238.35346388725054
 20
52.455119083434894
 30
0.0
 11
-230.35346388725054
 21
52.455119083434894
 31
0.0
  0
CIRCLE
  5
411
100
AcDbEntity
  8
0
  6
CONTINUOUS
 62
               2
100
AcDbCircle
 10
-234.35346388725054
 20
52.455119083434894
 30
0.0
 40
2.5
  0
CIRCLE
  5
412
100
AcDbEntity
  8
0
  6
CONTINUOUS
 62
               2
100
AcDbCircle
 10
-240.35346388725054
 20
60.855119083434872
 30
0.0
 40
2.5
  0
CIRCLE
  5
413
100
AcDbEntity
  8
0
  6
CONTINUOUS
 62
               7
100
AcDbCircle
 10
-240.35346388725054
 20
60.855119083434872
 30
0.0
 40
2.1000000000000001
  0
CIRCLE
  5
414
100
AcDbEntity
  8
0
  6
CONTINUOUS
 62
               7
100
AcDbCircle
 10
-234.35346388725054
 20
52.455119083434894
 30
0.0
 40
2.1000000000000001
  0
LINE
  5
415
100
AcDbEntity
  8
0
  6
CENTER
 62
               2
100
AcDbLine
 10
-234.35346388725054
 20
48.455119083434894
 30
0.0
 11
-234.35346388725054
 21
56.455119083434894
 31
0.0
  0
LINE
  5
416
100
AcDbEntity
  8
0
  6
CONTINUOUS
 62
               7
100
AcDbLine
 10
-245.35346390105997
 20
73.155119083434883
 30
0.0
 11
-229.35346390105997
 21
73.155119083434883
 31
0.0
  0
LINE
  5
417
100
AcDbEntity
  8
0
  6
CONTINUOUS
 62
               7
100
AcDbLine
 10
-245.35346390105997
 20
40.155119083434883
 30
0.0
 11
-229.35346388725054
 21
40.155119083434883
 31
0.0
  0
LINE
  5
418
100
AcDbEntity
  8
0
  6
CONTINUOUS
 62
               4
100
AcDbLine
 10
-211.76861541205062
 20
81.955119083434582
 30
0.0
 11
-211.76861541205017
 21
101.45612917330129
 31
0.0
  0
LINE
  5
419
100
AcDbEntity
  8
0
  6
CONTINUOUS
 62
               4
100
AcDbLine
 10
-228.65346388725055
 20
81.955119083434866
 30
0.0
 11
-228.6534638872501
 21
103.85511908343483
 31
0.0
  0
LINE
  5
41A
100
AcDbEntity
  8
0
  6
CONTINUOUS
 62
               4
100
AcDbLine
 10
-214.65346389525007
 20
103.8551190834346
 30
0.0
 11
-214.65346389525052
 21
81.955119083434639
 31
0.0
  0
ARC
  5
41B
100
AcDbEntity
  8
0
  6
CONTINUOUS
 62
               4
100
AcDbCircle
 10
-207.15620652569373
 20
84.607641543973685
 30
0.0
 40
0.4997133381008656
100
AcDbArc
 50
294.82621530980788
 51
359.88450442035526
  0
LINE
  5
41C
100
AcDbEntity
  8
0
  6
CONTINUOUS
 62
               4
100
AcDbLine
 10
-191.15750431271681
 20
99.610674628900824
 30
0.0
 11
-194.49247667597217
 21
99.610674628900881
 31
0.0
  0
LINE
  5
41D
100
AcDbEntity
  8
0
  6
CONTINUOUS
 62
               4
100
AcDbLine
 10
-191.15750431271704
 20
98.30966452863413
 30
0.0
 11
-193.7407137642615
 21
98.309664528634187
 31
0.0
  0
ARC
  5
41E
100
AcDbEntity
  8
0
  6
CONTINUOUS
 62
               4
100
AcDbCircle
 10
-215.45336882660217
 20
103.8552142300835
 30
0.0
 40
0.599904800896587
100
AcDbArc
 50
56.247417870394948
 51
90.009087277547238
  0
ARC
  5
41F
100
AcDbEntity
  8
0
  6
CONTINUOUS
 62
               4
100
AcDbCircle
 10
-227.85455179837919
 20
103.85620708856288
 30
0.0
 40
0.598912923125741
100
AcDbArc
 50
89.895914524773801
 51
180.10408547522775
  0
LINE
  5
420
100
AcDbEntity
  8
0
  6
CONTINUOUS
 62
               4
100
AcDbLine
 10
-224.95346369821533
 20
103.85511908343466
 30
0.0
 11
-228.65346387925086
 21
103.8551190834346
 31
0.0
  0
ARC
  5
421
100
AcDbEntity
  8
0
  6
CONTINUOUS
 62
               4
100
AcDbCircle
 10
-228.15346387925098
 20
103.8551190834346
 30
0.0
 40
0.5
100
AcDbArc
 50
93.919585899651864
 51
180.00000000000065
  0
LINE
  5
422
100
AcDbEntity
  8
0
  6
CONTINUOUS
 62
               4
100
AcDbLine
 10
-215.45346397325079
 20
104.45511908343485
 30
0.0
 11
-227.85346379325091
 21
104.45511908343462
 31
0.0
  0
ARC
  5
423
100
AcDbEntity
  8
0
  6
CONTINUOUS
 62
               4
100
AcDbCircle
 10
-215.15346388725084
 20
103.85511908343483
 30
0.0
 40
0.5
100
AcDbArc
 50
0.0000000000010687
 51
90.000000000000867
  0
LINE
  5
424
100
AcDbEntity
  8
0
  6
CONTINUOUS
 62
               4
100
AcDbLine
 10
-215.15346388725084
 20
104.35511908343489
 30
0.0
 11
-216.65346388325088
 21
104.35511908343483
 31
0.0
  0
LINE
  5
425
100
AcDbEntity
  8
0
  6
CONTINUOUS
 62
               4
100
AcDbLine
 10
-216.65346388325088
 20
104.45511908343485
 30
0.0
 11
-216.65346388325088
 21
102.85511908343477
 31
0.0
  0
LINE
  5
426
100
AcDbEntity
  8
0
  6
CONTINUOUS
 62
               4
100
AcDbLine
 10
-216.65346388325088
 20
102.85511908343477
 30
0.0
 11
-228.65346387925086
 21
102.85511908343454
 31
0.0
  0
LINE
  5
427
100
AcDbEntity
  8
0
  6
CONTINUOUS
 62
             200
100
AcDbLine
 10
-194.98275683578345
 20
100.45915947690094
 30
0.0
 11
-193.25043360445011
 21
97.461179680634203
 31
0.0
  0
ARC
  5
428
100
AcDbEntity
  8
0
  6
CONTINUOUS
 62
               4
100
AcDbCircle
 10
-206.25262985589575
 20
100.96201372278881
 30
0.0
 40
0.403865208170398
100
AcDbArc
 50
180.1183247355136
 51
269.88167526448467
  0
ARC
  5
429
100
AcDbEntity
  8
0
  6
CONTINUOUS
 62
               4
100
AcDbCircle
 10
-206.25356796887104
 20
100.96044631503895
 30
0.0
 40
0.4029269013737999
100
AcDbArc
 50
100.09177155739488
 51
179.89571641424939
  0
ARC
  5
42A
100
AcDbEntity
  8
0
  6
CONTINUOUS
 62
               4
100
AcDbCircle
 10
-207.65355138111295
 20
101.06015340852713
 30
0.0
 40
0.4950149226876426
100
AcDbArc
 50
53.123124741163664
 51
90.808304124577461
  0
ARC
  5
42B
100
AcDbEntity
  8
0
  6
CONTINUOUS
 62
               4
100
AcDbCircle
 10
-214.35403260353269
 20
102.25970321285331
 30
0.0
 40
0.2994663800970315
100
AcDbArc
 50
90.470973028463291
 51
180.87710076750477
  0
ARC
  5
42C
100
AcDbEntity
  8
0
  6
CONTINUOUS
 62
               4
100
AcDbCircle
 10
-207.15313105432892
 20
100.95949232182249
 30
0.0
 40
0.4966660273328702
100
AcDbArc
 50
359.37896036356273
 51
90.621039636432627
  0
LINE
  5
42D
100
AcDbEntity
  8
0
  6
CONTINUOUS
 62
               4
100
AcDbLine
 10
-199.65649420685031
 20
96.457139277167656
 30
0.0
 11
-198.65952451045018
 21
96.457139277167599
 31
0.0
  0
LINE
  5
42E
100
AcDbEntity
  8
0
  6
CONTINUOUS
 62
               4
100
AcDbLine
 10
-206.65649420285035
 20
96.457139277167769
 30
0.0
 11
-204.65548410298356
 21
96.457139277167713
 31
0.0
  0
LINE
  5
42F
100
AcDbEntity
  8
0
  6
CONTINUOUS
 62
               4
100
AcDbLine
 10
-198.65952451045018
 20
98.055119074234369
 30
0.0
 11
-206.65649420285013
 21
98.055119074234483
 31
0.0
  0
LINE
  5
430
100
AcDbEntity
  8
0
  6
CONTINUOUS
 62
               4
100
AcDbLine
 10
-198.65952451045018
 20
99.858149376234337
 30
0.0
 11
-206.65649420285013
 21
99.858149376234508
 31
0.0
  0
LINE
  5
431
100
AcDbEntity
  8
0
  6
CONTINUOUS
 62
               4
100
AcDbLine
 10
-198.65952451045018
 20
100.55814937583432
 30
0.0
 11
-206.25346390005006
 21
100.55814937583443
 31
0.0
  0
LINE
  5
432
100
AcDbEntity
  8
0
  6
CONTINUOUS
 62
               4
100
AcDbLine
 10
-198.95649420725022
 20
100.8551190726343
 30
0.0
 11
-204.86053460791686
 21
100.85511907263441
 31
0.0
  0
LINE
  5
433
100
AcDbEntity
  8
0
  6
CONTINUOUS
 62
               4
100
AcDbLine
 10
-198.65952451045018
 20
102.46016957676761
 30
0.0
 11
-200.06659521671691
 21
102.46016957676767
 31
0.0
  0
LINE
  5
434
100
AcDbEntity
  8
0
  6
CONTINUOUS
 62
               4
100
AcDbLine
 10
-198.65952451045018
 20
103.45713927316768
 30
0.0
 11
-200.15851440858341
 21
103.45713927316774
 31
0.0
  0
LINE
  5
435
100
AcDbEntity
  8
0
  6
CONTINUOUS
 62
               4
100
AcDbLine
 10
-194.8413426944503
 20
99.610674628900881
 30
0.0
 11
-198.65952451045018
 21
99.610674628900995
 31
0.0
  0
LINE
  5
436
100
AcDbEntity
  8
0
  6
CONTINUOUS
 62
             200
100
AcDbLine
 10
-195.32922148205012
 20
100.45915947690088
 30
0.0
 11
-193.596898250717
 21
97.454108973567614
 31
0.0
  0
LINE
  5
437
100
AcDbEntity
  8
0
  6
CONTINUOUS
 62
               4
100
AcDbLine
 10
-194.09184774538357
 20
98.309664528634187
 30
0.0
 11
-198.65952451045018
 21
98.309664528634244
 31
0.0
  0
LINE
  5
438
100
AcDbEntity
  8
0
  6
CONTINUOUS
 62
               4
100
AcDbLine
 10
-213.35952450205014
 20
101.45612917330135
 30
0.0
 11
-213.35952450205014
 21
101.55511907223462
 31
0.0
  0
LINE
  5
439
100
AcDbEntity
  8
0
  6
CONTINUOUS
 62
               4
100
AcDbLine
 10
-205.2635649107167
 20
102.55915947570116
 30
0.0
 11
-214.35649419845026
 21
102.55915947570134
 31
0.0
  0
LINE
  5
43A
100
AcDbEntity
  8
0
  6
CONTINUOUS
 62
               4
100
AcDbLine
 10
-205.15750430471689
 20
100.55814937583443
 30
0.0
 11
-204.86053460791686
 21
100.85511907263441
 31
0.0
  0
LINE
  5
43B
100
AcDbEntity
  8
0
  6
CONTINUOUS
 62
               4
100
AcDbLine
 10
-204.65548410298356
 20
96.457139277167713
 30
0.0
 11
-204.65548410298356
 21
97.058149377834482
 31
0.0
  0
LINE
  5
43C
100
AcDbEntity
  8
0
  6
CONTINUOUS
 62
               4
100
AcDbLine
 10
-199.65649420685031
 20
97.058149377834368
 30
0.0
 11
-204.65548410298356
 21
97.058149377834482
 31
0.0
  0
LINE
  5
43D
100
AcDbEntity
  8
0
  6
CONTINUOUS
 62
               4
100
AcDbLine
 10
-199.65649420685031
 20
96.457139277167656
 30
0.0
 11
-199.65649420685031
 21
97.058149377834368
 31
0.0
  0
LINE
  5
43E
100
AcDbEntity
  8
0
  6
CONTINUOUS
 62
               4
100
AcDbLine
 10
-198.65952451045018
 20
100.55814937583432
 30
0.0
 11
-198.95649420725022
 21
100.8551190726343
 31
0.0
  0
LINE
  5
43F
100
AcDbEntity
  8
0
  6
CONTINUOUS
 62
               4
100
AcDbLine
 10
-207.66053460631679
 20
101.5551190722345
 30
0.0
 11
-213.35952450205014
 21
101.55511907223462
 31
0.0
  0
LINE
  5
440
100
AcDbEntity
  8
0
  6
CONTINUOUS
 62
               4
100
AcDbLine
 10
-206.32417097071675
 20
101.35713927436774
 30
0.0
 11
-199.98174673191693
 21
102.47431099090102
 31
0.0
  0
LINE
  5
441
100
AcDbEntity
  8
0
  6
CONTINUOUS
 62
               4
100
AcDbLine
 10
-198.65952451045018
 20
102.46016957676761
 30
0.0
 11
-198.65952451045018
 21
103.45713927316768
 31
0.0
  0
LINE
  5
442
100
AcDbEntity
  8
0
  6
CONTINUOUS
 62
               4
100
AcDbLine
 10
-205.2635649107167
 20
102.55915947570116
 30
0.0
 11
-200.15851440858341
 21
103.45713927316774
 31
0.0
  0
LINE
  5
443
100
AcDbEntity
  8
0
  6
CONTINUOUS
 62
               4
100
AcDbLine
 10
-198.65952451045018
 20
96.457139277167599
 30
0.0
 11
-198.65952451045018
 21
100.55814937583432
 31
0.0
  0
LINE
  5
444
100
AcDbEntity
  8
0
  6
CONTINUOUS
 62
               4
100
AcDbLine
 10
-214.6534638952503
 20
101.45612917330129
 30
0.0
 11
-207.15851440458346
 21
101.45612917330124
 31
0.0
  0
LINE
  5
445
100
AcDbEntity
  8
0
  6
CONTINUOUS
 62
               4
100
AcDbLine
 10
-191.15750431271704
 20
98.30966452863413
 30
0.0
 11
-191.15750431271681
 21
99.610674628900824
 31
0.0
  0
LINE
  5
446
100
AcDbEntity
  8
0
  6
CONTINUOUS
 62
               4
100
AcDbLine
 10
-224.95346369821533
 20
103.8551190834346
 30
0.0
 11
-224.95346369821533
 21
104.45511908343462
 31
0.0
  0
ARC
  5
447
100
AcDbEntity
  8
0
  6
CONTINUOUS
 62
               4
100
AcDbCircle
 10
-226.05237569297827
 20
103.85620708867162
 30
0.0
 40
0.5989129830170392
100
AcDbArc
 50
359.89591452477299
 51
90.104085475226924
  0
LINE
  5
448
100
AcDbEntity
  8
0
  6
CONTINUOUS
 62
               4
100
AcDbLine
 10
-187.65750431271681
 20
99.209352195954978
 30
0.0
 11
-187.65750431271681
 21
98.709352195954978
 31
0.0
  0
LINE
  5
449
100
AcDbEntity
  8
0
  6
CONTINUOUS
 62
               4
100
AcDbLine
 10
-191.15750431271692
 20
99.209352195954978
 30
0.0
 11
-187.65750431271681
 21
99.209352195954978
 31
0.0
  0
LINE
  5
44A
100
AcDbEntity
  8
0
  6
CONTINUOUS
 62
               4
100
AcDbLine
 10
-191.15750431271692
 20
98.709352195954978
 30
0.0
 11
-187.65750431271681
 21
98.709352195954978
 31
0.0
  0
LINE
  5
44B
100
AcDbEntity
  8
0
  6
CONTINUOUS
 62
               4
100
AcDbLine
 10
-206.65649420285013
 20
100.95410897156779
 30
0.0
 11
-206.65649420285035
 21
84.606634233434548
 31
0.0
  0
LINE
  5
44C
100
AcDbEntity
  8
0
  6
CONTINUOUS
 62
               4
100
AcDbLine
 10
-211.76861541205062
 20
31.355119083435028
 30
0.0
 11
-211.76861541205039
 21
11.854108993568303
 31
0.0
  0
LINE
  5
44D
100
AcDbEntity
  8
0
  6
CONTINUOUS
 62
               4
100
AcDbLine
 10
-228.65346388725055
 20
31.355119083434801
 30
0.0
 11
-228.65346388725021
 21
9.4551190834348233
 31
0.0
  0
LINE
  5
44E
100
AcDbEntity
  8
0
  6
CONTINUOUS
 62
               4
100
AcDbLine
 10
-214.6534638952503
 20
9.4551190834349939
 30
0.0
 11
-214.65346389525052
 21
31.355119083434971
 31
0.0
  0
ARC
  5
44F
100
AcDbEntity
  8
0
  6
CONTINUOUS
 62
               4
100
AcDbCircle
 10
-207.15620652569373
 20
28.702596622895868
 30
0.0
 40
0.4997133381008656
100
AcDbArc
 50
0.1154955796437407
 51
65.173784690191113
  0
LINE
  5
450
100
AcDbEntity
  8
0
  6
CONTINUOUS
 62
               4
100
AcDbLine
 10
-187.65750431271681
 20
14.600885970914561
 30
0.0
 11
-187.65750431271681
 21
14.100885970914561
 31
0.0
  0
LINE
  5
451
100
AcDbEntity
  8
0
  6
CONTINUOUS
 62
               4
100
AcDbLine
 10
-191.15750431271681
 20
13.699563537968714
 30
0.0
 11
-194.49487804818341
 21
13.699563537968658
 31
0.0
  0
LINE
  5
452
100
AcDbEntity
  8
0
  6
CONTINUOUS
 62
               4
100
AcDbLine
 10
-191.15750431271704
 20
15.000573638235409
 30
0.0
 11
-193.7407137642615
 21
15.000573638235352
 31
0.0
  0
ARC
  5
453
100
AcDbEntity
  8
0
  6
CONTINUOUS
 62
               4
100
AcDbCircle
 10
-227.85355894789876
 20
9.4550239367860911
 30
0.0
 40
0.599904800896587
100
AcDbArc
 50
236.24741787039483
 51
270.00908727754711
  0
ARC
  5
454
100
AcDbEntity
  8
0
  6
CONTINUOUS
 62
               4
100
AcDbCircle
 10
-215.45237597612186
 20
9.4540310783067696
 30
0.0
 40
0.598912923125741
100
AcDbArc
 50
269.89591452477362
 51
0.1040854752283423
  0
LINE
  5
455
100
AcDbEntity
  8
0
  6
CONTINUOUS
 62
               4
100
AcDbLine
 10
-218.35346407628566
 20
9.4551190834349939
 30
0.0
 11
-214.65346389525007
 21
9.4551190834350507
 31
0.0
  0
ARC
  5
456
100
AcDbEntity
  8
0
  6
CONTINUOUS
 62
               4
100
AcDbCircle
 10
-215.15346389525007
 20
9.4551190834350507
 30
0.0
 40
0.5
100
AcDbArc
 50
273.91958589965162
 51
0.0000000000012213
  0
LINE
  5
457
100
AcDbEntity
  8
0
  6
CONTINUOUS
 62
               4
100
AcDbLine
 10
-227.85346380125014
 20
8.8551190834347437
 30
0.0
 11
-215.45346398125002
 21
8.855119083435028
 31
0.0
  0
ARC
  5
458
100
AcDbEntity
  8
0
  6
CONTINUOUS
 62
               4
100
AcDbCircle
 10
-228.1534638872501
 20
9.4551190834347665
 30
0.0
 40
0.5
100
AcDbArc
 50
180.00000000000091
 51
270.00000000000074
  0
LINE
  5
459
100
AcDbEntity
  8
0
  6
CONTINUOUS
 62
               4
100
AcDbLine
 10
-228.1534638872501
 20
8.9551190834347096
 30
0.0
 11
-226.65346389125017
 21
8.9551190834347665
 31
0.0
  0
LINE
  5
45A
100
AcDbEntity
  8
0
  6
CONTINUOUS
 62
               4
100
AcDbLine
 10
-226.65346389125017
 20
8.8551190834348006
 30
0.0
 11
-226.65346389125017
 21
10.45511908343488
 31
0.0
  0
LINE
  5
45B
100
AcDbEntity
  8
0
  6
CONTINUOUS
 62
               4
100
AcDbLine
 10
-226.65346389125017
 20
10.45511908343488
 30
0.0
 11
-214.65346389525007
 21
10.455119083435108
 31
0.0
  0
LINE
  5
45C
100
AcDbEntity
  8
0
  6
CONTINUOUS
 62
             200
100
AcDbLine
 10
-194.98275683578345
 20
12.851078689968602
 30
0.0
 11
-193.25043360445011
 21
15.84905848623535
 31
0.0
  0
ARC
  5
45D
100
AcDbEntity
  8
0
  6
CONTINUOUS
 62
               4
100
AcDbCircle
 10
-206.25262985589598
 20
12.348224444080785
 30
0.0
 40
0.403865208170398
100
AcDbArc
 50
90.118324735514292
 51
179.88167526448541
  0
ARC
  5
45E
100
AcDbEntity
  8
0
  6
CONTINUOUS
 62
               4
100
AcDbCircle
 10
-206.25356796887127
 20
12.349791851830588
 30
0.0
 40
0.4029269013737999
100
AcDbArc
 50
180.10428358574953
 51
259.90822844260407
  0
ARC
  5
45F
100
AcDbEntity
  8
0
  6
CONTINUOUS
 62
               4
100
AcDbCircle
 10
-207.65355138111318
 20
12.250084758342467
 30
0.0
 40
0.4950149226876426
100
AcDbArc
 50
269.19169587542149
 51
306.8768752588353
  0
ARC
  5
460
100
AcDbEntity
  8
0
  6
CONTINUOUS
 62
               4
100
AcDbCircle
 10
-214.35403260353291
 20
11.050534954016285
 30
0.0
 40
0.2994663800970315
100
AcDbArc
 50
179.12289923249421
 51
269.5290269715357
  0
ARC
  5
461
100
AcDbEntity
  8
0
  6
CONTINUOUS
 62
               4
100
AcDbCircle
 10
-207.15313105432892
 20
12.350745845047101
 30
0.0
 40
0.4966660273328702
100
AcDbArc
 50
269.37896036356642
 51
0.621039636437107
  0
LINE
  5
462
100
AcDbEntity
  8
0
  6
CONTINUOUS
 62
               4
100
AcDbLine
 10
-199.65649420685031
 20
16.853098889701954
 30
0.0
 11
-198.65952451045018
 21
16.853098889701954
 31
0.0
  0
LINE
  5
463
100
AcDbEntity
  8
0
  6
CONTINUOUS
 62
               4
100
AcDbLine
 10
-206.65649420285035
 20
16.853098889701783
 30
0.0
 11
-204.65548410298356
 21
16.853098889701897
 31
0.0
  0
LINE
  5
464
100
AcDbEntity
  8
0
  6
CONTINUOUS
 62
               4
100
AcDbLine
 10
-198.65952451045018
 20
15.255119092635169
 30
0.0
 11
-206.65649420285013
 21
15.255119092635056
 31
0.0
  0
LINE
  5
465
100
AcDbEntity
  8
0
  6
CONTINUOUS
 62
               4
100
AcDbLine
 10
-198.65952451045018
 20
13.452088790635202
 30
0.0
 11
-206.65649420285013
 21
13.452088790635031
 31
0.0
  0
LINE
  5
466
100
AcDbEntity
  8
0
  6
CONTINUOUS
 62
               4
100
AcDbLine
 10
-198.65952451045041
 20
12.75208879103522
 30
0.0
 11
-206.25346390005029
 21
12.752088791035106
 31
0.0
  0
LINE
  5
467
100
AcDbEntity
  8
0
  6
CONTINUOUS
 62
               4
100
AcDbLine
 10
-198.95649420725022
 20
12.455119094235243
 30
0.0
 11
-204.86053460791709
 21
12.45511909423513
 31
0.0
  0
LINE
  5
468
100
AcDbEntity
  8
0
  6
CONTINUOUS
 62
               4
100
AcDbLine
 10
-198.65952451045018
 20
10.850068590101927
 30
0.0
 11
-200.06659521671691
 21
10.85006859010187
 31
0.0
  0
LINE
  5
469
100
AcDbEntity
  8
0
  6
CONTINUOUS
 62
               4
100
AcDbLine
 10
-198.65952451045018
 20
9.8530988937018549
 30
0.0
 11
-200.15851440858364
 21
9.8530988937018549
 31
0.0
  0
LINE
  5
46A
100
AcDbEntity
  8
0
  6
CONTINUOUS
 62
               4
100
AcDbLine
 10
-194.8413426944503
 20
13.699563537968658
 30
0.0
 11
-198.65952451045018
 21
13.699563537968544
 31
0.0
  0
LINE
  5
46B
100
AcDbEntity
  8
0
  6
CONTINUOUS
 62
             200
100
AcDbLine
 10
-195.32922148205012
 20
12.851078689968659
 30
0.0
 11
-193.596898250717
 21
15.856129193301939
 31
0.0
  0
LINE
  5
46C
100
AcDbEntity
  8
0
  6
CONTINUOUS
 62
               4
100
AcDbLine
 10
-194.09010086481408
 20
15.000573638235352
 30
0.0
 11
-198.65952451045018
 21
15.000573638235295
 31
0.0
  0
LINE
  5
46D
100
AcDbEntity
  8
0
  6
CONTINUOUS
 62
               4
100
AcDbLine
 10
-213.35952450205036
 20
11.854108993568303
 30
0.0
 11
-213.35952450205036
 21
11.755119094635035
 31
0.0
  0
LINE
  5
46E
100
AcDbEntity
  8
0
  6
CONTINUOUS
 62
               4
100
AcDbLine
 10
-205.26356491071692
 20
10.751078691168374
 30
0.0
 11
-214.35649419845026
 21
10.75107869116826
 31
0.0
  0
LINE
  5
46F
100
AcDbEntity
  8
0
  6
CONTINUOUS
 62
               4
100
AcDbLine
 10
-205.15750430471689
 20
12.752088791035106
 30
0.0
 11
-204.86053460791709
 21
12.45511909423513
 31
0.0
  0
LINE
  5
470
100
AcDbEntity
  8
0
  6
CONTINUOUS
 62
               4
100
AcDbLine
 10
-204.65548410298356
 20
16.853098889701897
 30
0.0
 11
-204.65548410298356
 21
16.252088789035071
 31
0.0
  0
LINE
  5
471
100
AcDbEntity
  8
0
  6
CONTINUOUS
 62
               4
100
AcDbLine
 10
-199.65649420685031
 20
16.252088789035241
 30
0.0
 11
-204.65548410298356
 21
16.252088789035071
 31
0.0
  0
LINE
  5
472
100
AcDbEntity
  8
0
  6
CONTINUOUS
 62
               4
100
AcDbLine
 10
-199.65649420685031
 20
16.853098889701954
 30
0.0
 11
-199.65649420685031
 21
16.252088789035241
 31
0.0
  0
LINE
  5
473
100
AcDbEntity
  8
0
  6
CONTINUOUS
 62
               4
100
AcDbLine
 10
-198.65952451045041
 20
12.75208879103522
 30
0.0
 11
-198.95649420725022
 21
12.455119094235243
 31
0.0
  0
LINE
  5
474
100
AcDbEntity
  8
0
  6
CONTINUOUS
 62
               4
100
AcDbLine
 10
-207.66053460631701
 20
11.755119094635091
 30
0.0
 11
-213.35952450205036
 21
11.755119094635035
 31
0.0
  0
LINE
  5
475
100
AcDbEntity
  8
0
  6
CONTINUOUS
 62
               4
100
AcDbLine
 10
-206.32417097071698
 20
11.953098892501799
 30
0.0
 11
-199.98174673191693
 21
10.835927175968578
 31
0.0
  0
LINE
  5
476
100
AcDbEntity
  8
0
  6
CONTINUOUS
 62
               4
100
AcDbLine
 10
-198.65952451045018
 20
10.850068590101927
 30
0.0
 11
-198.65952451045018
 21
9.8530988937018549
 31
0.0
  0
LINE
  5
477
100
AcDbEntity
  8
0
  6
CONTINUOUS
 62
               4
100
AcDbLine
 10
-205.26356491071692
 20
10.751078691168374
 30
0.0
 11
-200.15851440858364
 21
9.8530988937018549
 31
0.0
  0
LINE
  5
478
100
AcDbEntity
  8
0
  6
CONTINUOUS
 62
               4
100
AcDbLine
 10
-198.65952451045018
 20
16.853098889701954
 30
0.0
 11
-198.65952451045041
 21
12.75208879103522
 31
0.0
  0
LINE
  5
479
100
AcDbEntity
  8
0
  6
CONTINUOUS
 62
               4
100
AcDbLine
 10
-214.6534638952503
 20
11.854108993568303
 30
0.0
 11
-207.15851440458368
 21
11.85410899356836
 31
0.0
  0
LINE
  5
47A
100
AcDbEntity
  8
0
  6
CONTINUOUS
 62
               4
100
AcDbLine
 10
-191.15750431271704
 20
15.000573638235409
 30
0.0
 11
-191.15750431271681
 21
13.699563537968714
 31
0.0
  0
LINE
  5
47B
100
AcDbEntity
  8
0
  6
CONTINUOUS
 62
               4
100
AcDbLine
 10
-218.35346407628566
 20
9.4551190834350507
 30
0.0
 11
-218.35346407628566
 21
8.855119083435028
 31
0.0
  0
ARC
  5
47C
100
AcDbEntity
  8
0
  6
CONTINUOUS
 62
               4
100
AcDbCircle
 10
-217.25455208152272
 20
9.4540310781980281
 30
0.0
 40
0.5989129830170392
100
AcDbArc
 50
179.89591452477279
 51
270.10408547522673
  0
LINE
  5
47D
100
AcDbEntity
  8
0
  6
CONTINUOUS
 62
               4
100
AcDbLine
 10
-206.65649420285035
 20
12.356129195301747
 30
0.0
 11
-206.65649420285035
 21
28.703603933435005
 31
0.0
  0
LINE
  5
47E
100
AcDbEntity
  8
0
  6
CONTINUOUS
 62
               4
100
AcDbLine
 10
-191.15750431271704
 20
14.600885970914561
 30
0.0
 11
-187.65750431271681
 21
14.600885970914561
 31
0.0
  0
LINE
  5
47F
100
AcDbEntity
  8
0
  6
CONTINUOUS
 62
               4
100
AcDbLine
 10
-191.15750431271704
 20
14.100885970914561
 30
0.0
 11
-187.65750431271681
 21
14.100885970914561
 31
0.0
  0
LINE
  5
480
100
AcDbEntity
  8
0
  6
CONTINUOUS
 62
               4
100
AcDbLine
 10
-228.65346388725055
 20
31.355119083434843
 30
0.0
 11
-211.76861541205062
 21
31.355119083434872
 31
0.0
  0
ARC
  5
481
100
AcDbEntity
  8
0
  6
CONTINUOUS
 62
               4
100
AcDbCircle
 10
-211.76861541205062
 20
30.855119083435028
 30
0.0
 40
0.5
100
AcDbArc
 50
64.979216838932658
 51
89.999999999999602
  0
LINE
  5
482
100
AcDbEntity
  8
0
  6
CONTINUOUS
 62
               4
100
AcDbLine
 10
-206.94485427692234
 20
29.155414077523261
 30
0.0
 11
-211.5571419204939
 21
31.308196298012007
 31
0.0
  0
LINE
  5
483
100
AcDbEntity
  8
0
  6
CONTINUOUS
 62
               4
100
AcDbLine
 10
-228.65346388725055
 20
81.955119083434809
 30
0.0
 11
-211.76861541205062
 21
81.955119083434752
 31
0.0
  0
ARC
  5
484
100
AcDbEntity
  8
0
  6
CONTINUOUS
 62
               4
100
AcDbCircle
 10
-211.76861541205062
 20
82.455119083434582
 30
0.0
 40
0.5
100
AcDbArc
 50
269.99999999999937
 51
295.02078316106633
  0
LINE
  5
485
100
AcDbEntity
  8
0
  6
CONTINUOUS
 62
               4
100
AcDbLine
 10
-206.94485427692234
 20
84.154824089346292
 30
0.0
 11
-211.5571419204939
 21
82.002041868857603
 31
0.0
  0
LINE
  5
486
100
AcDbEntity
  8
0
  6
CENTER
 62
               2
100
AcDbLine
 10
-247.85346388816833
 20
70.155119083434883
 30
0.0
 11
-242.85346388725054
 21
70.155119083434883
 31
0.0
  0
LINE
  5
487
100
AcDbEntity
  8
0
  6
CENTER
 62
               2
100
AcDbLine
 10
-247.85346388816833
 20
43.155119083434883
 30
0.0
 11
-242.85346388725054
 21
43.155119083434883
 31
0.0
  0
LINE
  5
488
100
AcDbEntity
  8
0
  6
CENTER
 62
               2
100
AcDbLine
 10
-231.15346390008926
 20
63.955119083434788
 30
0.0
 11
-226.15346390008926
 21
63.955119083434788
 31
0.0
  0
LINE
  5
489
100
AcDbEntity
  8
0
  6
CENTER
 62
               2
100
AcDbLine
 10
-231.15346390008926
 20
49.355119083434793
 30
0.0
 11
-226.15346388725055
 21
49.355119083434793
 31
0.0
  0
LINE
  5
48A
100
AcDbEntity
  8
0
  6
CONTINUOUS
 62
               7
100
AcDbLine
 10
-140.31103716714318
 20
50.258446111525089
 30
0.0
 11
-140.31103716714318
 21
81.955119083434795
 31
0.0
  0
LINE
  5
48B
100
AcDbEntity
  8
0
  6
CONTINUOUS
 62
               7
100
AcDbLine
 10
-150.31103716714318
 20
64.855119083434801
 30
0.0
 11
-150.31103716714318
 21
81.955119083434795
 31
0.0
  0
LINE
  5
48C
100
AcDbEntity
  8
0
  6
CONTINUOUS
 62
               7
100
AcDbLine
 10
-150.31103716714318
 20
31.355119083434801
 30
0.0
 11
-150.31103716714318
 21
63.055119083434775
 31
0.0
  0
CIRCLE
  5
48D
100
AcDbEntity
  8
0
  6
CONTINUOUS
 62
               7
100
AcDbCircle
 10
-145.31103716714318
 20
79.655119083434798
 30
0.0
 40
0.7500000000000001
  0
CIRCLE
  5
48E
100
AcDbEntity
  8
0
  6
CONTINUOUS
 62
               7
100
AcDbCircle
 10
-145.31103716714318
 20
79.655119083434798
 30
0.0
 40
1.1000000000000001
  0
LINE
  5
48F
100
AcDbEntity
  8
0
  6
CONTINUOUS
 62
               7
100
AcDbLine
 10
-150.31103716714318
 20
68.755119083434792
 30
0.0
 11
-140.31103716714318
 21
68.755119083434792
 31
0.0
  0
LINE
  5
490
100
AcDbEntity
  8
0
  6
CONTINUOUS
 62
               7
100
AcDbLine
 10
-150.31103716714318
 20
44.555119083434789
 30
0.0
 11
-140.31103716714318
 21
44.555119083434789
 31
0.0
  0
CIRCLE
  5
491
100
AcDbEntity
  8
0
  6
CONTINUOUS
 62
               7
100
AcDbCircle
 10
-145.31103716714318
 20
79.655119083434798
 30
0.0
 40
1.1500000000000001
  0
CIRCLE
  5
492
100
AcDbEntity
  8
0
  6
CONTINUOUS
 62
               7
100
AcDbCircle
 10
-145.31103716714318
 20
79.655119083434798
 30
0.0
 40
1.3000000000000012
  0
LINE
  5
493
100
AcDbEntity
  8
0
  6
CENTER
 62
               2
100
AcDbLine
 10
-143.61103716714317
 20
79.655119083434798
 30
0.0
 11
-147.0110371671432
 21
79.655119083434798
 31
0.0
  0
ARC
  5
494
100
AcDbEntity
  8
0
  6
CONTINUOUS
 62
               7
100
AcDbCircle
 10
-145.31103716714318
 20
77.955119083434795
 30
0.0
 40
3.6000000000000005
100
AcDbArc
 50
179.99999999999963
 51
0.0
  0
ARC
  5
495
100
AcDbEntity
  8
0
  6
CONTINUOUS
 62
               7
100
AcDbCircle
 10
-145.31103716714318
 20
77.955119083434795
 30
0.0
 40
2.0
100
AcDbArc
 50
179.99999999999963
 51
0.0
  0
LINE
  5
496
100
AcDbEntity
  8
0
  6
CONTINUOUS
 62
               7
100
AcDbLine
 10
-141.71103716714319
 20
77.955119083434795
 30
0.0
 11
-141.71103716714319
 21
81.955119083434795
 31
0.0
  0
LINE
  5
497
100
AcDbEntity
  8
0
  6
CONTINUOUS
 62
               7
100
AcDbLine
 10
-148.91103716714318
 20
77.955119083434795
 30
0.0
 11
-148.91103716714318
 21
81.955119083434795
 31
0.0
  0
LINE
  5
498
100
AcDbEntity
  8
0
  6
CONTINUOUS
 62
               7
100
AcDbLine
 10
-143.31103716714318
 20
77.955119083434795
 30
0.0
 11
-143.31103716714318
 21
81.955119083434795
 31
0.0
  0
LINE
  5
499
100
AcDbEntity
  8
0
  6
CONTINUOUS
 62
               7
100
AcDbLine
 10
-147.31103716714321
 20
77.955119083434795
 30
0.0
 11
-147.31103716714321
 21
81.955119083434795
 31
0.0
  0
LINE
  5
49A
100
AcDbEntity
  8
0
  6
CONTINUOUS
 62
               4
100
AcDbLine
 10
-140.31103716714318
 20
81.955119083434795
 30
0.0
 11
-150.31103716714318
 21
81.955119083434795
 31
0.0
  0
LINE
  5
49B
100
AcDbEntity
  8
0
  6
CONTINUOUS
 62
               7
100
AcDbLine
 10
-140.31103716714318
 20
31.355119083434801
 30
0.0
 11
-140.31103716714318
 21
48.455786332883775
 31
0.0
  0
LINE
  5
49C
100
AcDbEntity
  8
0
  6
CONTINUOUS
 62
               4
100
AcDbLine
 10
-150.31103716714318
 20
31.355119083434801
 30
0.0
 11
-140.31103716714318
 21
31.355119083434801
 31
0.0
  0
LINE
  5
49D
100
AcDbEntity
  8
0
  6
CONTINUOUS
 62
               7
100
AcDbLine
 10
-143.31103716714316
 20
35.355119083434801
 30
0.0
 11
-143.31103716714316
 21
31.355119083434801
 31
0.0
  0
LINE
  5
49E
100
AcDbEntity
  8
0
  6
CONTINUOUS
 62
               7
100
AcDbLine
 10
-147.31103716714318
 20
35.355119083434801
 30
0.0
 11
-147.31103716714318
 21
31.355119083434801
 31
0.0
  0
LINE
  5
49F
100
AcDbEntity
  8
0
  6
CONTINUOUS
 62
               7
100
AcDbLine
 10
-141.71103716714319
 20
35.355119083434801
 30
0.0
 11
-141.71103716714319
 21
31.355119083434801
 31
0.0
  0
LINE
  5
4A0
100
AcDbEntity
  8
0
  6
CONTINUOUS
 62
               7
100
AcDbLine
 10
-148.91103716714318
 20
35.355119083434801
 30
0.0
 11
-148.91103716714318
 21
31.355119083434801
 31
0.0
  0
ARC
  5
4A1
100
AcDbEntity
  8
0
  6
CONTINUOUS
 62
               7
100
AcDbCircle
 10
-145.31103716714318
 20
35.355119083434801
 30
0.0
 40
2.0
100
AcDbArc
 50
0.0
 51
179.99999999999963
  0
ARC
  5
4A2
100
AcDbEntity
  8
0
  6
CONTINUOUS
 62
               7
100
AcDbCircle
 10
-145.31103716714318
 20
35.355119083434801
 30
0.0
 40
3.6000000000000005
100
AcDbArc
 50
0.0
 51
179.99999999999963
  0
LINE
  5
4A3
100
AcDbEntity
  8
0
  6
CENTER
 62
               2
100
AcDbLine
 10
-147.0110371671432
 20
33.655119083434798
 30
0.0
 11
-143.61103716714317
 21
33.655119083434798
 31
0.0
  0
CIRCLE
  5
4A4
100
AcDbEntity
  8
0
  6
CONTINUOUS
 62
               7
100
AcDbCircle
 10
-145.31103716714318
 20
33.655119083434798
 30
0.0
 40
1.3000000000000012
  0
CIRCLE
  5
4A5
100
AcDbEntity
  8
0
  6
CONTINUOUS
 62
               7
100
AcDbCircle
 10
-145.31103716714318
 20
33.655119083434798
 30
0.0
 40
1.1500000000000001
  0
CIRCLE
  5
4A6
100
AcDbEntity
  8
0
  6
CONTINUOUS
 62
               7
100
AcDbCircle
 10
-145.31103716714318
 20
33.655119083434798
 30
0.0
 40
1.1000000000000001
  0
CIRCLE
  5
4A7
100
AcDbEntity
  8
0
  6
CONTINUOUS
 62
               7
100
AcDbCircle
 10
-145.31103716714318
 20
33.655119083434798
 30
0.0
 40
0.7500000000000001
  0
LINE
  5
4A8
100
AcDbEntity
  8
0
  6
CENTER
 62
               2
100
AcDbLine
 10
-145.31103716714318
 20
105.15311908343477
 30
0.0
 11
-145.31103716714318
 21
8.1571190834348002
 31
0.0
  0
LINE
  5
4A9
100
AcDbEntity
  8
0
  6
CENTER
 62
               2
100
AcDbLine
 10
-137.81103716714327
 20
43.155119083434883
 30
0.0
 11
-132.81103716714327
 21
43.155119083434883
 31
0.0
  0
LINE
  5
4AA
100
AcDbEntity
  8
0
  6
CENTER
 62
               2
100
AcDbLine
 10
-137.81103716714327
 20
70.155119083434883
 30
0.0
 11
-132.81103716714327
 21
70.155119083434883
 31
0.0
  0
LINE
  5
4AB
100
AcDbEntity
  8
0
  6
CONTINUOUS
 62
               7
100
AcDbLine
 10
-140.31103716714318
 20
73.155119083434883
 30
0.0
 11
-132.31103716714327
 21
73.155119083434883
 31
0.0
  0
LINE
  5
4AC
100
AcDbEntity
  8
0
  6
CONTINUOUS
 62
               7
100
AcDbLine
 10
-140.31103716714318
 20
40.155119083434883
 30
0.0
 11
-132.31103716714327
 21
40.155119083434883
 31
0.0
  0
LINE
  5
4AD
100
AcDbEntity
  8
0
  6
CONTINUOUS
 62
               7
100
AcDbLine
 10
-132.31103716714327
 20
40.155119083434883
 30
0.0
 11
-132.31103716714327
 21
73.155119083434883
 31
0.0
  0
CIRCLE
  5
4AE
100
AcDbEntity
  8
0
  6
CONTINUOUS
 62
               7
100
AcDbCircle
 10
-135.31103716714327
 20
43.155119083434883
 30
0.0
 40
1.6000000000000001
  0
CIRCLE
  5
4AF
100
AcDbEntity
  8
0
  6
CONTINUOUS
 62
               7
100
AcDbCircle
 10
-135.31103716714327
 20
70.155119083434883
 30
0.0
 40
1.6000000000000001
  0
LINE
  5
4B0
100
AcDbEntity
  8
0
  6
PHANTOM
 62
             200
100
AcDbLine
 10
-118.81103716714327
 20
52.256145816833325
 30
0.0
 11
-118.81103716714327
 21
44.256145816833325
 31
0.0
  0
LINE
  5
4B1
100
AcDbEntity
  8
0
  6
PHANTOM
 62
             200
100
AcDbLine
 10
-120.81103716714327
 20
52.256145816833325
 30
0.0
 11
-120.81103716714327
 21
44.256145816833325
 31
0.0
  0
LINE
  5
4B2
100
AcDbEntity
  8
0
  6
PHANTOM
 62
             200
100
AcDbLine
 10
-118.31103716714327
 20
51.756145816833325
 30
0.0
 11
-118.31103716714327
 21
44.756145816833325
 31
0.0
  0
ARC
  5
4B3
100
AcDbEntity
  8
0
  6
PHANTOM
 62
             200
100
AcDbCircle
 10
-118.81103716714327
 20
44.756145816833325
 30
0.0
 40
0.5
100
AcDbArc
 50
269.99999999999937
 51
0.0
  0
ARC
  5
4B4
100
AcDbEntity
  8
0
  6
PHANTOM
 62
             200
100
AcDbCircle
 10
-118.81103716714327
 20
51.756145816833325
 30
0.0
 40
0.5
100
AcDbArc
 50
0.0
 51
89.999999999999815
  0
LINE
  5
4B5
100
AcDbEntity
  8
0
  6
PHANTOM
 62
             200
100
AcDbLine
 10
-132.31103716714327
 20
44.256145816833325
 30
0.0
 11
-118.81103716714327
 21
44.256145816833325
 31
0.0
  0
LINE
  5
4B6
100
AcDbEntity
  8
0
  6
PHANTOM
 62
             200
100
AcDbLine
 10
-132.31103716714327
 20
52.256145816833325
 30
0.0
 11
-118.81103716714327
 21
52.256145816833325
 31
0.0
  0
LINE
  5
4B7
100
AcDbEntity
  8
0
  6
CENTER
 62
               2
100
AcDbLine
 10
-134.79483096150531
 20
48.256145816833325
 30
0.0
 11
-117.18103716714327
 21
48.256145816833325
 31
0.0
  0
LINE
  5
4B8
100
AcDbEntity
  8
0
  6
CENTER
 62
               2
100
AcDbLine
 10
-135.31103716714327
 20
40.655119087134139
 30
0.0
 11
-135.31103716714327
 21
45.655119087134139
 31
0.0
  0
LINE
  5
4B9
100
AcDbEntity
  8
0
  6
CENTER
 62
               2
100
AcDbLine
 10
-135.31103716714327
 20
67.655119083434883
 30
0.0
 11
-135.31103716714327
 21
72.655119083434883
 31
0.0
  0
LINE
  5
4BA
100
AcDbEntity
  8
0
  6
CONTINUOUS
 62
               7
100
AcDbLine
 10
-152.31103716714327
 20
40.155119083434883
 30
0.0
 11
-152.31103716714327
 21
73.155119083434883
 31
0.0
  0
LINE
  5
4BB
100
AcDbEntity
  8
0
  6
CONTINUOUS
 62
               7
100
AcDbLine
 10
-152.31103716714327
 20
73.155119083434883
 30
0.0
 11
-150.31103716714318
 21
73.155119083434883
 31
0.0
  0
LINE
  5
4BC
100
AcDbEntity
  8
0
  6
CONTINUOUS
 62
               7
100
AcDbLine
 10
-152.31103716714327
 20
40.155119083434883
 30
0.0
 11
-150.31103716714318
 21
40.155119083434883
 31
0.0
  0
LINE
  5
4BD
100
AcDbEntity
  8
0
  6
CONTINUOUS
 62
               4
100
AcDbLine
 10
-150.31103716714318
 20
104.45511908343482
 30
0.0
 11
-150.31103716714318
 21
81.955119083434795
 31
0.0
  0
LINE
  5
4BE
100
AcDbEntity
  8
0
  6
CONTINUOUS
 62
               4
100
AcDbLine
 10
-140.31103716714318
 20
104.45511908343482
 30
0.0
 11
-140.31103716714318
 21
81.955119083434795
 31
0.0
  0
LINE
  5
4BF
100
AcDbEntity
  8
0
  6
CONTINUOUS
 62
               4
100
AcDbLine
 10
-148.06103716714318
 20
102.46016957676761
 30
0.0
 11
-142.56103716714318
 21
102.46016957676761
 31
0.0
  0
LINE
  5
4C0
100
AcDbEntity
  8
0
  6
CONTINUOUS
 62
               4
100
AcDbLine
 10
-148.06103716714318
 20
103.45713927316768
 30
0.0
 11
-142.56103716714318
 21
103.45713927316768
 31
0.0
  0
LINE
  5
4C1
100
AcDbEntity
  8
0
  6
CONTINUOUS
 62
               4
100
AcDbLine
 10
-147.06103716714318
 20
97.807119083434827
 30
0.0
 11
-147.06103716714318
 21
98.107119083434839
 31
0.0
  0
ARC
  5
4C2
100
AcDbEntity
  8
0
  6
CONTINUOUS
 62
               4
100
AcDbCircle
 10
-142.90812517238027
 20
103.85620708867185
 30
0.0
 40
0.5989129830170392
100
AcDbArc
 50
89.895914524772735
 51
180.10408547522667
  0
ARC
  5
4C3
100
AcDbEntity
  8
0
  6
CONTINUOUS
 62
               4
100
AcDbCircle
 10
-141.10694202048506
 20
103.855214230093
 30
0.0
 40
0.5999048608870732
100
AcDbArc
 50
359.99091272245295
 51
90.009087277546172
  0
LINE
  5
4C4
100
AcDbEntity
  8
0
  6
CONTINUOUS
 62
               4
100
AcDbLine
 10
-140.31103716714318
 20
103.85511908343483
 30
0.0
 11
-143.51103716714323
 21
103.85511908343483
 31
0.0
  0
ARC
  5
4C5
100
AcDbEntity
  8
0
  6
CONTINUOUS
 62
               4
100
AcDbCircle
 10
-149.81103716714318
 20
103.85511908343483
 30
0.0
 40
0.5
100
AcDbArc
 50
89.999999999999815
 51
179.99999999999963
  0
LINE
  5
4C6
100
AcDbEntity
  8
0
  6
CONTINUOUS
 62
               4
100
AcDbLine
 10
-143.51103716714323
 20
104.35511908343483
 30
0.0
 11
-143.51103716714323
 21
103.45713927316768
 31
0.0
  0
LINE
  5
4C7
100
AcDbEntity
  8
0
  6
CONTINUOUS
 62
               4
100
AcDbLine
 10
-143.51103716714323
 20
104.35511908343483
 30
0.0
 11
-149.81103716714318
 21
104.35511908343483
 31
0.0
  0
LINE
  5
4C8
100
AcDbEntity
  8
0
  6
CONTINUOUS
 62
               4
100
AcDbLine
 10
-140.31103716714318
 20
102.85511908343483
 30
0.0
 11
-142.56103716714318
 21
102.85511908343483
 31
0.0
  0
LINE
  5
4C9
100
AcDbEntity
  8
0
  6
CONTINUOUS
 62
               4
100
AcDbLine
 10
-140.31103716714318
 20
104.45511908343482
 30
0.0
 11
-150.31103716714318
 21
104.45511908343482
 31
0.0
  0
LINE
  5
4CA
100
AcDbEntity
  8
0
  6
PHANTOM
 62
             200
100
AcDbLine
 10
-146.81103716714318
 20
89.455119083434795
 30
0.0
 11
-143.81103716714318
 21
89.455119083434795
 31
0.0
  0
LINE
  5
4CB
100
AcDbEntity
  8
0
  6
PHANTOM
 62
             200
100
AcDbLine
 10
-146.81103716714318
 20
87.455119083434795
 30
0.0
 11
-143.81103716714318
 21
87.455119083434795
 31
0.0
  0
LINE
  5
4CC
100
AcDbEntity
  8
0
  6
PHANTOM
 62
             200
100
AcDbLine
 10
-143.81103716714318
 20
89.455119083434795
 30
0.0
 11
-143.81103716714318
 21
87.455119083434795
 31
0.0
  0
LINE
  5
4CD
100
AcDbEntity
  8
0
  6
PHANTOM
 62
             200
100
AcDbLine
 10
-146.81103716714318
 20
89.455119083434795
 30
0.0
 11
-146.81103716714318
 21
87.455119083434795
 31
0.0
  0
LINE
  5
4CE
100
AcDbEntity
  8
0
  6
CONTINUOUS
 62
               4
100
AcDbLine
 10
-149.58103716714328
 20
84.148135494911628
 30
0.0
 11
-141.0410371671432
 21
84.148135494911628
 31
0.0
  0
LINE
  5
4CF
100
AcDbEntity
  8
0
  6
CONTINUOUS
 62
               4
100
AcDbLine
 10
-140.5410371671432
 20
100.95711908343486
 30
0.0
 11
-140.5410371671432
 21
84.648135494912026
 31
0.0
  0
ARC
  5
4D0
100
AcDbEntity
  8
0
  6
CONTINUOUS
 62
               4
100
AcDbCircle
 10
-141.04223459163308
 20
84.649332919401331
 30
0.0
 40
0.5011988548874781
100
AcDbArc
 50
270.1368866551544
 51
359.86311334484418
  0
LINE
  5
4D1
100
AcDbEntity
  8
0
  6
CONTINUOUS
 62
               4
100
AcDbLine
 10
-150.08103716714328
 20
100.95711908343486
 30
0.0
 11
-150.08103716714328
 21
84.648135494912026
 31
0.0
  0
ARC
  5
4D2
100
AcDbEntity
  8
0
  6
CONTINUOUS
 62
               4
100
AcDbCircle
 10
-149.57983974265352
 20
84.649332919401331
 30
0.0
 40
0.5011988548874781
100
AcDbArc
 50
180.13688665515463
 51
269.86311334484435
  0
LINE
  5
4D3
100
AcDbEntity
  8
0
  6
CONTINUOUS
 62
               4
100
AcDbLine
 10
-147.73103716714326
 20
100.85711908343484
 30
0.0
 11
-142.90103716714322
 21
100.85711908343484
 31
0.0
  0
LINE
  5
4D4
100
AcDbEntity
  8
0
  6
CONTINUOUS
 62
               4
100
AcDbLine
 10
-148.03103716714321
 20
100.55711908343483
 30
0.0
 11
-142.60103716714326
 21
100.55711908343483
 31
0.0
  0
LINE
  5
4D5
100
AcDbEntity
  8
0
  6
CONTINUOUS
 62
               4
100
AcDbLine
 10
-148.06103716714318
 20
101.55711908343483
 30
0.0
 11
-142.56103716714318
 21
101.55711908343483
 31
0.0
  0
LINE
  5
4D6
100
AcDbEntity
  8
0
  6
CONTINUOUS
 62
               4
100
AcDbLine
 10
-148.16103716714321
 20
96.457119083434861
 30
0.0
 11
-142.46103716714327
 21
96.457119083434861
 31
0.0
  0
LINE
  5
4D7
100
AcDbEntity
  8
0
  6
CONTINUOUS
 62
               4
100
AcDbLine
 10
-148.06103716714318
 20
96.557119083434827
 30
0.0
 11
-142.56103716714318
 21
96.557119083434827
 31
0.0
  0
LINE
  5
4D8
100
AcDbEntity
  8
0
  6
CONTINUOUS
 62
               4
100
AcDbLine
 10
-147.51103716714323
 20
98.107119083434839
 30
0.0
 11
-145.61103716714325
 21
98.107119083434839
 31
0.0
  0
CIRCLE
  5
4D9
100
AcDbEntity
  8
0
  6
CONTINUOUS
 62
               4
100
AcDbCircle
 10
-146.56103716714318
 20
99.057103824645765
 30
0.0
 40
0.8499675393104553
  0
LINE
  5
4DA
100
AcDbEntity
  8
0
  6
CONTINUOUS
 62
               4
100
AcDbLine
 10
-147.51103716714323
 20
100.00711908343482
 30
0.0
 11
-145.61103716714325
 21
100.00711908343482
 31
0.0
  0
LINE
  5
4DB
100
AcDbEntity
  8
0
  6
CONTINUOUS
 62
               4
100
AcDbLine
 10
-147.51103716714323
 20
100.20711908343486
 30
0.0
 11
-145.61103716714325
 21
100.20711908343486
 31
0.0
  0
ARC
  5
4DC
100
AcDbEntity
  8
0
  6
CONTINUOUS
 62
               4
100
AcDbCircle
 10
-149.81102648596999
 20
100.95710840226155
 30
0.0
 40
0.5000106812873828
100
AcDbArc
 50
90.001223946153175
 51
179.9987760538454
  0
LINE
  5
4DD
100
AcDbEntity
  8
0
  6
CONTINUOUS
 62
               4
100
AcDbLine
 10
-148.06103716714318
 20
98.057119083434827
 30
0.0
 11
-148.06103716714318
 21
96.557119083434827
 31
0.0
  0
LINE
  5
4DE
100
AcDbEntity
  8
0
  6
CONTINUOUS
 62
               4
100
AcDbLine
 10
-148.16103716714321
 20
97.957119083434861
 30
0.0
 11
-148.16103716714321
 21
96.457119083434861
 31
0.0
  0
LINE
  5
4DF
100
AcDbEntity
  8
0
  6
CONTINUOUS
 62
               4
100
AcDbLine
 10
-149.16103716714321
 20
97.957119083434861
 30
0.0
 11
-148.16103716714321
 21
97.957119083434861
 31
0.0
  0
LINE
  5
4E0
100
AcDbEntity
  8
0
  6
CONTINUOUS
 62
               4
100
AcDbLine
 10
-149.06103716714318
 20
98.057119083434827
 30
0.0
 11
-148.06103716714318
 21
98.057119083434827
 31
0.0
  0
LINE
  5
4E1
100
AcDbEntity
  8
0
  6
CONTINUOUS
 62
               4
100
AcDbLine
 10
-149.06103716714318
 20
99.857119083434839
 30
0.0
 11
-148.06103716714318
 21
99.857119083434839
 31
0.0
  0
LINE
  5
4E2
100
AcDbEntity
  8
0
  6
CONTINUOUS
 62
               4
100
AcDbLine
 10
-149.16103716714321
 20
99.957119083434861
 30
0.0
 11
-148.16103716714321
 21
99.957119083434861
 31
0.0
  0
LINE
  5
4E3
100
AcDbEntity
  8
0
  6
CONTINUOUS
 62
               4
100
AcDbLine
 10
-149.16103716714321
 20
99.957119083434861
 30
0.0
 11
-149.16103716714321
 21
97.957119083434861
 31
0.0
  0
LINE
  5
4E4
100
AcDbEntity
  8
0
  6
CONTINUOUS
 62
               4
100
AcDbLine
 10
-149.06103716714318
 20
98.057119083434827
 30
0.0
 11
-149.06103716714318
 21
99.857119083434839
 31
0.0
  0
LINE
  5
4E5
100
AcDbEntity
  8
0
  6
CONTINUOUS
 62
               4
100
AcDbLine
 10
-148.06103716714318
 20
100.51711908343486
 30
0.0
 11
-147.73103716714326
 21
100.85711908343484
 31
0.0
  0
ARC
  5
4E6
100
AcDbEntity
  8
0
  6
CONTINUOUS
 62
               4
100
AcDbCircle
 10
-149.58103625158896
 20
100.95711816788059
 30
0.0
 40
0.5000009155550945
100
AcDbArc
 50
90.000104914596918
 51
179.99989508540253
  0
LINE
  5
4E7
100
AcDbEntity
  8
0
  6
CONTINUOUS
 62
               4
100
AcDbLine
 10
-149.81103716714318
 20
101.45711908343486
 30
0.0
 11
-148.06103716714318
 21
101.45711908343486
 31
0.0
  0
LINE
  5
4E8
100
AcDbEntity
  8
0
  6
CONTINUOUS
 62
               4
100
AcDbLine
 10
-148.16103716714321
 20
101.45711908343486
 30
0.0
 11
-148.16103716714321
 21
99.957119083434861
 31
0.0
  0
LINE
  5
4E9
100
AcDbEntity
  8
0
  6
CONTINUOUS
 62
               4
100
AcDbLine
 10
-147.51103716714323
 20
100.20711908343486
 30
0.0
 11
-147.51103716714323
 21
98.107119083434839
 31
0.0
  0
LINE
  5
4EA
100
AcDbEntity
  8
0
  6
CONTINUOUS
 62
               4
100
AcDbLine
 10
-148.06103716714318
 20
103.45713927316768
 30
0.0
 11
-148.06103716714318
 21
99.857119083434839
 31
0.0
  0
LINE
  5
4EB
100
AcDbEntity
  8
0
  6
CONTINUOUS
 62
               4
100
AcDbLine
 10
-146.06103716714318
 20
98.107119083434839
 30
0.0
 11
-146.06103716714318
 21
97.807119083434827
 31
0.0
  0
LINE
  5
4EC
100
AcDbEntity
  8
0
  6
CONTINUOUS
 62
               4
100
AcDbLine
 10
-147.06103716714318
 20
97.807119083434827
 30
0.0
 11
-146.06103716714318
 21
97.807119083434827
 31
0.0
  0
LINE
  5
4ED
100
AcDbEntity
  8
0
  6
CONTINUOUS
 62
               4
100
AcDbLine
 10
-142.56103716714318
 20
103.45713927316768
 30
0.0
 11
-142.56103716714318
 21
99.857119083434839
 31
0.0
  0
LINE
  5
4EE
100
AcDbEntity
  8
0
  6
CONTINUOUS
 62
               4
100
AcDbLine
 10
-142.60103716714326
 20
100.55711908343483
 30
0.0
 11
-142.90103716714322
 21
100.85711908343484
 31
0.0
  0
LINE
  5
4EF
100
AcDbEntity
  8
0
  6
CONTINUOUS
 62
               4
100
AcDbLine
 10
-142.46103716714327
 20
101.45711908343486
 30
0.0
 11
-142.46103716714327
 21
99.957119083434861
 31
0.0
  0
LINE
  5
4F0
100
AcDbEntity
  8
0
  6
CONTINUOUS
 62
               4
100
AcDbLine
 10
-142.56103716714318
 20
98.057119083434827
 30
0.0
 11
-142.56103716714318
 21
96.557119083434827
 31
0.0
  0
LINE
  5
4F1
100
AcDbEntity
  8
0
  6
CONTINUOUS
 62
               4
100
AcDbLine
 10
-142.46103716714327
 20
97.957119083434861
 30
0.0
 11
-142.46103716714327
 21
96.457119083434861
 31
0.0
  0
LINE
  5
4F2
100
AcDbEntity
  8
0
  6
CONTINUOUS
 62
               4
100
AcDbLine
 10
-145.01103716714323
 20
100.20711908343486
 30
0.0
 11
-143.11103716714325
 21
100.20711908343486
 31
0.0
  0
LINE
  5
4F3
100
AcDbEntity
  8
0
  6
CONTINUOUS
 62
               4
100
AcDbLine
 10
-145.01103716714323
 20
100.00711908343482
 30
0.0
 11
-143.11103716714325
 21
100.00711908343482
 31
0.0
  0
LINE
  5
4F4
100
AcDbEntity
  8
0
  6
CONTINUOUS
 62
               4
100
AcDbLine
 10
-141.56103716714318
 20
98.057119083434827
 30
0.0
 11
-141.56103716714318
 21
99.857119083434839
 31
0.0
  0
LINE
  5
4F5
100
AcDbEntity
  8
0
  6
CONTINUOUS
 62
               4
100
AcDbLine
 10
-142.56103716714318
 20
99.857119083434839
 30
0.0
 11
-141.56103716714318
 21
99.857119083434839
 31
0.0
  0
LINE
  5
4F6
100
AcDbEntity
  8
0
  6
CONTINUOUS
 62
               4
100
AcDbLine
 10
-145.01103716714323
 20
98.107119083434839
 30
0.0
 11
-143.11103716714325
 21
98.107119083434839
 31
0.0
  0
LINE
  5
4F7
100
AcDbEntity
  8
0
  6
CONTINUOUS
 62
               4
100
AcDbLine
 10
-144.56103716714318
 20
97.807119083434827
 30
0.0
 11
-143.56103716714318
 21
97.807119083434827
 31
0.0
  0
LINE
  5
4F8
100
AcDbEntity
  8
0
  6
CONTINUOUS
 62
               4
100
AcDbLine
 10
-143.56103716714318
 20
98.107119083434839
 30
0.0
 11
-143.56103716714318
 21
97.807119083434827
 31
0.0
  0
LINE
  5
4F9
100
AcDbEntity
  8
0
  6
CONTINUOUS
 62
               4
100
AcDbLine
 10
-144.56103716714318
 20
98.107119083434839
 30
0.0
 11
-144.56103716714318
 21
97.807119083434827
 31
0.0
  0
LINE
  5
4FA
100
AcDbEntity
  8
0
  6
CONTINUOUS
 62
               4
100
AcDbLine
 10
-145.01103716714323
 20
100.20711908343486
 30
0.0
 11
-145.01103716714323
 21
98.107119083434839
 31
0.0
  0
LINE
  5
4FB
100
AcDbEntity
  8
0
  6
CONTINUOUS
 62
               4
100
AcDbLine
 10
-142.46103716714327
 20
97.957119083434861
 30
0.0
 11
-141.46103716714327
 21
97.957119083434861
 31
0.0
  0
LINE
  5
4FC
100
AcDbEntity
  8
0
  6
CONTINUOUS
 62
               4
100
AcDbLine
 10
-142.56103716714318
 20
98.057119083434827
 30
0.0
 11
-141.56103716714318
 21
98.057119083434827
 31
0.0
  0
LINE
  5
4FD
100
AcDbEntity
  8
0
  6
CONTINUOUS
 62
               4
100
AcDbLine
 10
-143.11103716714325
 20
100.20711908343486
 30
0.0
 11
-143.11103716714325
 21
98.107119083434839
 31
0.0
  0
CIRCLE
  5
4FE
100
AcDbEntity
  8
0
  6
CONTINUOUS
 62
               4
100
AcDbCircle
 10
-144.06103716714318
 20
99.057103824645765
 30
0.0
 40
0.8499675393104553
  0
LINE
  5
4FF
100
AcDbEntity
  8
0
  6
CONTINUOUS
 62
               4
100
AcDbLine
 10
-142.46103716714327
 20
99.957119083434861
 30
0.0
 11
-141.46103716714327
 21
99.957119083434861
 31
0.0
  0
LINE
  5
500
100
AcDbEntity
  8
0
  6
CONTINUOUS
 62
               4
100
AcDbLine
 10
-141.46103716714327
 20
99.957119083434861
 30
0.0
 11
-141.46103716714327
 21
97.957119083434861
 31
0.0
  0
LINE
  5
501
100
AcDbEntity
  8
0
  6
CONTINUOUS
 62
               4
100
AcDbLine
 10
-145.61103716714325
 20
100.20711908343486
 30
0.0
 11
-145.61103716714325
 21
98.107119083434839
 31
0.0
  0
ARC
  5
502
100
AcDbEntity
  8
0
  6
CONTINUOUS
 62
               4
100
AcDbCircle
 10
-140.81103258962065
 20
100.95712366095745
 30
0.0
 40
0.4999954224983215
100
AcDbArc
 50
359.99947544974214
 51
90.000524550256856
  0
ARC
  5
503
100
AcDbEntity
  8
0
  6
CONTINUOUS
 62
               4
100
AcDbCircle
 10
-141.04103808269764
 20
100.95711816788059
 30
0.0
 40
0.5000009155550945
100
AcDbArc
 50
0.0001049145970977
 51
89.999895085402713
  0
LINE
  5
504
100
AcDbEntity
  8
0
  6
CONTINUOUS
 62
               4
100
AcDbLine
 10
-142.56103716714318
 20
101.45711908343486
 30
0.0
 11
-140.81103716714318
 21
101.45711908343486
 31
0.0
  0
ARC
  5
505
100
AcDbEntity
  8
0
  6
CONTINUOUS
 62
               4
100
AcDbCircle
 10
-140.81133419134943
 20
30.854822059228738
 30
0.0
 40
0.5002971123771115
100
AcDbArc
 50
0.034016255545966
 51
89.965983744453979
  0
ARC
  5
506
100
AcDbEntity
  8
0
  6
CONTINUOUS
 62
               4
100
AcDbCircle
 10
-149.8113340150075
 20
30.855415931299021
 30
0.0
 40
0.4997032403068002
100
AcDbArc
 50
89.965963537146934
 51
180.03403646285233
  0
LINE
  5
507
100
AcDbEntity
  8
0
  6
CONTINUOUS
 62
               4
100
AcDbLine
 10
-140.31103716714318
 20
8.8551190834348148
 30
0.0
 11
-140.31103716714318
 21
31.355119083434815
 31
0.0
  0
LINE
  5
508
100
AcDbEntity
  8
0
  6
CONTINUOUS
 62
               4
100
AcDbLine
 10
-150.31103716714318
 20
8.8551190834348148
 30
0.0
 11
-150.31103716714318
 21
31.355119083434815
 31
0.0
  0
LINE
  5
509
100
AcDbEntity
  8
0
  6
CONTINUOUS
 62
               4
100
AcDbLine
 10
-142.56103716714318
 20
10.850068590101998
 30
0.0
 11
-148.06103716714318
 21
10.850068590101998
 31
0.0
  0
LINE
  5
50A
100
AcDbEntity
  8
0
  6
CONTINUOUS
 62
               4
100
AcDbLine
 10
-142.56103716714318
 20
9.8530988937019259
 30
0.0
 11
-148.06103716714318
 21
9.8530988937019259
 31
0.0
  0
LINE
  5
50B
100
AcDbEntity
  8
0
  6
CONTINUOUS
 62
               4
100
AcDbLine
 10
-143.56103716714318
 20
15.503119083434783
 30
0.0
 11
-143.56103716714318
 21
15.203119083434771
 31
0.0
  0
ARC
  5
50C
100
AcDbEntity
  8
0
  6
CONTINUOUS
 62
               4
100
AcDbCircle
 10
-147.71394916190621
 20
9.4540310781977581
 30
0.0
 40
0.5989129830170392
100
AcDbArc
 50
269.89591452477231
 51
0.1040854752270701
  0
ARC
  5
50D
100
AcDbEntity
  8
0
  6
CONTINUOUS
 62
               4
100
AcDbCircle
 10
-149.51513231380153
 20
9.4550239367766125
 30
0.0
 40
0.5999048608870732
100
AcDbArc
 50
179.99091272245337
 51
270.00908727754575
  0
LINE
  5
50E
100
AcDbEntity
  8
0
  6
CONTINUOUS
 62
               4
100
AcDbLine
 10
-150.31103716714318
 20
9.4551190834347807
 30
0.0
 11
-147.11103716714325
 21
9.4551190834347807
 31
0.0
  0
ARC
  5
50F
100
AcDbEntity
  8
0
  6
CONTINUOUS
 62
               4
100
AcDbCircle
 10
-140.81103716714318
 20
9.4551190834347807
 30
0.0
 40
0.5
100
AcDbArc
 50
269.99999999999937
 51
0.0
  0
LINE
  5
510
100
AcDbEntity
  8
0
  6
CONTINUOUS
 62
               4
100
AcDbLine
 10
-147.11103716714325
 20
8.9551190834347807
 30
0.0
 11
-147.11103716714325
 21
9.8530988937019259
 31
0.0
  0
LINE
  5
511
100
AcDbEntity
  8
0
  6
CONTINUOUS
 62
               4
100
AcDbLine
 10
-147.11103716714325
 20
8.9551190834347807
 30
0.0
 11
-140.81103716714318
 21
8.9551190834347807
 31
0.0
  0
LINE
  5
512
100
AcDbEntity
  8
0
  6
CONTINUOUS
 62
               4
100
AcDbLine
 10
-150.31103716714318
 20
10.455119083434781
 30
0.0
 11
-148.06103716714318
 21
10.455119083434781
 31
0.0
  0
LINE
  5
513
100
AcDbEntity
  8
0
  6
CONTINUOUS
 62
               4
100
AcDbLine
 10
-150.31103716714318
 20
8.8551190834348148
 30
0.0
 11
-140.31103716714318
 21
8.8551190834348148
 31
0.0
  0
LINE
  5
514
100
AcDbEntity
  8
0
  6
PHANTOM
 62
             200
100
AcDbLine
 10
-143.81103716714318
 20
23.855119083434815
 30
0.0
 11
-146.81103716714318
 21
23.855119083434815
 31
0.0
  0
LINE
  5
515
100
AcDbEntity
  8
0
  6
PHANTOM
 62
             200
100
AcDbLine
 10
-143.81103716714318
 20
25.855119083434815
 30
0.0
 11
-146.81103716714318
 21
25.855119083434815
 31
0.0
  0
LINE
  5
516
100
AcDbEntity
  8
0
  6
PHANTOM
 62
             200
100
AcDbLine
 10
-146.81103716714318
 20
23.855119083434815
 30
0.0
 11
-146.81103716714318
 21
25.855119083434815
 31
0.0
  0
LINE
  5
517
100
AcDbEntity
  8
0
  6
PHANTOM
 62
             200
100
AcDbLine
 10
-143.81103716714318
 20
23.855119083434815
 30
0.0
 11
-143.81103716714318
 21
25.855119083434815
 31
0.0
  0
LINE
  5
518
100
AcDbEntity
  8
0
  6
CONTINUOUS
 62
               4
100
AcDbLine
 10
-141.0410371671432
 20
29.162102671957982
 30
0.0
 11
-149.58103716714339
 21
29.162102671957982
 31
0.0
  0
LINE
  5
519
100
AcDbEntity
  8
0
  6
CONTINUOUS
 62
               4
100
AcDbLine
 10
-150.08103716714339
 20
12.353119083434748
 30
0.0
 11
-150.08103716714339
 21
28.662102671957584
 31
0.0
  0
ARC
  5
51A
100
AcDbEntity
  8
0
  6
CONTINUOUS
 62
               4
100
AcDbCircle
 10
-149.57983974265352
 20
28.660905247468278
 30
0.0
 40
0.5011988548874781
100
AcDbArc
 50
90.136886655154825
 51
179.86311334484458
  0
LINE
  5
51B
100
AcDbEntity
  8
0
  6
CONTINUOUS
 62
               4
100
AcDbLine
 10
-140.5410371671432
 20
12.353119083434748
 30
0.0
 11
-140.5410371671432
 21
28.662102671957584
 31
0.0
  0
ARC
  5
51C
100
AcDbEntity
  8
0
  6
CONTINUOUS
 62
               4
100
AcDbCircle
 10
-141.04223459163308
 20
28.660905247468278
 30
0.0
 40
0.5011988548874781
100
AcDbArc
 50
0.1368866551550224
 51
89.863113344844777
  0
LINE
  5
51D
100
AcDbEntity
  8
0
  6
CONTINUOUS
 62
               4
100
AcDbLine
 10
-142.89103716714322
 20
12.453119083434771
 30
0.0
 11
-147.72103716714327
 21
12.453119083434771
 31
0.0
  0
LINE
  5
51E
100
AcDbEntity
  8
0
  6
CONTINUOUS
 62
               4
100
AcDbLine
 10
-142.59103716714327
 20
12.753119083434783
 30
0.0
 11
-148.02103716714322
 21
12.753119083434783
 31
0.0
  0
LINE
  5
51F
100
AcDbEntity
  8
0
  6
CONTINUOUS
 62
               4
100
AcDbLine
 10
-142.56103716714318
 20
11.753119083434783
 30
0.0
 11
-148.06103716714318
 21
11.753119083434783
 31
0.0
  0
LINE
  5
520
100
AcDbEntity
  8
0
  6
CONTINUOUS
 62
               4
100
AcDbLine
 10
-142.46103716714327
 20
16.853119083434748
 30
0.0
 11
-148.16103716714321
 21
16.853119083434748
 31
0.0
  0
LINE
  5
521
100
AcDbEntity
  8
0
  6
CONTINUOUS
 62
               4
100
AcDbLine
 10
-142.56103716714318
 20
16.753119083434783
 30
0.0
 11
-148.06103716714318
 21
16.753119083434783
 31
0.0
  0
LINE
  5
522
100
AcDbEntity
  8
0
  6
CONTINUOUS
 62
               4
100
AcDbLine
 10
-143.11103716714325
 20
15.203119083434771
 30
0.0
 11
-145.01103716714323
 21
15.203119083434771
 31
0.0
  0
CIRCLE
  5
523
100
AcDbEntity
  8
0
  6
CONTINUOUS
 62
               4
100
AcDbCircle
 10
-144.06103716714318
 20
14.253134342223845
 30
0.0
 40
0.8499675393104553
  0
LINE
  5
524
100
AcDbEntity
  8
0
  6
CONTINUOUS
 62
               4
100
AcDbLine
 10
-143.11103716714325
 20
13.303119083434794
 30
0.0
 11
-145.01103716714323
 21
13.303119083434794
 31
0.0
  0
LINE
  5
525
100
AcDbEntity
  8
0
  6
CONTINUOUS
 62
               4
100
AcDbLine
 10
-143.11103716714325
 20
13.103119083434748
 30
0.0
 11
-145.01103716714323
 21
13.103119083434748
 31
0.0
  0
ARC
  5
526
100
AcDbEntity
  8
0
  6
CONTINUOUS
 62
               4
100
AcDbCircle
 10
-140.81104784831649
 20
12.353129764608056
 30
0.0
 40
0.5000106812873828
100
AcDbArc
 50
270.00122394615283
 51
359.99877605384501
  0
LINE
  5
527
100
AcDbEntity
  8
0
  6
CONTINUOUS
 62
               4
100
AcDbLine
 10
-142.56103716714318
 20
15.253119083434783
 30
0.0
 11
-142.56103716714318
 21
16.753119083434783
 31
0.0
  0
LINE
  5
528
100
AcDbEntity
  8
0
  6
CONTINUOUS
 62
               4
100
AcDbLine
 10
-142.46103716714327
 20
15.353119083434748
 30
0.0
 11
-142.46103716714327
 21
16.853119083434748
 31
0.0
  0
LINE
  5
529
100
AcDbEntity
  8
0
  6
CONTINUOUS
 62
               4
100
AcDbLine
 10
-141.46103716714327
 20
15.353119083434748
 30
0.0
 11
-142.46103716714327
 21
15.353119083434748
 31
0.0
  0
LINE
  5
52A
100
AcDbEntity
  8
0
  6
CONTINUOUS
 62
               4
100
AcDbLine
 10
-141.56103716714318
 20
15.253119083434783
 30
0.0
 11
-142.56103716714318
 21
15.253119083434783
 31
0.0
  0
LINE
  5
52B
100
AcDbEntity
  8
0
  6
CONTINUOUS
 62
               4
100
AcDbLine
 10
-141.56103716714318
 20
13.453119083434771
 30
0.0
 11
-142.56103716714318
 21
13.453119083434771
 31
0.0
  0
LINE
  5
52C
100
AcDbEntity
  8
0
  6
CONTINUOUS
 62
               4
100
AcDbLine
 10
-141.46103716714327
 20
13.353119083434748
 30
0.0
 11
-142.46103716714327
 21
13.353119083434748
 31
0.0
  0
LINE
  5
52D
100
AcDbEntity
  8
0
  6
CONTINUOUS
 62
               4
100
AcDbLine
 10
-141.46103716714327
 20
13.353119083434748
 30
0.0
 11
-141.46103716714327
 21
15.353119083434748
 31
0.0
  0
LINE
  5
52E
100
AcDbEntity
  8
0
  6
CONTINUOUS
 62
               4
100
AcDbLine
 10
-141.56103716714318
 20
15.253119083434783
 30
0.0
 11
-141.56103716714318
 21
13.453119083434771
 31
0.0
  0
LINE
  5
52F
100
AcDbEntity
  8
0
  6
CONTINUOUS
 62
               4
100
AcDbLine
 10
-142.56103716714318
 20
12.793119083434746
 30
0.0
 11
-142.89103716714322
 21
12.453119083434771
 31
0.0
  0
ARC
  5
530
100
AcDbEntity
  8
0
  6
CONTINUOUS
 62
               4
100
AcDbCircle
 10
-141.04103808269764
 20
12.353119998989015
 30
0.0
 40
0.5000009155550945
100
AcDbArc
 50
270.00010491459648
 51
359.99989508540216
  0
LINE
  5
531
100
AcDbEntity
  8
0
  6
CONTINUOUS
 62
               4
100
AcDbLine
 10
-140.81103716714318
 20
11.853119083434748
 30
0.0
 11
-142.56103716714318
 21
11.853119083434748
 31
0.0
  0
LINE
  5
532
100
AcDbEntity
  8
0
  6
CONTINUOUS
 62
               4
100
AcDbLine
 10
-142.46103716714327
 20
11.853119083434748
 30
0.0
 11
-142.46103716714327
 21
13.353119083434748
 31
0.0
  0
LINE
  5
533
100
AcDbEntity
  8
0
  6
CONTINUOUS
 62
               4
100
AcDbLine
 10
-143.11103716714325
 20
13.103119083434748
 30
0.0
 11
-143.11103716714325
 21
15.203119083434771
 31
0.0
  0
LINE
  5
534
100
AcDbEntity
  8
0
  6
CONTINUOUS
 62
               4
100
AcDbLine
 10
-142.56103716714318
 20
9.8530988937019259
 30
0.0
 11
-142.56103716714318
 21
13.453119083434771
 31
0.0
  0
LINE
  5
535
100
AcDbEntity
  8
0
  6
CONTINUOUS
 62
               4
100
AcDbLine
 10
-144.56103716714318
 20
15.203119083434771
 30
0.0
 11
-144.56103716714318
 21
15.503119083434783
 31
0.0
  0
LINE
  5
536
100
AcDbEntity
  8
0
  6
CONTINUOUS
 62
               4
100
AcDbLine
 10
-143.56103716714318
 20
15.503119083434783
 30
0.0
 11
-144.56103716714318
 21
15.503119083434783
 31
0.0
  0
LINE
  5
537
100
AcDbEntity
  8
0
  6
CONTINUOUS
 62
               4
100
AcDbLine
 10
-148.06103716714318
 20
9.8530988937019259
 30
0.0
 11
-148.06103716714318
 21
13.453119083434771
 31
0.0
  0
LINE
  5
538
100
AcDbEntity
  8
0
  6
CONTINUOUS
 62
               4
100
AcDbLine
 10
-148.02103716714322
 20
12.753119083434783
 30
0.0
 11
-147.72103716714327
 21
12.453119083434771
 31
0.0
  0
LINE
  5
539
100
AcDbEntity
  8
0
  6
CONTINUOUS
 62
               4
100
AcDbLine
 10
-148.16103716714321
 20
11.853119083434748
 30
0.0
 11
-148.16103716714321
 21
13.353119083434748
 31
0.0
  0
LINE
  5
53A
100
AcDbEntity
  8
0
  6
CONTINUOUS
 62
               4
100
AcDbLine
 10
-148.06103716714318
 20
15.253119083434783
 30
0.0
 11
-148.06103716714318
 21
16.753119083434783
 31
0.0
  0
LINE
  5
53B
100
AcDbEntity
  8
0
  6
CONTINUOUS
 62
               4
100
AcDbLine
 10
-148.16103716714321
 20
15.353119083434748
 30
0.0
 11
-148.16103716714321
 21
16.853119083434748
 31
0.0
  0
LINE
  5
53C
100
AcDbEntity
  8
0
  6
CONTINUOUS
 62
               4
100
AcDbLine
 10
-145.61103716714325
 20
13.103119083434748
 30
0.0
 11
-147.51103716714323
 21
13.103119083434748
 31
0.0
  0
LINE
  5
53D
100
AcDbEntity
  8
0
  6
CONTINUOUS
 62
               4
100
AcDbLine
 10
-145.61103716714325
 20
13.303119083434794
 30
0.0
 11
-147.51103716714323
 21
13.303119083434794
 31
0.0
  0
LINE
  5
53E
100
AcDbEntity
  8
0
  6
CONTINUOUS
 62
               4
100
AcDbLine
 10
-149.06103716714318
 20
15.253119083434783
 30
0.0
 11
-149.06103716714318
 21
13.453119083434771
 31
0.0
  0
LINE
  5
53F
100
AcDbEntity
  8
0
  6
CONTINUOUS
 62
               4
100
AcDbLine
 10
-148.06103716714318
 20
13.453119083434771
 30
0.0
 11
-149.06103716714318
 21
13.453119083434771
 31
0.0
  0
LINE
  5
540
100
AcDbEntity
  8
0
  6
CONTINUOUS
 62
               4
100
AcDbLine
 10
-145.61103716714325
 20
15.203119083434771
 30
0.0
 11
-147.51103716714323
 21
15.203119083434771
 31
0.0
  0
LINE
  5
541
100
AcDbEntity
  8
0
  6
CONTINUOUS
 62
               4
100
AcDbLine
 10
-146.06103716714318
 20
15.503119083434783
 30
0.0
 11
-147.06103716714318
 21
15.503119083434783
 31
0.0
  0
LINE
  5
542
100
AcDbEntity
  8
0
  6
CONTINUOUS
 62
               4
100
AcDbLine
 10
-147.06103716714318
 20
15.203119083434771
 30
0.0
 11
-147.06103716714318
 21
15.503119083434783
 31
0.0
  0
LINE
  5
543
100
AcDbEntity
  8
0
  6
CONTINUOUS
 62
               4
100
AcDbLine
 10
-146.06103716714318
 20
15.203119083434771
 30
0.0
 11
-146.06103716714318
 21
15.503119083434783
 31
0.0
  0
LINE
  5
544
100
AcDbEntity
  8
0
  6
CONTINUOUS
 62
               4
100
AcDbLine
 10
-145.61103716714325
 20
13.103119083434748
 30
0.0
 11
-145.61103716714325
 21
15.203119083434771
 31
0.0
  0
LINE
  5
545
100
AcDbEntity
  8
0
  6
CONTINUOUS
 62
               4
100
AcDbLine
 10
-148.16103716714321
 20
15.353119083434748
 30
0.0
 11
-149.16103716714332
 21
15.353119083434748
 31
0.0
  0
LINE
  5
546
100
AcDbEntity
  8
0
  6
CONTINUOUS
 62
               4
100
AcDbLine
 10
-148.06103716714318
 20
15.253119083434783
 30
0.0
 11
-149.06103716714318
 21
15.253119083434783
 31
0.0
  0
LINE
  5
547
100
AcDbEntity
  8
0
  6
CONTINUOUS
 62
               4
100
AcDbLine
 10
-147.51103716714323
 20
13.103119083434748
 30
0.0
 11
-147.51103716714323
 21
15.203119083434771
 31
0.0
  0
CIRCLE
  5
548
100
AcDbEntity
  8
0
  6
CONTINUOUS
 62
               4
100
AcDbCircle
 10
-146.56103716714318
 20
14.253134342223845
 30
0.0
 40
0.8499675393104553
  0
LINE
  5
549
100
AcDbEntity
  8
0
  6
CONTINUOUS
 62
               4
100
AcDbLine
 10
-148.16103716714321
 20
13.353119083434748
 30
0.0
 11
-149.16103716714332
 21
13.353119083434748
 31
0.0
  0
LINE
  5
54A
100
AcDbEntity
  8
0
  6
CONTINUOUS
 62
               4
100
AcDbLine
 10
-149.16103716714332
 20
13.353119083434748
 30
0.0
 11
-149.16103716714332
 21
15.353119083434748
 31
0.0
  0
LINE
  5
54B
100
AcDbEntity
  8
0
  6
CONTINUOUS
 62
               4
100
AcDbLine
 10
-145.01103716714323
 20
13.103119083434748
 30
0.0
 11
-145.01103716714323
 21
15.203119083434771
 31
0.0
  0
ARC
  5
54C
100
AcDbEntity
  8
0
  6
CONTINUOUS
 62
               4
100
AcDbCircle
 10
-149.81104174466594
 20
12.35311450591216
 30
0.0
 40
0.4999954224983215
100
AcDbArc
 50
179.99947544974253
 51
270.00052455025644
  0
ARC
  5
54D
100
AcDbEntity
  8
0
  6
CONTINUOUS
 62
               4
100
AcDbCircle
 10
-149.58103625158896
 20
12.353119998989015
 30
0.0
 40
0.5000009155550945
100
AcDbArc
 50
180.00010491459673
 51
269.99989508540227
  0
LINE
  5
54E
100
AcDbEntity
  8
0
  6
CONTINUOUS
 62
               4
100
AcDbLine
 10
-148.06103716714318
 20
11.853119083434748
 30
0.0
 11
-149.81103716714318
 21
11.853119083434748
 31
0.0
  0
ARC
  5
54F
100
AcDbEntity
  8
0
  6
CONTINUOUS
 62
               4
100
AcDbCircle
 10
-149.81074014293716
 20
82.455416107640872
 30
0.0
 40
0.5002971123771115
100
AcDbArc
 50
180.03401625554557
 51
269.96598374445358
  0
ARC
  5
550
100
AcDbEntity
  8
0
  6
CONTINUOUS
 62
               4
100
AcDbCircle
 10
-140.81074031927909
 20
82.454822235570589
 30
0.0
 40
0.4997032403068002
100
AcDbArc
 50
269.96596353714654
 51
0.0340364628527164
  0
CIRCLE
  5
551
100
AcDbEntity
  8
0
  6
CONTINUOUS
 62
               7
100
AcDbCircle
 10
-149.11103716714319
 20
63.955119083434788
 30
0.0
 40
1.5
  0
ARC
  5
552
100
AcDbEntity
  8
0
  6
CONTINUOUS
 62
               7
100
AcDbCircle
 10
-149.11103716714319
 20
63.955119083434788
 30
0.0
 40
1.6000000000000001
100
AcDbArc
 50
269.99999999999937
 51
89.999999999999801
  0
LINE
  5
553
100
AcDbEntity
  8
0
  6
CONTINUOUS
 62
               7
100
AcDbLine
 10
-149.11103716714319
 20
65.555119083434789
 30
0.0
 11
-150.31103716714318
 21
65.555119083434789
 31
0.0
  0
LINE
  5
554
100
AcDbEntity
  8
0
  6
CONTINUOUS
 62
               7
100
AcDbLine
 10
-149.11103716714319
 20
62.355119083434786
 30
0.0
 11
-150.31103716714318
 21
62.355119083434786
 31
0.0
  0
LINE
  5
555
100
AcDbEntity
  8
0
  6
CONTINUOUS
 62
               7
100
AcDbLine
 10
-148.40393038595664
 20
64.662225864621334
 30
0.0
 11
-149.81814394832975
 21
63.248012302248242
 31
0.0
  0
LINE
  5
556
100
AcDbEntity
  8
0
  6
CONTINUOUS
 62
               7
100
AcDbLine
 10
-149.81814394832975
 20
64.662225864621334
 30
0.0
 11
-148.40393038595664
 21
63.248012302248242
 31
0.0
  0
ARC
  5
557
100
AcDbEntity
  8
0
  6
CONTINUOUS
 62
               7
100
AcDbCircle
 10
-141.51103716714317
 20
49.355119083434793
 30
0.0
 40
1.6000000000000001
100
AcDbArc
 50
89.999999999999815
 51
269.99999999999937
  0
CIRCLE
  5
558
100
AcDbEntity
  8
0
  6
CONTINUOUS
 62
               7
100
AcDbCircle
 10
-141.51103716714317
 20
49.355119083434793
 30
0.0
 40
1.5
  0
LINE
  5
559
100
AcDbEntity
  8
0
  6
CONTINUOUS
 62
               7
100
AcDbLine
 10
-141.51103716714317
 20
50.955119083434795
 30
0.0
 11
-140.31103716714318
 21
50.955119083434795
 31
0.0
  0
LINE
  5
55A
100
AcDbEntity
  8
0
  6
CONTINUOUS
 62
               7
100
AcDbLine
 10
-141.51103716714317
 20
47.755119083434792
 30
0.0
 11
-140.31103716714318
 21
47.755119083434792
 31
0.0
  0
LINE
  5
55B
100
AcDbEntity
  8
0
  6
CONTINUOUS
 62
               7
100
AcDbLine
 10
-140.80393038595662
 20
50.06222586462134
 30
0.0
 11
-142.21814394832973
 21
48.648012302248247
 31
0.0
  0
LINE
  5
55C
100
AcDbEntity
  8
0
  6
CONTINUOUS
 62
               7
100
AcDbLine
 10
-142.21814394832973
 20
50.06222586462134
 30
0.0
 11
-140.80393038595662
 21
48.648012302248247
 31
0.0
  0
ENDSEC
  0
SECTION
  2
OBJECTS
  0
DICTIONARY
  5
19
100
AcDbDictionary
  3
ACAD_GROUP
350
1A
  3
ACAD_MLINESTYLE
350
1B
  0
DICTIONARY
  5
1A
102
{ACAD_REACTORS
330
19
102
}
100
AcDbDictionary
  0
DICTIONARY
  5
1B
102
{ACAD_REACTORS
330
19
102
}
100
AcDbDictionary
  3
STANDARD
350
1C
  0
MLINESTYLE
  5
1C
102
{ACAD_REACTORS
330
1B
102
}
100
AcDbMlineStyle
  2
Standard
 70
               0
  3

 62
               0
 51
90.0
 52
90.0
 71
               2
 49
0.5
 62
             256
  6
ByLayer
 49
-0.5
 62
             256
  6
ByLayer
  0
ENDSEC
  0
EOF
