  0
SECTION
  2
HEADER
  0
ENDSEC
  0
SECTION
  2
TABLES
  0
TABLE
  2
LTYPE
 70
     4
  0
LTYPE
  2
CONTINUOUS
 70
    64
  3
Solid line
 72
    65
 73
     0
 40
0.000000
  0
LTYPE
  2
DASHED
 70
    64
  3
__ __ __ __ __ __ __ __ __ __ __ __ __ __ __
 72
    65
 73
     2
 40
3.500000
 49
2.000000
 49
-1.500000
  0
LTYPE
  2
CENTER
 70
    64
  3
____ _ ____ _ ____ _ ____ _ ____ _ ____ _ ____
 72
    65
 73
     4
 40
17.500000
 49
13.000000
 49
-1.500000
 49
1.500000
 49
-1.500000
  0
LTYPE
  2
PHANTOM
 70
    64
  3
_____ _ _ _____ _ _ _____ _ _ _____ _ _ ____  
 72
    65
 73
     6
 40
15.500000
 49
8.000000
 49
-1.500000
 49
1.500000
 49
-1.500000
 49
1.500000
 49
-1.500000
  0
LTYPE
  2
DASHED1
 70
    64
  3
__ __ __ __ __ __ __ __ __ __ __ __ __ __ __
 72
    65
 73
     2
 40
1.500000
 49
1.000000
 49
-0.500000
  0
LTYPE
  2
DASHED2
 70
    64
  3
__ __ __ __ __ __ __ __ __ __ __ __ __ __ __
 72
    65
 73
     2
 40
3.500000
 49
2.500000
 49
-1.000000
  0
LTYPE
  2
DASHED3
 70
    64
  3
__ __ __ __ __ __ __ __ __ __ __ __ __ __ __
 72
    65
 73
     2
 40
6.000000
 49
4.000000
 49
-2.000000
  0
LTYPE
  2
DASHED4
 70
    64
  3
__ __ __ __ __ __ __ __ __ __ __ __ __ __ __
 72
    65
 73
     2
 40
12.000000
 49
10.000000
 49
-2.000000
  0
LTYPE
  2
DASHED5
 70
    64
  3
__ __ __ __ __ __ __ __ __ __ __ __ __ __ __
 72
    65
 73
     2
 40
17.000000
 49
15.000000
 49
-2.000000
  0
LTYPE
  2
DASHED6
 70
    64
  3
__ __ __ __ __ __ __ __ __ __ __ __ __ __ __
 72
    65
 73
     2
 40
29.000000
 49
27.000000
 49
-2.000000
  0
LTYPE
  2
PHANTOM1
 70
    64
  3
_____ _ _ _____ _ _ _____ _ _ _____ _ _ ____  
 72
    65
 73
     6
 40
31.000000
 49
25.000000
 49
-1.500000
 49
1.000000
 49
-1.000000
 49
1.000000
 49
-1.500000
  0
LTYPE
  2
PHANTOM2
 70
    64
  3
_____ _ _ _____ _ _ _____ _ _ _____ _ _ ____  
 72
    65
 73
     6
 40
36.000000
 49
27.000000
 49
-1.500000
 49
2.500000
 49
-1.000000
 49
2.500000
 49
-1.500000
  0
LTYPE
  2
PHANTOM3
 70
    64
  3
_____ _ _ _____ _ _ _____ _ _ _____ _ _ ____  
 72
    65
 73
     6
 40
78.000000
 49
64.000000
 49
-2.000000
 49
4.000000
 49
-2.000000
 49
4.000000
 49
-2.000000
  0
LTYPE
  2
CENTER1
 70
    64
  3
____ _ ____ _ ____ _ ____ _ ____ _ ____ _ ____
 72
    65
 73
     4
 40
19.000000
 49
14.000000
 49
-1.000000
 49
3.000000
 49
-1.000000
  0
LTYPE
  2
CENTER2
 70
    64
  3
____ _ ____ _ ____ _ ____ _ ____ _ ____ _ ____
 72
    65
 73
     4
 40
28.500000
 49
25.000000
 49
-1.000000
 49
1.500000
 49
-1.000000
  0
LTYPE
  2
CENTER3
 70
    64
  3
____ _ ____ _ ____ _ ____ _ ____ _ ____ _ ____
 72
    65
 73
     4
 40
31.500000
 49
27.000000
 49
-1.000000
 49
2.500000
 49
-1.000000
  0
LTYPE
  2
CENTER4
 70
    64
  3
____ _ ____ _ ____ _ ____ _ ____ _ ____ _ ____
 72
    65
 73
     4
 40
50.000000
 49
45.000000
 49
-1.000000
 49
3.000000
 49
-1.000000
  0
LTYPE
  2
CENTER5
 70
    64
  3
____ _ ____ _ ____ _ ____ _ ____ _ ____ _ ____
 72
    65
 73
     4
 40
100.000000
 49
92.000000
 49
-2.000000
 49
4.000000
 49
-2.000000
  0
LTYPE
  2
SBK1
 70
    64
  3
______ _ _ _ ______ _ _ _ ______ _ _ _ _____  
 72
    65
 73
     8
 40
60.500000
 49
45.000000
 49
-2.000000
 49
2.500000
 49
-2.000000
 49
2.500000
 49
-2.000000
 49
2.500000
 49
-2.000000
  0
LTYPE
  2
SBK2
 70
    64
  3
______ _ _ _ ______ _ _ _ ______ _ _ _ _____  
 72
    65
 73
     8
 40
84.000000
 49
64.000000
 49
-2.000000
 49
4.000000
 49
-2.000000
 49
4.000000
 49
-2.000000
 49
4.000000
 49
-2.000000
  0
LTYPE
  2
STCH
 70
    64
  3
__ __ __ __ __ __ __ __ __ __ __ __ __ __ __
 72
    65
 73
     2
 40
3.000000
 49
1.000000
 49
-2.000000
  0
LTYPE
  2
MTCH
 70
    64
  3
_____ _ _ _____ _ _ _____ _ _ _____ _ _ ____  
 72
    65
 73
     6
 40
80.000000
 49
66.000000
 49
-2.000000
 49
4.000000
 49
-2.000000
 49
4.000000
 49
-2.000000
  0
ENDTAB
  0
TABLE
  2
LAYER
 70
     1
  0
LAYER
  2
0
 70
     0
 62
     7
  6
CONTINUOUS
  0
ENDTAB
  0
TABLE
  2
STYLE
 70
     1
  0
STYLE
  2
STANDARD
 70
     0
 40
0.000000
 41
1.000000
 50
0.000000
 71
     0
 42
0.200000
  3
txt
  4
BIGFONT
  0
ENDTAB
  0
TABLE
  2
VIEW
 70
     0
  0
ENDTAB
  0
ENDSEC
  0
SECTION
  2
BLOCKS
  0
ENDSEC
  0
SECTION
  2
ENTITIES
  0
LINE
  8
0
  6
CENTER
 62
     2
 10
8.132787
 20
-129.110001
 11
8.132787
 21
-122.585884
  0
LINE
  8
0
  6
CENTER
 62
     2
 10
-4.867213
 20
-129.110001
 11
-4.867213
 21
-122.585884
  0
LINE
  8
0
 10
3.632784
 20
-124.390686
 11
5.002784
 21
-124.890686
  0
LINE
  8
0
 10
10.132787
 20
-124.890686
 11
5.002788
 21
-124.890686
  0
LINE
  8
0
 10
10.132787
 20
-124.890686
 11
10.132787
 21
-125.890686
  0
LINE
  8
0
 10
-6.867213
 20
-124.890686
 11
-6.867213
 21
-125.890686
  0
LINE
  8
0
 10
-1.737213
 20
-124.890686
 11
-6.867213
 21
-124.890686
  0
LINE
  8
0
 10
-1.737211
 20
-124.890678
 11
-0.367212
 21
-124.390678
  0
LINE
  8
0
 10
3.632787
 20
-124.390686
 11
-0.367213
 21
-124.390686
  0
LINE
  8
0
 62
     4
 10
18.632786
 20
-155.890686
 11
-15.367213
 21
-155.890686
  0
LINE
  8
0
 62
     4
 10
18.632786
 20
-155.890686
 11
18.632786
 21
-125.890686
  0
LINE
  8
0
 62
     4
 10
18.632786
 20
-125.890686
 11
-15.367213
 21
-125.890686
  0
LINE
  8
0
 62
     4
 10
-15.367213
 20
-155.890686
 11
-15.367213
 21
-125.890686
  0
LINE
  8
0
  6
CENTER
 62
     2
 10
1.632787
 20
-160.198563
 11
1.632787
 21
-89.454636
  0
LINE
  8
0
 62
     4
 10
6.332788
 20
-91.590683
 11
-3.067213
 21
-91.590683
  0
LINE
  8
0
 62
     4
 10
6.632787
 20
-91.890686
 11
6.632787
 21
-92.090683
  0
LINE
  8
0
 62
     4
 10
-3.367213
 20
-91.890686
 11
-3.367213
 21
-92.090683
  0
LINE
  8
0
 10
-6.967213
 20
-92.090683
 11
10.232787
 21
-92.090683
  0
LINE
  8
0
 10
3.382787
 20
-92.490685
 11
3.382787
 21
-97.390686
  0
LINE
  8
0
 10
-0.117213
 20
-92.490685
 11
-0.117213
 21
-97.390686
  0
LINE
  8
0
 10
-1.733794
 20
-92.490685
 11
-1.733794
 21
-97.390686
  0
LINE
  8
0
 10
4.999368
 20
-92.490685
 11
4.999368
 21
-97.390686
  0
LINE
  8
0
 10
10.632787
 20
-92.490685
 11
10.632787
 21
-98.390686
  0
LINE
  8
0
 10
-7.367213
 20
-92.490685
 11
-7.367213
 21
-98.390686
  0
LINE
  8
0
 10
6.565284
 20
-122.918648
 11
8.690284
 21
-120.793648
  0
LINE
  8
0
 10
6.539991
 20
-120.823296
 11
8.687791
 21
-122.921150
  0
LINE
  8
0
 10
-5.460011
 20
-99.857834
 11
-3.312210
 21
-101.955688
  0
LINE
  8
0
 10
-5.434714
 20
-101.953186
 11
-3.309714
 21
-99.828186
  0
LINE
  8
0
 10
10.632787
 20
-124.390686
 11
10.632787
 21
-98.390686
  0
LINE
  8
0
 10
-7.367213
 20
-124.390686
 11
-7.367213
 21
-98.390686
  0
LINE
  8
0
 10
-6.867213
 20
-97.890686
 11
10.132787
 21
-97.890686
  0
LINE
  8
0
 10
7.632787
 20
-118.690689
 11
10.132787
 21
-118.690689
  0
LINE
  8
0
 10
4.432786
 20
-124.390686
 11
4.432786
 21
-121.890686
  0
LINE
  8
0
 10
-1.167213
 20
-100.890686
 11
-1.167213
 21
-98.390686
  0
LINE
  8
0
 10
-6.867213
 20
-104.090683
 11
-4.367213
 21
-104.090683
  0
LINE
  8
0
  6
CENTER
 62
     1
 10
-11.867213
 20
-159.276947
 11
-11.867213
 21
-152.805267
  0
LINE
  8
0
  6
CENTER
 62
     1
 10
15.132787
 20
-159.276947
 11
15.132787
 21
-152.805267
  0
LINE
  8
0
  6
CENTER
 62
     2
 10
8.132787
 20
117.382492
 11
8.132787
 21
126.207336
  0
LINE
  8
0
  6
CENTER
 62
     2
 10
-4.867213
 20
117.382492
 11
-4.867213
 21
126.207336
  0
LINE
  8
0
 10
10.132770
 20
121.915161
 11
10.132770
 21
122.915161
  0
LINE
  8
0
 10
-6.867196
 20
121.915161
 11
-6.867196
 21
122.915161
  0
LINE
  8
0
 62
     4
 10
18.632786
 20
152.915161
 11
-15.367213
 21
152.915161
  0
LINE
  8
0
 62
     4
 10
18.632786
 20
122.915161
 11
-15.367213
 21
122.915161
  0
LINE
  8
0
 62
     4
 10
18.632786
 20
122.915161
 11
18.632786
 21
152.915161
  0
LINE
  8
0
 62
     4
 10
-15.367213
 20
122.915161
 11
-15.367213
 21
152.915161
  0
LINE
  8
0
  6
CENTER
 62
     2
 10
1.632787
 20
161.071289
 11
1.632787
 21
82.116776
  0
LINE
  8
0
 62
     4
 10
6.632787
 20
88.915161
 11
6.632787
 21
120.615158
  0
LINE
  8
0
 62
     4
 10
-3.367213
 20
88.915161
 11
-3.367213
 21
120.615158
  0
LINE
  8
0
 62
     4
 10
-2.574315
 20
112.822266
 11
-1.160104
 21
111.408058
  0
LINE
  8
0
 62
     4
 10
-2.574320
 20
111.408051
 11
-1.160103
 21
112.822258
  0
LINE
  8
0
 62
     4
 10
5.839891
 20
111.408051
 11
4.425678
 21
112.822266
  0
LINE
  8
0
 62
     4
 10
5.839891
 20
112.822266
 11
4.425678
 21
111.408051
  0
LINE
  8
0
 62
     4
 10
-0.192727
 20
110.065163
 11
1.632787
 21
110.065163
  0
LINE
  8
0
 62
     4
 10
1.632787
 20
110.065163
 11
3.458301
 21
110.065163
  0
LINE
  8
0
 62
     4
 10
-0.192727
 20
110.665161
 11
3.458301
 21
110.665161
  0
LINE
  8
0
  6
CENTER
 62
     2
 10
-0.867213
 20
110.365158
 11
4.132787
 21
110.365158
  0
LINE
  8
0
 62
     4
 10
6.632787
 20
110.515160
 11
5.132787
 21
110.515160
  0
LINE
  8
0
 62
     4
 10
5.132787
 20
113.715164
 11
6.632787
 21
113.715164
  0
LINE
  8
0
 62
     4
 10
-3.367213
 20
113.715164
 11
-1.867213
 21
113.715164
  0
LINE
  8
0
 62
     4
 10
-1.867213
 20
110.515160
 11
-3.367213
 21
110.515160
  0
LINE
  8
0
 62
     4
 10
-3.367213
 20
106.215164
 11
-3.067213
 21
106.215164
  0
LINE
  8
0
 62
     4
 10
6.632787
 20
106.713242
 11
-3.367213
 21
106.713242
  0
LINE
  8
0
 62
     4
 10
4.282786
 20
114.215164
 11
6.632787
 21
114.215164
  0
LINE
  8
0
 62
     4
 10
3.032786
 20
112.965164
 11
0.232787
 21
112.965164
  0
LINE
  8
0
 62
     4
 10
-1.017218
 20
114.215164
 11
0.232786
 21
112.965157
  0
LINE
  8
0
 62
     4
 10
-3.367213
 20
114.215164
 11
-1.017213
 21
114.215164
  0
LINE
  8
0
 62
     4
 10
2.777157
 20
113.405975
 11
0.488417
 21
113.405975
  0
LINE
  8
0
 62
     4
 10
4.027157
 20
114.655975
 11
6.632787
 21
114.655975
  0
LINE
  8
0
 62
     4
 10
-3.367213
 20
114.655975
 11
-0.761583
 21
114.655975
  0
LINE
  8
0
 62
     4
 10
0.488415
 20
113.405975
 11
-0.761587
 21
114.655975
  0
LINE
  8
0
 62
     4
 10
-3.367213
 20
107.524345
 11
6.632787
 21
107.524345
  0
LINE
  8
0
 62
     4
 10
0.488418
 20
113.405983
 11
0.232785
 21
112.965164
  0
LINE
  8
0
 62
     4
 10
2.777155
 20
113.405983
 11
4.027156
 21
114.655983
  0
LINE
  8
0
 62
     4
 10
4.282782
 20
114.215172
 11
3.032781
 21
112.965164
  0
LINE
  8
0
 62
     4
 10
2.777160
 20
113.405975
 11
3.032789
 21
112.965157
  0
LINE
  8
0
 62
     4
 10
-1.017213
 20
114.215164
 11
-0.761585
 21
114.655975
  0
LINE
  8
0
 62
     4
 10
4.027154
 20
114.655983
 11
4.282784
 21
114.215164
  0
LINE
  8
0
 62
     1
 10
3.132787
 20
93.615158
 11
3.132787
 21
88.615158
  0
LINE
  8
0
 62
     1
 10
3.132787
 20
93.615158
 11
1.632787
 21
93.615158
  0
LINE
  8
0
 62
     1
 10
0.132787
 20
93.615158
 11
0.132787
 21
88.615158
  0
LINE
  8
0
 62
     1
 10
0.132787
 20
93.615158
 11
1.632787
 21
93.615158
  0
LINE
  8
0
 62
     4
 10
-3.367213
 20
106.115158
 11
-3.067213
 21
106.115158
  0
LINE
  8
0
 62
     4
 10
-3.067213
 20
88.615158
 11
6.332788
 21
88.615158
  0
LINE
  8
0
 62
     4
 10
6.332788
 20
100.815163
 11
4.132787
 21
100.815163
  0
LINE
  8
0
 62
     4
 10
4.532786
 20
101.815163
 11
4.132787
 21
101.815163
  0
LINE
  8
0
 62
     4
 10
4.532786
 20
101.815163
 11
4.532786
 21
100.815163
  0
LINE
  8
0
 62
     4
 10
-1.267213
 20
101.815163
 11
-1.267213
 21
100.815163
  0
LINE
  8
0
 62
     4
 10
4.532786
 20
101.315163
 11
-1.267213
 21
101.315163
  0
LINE
  8
0
 62
     4
 10
-0.867213
 20
99.815163
 11
-0.867213
 21
102.315163
  0
LINE
  8
0
 62
     4
 10
4.132787
 20
99.815163
 11
4.132787
 21
102.315163
  0
LINE
  8
0
 62
     4
 10
-1.857213
 20
102.815163
 11
-1.981213
 21
104.703163
  0
LINE
  8
0
 62
     4
 10
-1.457213
 20
104.915161
 11
-1.457213
 21
105.415161
  0
LINE
  8
0
 62
     4
 10
-0.357213
 20
105.415161
 11
-1.457213
 21
105.415161
  0
LINE
  8
0
 62
     4
 10
-0.357213
 20
104.915161
 11
-0.357213
 21
105.415161
  0
LINE
  8
0
 62
     4
 10
-0.031213
 20
104.915161
 11
-1.781213
 21
104.915161
  0
LINE
  8
0
 62
     4
 10
0.168786
 20
104.703163
 11
0.042787
 21
102.815170
  0
LINE
  8
0
 62
     4
 10
0.042787
 20
102.815163
 11
-1.857213
 21
102.815163
  0
LINE
  8
0
 62
     4
 10
1.232787
 20
104.215164
 11
2.032786
 21
104.215164
  0
LINE
  8
0
 62
     4
 10
1.232787
 20
103.415161
 11
1.232787
 21
104.215164
  0
LINE
  8
0
 62
     4
 10
1.232787
 20
103.415161
 11
2.032786
 21
103.415161
  0
LINE
  8
0
 62
     4
 10
2.032786
 20
103.415161
 11
2.032786
 21
104.215164
  0
LINE
  8
0
 62
     4
 10
0.682786
 20
102.815163
 11
0.558786
 21
104.703163
  0
LINE
  8
0
 62
     4
 10
1.082787
 20
104.915161
 11
1.082787
 21
105.415161
  0
LINE
  8
0
 62
     4
 10
2.182787
 20
105.415161
 11
1.082787
 21
105.415161
  0
LINE
  8
0
 62
     4
 10
2.182787
 20
104.915161
 11
2.182787
 21
105.415161
  0
LINE
  8
0
 62
     4
 10
2.508787
 20
104.915161
 11
0.758787
 21
104.915161
  0
LINE
  8
0
 62
     4
 10
2.708788
 20
104.703163
 11
2.582788
 21
102.815163
  0
LINE
  8
0
 62
     4
 10
2.582787
 20
102.815163
 11
0.682787
 21
102.815163
  0
LINE
  8
0
 62
     4
 10
5.248788
 20
104.703163
 11
5.122788
 21
102.815163
  0
LINE
  8
0
 62
     4
 10
3.222787
 20
102.815170
 11
3.098788
 21
104.703171
  0
LINE
  8
0
 62
     4
 10
-2.067213
 20
102.315163
 11
-2.067213
 21
101.315163
  0
LINE
  8
0
 62
     4
 10
-3.067213
 20
101.315163
 11
-2.067213
 21
101.315163
  0
LINE
  8
0
 62
     4
 10
5.332788
 20
102.315163
 11
5.332788
 21
101.315163
  0
LINE
  8
0
 62
     4
 10
6.332788
 20
101.315163
 11
5.332788
 21
101.315163
  0
LINE
  8
0
 62
     4
 10
2.882787
 20
101.315163
 11
2.882787
 21
102.315163
  0
LINE
  8
0
 62
     4
 10
0.382787
 20
101.315163
 11
0.382787
 21
102.315163
  0
LINE
  8
0
 62
     4
 10
4.722787
 20
105.415161
 11
3.622787
 21
105.415161
  0
LINE
  8
0
 62
     4
 10
5.048787
 20
104.915161
 11
3.298787
 21
104.915161
  0
LINE
  8
0
 62
     4
 10
5.122787
 20
102.815163
 11
3.222787
 21
102.815163
  0
LINE
  8
0
 62
     4
 10
3.622787
 20
104.915161
 11
3.622787
 21
105.415161
  0
LINE
  8
0
 62
     4
 10
4.722787
 20
104.915161
 11
4.722787
 21
105.415161
  0
LINE
  8
0
 62
     4
 10
6.332788
 20
106.615158
 11
-3.067213
 21
106.615158
  0
LINE
  8
0
 62
     4
 10
-3.067213
 20
106.615158
 11
-3.067213
 21
101.315163
  0
LINE
  8
0
 62
     4
 10
6.332788
 20
106.615158
 11
6.332788
 21
101.315163
  0
LINE
  8
0
 62
     4
 10
5.332788
 20
102.315163
 11
-2.067213
 21
102.315163
  0
LINE
  8
0
 62
     4
 10
4.132787
 20
99.815163
 11
-0.867213
 21
99.815163
  0
LINE
  8
0
 62
     4
 10
4.132787
 20
101.015160
 11
-0.867213
 21
101.015160
  0
LINE
  8
0
 62
     4
 10
-0.867213
 20
101.815163
 11
-1.267213
 21
101.815163
  0
LINE
  8
0
 62
     4
 10
-0.867213
 20
100.815163
 11
-3.067213
 21
100.815163
  0
LINE
  8
0
 62
     4
 10
6.332788
 20
106.215164
 11
6.632787
 21
106.215164
  0
LINE
  8
0
 62
     4
 10
6.332788
 20
106.115158
 11
6.632787
 21
106.115158
  0
LINE
  8
0
 62
     4
 10
-3.367213
 20
120.615158
 11
6.632787
 21
120.615158
  0
LINE
  8
0
 10
-3.617213
 20
116.010422
 11
-3.617213
 21
89.115158
  0
LINE
  8
0
 10
6.882787
 20
120.815163
 11
6.882787
 21
103.819901
  0
LINE
  8
0
 10
-7.367213
 20
121.915161
 11
10.632787
 21
121.915161
  0
LINE
  8
0
 10
-7.367213
 20
89.115158
 11
-3.367213
 21
89.115158
  0
LINE
  8
0
 10
-7.367213
 20
121.915161
 11
-7.367213
 21
89.115158
  0
LINE
  8
0
 10
10.632787
 20
121.915161
 11
10.632787
 21
89.115158
  0
LINE
  8
0
 10
7.632787
 20
121.115158
 11
7.632787
 21
103.915161
  0
LINE
  8
0
 10
-1.367213
 20
121.415161
 11
7.332788
 21
121.415161
  0
LINE
  8
0
 10
7.632787
 20
97.915161
 11
10.632787
 21
97.915161
  0
LINE
  8
0
 10
7.632787
 20
103.915161
 11
10.632787
 21
103.915161
  0
LINE
  8
0
 10
-4.367213
 20
115.915161
 11
-7.367213
 21
115.915161
  0
LINE
  8
0
 10
-1.367213
 20
120.615158
 11
-1.367213
 21
121.915161
  0
LINE
  8
0
 10
7.632787
 20
97.915161
 11
7.632787
 21
89.115158
  0
LINE
  8
0
 10
6.882787
 20
98.010422
 11
6.882787
 21
89.115158
  0
LINE
  8
0
 10
-4.367213
 20
115.915161
 11
-4.367213
 21
89.115158
  0
LINE
  8
0
 10
6.632787
 20
89.115158
 11
10.632787
 21
89.115158
  0
LINE
  8
0
 10
-1.367213
 20
120.815163
 11
7.259553
 21
120.815163
  0
LINE
  8
0
 10
9.046999
 20
99.500946
 11
6.632782
 21
101.915161
  0
LINE
  8
0
 10
9.047003
 20
102.329384
 11
6.632789
 21
99.915169
  0
LINE
  8
0
 10
-3.367211
 20
117.915161
 11
-5.781426
 21
120.329376
  0
LINE
  8
0
 10
-3.367213
 20
119.915161
 11
-5.781427
 21
117.500946
  0
LINE
  8
0
  6
CENTER
 62
     1
 10
-11.867213
 20
149.890869
 11
-11.867213
 21
155.121124
  0
LINE
  8
0
  6
CENTER
 62
     1
 10
15.132787
 20
149.890869
 11
15.132787
 21
155.121124
  0
LINE
  8
0
  6
CENTER
 62
     1
 10
171.628311
 20
-6.637307
 11
177.848312
 21
-6.637307
  0
LINE
  8
0
 10
144.632782
 20
5.862693
 11
143.682785
 21
5.862693
  0
LINE
  8
0
 10
143.632767
 20
5.732697
 11
143.682770
 21
5.862698
  0
LINE
  8
0
 10
143.632782
 20
-1.007305
 11
143.682785
 21
-1.137306
  0
LINE
  8
0
 10
144.632782
 20
-1.137307
 11
143.682785
 21
-1.137307
  0
LINE
  8
0
 10
144.632782
 20
-63.137306
 11
143.682785
 21
-63.137306
  0
LINE
  8
0
 10
143.132782
 20
-61.637302
 11
143.682785
 21
-63.137302
  0
LINE
  8
0
 10
143.132782
 20
-58.037308
 11
143.132782
 21
-61.637306
  0
LINE
  8
0
 10
144.632782
 20
-56.137306
 11
143.682785
 21
-56.137306
  0
LINE
  8
0
 10
143.632782
 20
-56.267303
 11
143.682785
 21
-56.137302
  0
LINE
  8
0
 10
144.632782
 20
-7.637307
 11
143.632782
 21
-7.637307
  0
LINE
  8
0
 10
144.632782
 20
-49.637306
 11
143.632782
 21
-49.637306
  0
LINE
  8
0
 10
116.832779
 20
7.862693
 11
116.832779
 21
9.405157
  0
LINE
  8
0
 10
116.632782
 20
7.862693
 11
116.632782
 21
14.062695
  0
LINE
  8
0
 10
116.632782
 20
7.862693
 11
122.632782
 21
7.862693
  0
LINE
  8
0
 10
122.432785
 20
7.862693
 11
122.432785
 21
9.405157
  0
LINE
  8
0
 10
122.632782
 20
7.862693
 11
122.632782
 21
14.062695
  0
LINE
  8
0
 10
116.632782
 20
13.562695
 11
122.632782
 21
13.562695
  0
LINE
  8
0
 10
144.632782
 20
6.862693
 11
144.632782
 21
-64.137306
  0
LINE
  8
0
 62
     4
 10
174.632782
 20
6.862693
 11
174.632782
 21
-64.137306
  0
LINE
  8
0
 62
     4
 10
144.632782
 20
-64.137306
 11
174.632782
 21
-64.137306
  0
LINE
  8
0
 62
     4
 10
144.632782
 20
6.862693
 11
174.632782
 21
6.862693
  0
LINE
  8
0
 10
118.932785
 20
-15.287306
 11
118.932785
 21
-11.977306
  0
LINE
  8
0
  6
CENTER
 62
     1
 10
149.632782
 20
5.862693
 11
149.632782
 21
-1.137307
  0
LINE
  8
0
  6
CENTER
 62
     1
 10
159.632782
 20
-0.637308
 11
159.632782
 21
-56.637306
  0
LINE
  8
0
  6
CENTER
 62
     1
 10
164.632782
 20
-20.637306
 11
164.632782
 21
-36.637306
  0
LINE
  8
0
  6
CENTER
 62
     1
 10
156.632782
 20
-28.637306
 11
172.632782
 21
-28.637306
  0
LINE
  8
0
  6
CENTER
 62
     1
 10
151.632767
 20
-48.637306
 11
167.632767
 21
-48.637306
  0
LINE
  8
0
  6
CENTER
 62
     1
 10
151.632767
 20
-8.637306
 11
167.632767
 21
-8.637306
  0
LINE
  8
0
  6
CENTER
 62
     1
 10
146.132782
 20
-59.637306
 11
153.132782
 21
-59.637306
  0
LINE
  8
0
  6
CENTER
 62
     1
 10
146.132782
 20
2.362693
 11
153.132782
 21
2.362693
  0
LINE
  8
0
  6
CENTER
 62
     1
 10
149.632782
 20
-56.137306
 11
149.632782
 21
-63.137306
  0
LINE
  8
0
  6
CENTER
 62
     1
 10
177.848312
 20
-38.637306
 11
171.628311
 21
-38.637306
  0
LINE
  8
0
 10
110.832779
 20
2.662694
 11
110.832779
 21
14.062695
  0
LINE
  8
0
 10
143.632782
 20
13.562689
 11
143.132782
 21
14.062689
  0
LINE
  8
0
 10
122.632782
 20
14.062695
 11
143.132782
 21
14.062695
  0
LINE
  8
0
 62
     4
 10
122.032784
 20
35.228718
 11
122.032784
 21
41.762695
  0
LINE
  8
0
 62
     4
 10
122.532784
 20
34.362694
 11
122.032784
 21
35.228718
  0
LINE
  8
0
 62
     4
 10
122.032784
 20
41.762691
 11
121.532776
 21
42.051369
  0
LINE
  8
0
 62
     4
 10
121.532784
 20
42.051369
 11
121.532784
 21
42.762695
  0
LINE
  8
0
 62
     4
 10
127.832779
 20
38.662693
 11
122.532784
 21
38.662693
  0
LINE
  8
0
 62
     4
 10
127.832779
 20
38.762695
 11
127.832779
 21
42.762695
  0
LINE
  8
0
 62
     4
 10
123.032784
 20
38.762695
 11
127.832779
 21
38.762695
  0
LINE
  8
0
 62
     4
 10
123.032784
 20
38.662693
 11
123.032784
 21
43.762695
  0
LINE
  8
0
  6
PHANTOM
 62
     4
 10
123.032784
 20
39.562695
 11
123.032784
 21
41.061310
  0
LINE
  8
0
 62
     4
 10
122.733025
 20
42.762691
 11
123.032784
 21
41.062695
  0
LINE
  8
0
 62
     4
 10
128.332779
 20
43.762695
 11
123.032784
 21
43.762695
  0
LINE
  8
0
 62
     4
 10
127.132782
 20
38.662693
 11
127.132782
 21
38.762695
  0
LINE
  8
0
 62
     4
 10
128.332779
 20
43.051369
 11
128.332779
 21
43.762695
  0
LINE
  8
0
 62
     4
 10
127.832771
 20
42.762691
 11
128.332779
 21
43.051369
  0
LINE
  8
0
 62
     4
 10
122.733025
 20
42.762695
 11
121.532784
 21
42.762695
  0
LINE
  8
0
 62
     4
 10
122.532784
 20
38.662693
 11
122.532784
 21
33.162693
  0
LINE
  8
0
 62
     4
 10
127.832779
 20
38.662693
 11
127.832779
 21
27.262695
  0
LINE
  8
0
 62
     4
 10
122.532784
 20
33.162693
 11
110.632782
 21
33.162693
  0
LINE
  8
0
 62
     4
 10
110.332779
 20
14.762693
 11
110.332779
 21
32.862694
  0
LINE
  8
0
 62
     4
 10
141.632782
 20
16.762693
 11
140.832779
 21
16.762693
  0
LINE
  8
0
 62
     4
 10
140.832779
 20
24.362694
 11
141.632782
 21
24.362694
  0
LINE
  8
0
 62
     4
 10
140.832779
 20
24.362694
 11
140.832779
 21
16.762693
  0
LINE
  8
0
 62
     4
 10
142.332779
 20
14.062695
 11
142.332779
 21
25.062695
  0
LINE
  8
0
 62
     4
 10
141.632782
 20
24.362694
 11
141.632782
 21
16.762693
  0
LINE
  8
0
 62
     4
 10
132.232788
 20
28.562695
 11
132.232788
 21
27.562695
  0
LINE
  8
0
 62
     4
 10
132.332779
 20
27.662693
 11
132.332779
 21
27.562695
  0
LINE
  8
0
 62
     4
 10
134.832779
 20
28.162693
 11
132.832779
 21
28.162693
  0
LINE
  8
0
 62
     4
 10
136.549927
 20
25.062693
 11
135.932785
 21
28.562695
  0
LINE
  8
0
 62
     4
 10
135.432785
 20
28.562695
 11
135.432785
 21
27.562695
  0
LINE
  8
0
 62
     4
 10
135.332779
 20
27.662693
 11
135.332779
 21
27.562695
  0
LINE
  8
0
 62
     4
 10
135.432785
 20
27.562695
 11
132.232788
 21
27.562695
  0
LINE
  8
0
 62
     4
 10
142.332779
 20
25.062695
 11
136.549927
 21
25.062695
  0
LINE
  8
0
 62
     4
 10
110.332779
 20
14.462694
 11
110.632782
 21
14.762691
  0
LINE
  8
0
 62
     4
 10
110.332779
 20
14.762693
 11
111.832779
 21
14.762693
  0
LINE
  8
0
 62
     4
 10
110.332779
 20
13.562695
 11
110.332779
 21
14.462694
  0
LINE
  8
0
 62
     4
 10
111.832779
 20
27.262695
 11
127.932785
 21
27.262695
  0
LINE
  8
0
 62
     4
 10
135.932785
 20
28.562695
 11
129.241974
 21
28.562695
  0
LINE
  8
0
 62
     4
 10
111.832779
 20
27.262695
 11
111.832779
 21
14.762693
  0
LINE
  8
0
 62
     4
 10
127.832779
 20
32.562695
 11
127.932785
 21
32.562695
  0
LINE
  8
0
 62
     4
 10
128.430862
 20
33.162693
 11
127.932785
 21
33.162693
  0
LINE
  8
0
 62
     4
 10
127.932785
 20
27.262695
 11
127.932785
 21
33.162693
  0
LINE
  8
0
 62
     4
 10
129.241959
 20
28.562691
 11
128.430862
 21
33.162693
  0
LINE
  8
0
 10
110.832779
 20
14.062695
 11
116.632782
 21
14.062695
  0
LINE
  8
0
 62
     4
 10
110.332779
 20
13.562695
 11
110.832779
 21
13.562695
  0
LINE
  8
0
 62
     4
 10
126.247787
 20
43.762695
 11
126.247787
 21
48.392693
  0
LINE
  8
0
 62
     4
 10
124.817780
 20
43.762695
 11
124.817780
 21
48.774029
  0
LINE
  8
0
 62
     1
 10
128.572784
 20
47.772694
 11
122.572769
 21
49.372696
  0
LINE
  8
0
 62
     1
 10
128.572784
 20
49.012695
 11
122.572784
 21
50.612698
  0
LINE
  8
0
 62
     4
 10
126.247787
 20
49.632694
 11
126.247787
 21
54.192696
  0
LINE
  8
0
 62
     4
 10
124.817780
 20
50.014027
 11
124.817780
 21
54.192696
  0
LINE
  8
0
 62
     4
 10
125.132782
 20
54.192696
 11
125.132782
 21
59.192696
  0
LINE
  8
0
 62
     4
 10
125.932785
 20
54.192696
 11
125.932785
 21
59.192696
  0
LINE
  8
0
 62
     4
 10
124.817780
 20
54.192696
 11
126.247787
 21
54.192696
  0
LINE
  8
0
 62
     4
 10
125.132782
 20
59.192696
 11
125.932785
 21
59.192696
  0
LINE
  8
0
 10
117.132782
 20
-58.037308
 11
143.132782
 21
-58.037308
  0
LINE
  8
0
 10
143.632782
 20
-49.637306
 11
116.632782
 21
-49.637306
  0
LINE
  8
0
 10
143.632782
 20
-7.637307
 11
116.632782
 21
-7.637307
  0
LINE
  8
0
 10
116.632782
 20
-57.537308
 11
116.632782
 21
4.662694
  0
LINE
  8
0
 10
111.232780
 20
5.062693
 11
116.232780
 21
5.062693
  0
LINE
  8
0
 10
111.232780
 20
2.262693
 11
116.132782
 21
2.262693
  0
LINE
  8
0
 10
119.632782
 20
-15.287306
 11
119.632782
 21
-11.977306
  0
LINE
  8
0
 10
119.632782
 20
-11.977306
 11
116.632782
 21
-11.977306
  0
LINE
  8
0
 10
119.632782
 20
-15.287306
 11
116.632782
 21
-15.287306
  0
LINE
  8
0
 10
137.432785
 20
-55.137306
 11
137.432785
 21
-57.537308
  0
LINE
  8
0
 10
137.832779
 20
-55.817307
 11
137.832779
 21
-54.637306
  0
LINE
  8
0
 10
143.432785
 20
-55.817307
 11
143.432785
 21
-54.637306
  0
LINE
  8
0
 10
137.932785
 20
-54.637306
 11
143.432785
 21
-54.637306
  0
LINE
  8
0
 10
143.632782
 20
-57.537308
 11
143.632782
 21
13.562695
  0
LINE
  8
0
  6
CENTER
 62
     1
 10
-172.273621
 20
-38.637306
 11
-179.269867
 21
-38.637306
  0
LINE
  8
0
  6
CENTER
 62
     1
 10
-179.269867
 20
-6.637307
 11
-172.273621
 21
-6.637307
  0
LINE
  8
0
 10
-146.367218
 20
-7.637307
 11
-145.367218
 21
-7.637307
  0
LINE
  8
0
 10
-146.367218
 20
-49.637306
 11
-145.367218
 21
-49.637306
  0
LINE
  8
0
 10
-146.367218
 20
-63.137306
 11
-145.417221
 21
-63.137306
  0
LINE
  8
0
 10
-144.867218
 20
-61.637302
 11
-145.417221
 21
-63.137306
  0
LINE
  8
0
 10
-144.867218
 20
-58.037308
 11
-144.867218
 21
-61.637306
  0
LINE
  8
0
 10
-146.367218
 20
-56.137306
 11
-145.417221
 21
-56.137306
  0
LINE
  8
0
 10
-145.367218
 20
-56.267307
 11
-145.417221
 21
-56.137306
  0
LINE
  8
0
 10
-146.367218
 20
5.862693
 11
-145.417221
 21
5.862693
  0
LINE
  8
0
 10
-145.367218
 20
5.732694
 11
-145.417221
 21
5.862695
  0
LINE
  8
0
 10
-145.367218
 20
-1.007303
 11
-145.417221
 21
-1.137304
  0
LINE
  8
0
 10
-146.367218
 20
-1.137307
 11
-145.417221
 21
-1.137307
  0
LINE
  8
0
 62
     4
 10
-146.367218
 20
6.862693
 11
-176.367218
 21
6.862693
  0
LINE
  8
0
 62
     4
 10
-146.367218
 20
-64.137306
 11
-176.367218
 21
-64.137306
  0
LINE
  8
0
 62
     4
 10
-176.367218
 20
6.862693
 11
-176.367218
 21
-64.137306
  0
LINE
  8
0
 10
-146.367218
 20
6.862693
 11
-146.367218
 21
-64.137306
  0
LINE
  8
0
  6
CENTER
 62
     1
 10
-166.367218
 20
-10.637308
 11
-166.367218
 21
-46.637306
  0
LINE
  8
0
  6
CENTER
 62
     1
 10
-158.367233
 20
-38.637306
 11
-174.367233
 21
-38.637306
  0
LINE
  8
0
  6
CENTER
 62
     1
 10
-158.367233
 20
-18.637306
 11
-174.367233
 21
-18.637306
  0
LINE
  8
0
 10
-144.267212
 20
13.562695
 11
-144.267212
 21
14.062695
  0
LINE
  8
0
 62
     4
 10
-126.867218
 20
59.192696
 11
-127.667221
 21
59.192696
  0
LINE
  8
0
 62
     4
 10
-126.552216
 20
54.192696
 11
-127.982224
 21
54.192696
  0
LINE
  8
0
 62
     4
 10
-127.667221
 20
54.192696
 11
-127.667221
 21
59.192696
  0
LINE
  8
0
 62
     4
 10
-126.867218
 20
54.192696
 11
-126.867218
 21
59.192696
  0
LINE
  8
0
 62
     4
 10
-126.552216
 20
49.632694
 11
-126.552216
 21
54.192696
  0
LINE
  8
0
 62
     4
 10
-127.982224
 20
50.014027
 11
-127.982224
 21
54.192696
  0
LINE
  8
0
 62
     1
 10
-124.227219
 20
49.012695
 11
-130.227203
 21
50.612690
  0
LINE
  8
0
 62
     1
 10
-124.227219
 20
47.772690
 11
-130.227219
 21
49.372688
  0
LINE
  8
0
 62
     4
 10
-126.552216
 20
43.762695
 11
-126.552216
 21
48.392693
  0
LINE
  8
0
 62
     4
 10
-127.982224
 20
43.762695
 11
-127.982224
 21
48.774029
  0
LINE
  8
0
 10
-124.067215
 20
-54.637306
 11
-118.567215
 21
-54.637306
  0
LINE
  8
0
 10
-118.567215
 20
-55.817307
 11
-118.567215
 21
-54.637306
  0
LINE
  8
0
 10
-124.167221
 20
-55.817307
 11
-124.167221
 21
-54.637306
  0
LINE
  8
0
 10
-144.867218
 20
-58.037308
 11
-118.867218
 21
-58.037308
  0
LINE
  8
0
 10
-124.567215
 20
-55.137306
 11
-124.567215
 21
-57.537308
  0
LINE
  8
0
 10
-145.367218
 20
-49.637306
 11
-118.367218
 21
-49.637306
  0
LINE
  8
0
 10
-145.367218
 20
-7.637307
 11
-118.367218
 21
-7.637307
  0
LINE
  8
0
 10
-145.167221
 20
7.862693
 11
-145.167221
 21
9.405157
  0
LINE
  8
0
 10
-145.367218
 20
7.862693
 11
-139.367218
 21
7.862693
  0
LINE
  8
0
 10
-139.567215
 20
7.862693
 11
-139.567215
 21
9.405157
  0
LINE
  8
0
 10
-139.367218
 20
7.862693
 11
-139.367218
 21
14.062695
  0
LINE
  8
0
 62
     4
 10
-112.067215
 20
13.562695
 11
-112.567215
 21
13.562695
  0
LINE
  8
0
 10
-112.567215
 20
2.662694
 11
-112.567215
 21
14.062695
  0
LINE
  8
0
 10
-145.367218
 20
13.562693
 11
-144.867218
 21
14.062692
  0
LINE
  8
0
 10
-112.567215
 20
14.062695
 11
-139.367218
 21
14.062695
  0
LINE
  8
0
 10
-112.967216
 20
2.262693
 11
-117.867218
 21
2.262693
  0
LINE
  8
0
 62
     4
 10
-130.976395
 20
28.562689
 11
-130.165298
 21
33.162693
  0
LINE
  8
0
 62
     4
 10
-129.667221
 20
27.262695
 11
-129.667221
 21
33.162693
  0
LINE
  8
0
 62
     4
 10
-130.165298
 20
33.162693
 11
-129.667221
 21
33.162693
  0
LINE
  8
0
 62
     4
 10
-129.567215
 20
32.562695
 11
-129.667221
 21
32.562695
  0
LINE
  8
0
 62
     4
 10
-113.567215
 20
27.262695
 11
-113.567215
 21
14.762693
  0
LINE
  8
0
 62
     4
 10
-137.667221
 20
28.562695
 11
-130.976410
 21
28.562695
  0
LINE
  8
0
 62
     4
 10
-113.567215
 20
27.262695
 11
-129.667221
 21
27.262695
  0
LINE
  8
0
 62
     4
 10
-112.067215
 20
13.562695
 11
-112.067215
 21
14.462694
  0
LINE
  8
0
 62
     4
 10
-112.067215
 20
14.762693
 11
-113.567215
 21
14.762693
  0
LINE
  8
0
 62
     4
 10
-112.067223
 20
14.462694
 11
-112.367218
 21
14.762691
  0
LINE
  8
0
 62
     4
 10
-144.067215
 20
25.062695
 11
-138.284363
 21
25.062695
  0
LINE
  8
0
 62
     4
 10
-137.167221
 20
27.562695
 11
-133.967224
 21
27.562695
  0
LINE
  8
0
 62
     4
 10
-137.067215
 20
27.662693
 11
-137.067215
 21
27.562695
  0
LINE
  8
0
 62
     4
 10
-137.167221
 20
28.562695
 11
-137.167221
 21
27.562695
  0
LINE
  8
0
 62
     4
 10
-138.284363
 20
25.062693
 11
-137.667221
 21
28.562693
  0
LINE
  8
0
 62
     4
 10
-136.567215
 20
28.162693
 11
-134.567215
 21
28.162693
  0
LINE
  8
0
 62
     4
 10
-134.067215
 20
27.662693
 11
-134.067215
 21
27.562695
  0
LINE
  8
0
 62
     4
 10
-133.967224
 20
28.562695
 11
-133.967224
 21
27.562695
  0
LINE
  8
0
 62
     4
 10
-143.367218
 20
24.362694
 11
-143.367218
 21
16.762693
  0
LINE
  8
0
 62
     4
 10
-144.067215
 20
13.562695
 11
-144.067215
 21
25.062695
  0
LINE
  8
0
 62
     4
 10
-142.567215
 20
24.362694
 11
-142.567215
 21
16.762693
  0
LINE
  8
0
 62
     4
 10
-142.567215
 20
24.362694
 11
-143.367218
 21
24.362694
  0
LINE
  8
0
 62
     4
 10
-143.367218
 20
16.762693
 11
-142.567215
 21
16.762693
  0
LINE
  8
0
 62
     4
 10
-112.067215
 20
14.762693
 11
-112.067215
 21
32.862694
  0
LINE
  8
0
 62
     4
 10
-124.267220
 20
33.162693
 11
-112.367218
 21
33.162693
  0
LINE
  8
0
 62
     4
 10
-129.567215
 20
38.662693
 11
-129.567215
 21
27.262695
  0
LINE
  8
0
 62
     4
 10
-124.267220
 20
38.662693
 11
-124.267220
 21
33.162693
  0
LINE
  8
0
 62
     4
 10
-124.467461
 20
42.762695
 11
-123.267220
 21
42.762695
  0
LINE
  8
0
 62
     4
 10
-129.567215
 20
42.762695
 11
-130.067215
 21
43.051365
  0
LINE
  8
0
 62
     4
 10
-130.067215
 20
43.051369
 11
-130.067215
 21
43.762695
  0
LINE
  8
0
 62
     4
 10
-128.867218
 20
38.662693
 11
-128.867218
 21
38.762695
  0
LINE
  8
0
 62
     4
 10
-130.067215
 20
43.762695
 11
-124.767220
 21
43.762695
  0
LINE
  8
0
 62
     4
 10
-124.467461
 20
42.762691
 11
-124.767220
 21
41.062695
  0
LINE
  8
0
  6
PHANTOM
 62
     4
 10
-124.767220
 20
39.562695
 11
-124.767220
 21
41.061310
  0
LINE
  8
0
 62
     4
 10
-124.767220
 20
38.662693
 11
-124.767220
 21
43.762695
  0
LINE
  8
0
 62
     4
 10
-124.767220
 20
38.762695
 11
-129.567215
 21
38.762695
  0
LINE
  8
0
 62
     4
 10
-129.567215
 20
38.762695
 11
-129.567215
 21
42.762695
  0
LINE
  8
0
 62
     4
 10
-129.567215
 20
38.662693
 11
-124.267220
 21
38.662693
  0
LINE
  8
0
 62
     4
 10
-123.267220
 20
42.051369
 11
-123.267220
 21
42.762695
  0
LINE
  8
0
 62
     4
 10
-123.767220
 20
41.762695
 11
-123.267220
 21
42.051373
  0
LINE
  8
0
 62
     4
 10
-124.267220
 20
34.362698
 11
-123.767220
 21
35.228722
  0
LINE
  8
0
 62
     4
 10
-123.767220
 20
35.228718
 11
-123.767220
 21
41.762695
  0
LINE
  8
0
 10
-144.067215
 20
14.062695
 11
-144.867218
 21
14.062695
  0
LINE
  8
0
 10
-144.267212
 20
13.562695
 11
-139.367218
 21
13.562695
  0
LINE
  8
0
 10
-112.967216
 20
5.062693
 11
-117.967216
 21
5.062693
  0
LINE
  8
0
 10
-118.367218
 20
-57.537308
 11
-118.367218
 21
4.662694
  0
LINE
  8
0
 10
-145.367218
 20
-57.537308
 11
-145.367218
 21
13.562695
  0
LINE
  8
0
 10
-121.367218
 20
-45.297306
 11
-118.367218
 21
-45.297306
  0
LINE
  8
0
 10
-121.367218
 20
-41.987305
 11
-118.367218
 21
-41.987305
  0
LINE
  8
0
 10
-120.667221
 20
-41.987305
 11
-120.667221
 21
-45.297306
  0
LINE
  8
0
 10
-121.367218
 20
-41.987305
 11
-121.367218
 21
-45.297306
  0
LINE
  8
0
 62
     4
 10
-162.597214
 20
-36.648991
 11
-162.597214
 21
-40.988991
  0
LINE
  8
0
 62
     4
 10
-166.367218
 20
-34.468990
 11
-162.597214
 21
-36.648991
  0
LINE
  8
0
 62
     4
 10
-170.137222
 20
-36.648991
 11
-170.137222
 21
-40.988991
  0
LINE
  8
0
 62
     4
 10
-170.137222
 20
-36.648991
 11
-166.367203
 21
-34.468983
  0
LINE
  8
0
 62
     4
 10
-170.137222
 20
-40.988987
 11
-166.367218
 21
-43.168987
  0
LINE
  8
0
 62
     4
 10
-166.367218
 20
-43.168991
 11
-162.597214
 21
-40.988991
  0
LINE
  8
0
  6
CENTER
 62
     1
 10
18.041103
 20
-38.637306
 11
11.893657
 21
-38.637306
  0
LINE
  8
0
 62
     4
 10
-0.326805
 20
4.662694
 11
3.592379
 21
4.662694
  0
LINE
  8
0
 62
     4
 10
-0.326805
 20
5.462694
 11
3.592379
 21
5.462694
  0
LINE
  8
0
 62
     4
 10
-15.367213
 20
6.862693
 11
-15.367213
 21
-64.137306
  0
LINE
  8
0
 62
     4
 10
18.632786
 20
6.862693
 11
18.632786
 21
-64.137306
  0
LINE
  8
0
 62
     4
 10
18.632786
 20
6.862693
 11
10.632787
 21
6.862693
  0
LINE
  8
0
 62
     4
 10
18.632786
 20
-64.137306
 11
-15.367213
 21
-64.137306
  0
LINE
  8
0
 62
     4
 10
-7.367213
 20
6.862693
 11
-15.367213
 21
6.862693
  0
LINE
  8
0
  6
CENTER
 62
     1
 10
-8.867213
 20
-6.637307
 11
-14.867213
 21
-6.637307
  0
LINE
  8
0
  6
CENTER
 62
     1
 10
15.132787
 20
-35.637306
 11
15.132787
 21
-41.637306
  0
LINE
  8
0
  6
CENTER
 62
     1
 10
-11.867213
 20
-3.637307
 11
-11.867213
 21
-9.637306
  0
LINE
  8
0
 62
     4
 10
4.887786
 20
49.722694
 11
4.887786
 21
54.292694
  0
LINE
  8
0
 62
     4
 10
3.457787
 20
50.102695
 11
3.457787
 21
54.292694
  0
LINE
  8
0
 62
     4
 10
3.772787
 20
54.292694
 11
3.772787
 21
59.292694
  0
LINE
  8
0
 62
     4
 10
4.572787
 20
54.292694
 11
4.572787
 21
59.292694
  0
LINE
  8
0
 62
     4
 10
3.457787
 20
54.292694
 11
4.887786
 21
54.292694
  0
LINE
  8
0
 62
     4
 10
3.772787
 20
59.292694
 11
4.572787
 21
59.292694
  0
LINE
  8
0
 62
     4
 10
3.457787
 20
43.762695
 11
3.457787
 21
48.862694
  0
LINE
  8
0
 62
     4
 10
4.887786
 20
43.762695
 11
4.887786
 21
48.492695
  0
LINE
  8
0
 62
     4
 10
-0.507214
 20
59.292694
 11
-1.307213
 21
59.292694
  0
LINE
  8
0
 62
     4
 10
-0.192213
 20
54.292694
 11
-1.622213
 21
54.292694
  0
LINE
  8
0
 62
     4
 10
-1.307213
 20
54.292694
 11
-1.307213
 21
59.292694
  0
LINE
  8
0
 62
     4
 10
-0.507214
 20
54.292694
 11
-0.507214
 21
59.292694
  0
LINE
  8
0
 62
     4
 10
-1.622213
 20
51.468693
 11
-1.622213
 21
54.292694
  0
LINE
  8
0
 62
     4
 10
-0.192213
 20
51.087360
 11
-0.192213
 21
54.292694
  0
LINE
  8
0
 62
     1
 10
7.212786
 20
49.112694
 11
-3.885528
 21
52.072243
  0
LINE
  8
0
 62
     1
 10
7.212787
 20
47.872688
 11
-3.885525
 21
50.832241
  0
LINE
  8
0
 62
     4
 10
-1.622213
 20
43.762695
 11
-1.622213
 21
50.228695
  0
LINE
  8
0
 62
     4
 10
-0.192213
 20
43.762695
 11
-0.192213
 21
49.847359
  0
LINE
  8
0
 62
     4
 10
-2.467214
 20
38.762695
 11
-2.467214
 21
38.662693
  0
LINE
  8
0
 62
     4
 10
5.732787
 20
38.762695
 11
5.732787
 21
38.662693
  0
LINE
  8
0
 62
     4
 10
-0.867213
 20
38.762695
 11
-3.067213
 21
38.762695
  0
LINE
  8
0
 62
     4
 10
6.332788
 20
38.762695
 11
4.132787
 21
38.762695
  0
LINE
  8
0
 10
-1.567213
 20
-55.817307
 11
-1.567213
 21
-54.637306
  0
LINE
  8
0
 10
-7.167213
 20
-55.817307
 11
-7.167213
 21
-54.637306
  0
LINE
  8
0
 10
-7.167213
 20
-54.637306
 11
-1.667213
 21
-54.637306
  0
LINE
  8
0
 10
-6.867213
 20
-58.037308
 11
10.132787
 21
-58.037308
  0
LINE
  8
0
 10
-1.167213
 20
-55.137306
 11
-1.167213
 21
-57.537308
  0
LINE
  8
0
 62
     4
 10
-0.867213
 20
35.128719
 11
4.132787
 21
35.128719
  0
LINE
  8
0
 62
     4
 10
-0.867213
 20
38.662693
 11
-3.367213
 21
38.662693
  0
LINE
  8
0
 62
     4
 10
-3.067213
 20
38.762695
 11
-3.067213
 21
43.762695
  0
LINE
  8
0
 62
     4
 10
-0.867213
 20
34.262695
 11
-0.867213
 21
42.762695
  0
LINE
  8
0
 62
     4
 10
-1.967214
 20
38.762695
 11
-1.967214
 21
43.762695
  0
LINE
  8
0
 62
     4
 10
5.232787
 20
38.762695
 11
5.232787
 21
43.762695
  0
LINE
  8
0
 62
     4
 10
-0.867213
 20
41.762695
 11
4.132787
 21
41.762695
  0
LINE
  8
0
 62
     4
 10
-0.867213
 20
42.051369
 11
4.132787
 21
42.051369
  0
LINE
  8
0
 62
     4
 10
4.132787
 20
34.262695
 11
4.132787
 21
42.762695
  0
LINE
  8
0
 62
     4
 10
6.332788
 20
38.762695
 11
6.332788
 21
43.762695
  0
LINE
  8
0
 62
     4
 10
4.132787
 20
42.762695
 11
-0.867213
 21
42.762695
  0
LINE
  8
0
 62
     4
 10
6.332788
 20
43.762695
 11
-3.067213
 21
43.762695
  0
LINE
  8
0
 62
     4
 10
4.132787
 20
34.262695
 11
-0.867213
 21
34.262695
  0
LINE
  8
0
 62
     1
 10
0.132787
 20
30.162693
 11
0.132787
 21
33.162693
  0
LINE
  8
0
 62
     1
 10
3.132787
 20
30.162693
 11
0.132787
 21
30.162693
  0
LINE
  8
0
 62
     1
 10
3.132787
 20
30.162693
 11
3.132787
 21
33.162693
  0
LINE
  8
0
 62
     4
 10
-1.267213
 20
33.162693
 11
-1.267213
 21
38.662693
  0
LINE
  8
0
 62
     4
 10
4.532786
 20
33.162693
 11
4.532786
 21
38.662693
  0
LINE
  8
0
 62
     4
 10
6.632787
 20
38.662693
 11
4.132787
 21
38.662693
  0
LINE
  8
0
 62
     4
 10
6.632787
 20
13.562695
 11
6.632787
 21
38.662693
  0
LINE
  8
0
 62
     4
 10
-3.367213
 20
13.562695
 11
-3.367213
 21
38.662693
  0
LINE
  8
0
 62
     4
 10
-3.367213
 20
14.762693
 11
6.632787
 21
14.762693
  0
LINE
  8
0
 62
     4
 10
-3.067213
 20
33.162693
 11
6.332788
 21
33.162693
  0
LINE
  8
0
 62
     4
 10
6.632787
 20
14.462694
 11
-3.367213
 21
14.462694
  0
LINE
  8
0
 10
7.182786
 20
14.062695
 11
7.632787
 21
14.062695
  0
LINE
  8
0
 10
-1.618324
 20
4.862693
 11
-0.232684
 21
2.462693
  0
LINE
  8
0
 10
3.498257
 20
2.462693
 11
4.883898
 21
4.862694
  0
LINE
  8
0
 10
0.113727
 20
2.262693
 11
3.151847
 21
2.262693
  0
LINE
  8
0
 10
6.882787
 20
13.562695
 11
6.882787
 21
13.762693
  0
LINE
  8
0
 10
-3.617213
 20
13.562695
 11
-3.617213
 21
13.762693
  0
LINE
  8
0
 10
-4.367213
 20
14.062695
 11
-3.917213
 21
14.062695
  0
LINE
  8
0
 10
-7.367214
 20
11.062694
 11
-4.367214
 21
14.062693
  0
LINE
  8
0
 10
7.632787
 20
14.062693
 11
10.632787
 21
11.062694
  0
LINE
  8
0
 10
10.632787
 20
11.062695
 11
10.632787
 21
-12.376358
  0
LINE
  8
0
 10
-7.367213
 20
11.062695
 11
-7.367213
 21
-42.376358
  0
LINE
  8
0
 10
5.230308
 20
5.062693
 11
10.632787
 21
5.062693
  0
LINE
  8
0
 10
-1.964734
 20
5.062693
 11
-7.367213
 21
5.062693
  0
LINE
  8
0
  6
CENTER
 62
     2
 10
-1.471996
 20
5.062693
 11
5.523940
 21
5.062693
  0
LINE
  8
0
 10
10.632787
 20
-7.637307
 11
-7.367213
 21
-7.637307
  0
LINE
  8
0
 10
6.882787
 20
13.562695
 11
-3.617213
 21
13.562695
  0
LINE
  8
0
 10
-7.367213
 20
-49.637306
 11
10.632787
 21
-49.637306
  0
LINE
  8
0
 10
7.072126
 20
-12.576645
 11
9.193446
 21
-14.697966
  0
LINE
  8
0
 10
7.072126
 20
-14.697967
 11
9.193447
 21
-12.576646
  0
LINE
  8
0
 10
10.632787
 20
-14.898256
 11
10.632787
 21
-57.537308
  0
LINE
  8
0
 10
-5.927875
 20
-42.576645
 11
-3.806555
 21
-44.697968
  0
LINE
  8
0
 10
-5.927874
 20
-44.697968
 11
-3.806555
 21
-42.576645
  0
LINE
  8
0
 10
-7.367213
 20
-44.898254
 11
-7.367213
 21
-57.537308
  0
LINE
  8
0
  6
CENTER
 62
     2
 10
1.632787
 20
63.818718
 11
1.632787
 21
-68.203590
  0
LINE
  8
0
 10
-281.250000
 20
-195.000000
 11
282.099854
 21
-195.000000
  0
LINE
  8
0
 10
282.099854
 20
195.500000
 11
282.099854
 21
-195.000000
  0
LINE
  8
0
 10
-281.250000
 20
195.500000
 11
282.099854
 21
195.500000
  0
LINE
  8
0
 10
-281.250000
 20
195.500000
 11
-281.250000
 21
-195.000000
  0
LINE
  8
0
 10
162.099976
 20
-175.000000
 11
162.099976
 21
-195.000000
  0
LINE
  8
0
 10
162.099976
 20
-175.000000
 11
282.099854
 21
-175.000000
  0
LINE
  8
0
 10
162.099976
 20
175.500000
 11
282.099854
 21
175.500000
  0
LINE
  8
0
 10
-281.250000
 20
175.500000
 11
-161.250000
 21
175.500000
  0
LINE
  8
0
 10
162.099976
 20
195.500000
 11
162.099976
 21
175.500000
  0
LINE
  8
0
 10
-161.250000
 20
195.500000
 11
-161.250000
 21
175.500000
  0
ARC
  8
0
 10
-6.870664
 20
-124.394135
 40
0.496562
 50
179.602097
 51
270.398132
  0
ARC
  8
0
 10
10.136264
 20
-124.394165
 40
0.496533
 50
269.598877
 51
0.401449
  0
ARC
  8
0
 10
3.936265
 20
-124.394165
 40
0.496534
 50
328.239532
 51
0.401450
  0
ARC
  8
0
 62
     4
 10
6.332788
 20
-91.890686
 40
0.300000
 50
0.000000
 51
90.000000
  0
ARC
  8
0
 62
     4
 10
-3.067213
 20
-91.890686
 40
0.300003
 50
90.000000
 51
180.000000
  0
ARC
  8
0
 10
10.232787
 20
-92.490685
 40
0.400000
 50
0.000000
 51
90.000000
  0
ARC
  8
0
 10
-6.967213
 20
-92.490685
 40
0.400002
 50
90.000000
 51
180.000000
  0
ARC
  8
0
 10
-1.333795
 20
-92.490685
 40
0.400002
 50
90.000000
 51
180.000000
  0
ARC
  8
0
 10
0.282786
 20
-92.490685
 40
0.400002
 50
90.000008
 51
180.000000
  0
ARC
  8
0
 10
4.599368
 20
-92.490685
 40
0.400000
 50
0.000000
 51
90.000000
  0
ARC
  8
0
 10
2.982787
 20
-92.490685
 40
0.400000
 50
0.000000
 51
90.000000
  0
ARC
  8
0
 10
-2.233794
 20
-97.390686
 40
0.500000
 50
270.000000
 51
0.000000
  0
ARC
  8
0
 10
-0.617213
 20
-97.390686
 40
0.500000
 50
270.000000
 51
0.000000
  0
ARC
  8
0
 10
5.499368
 20
-97.390686
 40
0.500000
 50
180.000000
 51
270.000000
  0
ARC
  8
0
 10
3.882787
 20
-97.390686
 40
0.500000
 50
180.000000
 51
270.000000
  0
ARC
  8
0
 10
-6.863698
 20
-98.394203
 40
0.503529
 50
90.400055
 51
179.599777
  0
ARC
  8
0
 10
10.129304
 20
-98.394165
 40
0.503495
 50
0.395900
 51
89.603661
  0
ARC
  8
0
 10
-4.363719
 20
-100.894180
 40
3.196505
 50
269.937378
 51
0.062633
  0
ARC
  8
0
 10
7.636285
 20
-121.894180
 40
3.203501
 50
90.062561
 51
179.937500
  0
ARC
  8
0
 10
10.136271
 20
-118.194168
 40
0.496526
 50
269.597778
 51
0.402337
  0
ARC
  8
0
 10
-6.863707
 20
-104.594193
 40
0.503522
 50
90.399025
 51
179.600647
  0
ARC
  8
0
 10
-0.663699
 20
-98.394196
 40
0.503529
 50
90.399879
 51
179.599777
  0
CIRCLE
  8
0
 10
7.632821
 20
-121.897644
 40
2.800000
  0
CIRCLE
  8
0
 10
-4.367180
 20
-100.897644
 40
2.800000
  0
CIRCLE
  8
0
 62
     4
 10
-1.867213
 20
112.115158
 40
1.500000
  0
CIRCLE
  8
0
 62
     4
 10
5.132787
 20
112.115158
 40
1.500000
  0
ARC
  8
0
 62
     4
 10
1.632787
 20
110.365158
 40
0.800001
 50
22.024515
 51
157.975479
  0
ARC
  8
0
 62
     4
 10
1.632787
 20
110.365158
 40
0.800001
 50
202.024521
 51
337.975494
  0
CIRCLE
  8
0
 62
     4
 10
1.632787
 20
110.365158
 40
1.850000
  0
CIRCLE
  8
0
 62
     4
 10
1.632787
 20
110.365158
 40
1.900000
  0
ARC
  8
0
 62
     4
 10
-1.867213
 20
112.115158
 40
1.599998
 50
270.000000
 51
90.000008
  0
ARC
  8
0
 62
     4
 10
5.132787
 20
112.115158
 40
1.599998
 50
90.000000
 51
270.000000
  0
CIRCLE
  8
0
 62
     4
 10
1.632787
 20
110.365158
 40
2.050000
  0
ARC
  8
0
 62
     4
 10
-3.067213
 20
88.915161
 40
0.300000
 50
180.000000
 51
270.000000
  0
ARC
  8
0
 62
     4
 10
6.332788
 20
88.915161
 40
0.300003
 50
270.000000
 51
0.000000
  0
ARC
  8
0
 62
     4
 10
6.332788
 20
101.115158
 40
0.300003
 50
270.000000
 51
0.000000
  0
ARC
  8
0
 62
     4
 10
-3.067213
 20
101.115158
 40
0.300000
 50
180.000000
 51
270.000000
  0
ARC
  8
0
 62
     4
 10
-1.781928
 20
104.715500
 40
0.199670
 50
89.794861
 51
183.542374
  0
ARC
  8
0
 62
     4
 10
-0.031557
 20
104.714493
 40
0.200665
 50
356.761139
 51
89.901741
  0
ARC
  8
0
 62
     4
 10
0.758072
 20
104.715500
 40
0.199670
 50
89.794876
 51
183.542374
  0
ARC
  8
0
 62
     4
 10
2.508443
 20
104.714493
 40
0.200665
 50
356.761139
 51
89.901764
  0
ARC
  8
0
 62
     4
 10
3.298072
 20
104.715500
 40
0.199670
 50
89.794891
 51
183.542374
  0
ARC
  8
0
 62
     4
 10
5.048442
 20
104.714493
 40
0.200665
 50
356.761139
 51
89.901695
  0
CIRCLE
  8
0
 62
     4
 10
4.172788
 20
103.815163
 40
0.750000
  0
CIRCLE
  8
0
 62
     4
 10
-0.907213
 20
103.815163
 40
0.750000
  0
ARC
  8
0
 10
7.632787
 20
100.915161
 40
3.000000
 50
90.000000
 51
109.471199
  0
ARC
  8
0
 10
-4.367213
 20
118.915161
 40
3.000000
 50
270.000000
 51
289.471191
  0
ARC
  8
0
 10
7.632787
 20
100.915161
 40
3.000003
 50
250.528793
 51
270.000000
  0
ARC
  8
0
 10
7.332788
 20
121.115158
 40
0.300000
 50
0.000000
 51
90.000000
  0
ARC
  8
0
 10
7.632787
 20
100.915161
 40
2.800002
 50
249.075180
 51
110.924820
  0
ARC
  8
0
 10
-4.367213
 20
118.915161
 40
2.799998
 50
37.383148
 51
290.924805
  0
ARC
  8
0
 10
143.132782
 20
-57.537304
 40
0.500000
 50
270.000000
 51
0.000000
  0
ARC
  8
0
 10
119.632782
 20
5.262693
 40
5.000002
 50
55.944176
 51
124.055824
  0
ARC
  8
0
 10
121.932785
 20
-13.632307
 40
5.001750
 50
160.677551
 51
199.322449
  0
CIRCLE
  8
0
 62
     1
 10
149.632782
 20
2.362693
 40
2.500000
  0
CIRCLE
  8
0
 62
     4
 10
149.632782
 20
2.362693
 40
2.100000
  0
CIRCLE
  8
0
 62
     1
 10
149.632782
 20
-59.637306
 40
2.500000
  0
CIRCLE
  8
0
 62
     4
 10
149.632782
 20
-59.637306
 40
2.100000
  0
CIRCLE
  8
0
 62
     1
 10
159.632767
 20
-48.637306
 40
6.578500
  0
CIRCLE
  8
0
 62
     4
 10
159.632767
 20
-48.637306
 40
5.722500
  0
CIRCLE
  8
0
 62
     1
 10
164.632767
 20
-28.637306
 40
6.578500
  0
CIRCLE
  8
0
 62
     4
 10
164.632767
 20
-28.637306
 40
5.722500
  0
CIRCLE
  8
0
 62
     1
 10
159.632767
 20
-8.637308
 40
6.578500
  0
CIRCLE
  8
0
 62
     4
 10
159.632767
 20
-8.637308
 40
5.722500
  0
ARC
  8
0
 62
     4
 10
110.632782
 20
32.862694
 40
0.299999
 50
90.000000
 51
180.000000
  0
ARC
  8
0
 62
     4
 10
132.832779
 20
27.662693
 40
0.500000
 50
90.000000
 51
180.000000
  0
ARC
  8
0
 62
     4
 10
134.832779
 20
27.662693
 40
0.500000
 50
0.000000
 51
90.000000
  0
ARC
  8
0
 10
116.232780
 20
4.662694
 40
0.400002
 50
0.000000
 51
90.000000
  0
ARC
  8
0
 10
111.232780
 20
5.462694
 40
0.400002
 50
180.000000
 51
270.000000
  0
ARC
  8
0
 10
116.132782
 20
1.762693
 40
0.500000
 50
0.000000
 51
90.000000
  0
ARC
  8
0
 10
111.232780
 20
2.662694
 40
0.400002
 50
180.000000
 51
270.000000
  0
ARC
  8
0
 10
138.506668
 20
-55.811924
 40
0.673911
 50
180.457626
 51
240.300171
  0
ARC
  8
0
 10
142.766739
 20
-55.816525
 40
0.666039
 50
299.308533
 51
359.932739
  0
ARC
  8
0
 10
140.632782
 20
-52.036839
 40
5.006526
 50
240.569992
 51
299.430023
  0
ARC
  8
0
 10
136.935181
 20
-57.539715
 40
0.497599
 50
269.722412
 51
0.277165
  0
ARC
  8
0
 10
143.135193
 20
-57.539711
 40
0.497599
 50
269.722412
 51
0.277165
  0
ARC
  8
0
 10
143.135193
 20
-54.139713
 40
0.497599
 50
269.722412
 51
0.277165
  0
ARC
  8
0
 10
137.935211
 20
-55.139732
 40
0.502432
 50
90.276672
 51
179.723328
  0
ARC
  8
0
 10
117.135674
 20
-57.534416
 40
0.502900
 50
180.329437
 51
269.670563
  0
ARC
  8
0
 10
-144.867218
 20
-57.537304
 40
0.500000
 50
180.000000
 51
270.000000
  0
CIRCLE
  8
0
 62
     1
 10
-166.367233
 20
-38.637306
 40
6.578500
  0
CIRCLE
  8
0
 62
     4
 10
-166.367233
 20
-38.637306
 40
5.722500
  0
CIRCLE
  8
0
 62
     1
 10
-166.367233
 20
-18.637308
 40
6.578500
  0
CIRCLE
  8
0
 62
     4
 10
-166.367233
 20
-18.637308
 40
5.722500
  0
ARC
  8
0
 10
-124.064789
 20
-55.139732
 40
0.502432
 50
90.276672
 51
179.723328
  0
ARC
  8
0
 10
-118.864807
 20
-54.139713
 40
0.497599
 50
269.722412
 51
0.277165
  0
ARC
  8
0
 10
-144.864319
 20
-57.534416
 40
0.502892
 50
180.329437
 51
269.671417
  0
ARC
  8
0
 10
-118.864807
 20
-57.539711
 40
0.497599
 50
269.723267
 51
0.277160
  0
ARC
  8
0
 10
-125.064812
 20
-57.539715
 40
0.497599
 50
269.722412
 51
0.277165
  0
ARC
  8
0
 10
-121.367218
 20
-52.036839
 40
5.006522
 50
240.570068
 51
299.429932
  0
ARC
  8
0
 10
-119.233261
 20
-55.816525
 40
0.666043
 50
299.309113
 51
359.932739
  0
ARC
  8
0
 10
-123.493332
 20
-55.811924
 40
0.673911
 50
180.457626
 51
240.300735
  0
ARC
  8
0
 10
-142.367218
 20
5.262693
 40
5.000002
 50
55.944176
 51
124.055824
  0
ARC
  8
0
 10
-112.967216
 20
2.662694
 40
0.400000
 50
270.000000
 51
0.000000
  0
ARC
  8
0
 10
-117.867218
 20
1.762693
 40
0.500000
 50
90.000000
 51
180.000000
  0
ARC
  8
0
 62
     4
 10
-136.567215
 20
27.662693
 40
0.500000
 50
90.000000
 51
180.000000
  0
ARC
  8
0
 62
     4
 10
-134.567215
 20
27.662693
 40
0.500000
 50
0.000000
 51
90.000000
  0
ARC
  8
0
 62
     4
 10
-112.367218
 20
32.862694
 40
0.300003
 50
0.000000
 51
90.000000
  0
ARC
  8
0
 10
-112.967216
 20
5.462694
 40
0.400000
 50
270.000000
 51
0.000000
  0
ARC
  8
0
 10
-117.967216
 20
4.662694
 40
0.400000
 50
90.000000
 51
180.000000
  0
ARC
  8
0
 10
-123.667221
 20
-43.642307
 40
5.001750
 50
340.677551
 51
19.322435
  0
CIRCLE
  8
0
 62
     4
 10
-166.367218
 20
-38.818993
 40
4.356108
  0
ARC
  8
0
 10
1.632787
 20
-59.637306
 40
3.500000
 50
152.797134
 51
27.202929
  0
CIRCLE
  8
0
 62
     4
 10
-11.867213
 20
-6.637307
 40
1.600000
  0
CIRCLE
  8
0
 62
     4
 10
15.132787
 20
-38.637306
 40
1.600000
  0
ARC
  8
0
 10
-1.669333
 20
-55.139427
 40
0.502124
 50
0.242018
 51
89.758118
  0
ARC
  8
0
 10
-6.869318
 20
-54.139412
 40
0.497899
 50
179.757690
 51
270.242218
  0
ARC
  8
0
 10
-4.367213
 20
-52.036839
 40
5.006522
 50
240.570053
 51
299.429962
  0
ARC
  8
0
 10
-0.669318
 20
-57.539413
 40
0.497899
 50
179.757690
 51
270.242279
  0
ARC
  8
0
 10
10.130204
 20
-57.534725
 40
0.502589
 50
270.294312
 51
359.705597
  0
ARC
  8
0
 10
-6.869317
 20
-57.539410
 40
0.497901
 50
179.757690
 51
270.242096
  0
ARC
  8
0
 10
-6.500723
 20
-55.816261
 40
0.666491
 50
180.089859
 51
240.668365
  0
ARC
  8
0
 10
-2.240647
 20
-55.812191
 40
0.673454
 50
299.677032
 51
359.564789
  0
ARC
  8
0
 62
     4
 10
-3.067213
 20
32.862694
 40
0.299999
 50
90.000000
 51
180.000000
  0
ARC
  8
0
 62
     4
 10
6.332788
 20
32.862694
 40
0.300000
 50
0.000000
 51
90.000000
  0
ARC
  8
0
 10
5.230308
 20
4.662694
 40
0.400000
 50
90.000000
 51
150.000031
  0
ARC
  8
0
 10
3.151847
 20
2.662694
 40
0.400000
 50
270.000000
 51
330.000000
  0
ARC
  8
0
 10
0.113727
 20
2.662694
 40
0.400000
 50
210.000000
 51
270.000000
  0
ARC
  8
0
 10
-1.964734
 20
4.662694
 40
0.400000
 50
29.999977
 51
90.000000
  0
ARC
  8
0
 10
7.182786
 20
13.762693
 40
0.300000
 50
90.000000
 51
180.000000
  0
ARC
  8
0
 10
-3.917213
 20
13.762693
 40
0.300000
 50
0.000000
 51
90.000000
  0
CIRCLE
  8
0
 10
1.632787
 20
5.062693
 40
2.000000
  0
ARC
  8
0
 10
-4.867681
 20
-43.637444
 40
3.000468
 50
213.586914
 51
0.002622
  0
ARC
  8
0
 10
-4.864919
 20
-43.637993
 40
2.997706
 50
0.013124
 51
146.588425
  0
ARC
  8
0
 10
8.132783
 20
-13.642307
 40
2.998173
 50
33.504513
 51
326.495483
  0
CIRCLE
  8
0
 10
8.132787
 20
-13.637306
 40
2.799999
  0
CIRCLE
  8
0
 10
-4.867213
 20
-43.637306
 40
2.799999
  0
TEXT
  8
0
 10
-270.049713
 20
145.830002
 40
6.300000
  1
     :GA180-4E1-25-81-PSL
 50
0.000000
 41
1.052632
 51
0.000000
  7
STANDARD
  0
TEXT
  8
0
 10
196.250259
 20
180.830002
 40
6.300000
  1
Ver. 1.0
 50
0.000000
 41
1.052632
 51
0.000000
  7
STANDARD
  0
TEXT
  8
0
 10
167.564651
 20
-192.100006
 40
9.000000
  1
KOGANEI CORP.
 50
0.000000
 41
1.052632
 51
0.000000
  7
STANDARD
  0
TEXT
  8
0
 10
-259.699707
 20
180.830002
 40
6.300000
  1
GA180 SERIES
 50
0.000000
 41
1.052632
 51
0.000000
  7
STANDARD
  0
TEXT
  8
0
 10
-270.049713
 20
155.830002
 40
6.300000
  1
MODEL:GA180-E1-25-81-PSL
 50
0.000000
 41
1.052632
 51
0.000000
  7
STANDARD
  0
LINE
  8
0
 62
     2
 10
-168.623474
 20
-42.545250
 11
-191.061096
 21
-81.408371
  0
LINE
  8
0
 62
     2
 10
-191.061096
 20
-81.408371
 11
-242.929779
 21
-81.408363
  0
LINE
  8
0
 62
     2
 10
-168.623474
 20
-42.545250
 11
-170.744797
 21
-44.666569
  0
LINE
  8
0
 62
     2
 10
-168.623474
 20
-42.545250
 11
-169.399933
 21
-45.443027
  0
TEXT
  8
0
 62
     2
 10
-242.679779
 20
-80.408363
 40
3.200000
  1
GA180E1-25-PSL   Only
 50
0.000000
 41
1.052632
 51
0.000000
  7
STANDARD
  0
ENDSEC
  0
EOF
