  0
SECTION
  2
HEADER
  9
$ACADVER
  1
AC1015
  9
$ACADMAINTVER
 70
    20
  9
$DWGCODEPAGE
  3
ANSI_932
  9
$INSBASE
 10
0.0
 20
0.0
 30
0.0
  9
$EXTMIN
 10
-138.3999939
 20
-94.80000305
 30
0.0
  9
$EXTMAX
 10
138.3500061
 20
94.50000000000001
 30
0.0
  9
$LIMMIN
 10
-138.3999939
 20
-94.80000305
  9
$LIMMAX
 10
138.3500061
 20
94.50000000000001
  9
$ORTHOMODE
 70
     1
  9
$REGENMODE
 70
     1
  9
$FILLMODE
 70
     1
  9
$QTEXTMODE
 70
     0
  9
$MIRRTEXT
 70
     1
  9
$LTSCALE
 40
1.0
  9
$ATTMODE
 70
     1
  9
$TEXTSIZE
 40
3.200000049999999
  9
$TRACEWID
 40
0.05
  9
$TEXTSTYLE
  7
MX_NOTE_STANDARD
  9
$CLAYER
  8
0
  9
$CELTYPE
  6
CONTINUOUS
  9
$CECOLOR
 62
   256
  9
$CELTSCALE
 40
1.0
  9
$DISPSILH
 70
     0
  9
$DIMSCALE
 40
1.0
  9
$DIMASZ
 40
2.5
  9
$DIMEXO
 40
1.5
  9
$DIMDLI
 40
3.75
  9
$DIMRND
 40
0.0
  9
$DIMDLE
 40
0.0
  9
$DIMEXE
 40
1.5
  9
$DIMTP
 40
0.0
  9
$DIMTM
 40
0.0
  9
$DIMTXT
 40
3.200000049999999
  9
$DIMCEN
 40
2.5
  9
$DIMTSZ
 40
0.0
  9
$DIMTOL
 70
     0
  9
$DIMLIM
 70
     0
  9
$DIMTIH
 70
     0
  9
$DIMTOH
 70
     0
  9
$DIMSE1
 70
     0
  9
$DIMSE2
 70
     0
  9
$DIMTAD
 70
     1
  9
$DIMZIN
 70
     8
  9
$DIMBLK
  1

  9
$DIMASO
 70
     1
  9
$DIMSHO
 70
     1
  9
$DIMPOST
  1

  9
$DIMAPOST
  1

  9
$DIMALT
 70
     0
  9
$DIMALTD
 70
     4
  9
$DIMALTF
 40
0.03937008
  9
$DIMLFAC
 40
1.0
  9
$DIMTOFL
 70
     1
  9
$DIMTVP
 40
0.0
  9
$DIMTIX
 70
     0
  9
$DIMSOXD
 70
     0
  9
$DIMSAH
 70
     0
  9
$DIMBLK1
  1

  9
$DIMBLK2
  1

  9
$DIMSTYLE
  2
MXDIMSTYLE
  9
$DIMCLRD
 70
     0
  9
$DIMCLRE
 70
     0
  9
$DIMCLRT
 70
     0
  9
$DIMTFAC
 40
1.0
  9
$DIMGAP
 40
1.0
  9
$DIMJUST
 70
     0
  9
$DIMSD1
 70
     0
  9
$DIMSD2
 70
     0
  9
$DIMTOLJ
 70
     1
  9
$DIMTZIN
 70
     0
  9
$DIMALTZ
 70
     0
  9
$DIMALTTZ
 70
     0
  9
$DIMUPT
 70
     0
  9
$DIMDEC
 70
     4
  9
$DIMTDEC
 70
     4
  9
$DIMALTU
 70
     2
  9
$DIMALTTD
 70
     2
  9
$DIMTXSTY
  7
Standard
  9
$DIMAUNIT
 70
     0
  9
$DIMADEC
 70
     0
  9
$DIMALTRND
 40
0.0
  9
$DIMAZIN
 70
     0
  9
$DIMDSEP
 70
    46
  9
$DIMATFIT
 70
     3
  9
$DIMFRAC
 70
     0
  9
$DIMLDRBLK
  1

  9
$DIMLUNIT
 70
     2
  9
$DIMLWD
 70
    -2
  9
$DIMLWE
 70
    -2
  9
$DIMTMOVE
 70
     0
  9
$LUNITS
 70
     2
  9
$LUPREC
 70
     4
  9
$SKETCHINC
 40
0.1
  9
$FILLETRAD
 40
0.0
  9
$AUNITS
 70
     0
  9
$AUPREC
 70
     0
  9
$MENU
  1
acad
  9
$ELEVATION
 40
0.0
  9
$PELEVATION
 40
0.0
  9
$THICKNESS
 40
0.0
  9
$LIMCHECK
 70
     0
  9
$CHAMFERA
 40
0.0
  9
$CHAMFERB
 40
0.0
  9
$CHAMFERC
 40
0.0
  9
$CHAMFERD
 40
0.0
  9
$SKPOLY
 70
     0
  9
$TDCREATE
 40
2453588.568564815
  9
$TDUCREATE
 40
2453588.193564815
  9
$TDUPDATE
 40
2454279.375070058
  9
$TDUUPDATE
 40
2454279.000070058
  9
$TDINDWG
 40
0.0148882407
  9
$TDUSRTIMER
 40
0.0148878819
  9
$USRTIMER
 70
     1
  9
$ANGBASE
 50
0.0
  9
$ANGDIR
 70
     0
  9
$PDMODE
 70
     0
  9
$PDSIZE
 40
0.0
  9
$PLINEWID
 40
0.0
  9
$SPLFRAME
 70
     0
  9
$SPLINETYPE
 70
     6
  9
$SPLINESEGS
 70
     8
  9
$HANDSEED
  5
15B
  9
$SURFTAB1
 70
     6
  9
$SURFTAB2
 70
     6
  9
$SURFTYPE
 70
     6
  9
$SURFU
 70
     6
  9
$SURFV
 70
     6
  9
$UCSBASE
  2

  9
$UCSNAME
  2

  9
$UCSORG
 10
0.0
 20
0.0
 30
0.0
  9
$UCSXDIR
 10
1.0
 20
0.0
 30
0.0
  9
$UCSYDIR
 10
0.0
 20
1.0
 30
0.0
  9
$UCSORTHOREF
  2

  9
$UCSORTHOVIEW
 70
     0
  9
$UCSORGTOP
 10
0.0
 20
0.0
 30
0.0
  9
$UCSORGBOTTOM
 10
0.0
 20
0.0
 30
0.0
  9
$UCSORGLEFT
 10
0.0
 20
0.0
 30
0.0
  9
$UCSORGRIGHT
 10
0.0
 20
0.0
 30
0.0
  9
$UCSORGFRONT
 10
0.0
 20
0.0
 30
0.0
  9
$UCSORGBACK
 10
0.0
 20
0.0
 30
0.0
  9
$PUCSBASE
  2

  9
$PUCSNAME
  2

  9
$PUCSORG
 10
0.0
 20
0.0
 30
0.0
  9
$PUCSXDIR
 10
1.0
 20
0.0
 30
0.0
  9
$PUCSYDIR
 10
0.0
 20
1.0
 30
0.0
  9
$PUCSORTHOREF
  2

  9
$PUCSORTHOVIEW
 70
     0
  9
$PUCSORGTOP
 10
0.0
 20
0.0
 30
0.0
  9
$PUCSORGBOTTOM
 10
0.0
 20
0.0
 30
0.0
  9
$PUCSORGLEFT
 10
0.0
 20
0.0
 30
0.0
  9
$PUCSORGRIGHT
 10
0.0
 20
0.0
 30
0.0
  9
$PUCSORGFRONT
 10
0.0
 20
0.0
 30
0.0
  9
$PUCSORGBACK
 10
0.0
 20
0.0
 30
0.0
  9
$USERI1
 70
     0
  9
$USERI2
 70
     0
  9
$USERI3
 70
     0
  9
$USERI4
 70
     0
  9
$USERI5
 70
     0
  9
$USERR1
 40
0.0
  9
$USERR2
 40
0.0
  9
$USERR3
 40
0.0
  9
$USERR4
 40
0.0
  9
$USERR5
 40
0.0
  9
$WORLDVIEW
 70
     1
  9
$SHADEDGE
 70
     3
  9
$SHADEDIF
 70
    70
  9
$TILEMODE
 70
     1
  9
$MAXACTVP
 70
    16
  9
$PINSBASE
 10
0.0
 20
0.0
 30
0.0
  9
$PLIMCHECK
 70
     0
  9
$PEXTMIN
 10
1.000000000000000E+20
 20
1.000000000000000E+20
 30
1.000000000000000E+20
  9
$PEXTMAX
 10
-1.000000000000000E+20
 20
-1.000000000000000E+20
 30
-1.000000000000000E+20
  9
$PLIMMIN
 10
0.0
 20
0.0
  9
$PLIMMAX
 10
12.0
 20
9.0
  9
$UNITMODE
 70
     0
  9
$VISRETAIN
 70
     0
  9
$PLINEGEN
 70
     1
  9
$PSLTSCALE
 70
     0
  9
$TREEDEPTH
 70
  3020
  9
$CMLSTYLE
  2
Standard
  9
$CMLJUST
 70
     0
  9
$CMLSCALE
 40
1.0
  9
$PROXYGRAPHICS
 70
     1
  9
$MEASUREMENT
 70
     0
  9
$CELWEIGHT
370
    -1
  9
$ENDCAPS
280
     0
  9
$JOINSTYLE
280
     0
  9
$LWDISPLAY
290
     0
  9
$INSUNITS
 70
     0
  9
$HYPERLINKBASE
  1

  9
$STYLESHEET
  1

  9
$XEDIT
290
     1
  9
$CEPSNTYPE
380
     0
  9
$PSTYLEMODE
290
     1
  9
$FINGERPRINTGUID
  2
{10AAA8F8-3638-42CF-8DEC-D0459828FB97}
  9
$VERSIONGUID
  2
{83671A03-04A0-40C9-A9A5-6BDC3481D02C}
  9
$EXTNAMES
290
     1
  9
$PSVPSCALE
 40
0.0
  9
$OLESTARTUP
290
     0
  0
ENDSEC
  0
SECTION
  2
CLASSES
  0
CLASS
  1
ACDBDICTIONARYWDFLT
  2
AcDbDictionaryWithDefault
  3
ObjectDBX Classes
 90
        0
280
     0
281
     0
  0
CLASS
  1
TABLESTYLE
  2
AcDbTableStyle
  3
ObjectDBX Classes
 90
     2047
280
     0
281
     0
  0
CLASS
  1
DICTIONARYVAR
  2
AcDbDictionaryVar
  3
ObjectDBX Classes
 90
        0
280
     0
281
     0
  0
CLASS
  1
SORTENTSTABLE
  2
AcDbSortentsTable
  3
ObjectDBX Classes
 90
        0
280
     0
281
     0
  0
CLASS
  1
ACDBPLACEHOLDER
  2
AcDbPlaceHolder
  3
ObjectDBX Classes
 90
        0
280
     0
281
     0
  0
CLASS
  1
LAYOUT
  2
AcDbLayout
  3
ObjectDBX Classes
 90
        0
280
     0
281
     0
  0
ENDSEC
  0
SECTION
  2
TABLES
  0
TABLE
  2
VPORT
  5
FB
330
0
100
AcDbSymbolTable
 70
     5
  0
VPORT
  5
154
330
FB
100
AcDbSymbolTableRecord
100
AcDbViewportTableRecord
  2
*Active
 70
     0
 10
0.0
 20
0.0
 11
1.0
 21
1.0
 12
62.02433833011011
 22
6.172985691239915
 13
0.0
 23
0.0
 14
1.0
 24
1.0
 15
0.0
 25
0.0
 16
0.0
 26
0.0
 36
1.0
 17
0.0
 27
0.0
 37
0.0
 40
251.485792780124
 41
1.481971153846153
 42
50.0
 43
0.0
 44
0.0
 50
0.0
 51
0.0
 71
     0
 72
   100
 73
     1
 74
     1
 75
     0
 76
     0
 77
     0
 78
     0
281
     0
 65
     1
110
0.0
120
0.0
130
0.0
111
1.0
121
0.0
131
0.0
112
0.0
122
1.0
132
0.0
 79
     0
146
0.0
  0
ENDTAB
  0
TABLE
  2
LTYPE
  5
F8
330
0
100
AcDbSymbolTable
 70
     3
  0
LTYPE
  5
106
330
F8
100
AcDbSymbolTableRecord
100
AcDbLinetypeTableRecord
  2
ByBlock
 70
     0
  3

 72
    65
 73
     0
 40
0.0
  0
LTYPE
  5
107
330
F8
100
AcDbSymbolTableRecord
100
AcDbLinetypeTableRecord
  2
ByLayer
 70
     0
  3

 72
    65
 73
     0
 40
0.0
  0
LTYPE
  5
108
330
F8
100
AcDbSymbolTableRecord
100
AcDbLinetypeTableRecord
  2
CONTINUOUS
 70
     0
  3
Solid line
 72
    65
 73
     0
 40
0.0
  0
LTYPE
  5
11B
330
F8
100
AcDbSymbolTableRecord
100
AcDbLinetypeTableRecord
  2
CENTER
 70
     0
  3
Center ____ _ ____ _ ____ _ ____ _ ____ _ ____
 72
    65
 73
     4
 40
26.0
 49
20.0
 74
     0
 49
-2.0
 74
     0
 49
2.0
 74
     0
 49
-2.0
 74
     0
  0
ENDTAB
  0
TABLE
  2
LAYER
  5
F5
330
0
100
AcDbSymbolTable
 70
     2
  0
LAYER
  5
103
330
F5
100
AcDbSymbolTableRecord
100
AcDbLayerTableRecord
  2
0
 70
     0
 62
     7
  6
CONTINUOUS
370
    -3
390
102
  0
LAYER
  5
11C
330
F5
100
AcDbSymbolTableRecord
100
AcDbLayerTableRecord
  2
DEFPOINTS
 70
     0
 62
     7
  6
CONTINUOUS
290
     0
370
    -3
390
102
  0
ENDTAB
  0
TABLE
  2
STYLE
  5
F6
330
0
100
AcDbSymbolTable
 70
     2
  0
STYLE
  5
104
330
F6
100
AcDbSymbolTableRecord
100
AcDbTextStyleTableRecord
  2
Standard
 70
     0
 40
0.0
 41
1.0
 50
0.0
 71
     0
 42
0.2
  3
txt
  4

  0
STYLE
  5
119
330
F6
100
AcDbSymbolTableRecord
100
AcDbTextStyleTableRecord
  2
MX_NOTE_STANDARD
 70
     0
 40
0.0
 41
1.0
 50
0.0
 71
     0
 42
3.200000049999999
  3
txt.shx
  4
extfont.shx
  0
ENDTAB
  0
TABLE
  2
VIEW
  5
F9
330
0
100
AcDbSymbolTable
 70
     0
  0
ENDTAB
  0
TABLE
  2
UCS
  5
FA
330
0
100
AcDbSymbolTable
 70
     0
  0
ENDTAB
  0
TABLE
  2
APPID
  5
FC
330
0
100
AcDbSymbolTable
 70
     2
  0
APPID
  5
105
330
FC
100
AcDbSymbolTableRecord
100
AcDbRegAppTableRecord
  2
ACAD
 70
     0
  0
APPID
  5
134
330
FC
100
AcDbSymbolTableRecord
100
AcDbRegAppTableRecord
  2
ACAD_EXEMPT_FROM_CAD_STANDARDS
 70
     0
  0
ENDTAB
  0
TABLE
  2
DIMSTYLE
  5
FD
330
0
100
AcDbSymbolTable
 70
     2
100
AcDbDimStyleTable
 71
     1
340
11D
  0
DIMSTYLE
105
11D
330
FD
100
AcDbSymbolTableRecord
100
AcDbDimStyleTableRecord
  2
MXDIMSTYLE
 70
     0
 41
2.5
 42
1.5
 43
3.75
 44
1.5
 73
     0
 74
     0
 77
     1
 78
     8
140
3.200000049999999
141
2.5
143
0.03937008
147
1.0
171
     4
172
     1
274
     4
279
     2
284
     8
285
     8
286
     8
340
119
  0
ENDTAB
  0
TABLE
  2
BLOCK_RECORD
  5
F4
330
0
100
AcDbSymbolTable
 70
     1
  0
BLOCK_RECORD
  5
115
102
{ACAD_XDICTIONARY
360
140
102
}
330
F4
100
AcDbSymbolTableRecord
100
AcDbBlockTableRecord
  2
*Model_Space
340
118
  0
BLOCK_RECORD
  5
111
330
F4
100
AcDbSymbolTableRecord
100
AcDbBlockTableRecord
  2
*Paper_Space
340
114
  0
ENDTAB
  0
ENDSEC
  0
SECTION
  2
BLOCKS
  0
BLOCK
  5
116
330
115
100
AcDbEntity
  8
0
100
AcDbBlockBegin
  2
*Model_Space
 70
     0
 10
0.0
 20
0.0
 30
0.0
  3
*Model_Space
  1

  0
ENDBLK
  5
117
330
115
100
AcDbEntity
  8
0
100
AcDbBlockEnd
  0
BLOCK
  5
112
330
111
100
AcDbEntity
 67
     1
  8
0
100
AcDbBlockBegin
  2
*Paper_Space
 70
     0
 10
0.0
 20
0.0
 30
0.0
  3
*Paper_Space
  1

  0
ENDBLK
  5
113
330
111
100
AcDbEntity
 67
     1
  8
0
100
AcDbBlockEnd
  0
ENDSEC
  0
SECTION
  2
ENTITIES
  0
LINE
  5
22
330
115
100
AcDbEntity
  8
0
  6
Continuous
 62
     7
100
AcDbLine
 10
21.75661417159495
 20
-11.78997590313535
 30
0.0
 11
21.75661417159495
 21
17.21002409686464
 31
0.0
  0
LINE
  5
2B
330
115
100
AcDbEntity
  8
0
  6
CENTER
 62
     2
100
AcDbLine
 10
-24.04338582840505
 20
-31.55753902313535
 30
0.0
 11
-24.04338582840505
 21
21.25754344686464
 31
0.0
  0
LINE
  5
2E
330
115
100
AcDbEntity
  8
0
  6
CENTER
 62
     2
100
AcDbLine
 10
-42.51924275840505
 20
2.710024096864643
 30
0.0
 11
-5.360497138405051
 21
2.710024096864643
 31
0.0
  0
LINE
  5
2F
330
115
100
AcDbEntity
  8
0
  6
Continuous
 62
     7
100
AcDbLine
 10
-38.54338582840505
 20
17.71002409686464
 30
0.0
 11
-9.54338582840505
 21
17.71002409686464
 31
0.0
  0
LINE
  5
30
330
115
100
AcDbEntity
  8
0
  6
Continuous
 62
     7
100
AcDbLine
 10
-38.54338582840505
 20
-12.28997590313535
 30
0.0
 11
-9.54338582840505
 21
-12.28997590313535
 31
0.0
  0
LINE
  5
31
330
115
100
AcDbEntity
  8
0
  6
CENTER
 62
     2
100
AcDbLine
 10
18.44568816159494
 20
2.710024096864643
 30
0.0
 11
64.95484894159495
 21
2.710024096864643
 31
0.0
  0
LINE
  5
62
330
115
100
AcDbEntity
  8
0
  6
Continuous
 62
     7
100
AcDbLine
 10
22.25661417159495
 20
17.71002409686464
 30
0.0
 11
56.75661417159495
 21
17.71002409686464
 31
0.0
  0
LINE
  5
63
330
115
100
AcDbEntity
  8
0
  6
Continuous
 62
     7
100
AcDbLine
 10
22.25661417159495
 20
-12.28997590313535
 30
0.0
 11
45.25661417159494
 21
-12.28997590313535
 31
0.0
  0
ARC
  5
6E
330
115
100
AcDbEntity
  8
0
  6
Continuous
 62
     7
100
AcDbCircle
 10
22.25661417159495
 20
17.21002409686464
 30
0.0
 40
0.5
100
AcDbArc
 50
90.0
 51
180.0
  0
ARC
  5
6F
330
115
100
AcDbEntity
  8
0
  6
Continuous
 62
     7
100
AcDbCircle
 10
22.25661417159495
 20
-11.78997590313535
 30
0.0
 40
0.5
100
AcDbArc
 50
180.0
 51
270.0
  0
LINE
  5
76
330
115
100
AcDbEntity
  8
0
  6
CENTER
 62
     2
100
AcDbLine
 10
37.25661417159495
 20
-31.55753902313535
 30
0.0
 11
37.25661417159495
 21
-4.446825183135357
 31
0.0
  0
LINE
  5
77
330
115
100
AcDbEntity
  8
0
  6
Continuous
 62
     7
100
AcDbLine
 10
33.75661417159495
 20
-17.08997590313536
 30
0.0
 11
33.75661417159495
 21
-16.28997590313536
 31
0.0
  0
LINE
  5
78
330
115
100
AcDbEntity
  8
0
  6
Continuous
 62
     7
100
AcDbLine
 10
40.75661417159494
 20
-17.08997590313536
 30
0.0
 11
40.75661417159494
 21
-12.28997590313535
 31
0.0
  0
LINE
  5
79
330
115
100
AcDbEntity
  8
0
  6
Continuous
 62
     7
100
AcDbLine
 10
33.95661417159495
 20
-17.28997590313535
 30
0.0
 11
40.55661417159494
 21
-17.28997590313535
 31
0.0
  0
ARC
  5
7A
330
115
100
AcDbEntity
  8
0
  6
Continuous
 62
     7
100
AcDbCircle
 10
33.95661417159495
 20
-17.08997590313536
 30
0.0
 40
0.2
100
AcDbArc
 50
180.0
 51
270.0
  0
ARC
  5
7B
330
115
100
AcDbEntity
  8
0
  6
Continuous
 62
     7
100
AcDbCircle
 10
40.55661417159494
 20
-17.08997590313536
 30
0.0
 40
0.2
100
AcDbArc
 50
270.0
 51
0.0
  0
LINE
  5
7C
330
115
100
AcDbEntity
  8
0
  6
Continuous
 62
     7
100
AcDbLine
 10
35.40661417159495
 20
-28.57392134313536
 30
0.0
 11
35.40661417159495
 21
-17.28997590313535
 31
0.0
  0
LINE
  5
7D
330
115
100
AcDbEntity
  8
0
  6
Continuous
 62
     7
100
AcDbLine
 10
39.10661417159495
 20
-28.57392134313536
 30
0.0
 11
39.10661417159495
 21
-17.28997590313535
 31
0.0
  0
ARC
  5
7E
330
115
100
AcDbEntity
  8
0
  6
Continuous
 62
     7
100
AcDbCircle
 10
36.27677903159495
 20
-27.86685132313536
 30
0.0
 40
1.208314909999999
100
AcDbArc
 50
231.1181009099998
 51
324.1849770800001
  0
ARC
  5
7F
330
115
100
AcDbEntity
  8
0
  6
Continuous
 62
     7
100
AcDbCircle
 10
38.23644931159495
 20
-27.86685132313536
 30
0.0
 40
1.208314909999999
100
AcDbArc
 50
215.8150229199999
 51
308.8818990900001
  0
ARC
  5
80
330
115
100
AcDbEntity
  8
0
  6
Continuous
 62
     7
100
AcDbCircle
 10
36.27677903159495
 20
-29.28099135313536
 30
0.0
 40
1.208314909999999
100
AcDbArc
 50
35.81502291999996
 51
128.8818990900001
  0
ARC
  5
81
330
115
100
AcDbEntity
  8
0
  6
Continuous
 62
     7
100
AcDbCircle
 10
38.80661417159494
 20
-28.57392134313536
 30
0.0
 40
0.3
100
AcDbArc
 50
308.8818990900001
 51
0.0
  0
ARC
  5
82
330
115
100
AcDbEntity
  8
0
  6
Continuous
 62
     7
100
AcDbCircle
 10
35.70661417159495
 20
-28.57392134313536
 30
0.0
 40
0.3
100
AcDbArc
 50
128.8818990900001
 51
231.1181009099998
  0
LINE
  5
83
330
115
100
AcDbEntity
  8
0
  6
Continuous
 62
     7
100
AcDbLine
 10
33.55661417159494
 20
-16.28997590313536
 30
0.0
 11
39.75661417159495
 21
-16.28997590313536
 31
0.0
  0
LINE
  5
84
330
115
100
AcDbEntity
  8
0
  6
Continuous
 62
     7
100
AcDbLine
 10
33.55661417159494
 20
-12.78997590313535
 30
0.0
 11
39.75661417159495
 21
-12.78997590313535
 31
0.0
  0
LINE
  5
85
330
115
100
AcDbEntity
  8
0
  6
Continuous
 62
     7
100
AcDbLine
 10
33.55661417159494
 20
-16.28997590313536
 30
0.0
 11
33.55661417159494
 21
-12.78997590313535
 31
0.0
  0
LINE
  5
86
330
115
100
AcDbEntity
  8
0
  6
Continuous
 62
     7
100
AcDbLine
 10
33.75661417159495
 20
-12.78997590313535
 30
0.0
 11
33.75661417159495
 21
-12.28997590313535
 31
0.0
  0
LINE
  5
87
330
115
100
AcDbEntity
  8
0
  6
Continuous
 62
     7
100
AcDbLine
 10
40.25661417159494
 20
-15.78997590313536
 30
0.0
 11
40.25661417159494
 21
-13.28997590313536
 31
0.0
  0
ARC
  5
88
330
115
100
AcDbEntity
  8
0
  6
Continuous
 62
     7
100
AcDbCircle
 10
39.75661417159495
 20
-13.28997590313536
 30
0.0
 40
0.5
100
AcDbArc
 50
0.0
 51
90.0
  0
ARC
  5
89
330
115
100
AcDbEntity
  8
0
  6
Continuous
 62
     7
100
AcDbCircle
 10
39.75661417159495
 20
-15.78997590313536
 30
0.0
 40
0.5
100
AcDbArc
 50
270.0
 51
0.0
  0
LINE
  5
8A
330
115
100
AcDbEntity
  8
0
  6
Continuous
 62
     7
100
AcDbLine
 10
39.25661417159495
 20
-15.28997590313536
 30
0.0
 11
39.25661417159495
 21
-13.78997590313536
 31
0.0
  0
LINE
  5
8B
330
115
100
AcDbEntity
  8
0
  6
Continuous
 62
     7
100
AcDbLine
 10
37.75661417159495
 20
-13.78997590313536
 30
0.0
 11
39.25661417159495
 21
-13.78997590313536
 31
0.0
  0
LINE
  5
8C
330
115
100
AcDbEntity
  8
0
  6
Continuous
 62
     7
100
AcDbLine
 10
37.75661417159495
 20
-15.28997590313536
 30
0.0
 11
39.25661417159495
 21
-15.28997590313536
 31
0.0
  0
LINE
  5
8D
330
115
100
AcDbEntity
  8
0
  6
Continuous
 62
     7
100
AcDbLine
 10
37.75661417159495
 20
-15.28997590313536
 30
0.0
 11
37.75661417159495
 21
-13.78997590313536
 31
0.0
  0
LINE
  5
8E
330
115
100
AcDbEntity
  8
0
  6
Continuous
 62
     7
100
AcDbLine
 10
38.25661417159495
 20
-15.28997590313536
 30
0.0
 11
38.25661417159495
 21
-13.78997590313536
 31
0.0
  0
LINE
  5
96
330
115
100
AcDbEntity
  8
0
  6
Continuous
 62
     7
100
AcDbLine
 10
42.75661417159494
 20
-12.28997590313535
 30
0.0
 11
42.75661417159494
 21
17.71002409686464
 31
0.0
  0
LINE
  5
97
330
115
100
AcDbEntity
  8
0
  6
Continuous
 62
     7
100
AcDbLine
 10
42.45661417159495
 20
-12.28997590313535
 30
0.0
 11
42.45661417159495
 21
17.71002409686464
 31
0.0
  0
LINE
  5
A4
330
115
100
AcDbEntity
  8
0
  6
Continuous
 62
     7
100
AcDbLine
 10
-39.04338582840504
 20
-26.98997590313536
 30
0.0
 11
-39.04338582840505
 21
17.21002409686464
 31
0.0
  0
LINE
  5
A5
330
115
100
AcDbEntity
  8
0
  6
Continuous
 62
     7
100
AcDbLine
 10
-9.043385828405051
 20
-26.98997590313537
 30
0.0
 11
-9.04338582840505
 21
17.21002409686464
 31
0.0
  0
ARC
  5
A6
330
115
100
AcDbEntity
  8
0
  6
Continuous
 62
     7
100
AcDbCircle
 10
-9.54338582840505
 20
17.21002409686464
 30
0.0
 40
0.5
100
AcDbArc
 50
0.0
 51
90.0
  0
ARC
  5
A7
330
115
100
AcDbEntity
  8
0
  6
Continuous
 62
     7
100
AcDbCircle
 10
-38.54338582840505
 20
17.21002409686464
 30
0.0
 40
0.5
100
AcDbArc
 50
90.0
 51
180.0
  0
ARC
  5
A8
330
115
100
AcDbEntity
  8
0
  6
Continuous
 62
     7
100
AcDbCircle
 10
-38.54338582840505
 20
-11.78997590313535
 30
0.0
 40
0.5
100
AcDbArc
 50
180.0
 51
270.0
  0
ARC
  5
A9
330
115
100
AcDbEntity
  8
0
  6
Continuous
 62
     7
100
AcDbCircle
 10
-9.54338582840505
 20
-11.78997590313535
 30
0.0
 40
0.5
100
AcDbArc
 50
270.0
 51
0.0
  0
LINE
  5
AA
330
115
100
AcDbEntity
  8
0
  6
Continuous
 62
     7
100
AcDbLine
 10
-38.29338582840505
 20
-10.78997590313536
 30
0.0
 11
-38.29338582840505
 21
16.21002409686464
 31
0.0
  0
LINE
  5
AB
330
115
100
AcDbEntity
  8
0
  6
Continuous
 62
     7
100
AcDbLine
 10
-37.29338582840505
 20
17.21002409686464
 30
0.0
 11
-10.79338582840505
 21
17.21002409686464
 31
0.0
  0
LINE
  5
AC
330
115
100
AcDbEntity
  8
0
  6
Continuous
 62
     7
100
AcDbLine
 10
-37.29338582840505
 20
-11.78997590313535
 30
0.0
 11
-10.79338582840505
 21
-11.78997590313535
 31
0.0
  0
ARC
  5
AD
330
115
100
AcDbEntity
  8
0
  6
Continuous
 62
     7
100
AcDbCircle
 10
-37.29338582840505
 20
-10.78997590313536
 30
0.0
 40
1.0
100
AcDbArc
 50
180.0
 51
270.0
  0
ARC
  5
AE
330
115
100
AcDbEntity
  8
0
  6
Continuous
 62
     7
100
AcDbCircle
 10
-37.29338582840505
 20
16.21002409686464
 30
0.0
 40
1.0
100
AcDbArc
 50
90.0
 51
180.0
  0
LINE
  5
AF
330
115
100
AcDbEntity
  8
0
  6
Continuous
 62
     7
100
AcDbLine
 10
-38.29338582840505
 20
12.86002409686464
 30
0.0
 11
-9.79338582840505
 21
12.86002409686464
 31
0.0
  0
LINE
  5
B0
330
115
100
AcDbEntity
  8
0
  6
Continuous
 62
     7
100
AcDbLine
 10
-38.29338582840505
 20
12.36002409686464
 30
0.0
 11
-9.79338582840505
 21
12.36002409686464
 31
0.0
  0
LINE
  5
B1
330
115
100
AcDbEntity
  8
0
  6
Continuous
 62
     7
100
AcDbLine
 10
-36.94338582840506
 20
1.360024096864643
 30
0.0
 11
-11.14338582840505
 21
1.360024096864643
 31
0.0
  0
LINE
  5
B2
330
115
100
AcDbEntity
  8
0
  6
Continuous
 62
     7
100
AcDbLine
 10
-29.74338582840506
 20
-2.589975903135356
 30
0.0
 11
-29.74338582840506
 21
-0.9899759031353569
 31
0.0
  0
LINE
  5
B3
330
115
100
AcDbEntity
  8
0
  6
Continuous
 62
     7
100
AcDbLine
 10
-27.34338582840506
 20
-2.589975903135356
 30
0.0
 11
-27.34338582840506
 21
-0.9899759031353569
 31
0.0
  0
LINE
  5
B4
330
115
100
AcDbEntity
  8
0
  6
Continuous
 62
     7
100
AcDbLine
 10
-20.74338582840505
 20
-2.589975903135356
 30
0.0
 11
-20.74338582840505
 21
-0.9899759031353569
 31
0.0
  0
LINE
  5
B5
330
115
100
AcDbEntity
  8
0
  6
Continuous
 62
     7
100
AcDbLine
 10
-18.34338582840505
 20
-2.589975903135356
 30
0.0
 11
-18.34338582840505
 21
-0.9899759031353569
 31
0.0
  0
LINE
  5
B6
330
115
100
AcDbEntity
  8
0
  6
Continuous
 62
     7
100
AcDbLine
 10
-29.74338582840506
 20
-2.589975903135356
 30
0.0
 11
-27.34338582840506
 21
-2.589975903135356
 31
0.0
  0
LINE
  5
B7
330
115
100
AcDbEntity
  8
0
  6
Continuous
 62
     7
100
AcDbLine
 10
-29.74338582840506
 20
-0.9899759031353569
 30
0.0
 11
-27.34338582840506
 21
-0.9899759031353569
 31
0.0
  0
LINE
  5
B8
330
115
100
AcDbEntity
  8
0
  6
Continuous
 62
     7
100
AcDbLine
 10
-20.74338582840505
 20
-0.9899759031353569
 30
0.0
 11
-18.34338582840505
 21
-0.9899759031353569
 31
0.0
  0
LINE
  5
B9
330
115
100
AcDbEntity
  8
0
  6
Continuous
 62
     7
100
AcDbLine
 10
-20.74338582840505
 20
-2.589975903135356
 30
0.0
 11
-18.34338582840505
 21
-2.589975903135356
 31
0.0
  0
LINE
  5
BA
330
115
100
AcDbEntity
  8
0
  6
Continuous
 62
     7
100
AcDbLine
 10
-17.04338582840505
 20
-8.039975903135356
 30
0.0
 11
-13.04338582840505
 21
-8.039975903135356
 31
0.0
  0
LINE
  5
BB
330
115
100
AcDbEntity
  8
0
  6
Continuous
 62
     7
100
AcDbLine
 10
-25.91838582840505
 20
-4.539975903135356
 30
0.0
 11
-22.16838582840505
 21
-4.539975903135356
 31
0.0
  0
LINE
  5
BC
330
115
100
AcDbEntity
  8
0
  6
Continuous
 62
     7
100
AcDbLine
 10
-33.04338582840505
 20
-4.539975903135356
 30
0.0
 11
-34.91838582840505
 21
-8.039975903135356
 31
0.0
  0
LINE
  5
BD
330
115
100
AcDbEntity
  8
0
  6
Continuous
 62
     7
100
AcDbLine
 10
-31.16838582840505
 20
-8.039975903135356
 30
0.0
 11
-33.04338582840505
 21
-4.539975903135356
 31
0.0
  0
LINE
  5
BE
330
115
100
AcDbEntity
  8
0
  6
Continuous
 62
     7
100
AcDbLine
 10
-25.91838582840505
 20
-4.539975903135356
 30
0.0
 11
-24.04338582840505
 21
-8.039975903135356
 31
0.0
  0
LINE
  5
BF
330
115
100
AcDbEntity
  8
0
  6
Continuous
 62
     7
100
AcDbLine
 10
-22.16838582840505
 20
-4.539975903135356
 30
0.0
 11
-24.04338582840505
 21
-8.039975903135356
 31
0.0
  0
LINE
  5
C0
330
115
100
AcDbEntity
  8
0
  6
Continuous
 62
     7
100
AcDbLine
 10
-17.04338582840505
 20
-4.289975903135356
 30
0.0
 11
-13.04338582840505
 21
-4.289975903135356
 31
0.0
  0
LINE
  5
C1
330
115
100
AcDbEntity
  8
0
  6
Continuous
 62
     7
100
AcDbLine
 10
-18.04338582840505
 20
-7.039975903135357
 30
0.0
 11
-18.04338582840505
 21
-5.289975903135356
 31
0.0
  0
LINE
  5
C2
330
115
100
AcDbEntity
  8
0
  6
Continuous
 62
     7
100
AcDbLine
 10
-12.04338582840505
 20
-7.039975903135357
 30
0.0
 11
-12.04338582840505
 21
-5.289975903135356
 31
0.0
  0
ARC
  5
C3
330
115
100
AcDbEntity
  8
0
  6
Continuous
 62
     7
100
AcDbCircle
 10
-13.04338582840505
 20
-5.289975903135356
 30
0.0
 40
1.0
100
AcDbArc
 50
0.0
 51
90.0
  0
ARC
  5
C4
330
115
100
AcDbEntity
  8
0
  6
Continuous
 62
     7
100
AcDbCircle
 10
-13.04338582840505
 20
-7.039975903135357
 30
0.0
 40
1.0
100
AcDbArc
 50
270.0
 51
0.0
  0
ARC
  5
C5
330
115
100
AcDbEntity
  8
0
  6
Continuous
 62
     7
100
AcDbCircle
 10
-17.04338582840505
 20
-5.289975903135356
 30
0.0
 40
1.0
100
AcDbArc
 50
90.0
 51
180.0
  0
ARC
  5
C6
330
115
100
AcDbEntity
  8
0
  6
Continuous
 62
     7
100
AcDbCircle
 10
-17.04338582840505
 20
-7.039975903135357
 30
0.0
 40
1.0
100
AcDbArc
 50
180.0
 51
270.0
  0
LINE
  5
C7
330
115
100
AcDbEntity
  8
0
  6
Continuous
 62
     7
100
AcDbLine
 10
-34.91838582840505
 20
-8.039975903135356
 30
0.0
 11
-31.16838582840505
 21
-8.039975903135356
 31
0.0
  0
LINE
  5
C8
330
115
100
AcDbEntity
  8
0
  6
Continuous
 62
     7
100
AcDbLine
 10
-9.79338582840505
 20
-10.78997590313536
 30
0.0
 11
-9.79338582840505
 21
16.21002409686464
 31
0.0
  0
ARC
  5
C9
330
115
100
AcDbEntity
  8
0
  6
Continuous
 62
     7
100
AcDbCircle
 10
-10.79338582840505
 20
16.21002409686464
 30
0.0
 40
1.0
100
AcDbArc
 50
0.0
 51
90.0
  0
ARC
  5
CA
330
115
100
AcDbEntity
  8
0
  6
Continuous
 62
     7
100
AcDbCircle
 10
-10.79338582840505
 20
-10.78997590313536
 30
0.0
 40
1.0
100
AcDbArc
 50
270.0
 51
0.0
  0
LINE
  5
CB
330
115
100
AcDbEntity
  8
0
  6
Continuous
 62
     7
100
AcDbLine
 10
-36.94338582840506
 20
1.360024096864643
 30
0.0
 11
-36.94338582840506
 21
12.36002409686464
 31
0.0
  0
LINE
  5
CC
330
115
100
AcDbEntity
  8
0
  6
Continuous
 62
     7
100
AcDbLine
 10
-11.14338582840505
 20
1.360024096864643
 30
0.0
 11
-11.14338582840505
 21
12.36002409686464
 31
0.0
  0
LINE
  5
CD
330
115
100
AcDbEntity
  8
0
  6
Continuous
 62
     7
100
AcDbLine
 10
-13.01638615840505
 20
-2.789975903135356
 30
0.0
 11
-20.74338582840505
 21
-2.789975903135356
 31
0.0
  0
LINE
  5
CE
330
115
100
AcDbEntity
  8
0
  6
Continuous
 62
     7
100
AcDbLine
 10
-34.51015473840505
 20
-2.789975903135356
 30
0.0
 11
-27.34338582840506
 21
-2.789975903135356
 31
0.0
  0
LINE
  5
CF
330
115
100
AcDbEntity
  8
0
  6
CENTER
 62
     2
100
AcDbLine
 10
-37.70005503840506
 20
6.860024096864643
 30
0.0
 11
-9.943396628405047
 21
6.860024096864643
 31
0.0
  0
LINE
  5
D2
330
115
100
AcDbEntity
  8
0
  6
Continuous
 62
     7
100
AcDbLine
 10
-28.44338582840506
 20
-16.28997590313536
 30
0.0
 11
-28.44338582840506
 21
-12.78997590313535
 31
0.0
  0
LINE
  5
D3
330
115
100
AcDbEntity
  8
0
  6
Continuous
 62
     7
100
AcDbLine
 10
-19.64338582840505
 20
-16.28997590313536
 30
0.0
 11
-19.64338582840505
 21
-12.78997590313535
 31
0.0
  0
LINE
  5
D4
330
115
100
AcDbEntity
  8
0
  6
Continuous
 62
     7
100
AcDbLine
 10
-28.24338582840506
 20
-18.08997590313536
 30
0.0
 11
-19.84338582840505
 21
-18.08997590313536
 31
0.0
  0
LINE
  5
D5
330
115
100
AcDbEntity
  8
0
  6
Continuous
 62
     7
100
AcDbLine
 10
-28.44338582840506
 20
-16.28997590313536
 30
0.0
 11
-19.64338581840505
 21
-16.28997590313536
 31
0.0
  0
ARC
  5
D6
330
115
100
AcDbEntity
  8
0
  6
Continuous
 62
     7
100
AcDbCircle
 10
-22.49338582840505
 20
-29.37392134313536
 30
0.0
 40
0.3
100
AcDbArc
 50
308.8818990900001
 51
0.0
  0
ARC
  5
D7
330
115
100
AcDbEntity
  8
0
  6
Continuous
 62
     7
100
AcDbCircle
 10
-25.59338582840505
 20
-29.37392134313536
 30
0.0
 40
0.3
100
AcDbArc
 50
128.8818990900001
 51
231.1181009099998
  0
ARC
  5
D8
330
115
100
AcDbEntity
  8
0
  6
Continuous
 62
     7
100
AcDbCircle
 10
-25.02322096840506
 20
-28.66685132313536
 30
0.0
 40
1.208314909999999
100
AcDbArc
 50
231.1181009099998
 51
324.1849770800001
  0
ARC
  5
D9
330
115
100
AcDbEntity
  8
0
  6
Continuous
 62
     7
100
AcDbCircle
 10
-23.06355068840505
 20
-28.66685132313536
 30
0.0
 40
1.208314909999999
100
AcDbArc
 50
215.8150229199999
 51
308.8818990900001
  0
ARC
  5
DA
330
115
100
AcDbEntity
  8
0
  6
Continuous
 62
     7
100
AcDbCircle
 10
-25.02322096840506
 20
-30.08099135313536
 30
0.0
 40
1.208314909999999
100
AcDbArc
 50
35.81502291999996
 51
128.8818990900001
  0
LINE
  5
DB
330
115
100
AcDbEntity
  8
0
  6
Continuous
 62
     7
100
AcDbLine
 10
-22.19338582840506
 20
-29.37392134313536
 30
0.0
 11
-22.19338582840506
 21
-18.08997590313536
 31
0.0
  0
LINE
  5
DC
330
115
100
AcDbEntity
  8
0
  6
Continuous
 62
     7
100
AcDbLine
 10
-25.89338582840505
 20
-29.37392134313536
 30
0.0
 11
-25.89338582840505
 21
-18.08997590313536
 31
0.0
  0
LINE
  5
DD
330
115
100
AcDbEntity
  8
0
  6
Continuous
 62
     7
100
AcDbLine
 10
-28.24338582840506
 20
-18.08997590313536
 30
0.0
 11
-28.24338582840506
 21
-16.28997590313536
 31
0.0
  0
LINE
  5
DE
330
115
100
AcDbEntity
  8
0
  6
Continuous
 62
     7
100
AcDbLine
 10
-19.84338582840505
 20
-18.08997590313536
 30
0.0
 11
-19.84338582840505
 21
-16.28997590313536
 31
0.0
  0
LINE
  5
DF
330
115
100
AcDbEntity
  8
0
  6
Continuous
 62
     7
100
AcDbLine
 10
-28.44338582840506
 20
-12.78997590313535
 30
0.0
 11
-19.64338582840505
 21
-12.78997590313535
 31
0.0
  0
LINE
  5
E0
330
115
100
AcDbEntity
  8
0
  6
Continuous
 62
     7
100
AcDbLine
 10
-19.84338582840505
 20
-12.78997590313535
 30
0.0
 11
-19.84338582840505
 21
-12.28997590313535
 31
0.0
  0
LINE
  5
E1
330
115
100
AcDbEntity
  8
0
  6
Continuous
 62
     7
100
AcDbLine
 10
-28.24338582840506
 20
-12.78997590313535
 30
0.0
 11
-28.24338582840506
 21
-12.28997590313535
 31
0.0
  0
LINE
  5
E7
330
115
100
AcDbEntity
  8
0
  6
Continuous
 62
     7
100
AcDbLine
 10
-29.29338582840505
 20
-6.789975903135357
 30
0.0
 11
-29.29338582840505
 21
-5.789975903135356
 31
0.0
  0
LINE
  5
E8
330
115
100
AcDbEntity
  8
0
  6
Continuous
 62
     7
100
AcDbLine
 10
-27.29338582840505
 20
-6.789975903135357
 30
0.0
 11
-27.29338582840505
 21
-5.789975903135356
 31
0.0
  0
LINE
  5
E9
330
115
100
AcDbEntity
  8
0
  6
Continuous
 62
     7
100
AcDbLine
 10
-31.04338582840505
 20
-6.289975903135356
 30
0.0
 11
-29.29338582840505
 21
-5.789975903135356
 31
0.0
  0
LINE
  5
EA
330
115
100
AcDbEntity
  8
0
  6
Continuous
 62
     7
100
AcDbLine
 10
-29.29338582840505
 20
-6.789975903135357
 30
0.0
 11
-31.04338582840505
 21
-6.289975903135356
 31
0.0
  0
LINE
  5
EB
330
115
100
AcDbEntity
  8
0
  6
Continuous
 62
     7
100
AcDbLine
 10
-27.29338582840505
 20
-6.789975903135357
 30
0.0
 11
-25.54338582840505
 21
-6.289975903135356
 31
0.0
  0
LINE
  5
EC
330
115
100
AcDbEntity
  8
0
  6
Continuous
 62
     7
100
AcDbLine
 10
-27.29338582840505
 20
-5.789975903135356
 30
0.0
 11
-25.54338582840505
 21
-6.289975903135356
 31
0.0
  0
LINE
  5
ED
330
115
100
AcDbEntity
  8
0
  6
Continuous
 62
     7
100
AcDbLine
 10
-138.3999939
 20
94.50000000000001
 30
0.0
 11
138.3500061
 21
94.50000000000001
 31
0.0
  0
LINE
  5
EE
330
115
100
AcDbEntity
  8
0
  6
Continuous
 62
     7
100
AcDbLine
 10
138.3500061
 20
94.50000000000001
 30
0.0
 11
138.3500061
 21
-94.80000305
 31
0.0
  0
LINE
  5
EF
330
115
100
AcDbEntity
  8
0
  6
Continuous
 62
     7
100
AcDbLine
 10
-138.3999939
 20
-94.80000305
 30
0.0
 11
138.3500061
 21
-94.80000305
 31
0.0
  0
LINE
  5
F0
330
115
100
AcDbEntity
  8
0
  6
Continuous
 62
     7
100
AcDbLine
 10
-138.3999939
 20
94.50000000000001
 30
0.0
 11
-138.3999939
 21
-94.80000305
 31
0.0
  0
TEXT
  5
F1
330
115
100
AcDbEntity
  8
0
  6
Continuous
 62
     7
100
AcDbText
 10
-129.40338374
 20
72.899999975
 30
0.0
 40
3.200000049999999
  1
MODEL:GS510D
 41
1.118644069999999
  7
MX_NOTE_STANDARD
 11
-129.40338374
 21
74.5
 31
0.0
100
AcDbText
 73
     2
  0
LINE
  5
13A
330
115
100
AcDbEntity
  8
0
  6
Continuous
100
AcDbLine
 10
45.25661417159494
 20
17.71002409686464
 30
0.0
 11
45.25661417159494
 21
-12.28997590313535
 31
0.0
  0
LINE
  5
13B
330
115
100
AcDbEntity
  8
0
  6
Continuous
 62
     7
100
AcDbLine
 10
56.75661417159494
 20
-26.98997590313536
 30
0.0
 11
56.75661417159495
 21
17.71002409686464
 31
0.0
  0
LINE
  5
13C
330
115
100
AcDbEntity
  8
0
  6
Continuous
 62
     7
100
AcDbLine
 10
40.75661417159493
 20
-26.98997590313536
 30
0.0
 11
56.75661417159494
 21
-26.98997590313536
 31
0.0
  0
LINE
  5
13D
330
115
100
AcDbEntity
  8
0
  6
Continuous
 62
     7
100
AcDbLine
 10
40.75661417159493
 20
-26.98997590313536
 30
0.0
 11
40.75661417159493
 21
-12.28997590313535
 31
0.0
  0
LINE
  5
13E
330
115
100
AcDbEntity
  8
0
  6
Continuous
 62
     7
100
AcDbLine
 10
-39.04338582840504
 20
-26.98997590313536
 30
0.0
 11
-25.89338582840505
 21
-26.98997590313536
 31
0.0
  0
LINE
  5
13F
330
115
100
AcDbEntity
  8
0
  6
Continuous
 62
     7
100
AcDbLine
 10
-22.19338582840506
 20
-26.98997590313536
 30
0.0
 11
-9.043385828405051
 21
-26.98997590313537
 31
0.0
  0
LINE
  5
142
330
115
100
AcDbEntity
  8
0
  6
CENTER
 62
     2
100
AcDbLine
 10
-19.04338582840505
 20
-21.28997590313536
 30
0.0
 11
-9.043385828405051
 21
-21.28997590313536
 31
0.0
  0
LINE
  5
144
330
115
100
AcDbEntity
  8
0
  6
CENTER
 62
     2
100
AcDbLine
 10
-14.04338582840505
 20
-26.28997590313537
 30
0.0
 11
-14.04338582840505
 21
-16.28997590313536
 31
0.0
  0
CIRCLE
  5
145
330
115
100
AcDbEntity
  8
0
  6
Continuous
100
AcDbCircle
 10
-14.04338582840505
 20
-21.28997590313536
 30
0.0
 40
2.149999999999999
  0
CIRCLE
  5
146
330
115
100
AcDbEntity
  8
0
  6
Continuous
100
AcDbCircle
 10
-14.04338582840505
 20
-21.28997590313536
 30
0.0
 40
4.0
  0
LINE
  5
14D
330
115
100
AcDbEntity
  8
0
  6
CENTER
 62
     2
100
AcDbLine
 10
-29.04338582840506
 20
-21.28997590313536
 30
0.0
 11
-39.04338582840506
 21
-21.28997590313536
 31
0.0
  0
LINE
  5
14E
330
115
100
AcDbEntity
  8
0
  6
CENTER
 62
     2
100
AcDbLine
 10
-34.04338582840506
 20
-26.28997590313537
 30
0.0
 11
-34.04338582840506
 21
-16.28997590313536
 31
0.0
  0
CIRCLE
  5
14F
330
115
100
AcDbEntity
  8
0
  6
Continuous
100
AcDbCircle
 10
-34.04338582840506
 20
-21.28997590313536
 30
0.0
 40
2.15
  0
CIRCLE
  5
150
330
115
100
AcDbEntity
  8
0
  6
Continuous
100
AcDbCircle
 10
-34.04338582840506
 20
-21.28997590313536
 30
0.0
 40
4.000000000000001
  0
LINE
  5
151
330
115
100
AcDbEntity
  8
0
  6
CENTER
 62
     2
100
AcDbLine
 10
48.55661417159494
 20
-31.55753902313535
 30
0.0
 11
48.55661417159495
 21
-16.17587713227556
 31
0.0
  0
ENDSEC
  0
SECTION
  2
OBJECTS
  0
DICTIONARY
  5
FF
330
0
100
AcDbDictionary
281
     1
  3
ACAD_COLOR
350
10E
  3
ACAD_GROUP
350
100
  3
ACAD_LAYOUT
350
10C
  3
ACAD_MATERIAL
350
10D
  3
ACAD_MLINESTYLE
350
109
  3
ACAD_PLOTSETTINGS
350
10B
  3
ACAD_PLOTSTYLENAME
350
101
  3
ACAD_TABLESTYLE
350
10F
  3
ACDBHEADERROUNDTRIPXREC
350
156
  3
AcDbVariableDictionary
350
121
  3
DWGPROPS
350
155
  0
DICTIONARY
  5
140
330
115
100
AcDbDictionary
280
     1
281
     1
  3
ACAD_SORTENTS
360
141
  0
DICTIONARY
  5
10E
102
{ACAD_REACTORS
330
FF
102
}
330
FF
100
AcDbDictionary
281
     1
  0
DICTIONARY
  5
100
102
{ACAD_REACTORS
330
FF
102
}
330
FF
100
AcDbDictionary
281
     1
  0
DICTIONARY
  5
10C
102
{ACAD_REACTORS
330
FF
102
}
330
FF
100
AcDbDictionary
281
     1
  3
Model
350
118
  3
レイアウト1
350
114
  0
DICTIONARY
  5
10D
102
{ACAD_REACTORS
330
FF
102
}
330
FF
100
AcDbDictionary
281
     1
  0
DICTIONARY
  5
109
102
{ACAD_REACTORS
330
FF
102
}
330
FF
100
AcDbDictionary
281
     1
  3
Standard
350
10A
  0
DICTIONARY
  5
10B
102
{ACAD_REACTORS
330
FF
102
}
330
FF
100
AcDbDictionary
281
     1
  0
ACDBDICTIONARYWDFLT
  5
101
102
{ACAD_REACTORS
330
FF
102
}
330
FF
100
AcDbDictionary
281
     1
  3
Normal
350
102
100
AcDbDictionaryWithDefault
340
102
  0
DICTIONARY
  5
10F
102
{ACAD_REACTORS
330
FF
102
}
330
FF
100
AcDbDictionary
281
     1
  3
Standard
350
110
  0
DICTIONARY
  5
156
102
{ACAD_REACTORS
330
FF
102
}
330
FF
100
AcDbDictionary
281
     1
  0
DICTIONARY
  5
121
102
{ACAD_REACTORS
330
FF
102
}
330
FF
100
AcDbDictionary
281
     1
  3
CTABLESTYLE
350
122
  3
DIMASSOC
350
123
  3
PROJECTNAME
350
124
  0
XRECORD
  5
155
102
{ACAD_REACTORS
330
FF
102
}
330
FF
100
AcDbXrecord
280
     1
  1
DWGPROPS COOKIE
  2

  3

  4

  6

  7

  8

  9

300
=
301
=
302
=
303
=
304
=
305
=
306
=
307
=
308
=
309
=
 40
0.0148882407407408
 41
2453588.568564815
 42
2454279.375070058
  1

 90
        0
  0
SORTENTSTABLE
  5
141
102
{ACAD_REACTORS
330
140
102
}
330
140
100
AcDbSortentsTable
330
115
331
DB
  5
DB
331
B9
  5
B9
331
97
  5
97
331
EC
  5
EC
331
CA
  5
CA
331
A8
  5
A8
331
8E
  5
8E
331
7D
  5
7D
331
D9
  5
D9
331
B7
  5
B7
331
13E
  5
13E
331
EA
  5
EA
331
C8
  5
C8
331
A6
  5
A6
331
8C
  5
8C
331
7B
  5
7B
331
F1
  5
F1
331
D7
  5
D7
331
B5
  5
B5
331
13C
  5
13C
331
E8
  5
E8
331
C6
  5
C6
331
A4
  5
A4
331
8A
  5
8A
331
79
  5
79
331
D5
  5
D5
331
B3
  5
B3
331
13A
  5
13A
331
C4
  5
C4
331
88
  5
88
331
77
  5
77
331
22
  5
22
331
D3
  5
D3
331
B1
  5
B1
331
C2
  5
C2
331
86
  5
86
331
31
  5
31
331
C0
  5
C0
331
84
  5
84
331
62
  5
62
331
AF
  5
AF
331
2F
  5
2F
331
E0
  5
E0
331
BE
  5
BE
331
CF
  5
CF
331
AD
  5
AD
331
82
  5
82
331
DE
  5
DE
331
BC
  5
BC
331
80
  5
80
331
EF
  5
EF
331
CD
  5
CD
331
AB
  5
AB
331
6F
  5
6F
331
2B
  5
2B
331
DC
  5
DC
331
BA
  5
BA
331
ED
  5
ED
331
CB
  5
CB
331
A9
  5
A9
331
7E
  5
7E
331
DA
  5
DA
331
B8
  5
B8
331
96
  5
96
331
13F
  5
13F
331
EB
  5
EB
331
C9
  5
C9
331
A7
  5
A7
331
8D
  5
8D
331
7C
  5
7C
331
D8
  5
D8
331
B6
  5
B6
331
13D
  5
13D
331
E9
  5
E9
331
C7
  5
C7
331
A5
  5
A5
331
8B
  5
8B
331
7A
  5
7A
331
F0
  5
F0
331
D6
  5
D6
331
B4
  5
B4
331
13B
  5
13B
331
E7
  5
E7
331
C5
  5
C5
331
89
  5
89
331
78
  5
78
331
D4
  5
D4
331
B2
  5
B2
331
C3
  5
C3
331
87
  5
87
331
76
  5
76
331
D2
  5
D2
331
B0
  5
B0
331
C1
  5
C1
331
85
  5
85
331
63
  5
63
331
30
  5
30
331
E1
  5
E1
331
BF
  5
BF
331
83
  5
83
331
AE
  5
AE
331
2E
  5
2E
331
DF
  5
DF
331
BD
  5
BD
331
CE
  5
CE
331
AC
  5
AC
331
81
  5
81
331
DD
  5
DD
331
BB
  5
BB
331
7F
  5
7F
331
EE
  5
EE
331
CC
  5
CC
331
AA
  5
AA
331
6E
  5
6E
  0
LAYOUT
  5
118
102
{ACAD_XDICTIONARY
360
159
102
}
102
{ACAD_REACTORS
330
10C
102
}
330
10C
100
AcDbPlotSettings
  1

  2
DocuCentre Color f450
  4

  6

 40
0.0
 41
0.0
 42
0.0
 43
0.0
 44
0.0
 45
0.0
 46
0.0
 47
0.0
 48
0.0
 49
0.0
140
0.0
141
0.0
142
1.0
143
1.0
 70
  1712
 72
     0
 73
     0
 74
     0
  7

 75
     0
147
1.0
148
0.0
149
0.0
100
AcDbLayout
  1
Model
 70
     1
 71
     0
 10
0.0
 20
0.0
 11
12.0
 21
9.0
 12
0.0
 22
0.0
 32
0.0
 14
0.0
 24
0.0
 34
0.0
 15
0.0
 25
0.0
 35
0.0
146
0.0
 13
0.0
 23
0.0
 33
0.0
 16
1.0
 26
0.0
 36
0.0
 17
0.0
 27
1.0
 37
0.0
 76
     0
330
115
  0
LAYOUT
  5
114
102
{ACAD_XDICTIONARY
360
157
102
}
102
{ACAD_REACTORS
330
10C
102
}
330
10C
100
AcDbPlotSettings
  1

  2
DocuCentre Color f450
  4

  6

 40
0.0
 41
0.0
 42
0.0
 43
0.0
 44
0.0
 45
0.0
 46
0.0
 47
0.0
 48
0.0
 49
0.0
140
0.0
141
0.0
142
1.0
143
1.0
 70
   688
 72
     0
 73
     0
 74
     5
  7

 75
    16
147
1.0
148
0.0
149
0.0
100
AcDbLayout
  1
レイアウト1
 70
     0
 71
     1
 10
0.0
 20
0.0
 11
12.0
 21
9.0
 12
0.0
 22
0.0
 32
0.0
 14
1.000000000000000E+20
 24
1.000000000000000E+20
 34
1.000000000000000E+20
 15
-1.000000000000000E+20
 25
-1.000000000000000E+20
 35
-1.000000000000000E+20
146
0.0
 13
0.0
 23
0.0
 33
0.0
 16
1.0
 26
0.0
 36
0.0
 17
0.0
 27
1.0
 37
0.0
 76
     0
330
111
  0
MLINESTYLE
  5
10A
102
{ACAD_REACTORS
330
109
102
}
330
109
100
AcDbMlineStyle
  2
STANDARD
 70
     0
  3

 62
   256
 51
90.0
 52
90.0
 71
     2
 49
0.5
 62
   256
  6
BYLAYER
 49
-0.5
 62
   256
  6
BYLAYER
  0
ACDBPLACEHOLDER
  5
102
102
{ACAD_REACTORS
330
101
102
}
330
101
  0
TABLESTYLE
  5
110
102
{ACAD_REACTORS
330
10F
102
}
330
10F
100
AcDbTableStyle
  3
Standard
 70
     0
 71
     0
 40
0.06
 41
0.06
280
     0
281
     0
  7
Standard
140
0.18
170
     2
 62
     0
 63
     7
283
     0
274
    -2
284
     1
 64
     0
275
    -2
285
     1
 65
     0
276
    -2
286
     1
 66
     0
277
    -2
287
     1
 67
     0
278
    -2
288
     1
 68
     0
279
    -2
289
     1
 69
     0
  7
Standard
140
0.25
170
     5
 62
     0
 63
     7
283
     0
274
    -2
284
     1
 64
     0
275
    -2
285
     1
 65
     0
276
    -2
286
     1
 66
     0
277
    -2
287
     1
 67
     0
278
    -2
288
     1
 68
     0
279
    -2
289
     1
 69
     0
  7
Standard
140
0.18
170
     5
 62
     0
 63
     7
283
     0
274
    -2
284
     1
 64
     0
275
    -2
285
     1
 65
     0
276
    -2
286
     1
 66
     0
277
    -2
287
     1
 67
     0
278
    -2
288
     1
 68
     0
279
    -2
289
     1
 69
     0
  0
DICTIONARYVAR
  5
122
102
{ACAD_REACTORS
330
121
102
}
330
121
100
DictionaryVariables
280
     0
  1
STANDARD
  0
DICTIONARYVAR
  5
123
102
{ACAD_REACTORS
330
121
102
}
330
121
100
DictionaryVariables
280
     0
  1
1
  0
DICTIONARYVAR
  5
124
102
{ACAD_REACTORS
330
121
102
}
330
121
100
DictionaryVariables
280
     0
  1

  0
DICTIONARY
  5
159
330
118
100
AcDbDictionary
280
     1
281
     1
  3
ACAD_XREC_ROUNDTRIP
360
15A
  0
DICTIONARY
  5
157
330
114
100
AcDbDictionary
280
     1
281
     1
  3
ACAD_XREC_ROUNDTRIP
360
158
  0
XRECORD
  5
15A
102
{ACAD_REACTORS
330
159
102
}
330
159
100
AcDbXrecord
280
     1
102
SHADEPLOT
 70
     0
102
SHADEPLOTRESLEVEL
 70
     2
102
SHADEPLOTCUSTOMDPI
 70
   300
  0
XRECORD
  5
158
102
{ACAD_REACTORS
330
157
102
}
330
157
100
AcDbXrecord
280
     1
102
SHADEPLOT
 70
     0
102
SHADEPLOTRESLEVEL
 70
     2
102
SHADEPLOTCUSTOMDPI
 70
   300
  0
ENDSEC
  0
EOF
