  0
SECTION
  2
HEADER
  0
ENDSEC
  0
SECTION
  2
TABLES
  0
TABLE
  2
LTYPE
 70
     4
  0
LTYPE
  2
CONTINUOUS
 70
    64
  3
Solid line
 72
    65
 73
     0
 40
0.000000
  0
LTYPE
  2
DASHED
 70
    64
  3
__ __ __ __ __ __ __ __ __ __ __ __ __ __ __
 72
    65
 73
     2
 40
3.500000
 49
2.000000
 49
-1.500000
  0
LTYPE
  2
CENTER
 70
    64
  3
____ _ ____ _ ____ _ ____ _ ____ _ ____ _ ____
 72
    65
 73
     4
 40
17.500000
 49
13.000000
 49
-1.500000
 49
1.500000
 49
-1.500000
  0
LTYPE
  2
PHANTOM
 70
    64
  3
_____ _ _ _____ _ _ _____ _ _ _____ _ _ ____  
 72
    65
 73
     6
 40
15.500000
 49
8.000000
 49
-1.500000
 49
1.500000
 49
-1.500000
 49
1.500000
 49
-1.500000
  0
LTYPE
  2
DASHED1
 70
    64
  3
__ __ __ __ __ __ __ __ __ __ __ __ __ __ __
 72
    65
 73
     2
 40
1.500000
 49
1.000000
 49
-0.500000
  0
LTYPE
  2
DASHED2
 70
    64
  3
__ __ __ __ __ __ __ __ __ __ __ __ __ __ __
 72
    65
 73
     2
 40
3.500000
 49
2.500000
 49
-1.000000
  0
LTYPE
  2
DASHED3
 70
    64
  3
__ __ __ __ __ __ __ __ __ __ __ __ __ __ __
 72
    65
 73
     2
 40
6.000000
 49
4.000000
 49
-2.000000
  0
LTYPE
  2
DASHED4
 70
    64
  3
__ __ __ __ __ __ __ __ __ __ __ __ __ __ __
 72
    65
 73
     2
 40
12.000000
 49
10.000000
 49
-2.000000
  0
LTYPE
  2
DASHED5
 70
    64
  3
__ __ __ __ __ __ __ __ __ __ __ __ __ __ __
 72
    65
 73
     2
 40
17.000000
 49
15.000000
 49
-2.000000
  0
LTYPE
  2
DASHED6
 70
    64
  3
__ __ __ __ __ __ __ __ __ __ __ __ __ __ __
 72
    65
 73
     2
 40
29.000000
 49
27.000000
 49
-2.000000
  0
LTYPE
  2
PHANTOM1
 70
    64
  3
_____ _ _ _____ _ _ _____ _ _ _____ _ _ ____  
 72
    65
 73
     6
 40
31.000000
 49
25.000000
 49
-1.500000
 49
1.000000
 49
-1.000000
 49
1.000000
 49
-1.500000
  0
LTYPE
  2
PHANTOM2
 70
    64
  3
_____ _ _ _____ _ _ _____ _ _ _____ _ _ ____  
 72
    65
 73
     6
 40
36.000000
 49
27.000000
 49
-1.500000
 49
2.500000
 49
-1.000000
 49
2.500000
 49
-1.500000
  0
LTYPE
  2
PHANTOM3
 70
    64
  3
_____ _ _ _____ _ _ _____ _ _ _____ _ _ ____  
 72
    65
 73
     6
 40
78.000000
 49
64.000000
 49
-2.000000
 49
4.000000
 49
-2.000000
 49
4.000000
 49
-2.000000
  0
LTYPE
  2
CENTER1
 70
    64
  3
____ _ ____ _ ____ _ ____ _ ____ _ ____ _ ____
 72
    65
 73
     4
 40
19.000000
 49
14.000000
 49
-1.000000
 49
3.000000
 49
-1.000000
  0
LTYPE
  2
CENTER2
 70
    64
  3
____ _ ____ _ ____ _ ____ _ ____ _ ____ _ ____
 72
    65
 73
     4
 40
28.500000
 49
25.000000
 49
-1.000000
 49
1.500000
 49
-1.000000
  0
LTYPE
  2
CENTER3
 70
    64
  3
____ _ ____ _ ____ _ ____ _ ____ _ ____ _ ____
 72
    65
 73
     4
 40
31.500000
 49
27.000000
 49
-1.000000
 49
2.500000
 49
-1.000000
  0
LTYPE
  2
CENTER4
 70
    64
  3
____ _ ____ _ ____ _ ____ _ ____ _ ____ _ ____
 72
    65
 73
     4
 40
50.000000
 49
45.000000
 49
-1.000000
 49
3.000000
 49
-1.000000
  0
LTYPE
  2
CENTER5
 70
    64
  3
____ _ ____ _ ____ _ ____ _ ____ _ ____ _ ____
 72
    65
 73
     4
 40
100.000000
 49
92.000000
 49
-2.000000
 49
4.000000
 49
-2.000000
  0
LTYPE
  2
SBK1
 70
    64
  3
______ _ _ _ ______ _ _ _ ______ _ _ _ _____  
 72
    65
 73
     8
 40
60.500000
 49
45.000000
 49
-2.000000
 49
2.500000
 49
-2.000000
 49
2.500000
 49
-2.000000
 49
2.500000
 49
-2.000000
  0
LTYPE
  2
SBK2
 70
    64
  3
______ _ _ _ ______ _ _ _ ______ _ _ _ _____  
 72
    65
 73
     8
 40
84.000000
 49
64.000000
 49
-2.000000
 49
4.000000
 49
-2.000000
 49
4.000000
 49
-2.000000
 49
4.000000
 49
-2.000000
  0
LTYPE
  2
STCH
 70
    64
  3
__ __ __ __ __ __ __ __ __ __ __ __ __ __ __
 72
    65
 73
     2
 40
3.000000
 49
1.000000
 49
-2.000000
  0
LTYPE
  2
MTCH
 70
    64
  3
_____ _ _ _____ _ _ _____ _ _ _____ _ _ ____  
 72
    65
 73
     6
 40
80.000000
 49
66.000000
 49
-2.000000
 49
4.000000
 49
-2.000000
 49
4.000000
 49
-2.000000
  0
ENDTAB
  0
TABLE
  2
LAYER
 70
     1
  0
LAYER
  2
0
 70
     0
 62
     7
  6
CONTINUOUS
  0
ENDTAB
  0
TABLE
  2
STYLE
 70
     1
  0
STYLE
  2
STANDARD
 70
     0
 40
0.000000
 41
1.000000
 50
0.000000
 71
     0
 42
0.200000
  3
txt
  4
BIGFONT
  0
ENDTAB
  0
TABLE
  2
VIEW
 70
     0
  0
ENDTAB
  0
ENDSEC
  0
SECTION
  2
BLOCKS
  0
ENDSEC
  0
SECTION
  2
ENTITIES
  0
LINE
  8
0
  6
CENTER
 62
     1
 10
4.814518
 20
110.840454
 11
4.814518
 21
116.413727
  0
LINE
  8
0
  6
CENTER
 62
     2
 10
-1.685482
 20
87.030251
 11
-1.685482
 21
91.253159
  0
LINE
  8
0
  6
CENTER
 62
     2
 10
-12.685482
 20
87.030251
 11
-12.685482
 21
91.253159
  0
LINE
  8
0
  6
CENTER
 62
     1
 10
-19.185482
 20
110.840454
 11
-19.185482
 21
116.413727
  0
LINE
  8
0
 62
     4
 10
-22.185482
 20
88.952835
 11
-22.185482
 21
113.952835
  0
LINE
  8
0
 62
     4
 10
7.814518
 20
88.952835
 11
7.814518
 21
113.952835
  0
LINE
  8
0
 10
-0.085482
 20
87.952835
 11
-14.285482
 21
87.952835
  0
LINE
  8
0
  6
CENTER
 62
     2
 10
-7.185482
 20
117.020607
 11
-7.185482
 21
52.516903
  0
LINE
  8
0
 10
-1.185485
 20
87.452835
 11
0.128456
 21
87.890816
  0
LINE
  8
0
 10
-8.685482
 20
87.452835
 11
-1.185482
 21
87.452835
  0
LINE
  8
0
 10
-8.685482
 20
86.852837
 11
-1.641378
 21
86.852837
  0
LINE
  8
0
 10
0.314518
 20
87.552834
 11
0.314518
 21
55.552834
  0
LINE
  8
0
 10
-14.685482
 20
87.552834
 11
-14.685482
 21
55.552834
  0
LINE
  8
0
 10
-12.185482
 20
55.152836
 11
-14.285482
 21
55.152836
  0
LINE
  8
0
 10
-2.185482
 20
55.152836
 11
-0.085482
 21
55.152836
  0
LINE
  8
0
 10
-14.685482
 20
81.952835
 11
-12.185482
 21
81.952835
  0
LINE
  8
0
 10
-8.685482
 20
87.952835
 11
-8.685482
 21
86.652832
  0
LINE
  8
0
 10
-2.185482
 20
63.952835
 11
0.314518
 21
63.952835
  0
LINE
  8
0
 10
-2.185482
 20
69.952835
 11
0.314518
 21
69.952835
  0
LINE
  8
0
 10
-2.185484
 20
66.452835
 11
-1.334684
 21
65.602036
  0
LINE
  8
0
 10
-13.036281
 20
86.303635
 11
-12.185483
 21
85.452835
  0
LINE
  8
0
 10
-1.334686
 20
68.303635
 11
-2.185483
 21
67.452843
  0
LINE
  8
0
 10
-12.185483
 20
84.452835
 11
-13.036279
 21
83.602036
  0
LINE
  8
0
 10
-1.935482
 20
55.152836
 11
-1.935482
 21
63.952835
  0
LINE
  8
0
 10
-12.435482
 20
55.152836
 11
-12.435482
 21
81.952835
  0
LINE
  8
0
 10
-1.935482
 20
69.952835
 11
-1.935482
 21
86.852837
  0
LINE
  8
0
 10
-13.185482
 20
81.952835
 11
-13.185482
 21
55.152836
  0
LINE
  8
0
 10
-1.185482
 20
87.452835
 11
-1.185482
 21
69.952835
  0
LINE
  8
0
 10
-1.185482
 20
63.952835
 11
-1.185482
 21
55.152836
  0
LINE
  8
0
 62
     4
 10
-2.485481
 20
72.152832
 11
-2.185482
 21
72.152832
  0
LINE
  8
0
 62
     4
 10
-2.485481
 20
72.252838
 11
-2.185482
 21
72.252838
  0
LINE
  8
0
 62
     4
 10
-9.685482
 20
66.852837
 11
-11.885482
 21
66.852837
  0
LINE
  8
0
 62
     4
 10
-9.685482
 20
67.852837
 11
-10.085482
 21
67.852837
  0
LINE
  8
0
 62
     4
 10
-4.685482
 20
67.052834
 11
-9.685482
 21
67.052834
  0
LINE
  8
0
 62
     4
 10
-4.685482
 20
65.852837
 11
-9.685482
 21
65.852837
  0
LINE
  8
0
 62
     4
 10
-3.485482
 20
68.352837
 11
-10.885482
 21
68.352837
  0
LINE
  8
0
 62
     4
 10
-2.485481
 20
72.652832
 11
-2.485481
 21
67.352837
  0
LINE
  8
0
 62
     4
 10
-11.885482
 20
72.652832
 11
-11.885482
 21
67.352837
  0
LINE
  8
0
 62
     4
 10
-2.485481
 20
72.652832
 11
-11.885482
 21
72.652832
  0
LINE
  8
0
 62
     4
 10
-4.095482
 20
70.952835
 11
-4.095482
 21
71.452835
  0
LINE
  8
0
 62
     4
 10
-5.195482
 20
70.952835
 11
-5.195482
 21
71.452835
  0
LINE
  8
0
 62
     4
 10
-3.695482
 20
68.852837
 11
-5.595482
 21
68.852837
  0
LINE
  8
0
 62
     4
 10
-3.769482
 20
70.952835
 11
-5.519482
 21
70.952835
  0
LINE
  8
0
 62
     4
 10
-4.095482
 20
71.452835
 11
-5.195482
 21
71.452835
  0
LINE
  8
0
 62
     4
 10
-8.435482
 20
67.352837
 11
-8.435482
 21
68.352837
  0
LINE
  8
0
 62
     4
 10
-5.935482
 20
67.352837
 11
-5.935482
 21
68.352837
  0
LINE
  8
0
 62
     4
 10
-2.485481
 20
67.352837
 11
-3.485482
 21
67.352837
  0
LINE
  8
0
 62
     4
 10
-3.485482
 20
68.352837
 11
-3.485482
 21
67.352837
  0
LINE
  8
0
 62
     4
 10
-11.885482
 20
67.352837
 11
-10.885482
 21
67.352837
  0
LINE
  8
0
 62
     4
 10
-10.885482
 20
68.352837
 11
-10.885482
 21
67.352837
  0
LINE
  8
0
 62
     4
 10
-5.595483
 20
68.852837
 11
-5.719483
 21
70.740837
  0
LINE
  8
0
 62
     4
 10
-3.569481
 20
70.740837
 11
-3.695482
 21
68.852837
  0
LINE
  8
0
 62
     4
 10
-6.235482
 20
68.852837
 11
-8.135482
 21
68.852837
  0
LINE
  8
0
 62
     4
 10
-6.109483
 20
70.740837
 11
-6.235483
 21
68.852837
  0
LINE
  8
0
 62
     4
 10
-6.309482
 20
70.952835
 11
-8.059482
 21
70.952835
  0
LINE
  8
0
 62
     4
 10
-6.635482
 20
70.952835
 11
-6.635482
 21
71.452835
  0
LINE
  8
0
 62
     4
 10
-6.635482
 20
71.452835
 11
-7.735482
 21
71.452835
  0
LINE
  8
0
 62
     4
 10
-7.735482
 20
70.952835
 11
-7.735482
 21
71.452835
  0
LINE
  8
0
 62
     4
 10
-8.135483
 20
68.852837
 11
-8.259482
 21
70.740837
  0
LINE
  8
0
 62
     4
 10
-6.785482
 20
69.452835
 11
-6.785482
 21
70.252838
  0
LINE
  8
0
 62
     4
 10
-7.585482
 20
69.452835
 11
-6.785482
 21
69.452835
  0
LINE
  8
0
 62
     4
 10
-7.585482
 20
69.452835
 11
-7.585482
 21
70.252838
  0
LINE
  8
0
 62
     4
 10
-7.585482
 20
70.252838
 11
-6.785482
 21
70.252838
  0
LINE
  8
0
 62
     4
 10
-8.775482
 20
68.852837
 11
-10.675482
 21
68.852837
  0
LINE
  8
0
 62
     4
 10
-8.649482
 20
70.740829
 11
-8.775482
 21
68.852837
  0
LINE
  8
0
 62
     4
 10
-8.849482
 20
70.952835
 11
-10.599482
 21
70.952835
  0
LINE
  8
0
 62
     4
 10
-9.175482
 20
70.952835
 11
-9.175482
 21
71.452835
  0
LINE
  8
0
 62
     4
 10
-9.175482
 20
71.452835
 11
-10.275482
 21
71.452835
  0
LINE
  8
0
 62
     4
 10
-10.275482
 20
70.952835
 11
-10.275482
 21
71.452835
  0
LINE
  8
0
 62
     4
 10
-10.675482
 20
68.852837
 11
-10.799482
 21
70.740829
  0
LINE
  8
0
 62
     4
 10
-4.685482
 20
65.852837
 11
-4.685482
 21
68.352837
  0
LINE
  8
0
 62
     4
 10
-9.685482
 20
65.852837
 11
-9.685482
 21
68.352837
  0
LINE
  8
0
 62
     4
 10
-4.285482
 20
67.352837
 11
-10.085482
 21
67.352837
  0
LINE
  8
0
 62
     4
 10
-10.085482
 20
67.852837
 11
-10.085482
 21
66.852837
  0
LINE
  8
0
 62
     4
 10
-4.285482
 20
67.852837
 11
-4.285482
 21
66.852837
  0
LINE
  8
0
 62
     4
 10
-4.285482
 20
67.852837
 11
-4.685482
 21
67.852837
  0
LINE
  8
0
 62
     4
 10
-2.485481
 20
66.852837
 11
-4.685482
 21
66.852837
  0
LINE
  8
0
 62
     4
 10
-11.885482
 20
54.652836
 11
-2.485481
 21
54.652836
  0
LINE
  8
0
 62
     4
 10
-12.185482
 20
72.152832
 11
-11.885482
 21
72.152832
  0
LINE
  8
0
 62
     1
 10
-8.685482
 20
59.652836
 11
-8.685482
 21
54.652836
  0
LINE
  8
0
 62
     1
 10
-5.685482
 20
59.652836
 11
-8.685482
 21
59.652836
  0
LINE
  8
0
 62
     1
 10
-5.685482
 20
59.652836
 11
-5.685482
 21
54.652836
  0
LINE
  8
0
 62
     4
 10
-9.985482
 20
74.352837
 11
-9.985482
 21
75.852837
  0
LINE
  8
0
 62
     4
 10
-11.485482
 20
74.352837
 11
-11.485482
 21
75.852837
  0
LINE
  8
0
 62
     4
 10
-9.985482
 20
74.352837
 11
-11.485482
 21
74.352837
  0
LINE
  8
0
 62
     4
 10
-9.985482
 20
75.852837
 11
-11.485482
 21
75.852837
  0
LINE
  8
0
 62
     4
 10
-4.791107
 20
80.693649
 11
-4.535478
 21
80.252838
  0
LINE
  8
0
 62
     4
 10
-9.835483
 20
80.252838
 11
-9.579854
 21
80.693649
  0
LINE
  8
0
 62
     4
 10
-6.041112
 20
79.443657
 11
-5.785483
 21
79.002838
  0
LINE
  8
0
 62
     4
 10
-4.535481
 20
80.252831
 11
-5.785482
 21
79.002831
  0
LINE
  8
0
 62
     4
 10
-6.041110
 20
79.443649
 11
-4.791111
 21
80.693649
  0
LINE
  8
0
 62
     4
 10
-8.329855
 20
79.443649
 11
-8.585484
 21
79.002838
  0
LINE
  8
0
 62
     4
 10
-12.185482
 20
73.562019
 11
-2.185482
 21
73.562019
  0
LINE
  8
0
 62
     4
 10
-8.329852
 20
79.443649
 11
-9.579850
 21
80.693649
  0
LINE
  8
0
 62
     4
 10
-12.185482
 20
80.693649
 11
-9.579852
 21
80.693649
  0
LINE
  8
0
 62
     4
 10
-4.791112
 20
80.693649
 11
-2.185482
 21
80.693649
  0
LINE
  8
0
 62
     4
 10
-6.041112
 20
79.443649
 11
-8.329852
 21
79.443649
  0
LINE
  8
0
 62
     4
 10
-12.185482
 20
80.252838
 11
-9.835482
 21
80.252838
  0
LINE
  8
0
 62
     4
 10
-9.835480
 20
80.252838
 11
-8.585482
 21
79.002838
  0
LINE
  8
0
 62
     4
 10
-5.785482
 20
79.002838
 11
-8.585482
 21
79.002838
  0
LINE
  8
0
 62
     4
 10
-4.535482
 20
80.252838
 11
-2.185482
 21
80.252838
  0
LINE
  8
0
 62
     4
 10
-2.185482
 20
72.750916
 11
-12.185482
 21
72.750916
  0
LINE
  8
0
 62
     4
 10
-12.185482
 20
72.252838
 11
-11.885482
 21
72.252838
  0
LINE
  8
0
 62
     4
 10
-10.685482
 20
76.552834
 11
-12.185482
 21
76.552834
  0
LINE
  8
0
 62
     4
 10
-12.185482
 20
79.752838
 11
-10.685482
 21
79.752838
  0
LINE
  8
0
 62
     4
 10
-3.685482
 20
79.752838
 11
-2.185482
 21
79.752838
  0
LINE
  8
0
 62
     4
 10
-2.185482
 20
76.552834
 11
-3.685482
 21
76.552834
  0
LINE
  8
0
 62
     4
 10
-2.185482
 20
54.952835
 11
-2.185482
 21
86.652832
  0
LINE
  8
0
  6
CENTER
 62
     2
 10
-9.685482
 20
76.402832
 11
-4.685482
 21
76.402832
  0
LINE
  8
0
 62
     4
 10
-12.185482
 20
54.952835
 11
-12.185482
 21
86.652832
  0
LINE
  8
0
 62
     4
 10
-9.010996
 20
76.702835
 11
-5.359968
 21
76.702835
  0
LINE
  8
0
 62
     4
 10
-7.185482
 20
76.102837
 11
-5.359968
 21
76.102837
  0
LINE
  8
0
 62
     4
 10
-9.010996
 20
76.102837
 11
-7.185482
 21
76.102837
  0
LINE
  8
0
 62
     4
 10
-2.978375
 20
78.859940
 11
-4.392591
 21
77.445724
  0
LINE
  8
0
 62
     4
 10
-2.978377
 20
77.445724
 11
-4.392590
 21
78.859940
  0
LINE
  8
0
 62
     4
 10
-11.392586
 20
77.445732
 11
-9.978374
 21
78.859940
  0
LINE
  8
0
 62
     4
 10
-11.392587
 20
78.859940
 11
-9.978375
 21
77.445732
  0
LINE
  8
0
 62
     4
 10
-12.185482
 20
86.652832
 11
-2.185482
 21
86.652832
  0
LINE
  8
0
 10
-14.188810
 20
87.952835
 11
-14.188810
 21
88.952835
  0
LINE
  8
0
 10
-0.188810
 20
88.952835
 11
-14.188810
 21
88.952835
  0
LINE
  8
0
 10
-0.188810
 20
87.952835
 11
-14.188810
 21
87.952835
  0
LINE
  8
0
 10
-0.188810
 20
87.952835
 11
-0.188810
 21
88.952835
  0
LINE
  8
0
 62
     4
 10
-22.185482
 20
88.952835
 11
7.814518
 21
88.952835
  0
LINE
  8
0
 62
     4
 10
-22.185482
 20
113.952835
 11
7.814518
 21
113.952835
  0
LINE
  8
0
 62
     4
 10
87.114517
 20
-129.411316
 11
86.314514
 21
-129.411316
  0
LINE
  8
0
  6
CENTER
 62
     1
 10
120.314514
 20
-37.081314
 11
106.314514
 21
-37.081314
  0
LINE
  8
0
  6
CENTER
 62
     1
 10
126.517273
 20
-44.581314
 11
133.532990
 21
-44.581314
  0
LINE
  8
0
  6
CENTER
 62
     1
 10
126.517273
 20
-19.581314
 11
133.532990
 21
-19.581314
  0
LINE
  8
0
  6
CENTER
 62
     2
 10
101.841011
 20
-46.081314
 11
108.582893
 21
-46.081314
  0
LINE
  8
0
  6
CENTER
 62
     2
 10
101.841011
 20
-28.081314
 11
108.582893
 21
-28.081314
  0
LINE
  8
0
 62
     1
 10
83.674515
 20
-117.991318
 11
89.674515
 21
-119.591316
  0
LINE
  8
0
 62
     1
 10
83.674515
 20
-119.231308
 11
89.674515
 21
-120.831314
  0
LINE
  8
0
 62
     4
 10
85.999512
 20
-119.851311
 11
85.999512
 21
-124.411316
  0
LINE
  8
0
 62
     4
 10
87.429520
 20
-120.232651
 11
87.429520
 21
-124.411316
  0
LINE
  8
0
 62
     4
 10
87.429520
 20
-124.411316
 11
85.999512
 21
-124.411316
  0
LINE
  8
0
 62
     4
 10
87.429520
 20
-113.981316
 11
87.429520
 21
-118.992645
  0
LINE
  8
0
 62
     4
 10
85.999512
 20
-113.981316
 11
85.999512
 21
-118.611313
  0
LINE
  8
0
 62
     4
 10
86.314514
 20
41.348686
 11
87.114517
 21
41.348686
  0
LINE
  8
0
 62
     4
 10
85.999512
 20
36.348686
 11
87.429520
 21
36.348686
  0
LINE
  8
0
 62
     4
 10
87.114517
 20
36.348686
 11
87.114517
 21
41.348686
  0
LINE
  8
0
 62
     4
 10
86.314514
 20
36.348686
 11
86.314514
 21
41.348686
  0
LINE
  8
0
 62
     4
 10
85.999512
 20
32.170021
 11
85.999512
 21
36.348686
  0
LINE
  8
0
 62
     4
 10
87.429520
 20
31.788685
 11
87.429520
 21
36.348686
  0
LINE
  8
0
 62
     1
 10
89.754517
 20
31.168686
 11
83.754509
 21
32.768684
  0
LINE
  8
0
 62
     1
 10
89.754517
 20
29.928684
 11
83.754517
 21
31.528685
  0
LINE
  8
0
 62
     4
 10
85.999512
 20
25.918686
 11
85.999512
 21
30.930019
  0
LINE
  8
0
 62
     4
 10
87.429520
 20
25.918686
 11
87.429520
 21
30.548687
  0
LINE
  8
0
 10
104.814514
 20
-64.981316
 11
80.814514
 21
-64.981316
  0
LINE
  8
0
 10
103.514511
 20
-84.281311
 11
104.314514
 21
-84.281311
  0
LINE
  8
0
 10
98.814514
 20
-83.781311
 11
103.714516
 21
-83.781311
  0
LINE
  8
0
 10
72.414513
 20
-75.281311
 11
80.414513
 21
-75.281311
  0
LINE
  8
0
 10
99.014511
 20
-80.281311
 11
99.014511
 21
-81.823776
  0
LINE
  8
0
 10
98.814514
 20
-80.281311
 11
98.814514
 21
-84.281311
  0
LINE
  8
0
 10
98.814514
 20
-80.281311
 11
104.814514
 21
-80.281311
  0
LINE
  8
0
 62
     4
 10
71.514511
 20
-83.781311
 11
72.014511
 21
-83.781311
  0
LINE
  8
0
 10
72.014511
 20
-72.881317
 11
72.014511
 21
-84.281311
  0
LINE
  8
0
 10
72.414513
 20
-72.481316
 11
80.314514
 21
-72.481316
  0
LINE
  8
0
 10
104.814514
 20
-83.781311
 11
104.314514
 21
-84.281311
  0
LINE
  8
0
 10
72.014511
 20
-84.281311
 11
98.814514
 21
-84.281311
  0
LINE
  8
0
 10
103.714516
 20
-84.281311
 11
103.714516
 21
-83.781311
  0
LINE
  8
0
 10
104.614517
 20
-80.281311
 11
104.614517
 21
-81.823776
  0
LINE
  8
0
 62
     4
 10
90.423698
 20
-98.781311
 11
89.612595
 21
-103.381302
  0
LINE
  8
0
 62
     4
 10
89.114517
 20
-97.481316
 11
89.114517
 21
-103.381317
  0
LINE
  8
0
 62
     4
 10
89.612595
 20
-103.381317
 11
89.114517
 21
-103.381317
  0
LINE
  8
0
 62
     4
 10
89.014511
 20
-102.781311
 11
89.114517
 21
-102.781311
  0
LINE
  8
0
 62
     4
 10
73.014511
 20
-97.481316
 11
73.014511
 21
-84.981316
  0
LINE
  8
0
 62
     4
 10
97.114517
 20
-98.781311
 11
90.423698
 21
-98.781311
  0
LINE
  8
0
 62
     4
 10
73.014511
 20
-97.481316
 11
89.114517
 21
-97.481316
  0
LINE
  8
0
 62
     4
 10
71.514511
 20
-83.781311
 11
71.514511
 21
-84.681313
  0
LINE
  8
0
 62
     4
 10
71.514511
 20
-84.981316
 11
73.014511
 21
-84.981316
  0
LINE
  8
0
 62
     4
 10
71.514519
 20
-84.681313
 11
71.814514
 21
-84.981316
  0
LINE
  8
0
 62
     4
 10
103.514511
 20
-95.281311
 11
97.731659
 21
-95.281311
  0
LINE
  8
0
 62
     4
 10
96.614517
 20
-97.781311
 11
93.414513
 21
-97.781311
  0
LINE
  8
0
 62
     4
 10
96.514511
 20
-97.881317
 11
96.514511
 21
-97.781311
  0
LINE
  8
0
 62
     4
 10
96.614517
 20
-98.781311
 11
96.614517
 21
-97.781311
  0
LINE
  8
0
 62
     4
 10
97.731667
 20
-95.281311
 11
97.114525
 21
-98.781311
  0
LINE
  8
0
 62
     4
 10
96.014511
 20
-98.381317
 11
94.014511
 21
-98.381317
  0
LINE
  8
0
 62
     4
 10
93.514511
 20
-97.881317
 11
93.514511
 21
-97.781311
  0
LINE
  8
0
 62
     4
 10
93.414513
 20
-98.781311
 11
93.414513
 21
-97.781311
  0
LINE
  8
0
 62
     4
 10
102.814514
 20
-94.581314
 11
102.814514
 21
-86.981316
  0
LINE
  8
0
 62
     4
 10
103.514511
 20
-83.781311
 11
103.514511
 21
-95.281311
  0
LINE
  8
0
 62
     4
 10
102.014511
 20
-94.581314
 11
102.014511
 21
-86.981316
  0
LINE
  8
0
 62
     4
 10
102.014511
 20
-94.581314
 11
102.814514
 21
-94.581314
  0
LINE
  8
0
 62
     4
 10
102.814514
 20
-86.981316
 11
102.014511
 21
-86.981316
  0
LINE
  8
0
 62
     4
 10
71.514511
 20
-84.981316
 11
71.514511
 21
-103.081314
  0
LINE
  8
0
 62
     4
 10
83.714516
 20
-103.381317
 11
71.814514
 21
-103.381317
  0
LINE
  8
0
 62
     4
 10
89.014511
 20
-108.881317
 11
89.014511
 21
-97.481316
  0
LINE
  8
0
 62
     4
 10
83.714516
 20
-108.881317
 11
83.714516
 21
-103.381317
  0
LINE
  8
0
 62
     4
 10
83.914757
 20
-112.981316
 11
82.714516
 21
-112.981316
  0
LINE
  8
0
 62
     4
 10
89.014511
 20
-112.981316
 11
89.514511
 21
-113.269981
  0
LINE
  8
0
 62
     4
 10
89.514511
 20
-113.269989
 11
89.514511
 21
-113.981316
  0
LINE
  8
0
 62
     4
 10
88.314514
 20
-108.881317
 11
88.314514
 21
-108.981316
  0
LINE
  8
0
 62
     4
 10
89.514511
 20
-113.981316
 11
84.214516
 21
-113.981316
  0
LINE
  8
0
 62
     4
 10
83.914757
 20
-112.981308
 11
84.214516
 21
-111.281303
  0
LINE
  8
0
  6
PHANTOM
 62
     4
 10
84.214516
 20
-109.781311
 11
84.214516
 21
-111.279930
  0
LINE
  8
0
 62
     4
 10
84.214516
 20
-108.881317
 11
84.214516
 21
-113.981316
  0
LINE
  8
0
 62
     4
 10
84.214516
 20
-108.981316
 11
89.014511
 21
-108.981316
  0
LINE
  8
0
 62
     4
 10
89.014511
 20
-108.981316
 11
89.014511
 21
-112.981316
  0
LINE
  8
0
 62
     4
 10
89.014511
 20
-108.881317
 11
83.714516
 21
-108.881317
  0
LINE
  8
0
 62
     4
 10
82.714516
 20
-112.269989
 11
82.714516
 21
-112.981316
  0
LINE
  8
0
 62
     4
 10
83.214508
 20
-111.981316
 11
82.714516
 21
-112.269989
  0
LINE
  8
0
 62
     4
 10
83.714508
 20
-104.581314
 11
83.214508
 21
-105.447342
  0
LINE
  8
0
 62
     4
 10
83.214516
 20
-105.447342
 11
83.214516
 21
-111.981316
  0
LINE
  8
0
 10
104.814514
 20
-51.081314
 11
104.814514
 21
-83.781311
  0
LINE
  8
0
 10
80.814514
 20
-51.081314
 11
80.814514
 21
-74.881317
  0
LINE
  8
0
 10
83.214516
 20
-47.891312
 11
83.214516
 21
-44.261314
  0
LINE
  8
0
 10
83.814514
 20
-47.891312
 11
83.814514
 21
-44.261314
  0
LINE
  8
0
 10
83.814514
 20
-47.891312
 11
80.814514
 21
-47.891312
  0
LINE
  8
0
 10
83.814514
 20
-44.261314
 11
80.814514
 21
-44.261314
  0
LINE
  8
0
  6
CENTER
 62
     1
 10
114.314514
 20
-60.081314
 11
107.314514
 21
-60.081314
  0
LINE
  8
0
  6
CENTER
 62
     1
 10
110.814514
 20
-63.581314
 11
110.814514
 21
-56.581314
  0
LINE
  8
0
  6
CENTER
 62
     1
 10
126.814514
 20
-22.081314
 11
112.814514
 21
-22.081314
  0
LINE
  8
0
  6
CENTER
 62
     1
 10
126.814514
 20
-52.081314
 11
112.814514
 21
-52.081314
  0
LINE
  8
0
  6
CENTER
 62
     1
 10
114.314514
 20
-14.081314
 11
107.314514
 21
-14.081314
  0
LINE
  8
0
  6
CENTER
 62
     1
 10
119.814514
 20
-15.081314
 11
119.814514
 21
-29.770821
  0
LINE
  8
0
  6
CENTER
 62
     1
 10
113.314514
 20
-30.081314
 11
113.314514
 21
-44.081314
  0
LINE
  8
0
  6
CENTER
 62
     1
 10
110.814514
 20
-10.581314
 11
110.814514
 21
-17.581314
  0
LINE
  8
0
 62
     4
 10
105.814514
 20
-9.581314
 11
105.814514
 21
-64.581314
  0
LINE
  8
0
 62
     4
 10
130.814514
 20
-9.581314
 11
130.814514
 21
-64.581314
  0
LINE
  8
0
 62
     4
 10
130.814514
 20
-9.581314
 11
105.814514
 21
-9.581314
  0
LINE
  8
0
 62
     4
 10
130.814514
 20
-64.581314
 11
105.814514
 21
-64.581314
  0
LINE
  8
0
 10
80.814514
 20
-23.081314
 11
80.814514
 21
-51.081314
  0
LINE
  8
0
 10
104.814514
 20
-51.081314
 11
80.814514
 21
-51.081314
  0
LINE
  8
0
 10
104.814514
 20
-23.081314
 11
80.814514
 21
-23.081314
  0
LINE
  8
0
 10
104.814514
 20
-23.081314
 11
104.814514
 21
-51.081314
  0
LINE
  8
0
 10
81.014511
 20
-7.781314
 11
81.014511
 21
-6.238851
  0
LINE
  8
0
 10
80.814514
 20
-7.781314
 11
80.814514
 21
-3.781314
  0
LINE
  8
0
 10
80.814514
 20
-7.781314
 11
86.814514
 21
-7.781314
  0
LINE
  8
0
 62
     4
 10
71.514511
 20
-4.281314
 11
72.014511
 21
-4.281314
  0
LINE
  8
0
 10
72.014511
 20
-15.181314
 11
72.014511
 21
-3.781314
  0
LINE
  8
0
 10
72.414513
 20
-15.581314
 11
80.314514
 21
-15.581314
  0
LINE
  8
0
 10
104.814514
 20
-4.281311
 11
104.314514
 21
-3.781311
  0
LINE
  8
0
 10
104.314514
 20
-3.781314
 11
86.814514
 21
-3.781314
  0
LINE
  8
0
 10
86.614517
 20
-7.781314
 11
86.614517
 21
-6.238851
  0
LINE
  8
0
 62
     4
 10
90.423698
 20
10.718685
 11
89.612595
 21
15.318686
  0
LINE
  8
0
 62
     4
 10
89.114517
 20
9.418686
 11
89.114517
 21
15.318687
  0
LINE
  8
0
 62
     4
 10
89.612595
 20
15.318687
 11
89.114517
 21
15.318687
  0
LINE
  8
0
 62
     4
 10
89.014511
 20
14.718685
 11
89.114517
 21
14.718685
  0
LINE
  8
0
 62
     4
 10
73.014511
 20
9.418686
 11
73.014511
 21
-3.081314
  0
LINE
  8
0
 62
     4
 10
97.114517
 20
10.718685
 11
90.423698
 21
10.718685
  0
LINE
  8
0
 62
     4
 10
73.014511
 20
9.418686
 11
89.114517
 21
9.418686
  0
LINE
  8
0
 62
     4
 10
71.514511
 20
-4.281314
 11
71.514511
 21
-3.381313
  0
LINE
  8
0
 62
     4
 10
71.514511
 20
-3.081314
 11
73.014511
 21
-3.081314
  0
LINE
  8
0
 62
     4
 10
71.514511
 20
-3.381316
 11
71.814514
 21
-3.081315
  0
LINE
  8
0
 62
     4
 10
103.514511
 20
7.218685
 11
97.731659
 21
7.218685
  0
LINE
  8
0
 62
     4
 10
96.614517
 20
9.718685
 11
93.414513
 21
9.718685
  0
LINE
  8
0
 62
     4
 10
96.514511
 20
9.818686
 11
96.514511
 21
9.718685
  0
LINE
  8
0
 62
     4
 10
96.614517
 20
10.718685
 11
96.614517
 21
9.718685
  0
LINE
  8
0
 62
     4
 10
97.731659
 20
7.218686
 11
97.114517
 21
10.718686
  0
LINE
  8
0
 62
     4
 10
96.014511
 20
10.318686
 11
94.014511
 21
10.318686
  0
LINE
  8
0
 62
     4
 10
93.514511
 20
9.818686
 11
93.514511
 21
9.718685
  0
LINE
  8
0
 62
     4
 10
93.414513
 20
10.718685
 11
93.414513
 21
9.718685
  0
LINE
  8
0
 62
     4
 10
102.814514
 20
6.518686
 11
102.814514
 21
-1.081314
  0
LINE
  8
0
 62
     4
 10
103.514511
 20
-3.781314
 11
103.514511
 21
7.218685
  0
LINE
  8
0
 62
     4
 10
102.014511
 20
6.518686
 11
102.014511
 21
-1.081314
  0
LINE
  8
0
 62
     4
 10
102.014511
 20
6.518686
 11
102.814514
 21
6.518686
  0
LINE
  8
0
 62
     4
 10
102.814514
 20
-1.081314
 11
102.014511
 21
-1.081314
  0
LINE
  8
0
 62
     4
 10
71.514511
 20
-3.081314
 11
71.514511
 21
15.018684
  0
LINE
  8
0
 62
     4
 10
83.714516
 20
15.318687
 11
71.814514
 21
15.318687
  0
LINE
  8
0
 62
     4
 10
89.014511
 20
20.818687
 11
89.014511
 21
9.418686
  0
LINE
  8
0
 62
     4
 10
83.714516
 20
20.818687
 11
83.714516
 21
15.318687
  0
LINE
  8
0
 62
     4
 10
83.914757
 20
24.918686
 11
82.714516
 21
24.918686
  0
LINE
  8
0
 62
     4
 10
89.014511
 20
24.918686
 11
89.514511
 21
25.207359
  0
LINE
  8
0
 62
     4
 10
89.514511
 20
25.207359
 11
89.514511
 21
25.918686
  0
LINE
  8
0
 62
     4
 10
88.314514
 20
20.818687
 11
88.314514
 21
20.918686
  0
LINE
  8
0
 62
     4
 10
89.514511
 20
25.918686
 11
84.214516
 21
25.918686
  0
LINE
  8
0
 62
     4
 10
83.914757
 20
24.918688
 11
84.214516
 21
23.218685
  0
LINE
  8
0
  6
PHANTOM
 62
     4
 10
84.214516
 20
21.718685
 11
84.214516
 21
23.217300
  0
LINE
  8
0
 62
     4
 10
84.214516
 20
20.818687
 11
84.214516
 21
25.918686
  0
LINE
  8
0
 62
     4
 10
84.214516
 20
20.918686
 11
89.014511
 21
20.918686
  0
LINE
  8
0
 62
     4
 10
89.014511
 20
20.918686
 11
89.014511
 21
24.918686
  0
LINE
  8
0
 62
     4
 10
89.014511
 20
20.818687
 11
83.714516
 21
20.818687
  0
LINE
  8
0
 62
     4
 10
82.714516
 20
24.207359
 11
82.714516
 21
24.918686
  0
LINE
  8
0
 62
     4
 10
83.214516
 20
23.918686
 11
82.714516
 21
24.207361
  0
LINE
  8
0
 62
     4
 10
83.714516
 20
16.518684
 11
83.214516
 21
17.384712
  0
LINE
  8
0
 62
     4
 10
83.214516
 20
17.384712
 11
83.214516
 21
23.918686
  0
LINE
  8
0
 10
86.814514
 20
-7.781314
 11
86.814514
 21
-3.781314
  0
LINE
  8
0
 10
80.814514
 20
-4.281314
 11
86.814514
 21
-4.281314
  0
LINE
  8
0
 10
80.814514
 20
-3.781314
 11
72.014511
 21
-3.781314
  0
LINE
  8
0
 10
72.414513
 20
-12.781314
 11
80.414513
 21
-12.781314
  0
LINE
  8
0
 10
104.814514
 20
-23.081314
 11
104.814514
 21
-4.281314
  0
LINE
  8
0
 10
80.814514
 20
-23.081314
 11
80.814514
 21
-13.181314
  0
LINE
  8
0
 10
105.814514
 20
-10.881314
 11
104.814514
 21
-10.881314
  0
LINE
  8
0
 10
104.814514
 20
-10.881314
 11
104.814514
 21
-17.881313
  0
LINE
  8
0
 10
105.814514
 20
-17.881313
 11
104.814514
 21
-17.881313
  0
LINE
  8
0
 10
105.814514
 20
-23.081314
 11
104.814514
 21
-23.081314
  0
LINE
  8
0
 10
105.814514
 20
-51.081314
 11
104.814514
 21
-51.081314
  0
LINE
  8
0
 10
104.814514
 20
-23.081314
 11
104.814514
 21
-51.081314
  0
LINE
  8
0
 10
105.814514
 20
-51.081314
 11
104.814514
 21
-51.081314
  0
LINE
  8
0
 10
105.814514
 20
-56.281315
 11
104.814514
 21
-56.281315
  0
LINE
  8
0
 10
104.814514
 20
-63.281315
 11
104.814514
 21
-56.281315
  0
LINE
  8
0
 10
105.814514
 20
-63.281315
 11
104.814514
 21
-63.281315
  0
LINE
  8
0
  6
CENTER
 62
     1
 10
119.814514
 20
-44.829231
 11
119.814514
 21
-59.081314
  0
LINE
  8
0
 62
     4
 10
87.114517
 20
-124.411316
 11
87.114517
 21
-129.411316
  0
LINE
  8
0
 62
     4
 10
86.314514
 20
-124.411316
 11
86.314514
 21
-129.411316
  0
LINE
  8
0
  6
CENTER
 62
     1
 10
-148.852463
 20
-44.581314
 11
-141.956604
 21
-44.581314
  0
LINE
  8
0
  6
CENTER
 62
     1
 10
-148.852463
 20
-19.581314
 11
-141.956604
 21
-19.581314
  0
LINE
  8
0
  6
CENTER
 62
     2
 10
-122.804352
 20
-46.081314
 11
-116.725098
 21
-46.081314
  0
LINE
  8
0
  6
CENTER
 62
     2
 10
-122.804352
 20
-28.081314
 11
-116.725098
 21
-28.081314
  0
LINE
  8
0
 62
     4
 10
-101.485489
 20
-124.411316
 11
-101.485489
 21
-129.411316
  0
LINE
  8
0
 62
     4
 10
-100.685486
 20
-124.411316
 11
-100.685486
 21
-129.411316
  0
LINE
  8
0
 62
     1
 10
-104.125496
 20
-117.991325
 11
-98.125481
 21
-119.591324
  0
LINE
  8
0
 62
     1
 10
-104.125473
 20
-119.231316
 11
-98.125488
 21
-120.831314
  0
LINE
  8
0
 62
     4
 10
-101.800491
 20
-119.851311
 11
-101.800491
 21
-124.411316
  0
LINE
  8
0
 62
     4
 10
-100.370483
 20
-120.232651
 11
-100.370483
 21
-124.411316
  0
LINE
  8
0
 62
     4
 10
-100.370483
 20
-124.411316
 11
-101.800491
 21
-124.411316
  0
LINE
  8
0
 62
     4
 10
-100.370483
 20
-113.981316
 11
-100.370483
 21
-118.992645
  0
LINE
  8
0
 62
     4
 10
-101.800491
 20
-113.981316
 11
-101.800491
 21
-118.611313
  0
LINE
  8
0
 62
     4
 10
-101.485489
 20
41.348686
 11
-100.685486
 21
41.348686
  0
LINE
  8
0
 62
     4
 10
-101.800491
 20
36.348686
 11
-100.370483
 21
36.348686
  0
LINE
  8
0
 62
     4
 10
-100.685486
 20
36.348686
 11
-100.685486
 21
41.348686
  0
LINE
  8
0
 62
     4
 10
-101.485489
 20
36.348686
 11
-101.485489
 21
41.348686
  0
LINE
  8
0
 62
     4
 10
-101.800491
 20
32.170021
 11
-101.800491
 21
36.348686
  0
LINE
  8
0
 62
     4
 10
-100.370483
 20
31.788685
 11
-100.370483
 21
36.348686
  0
LINE
  8
0
 62
     1
 10
-98.045479
 20
31.168684
 11
-104.045479
 21
32.768684
  0
LINE
  8
0
 62
     1
 10
-98.045486
 20
29.928684
 11
-104.045486
 21
31.528687
  0
LINE
  8
0
 62
     4
 10
-101.800491
 20
25.918686
 11
-101.800491
 21
30.930019
  0
LINE
  8
0
 62
     4
 10
-100.370483
 20
25.918686
 11
-100.370483
 21
30.548687
  0
LINE
  8
0
 10
-119.185486
 20
-64.981316
 11
-95.185486
 21
-64.981316
  0
LINE
  8
0
 10
-95.385483
 20
-80.281311
 11
-95.385483
 21
-81.823776
  0
LINE
  8
0
 10
-95.185486
 20
-80.281311
 11
-95.185486
 21
-84.281311
  0
LINE
  8
0
 10
-95.185486
 20
-80.281311
 11
-101.185486
 21
-80.281311
  0
LINE
  8
0
 62
     4
 10
-85.885483
 20
-83.781311
 11
-86.385483
 21
-83.781311
  0
LINE
  8
0
 10
-86.385483
 20
-72.881317
 11
-86.385483
 21
-84.281311
  0
LINE
  8
0
 10
-86.785484
 20
-72.481316
 11
-94.685486
 21
-72.481316
  0
LINE
  8
0
 10
-119.185486
 20
-83.781311
 11
-118.685478
 21
-84.281311
  0
LINE
  8
0
 10
-118.685486
 20
-84.281311
 11
-101.185486
 21
-84.281311
  0
LINE
  8
0
 10
-100.985489
 20
-80.281311
 11
-100.985489
 21
-81.823776
  0
LINE
  8
0
 62
     4
 10
-104.794662
 20
-98.781311
 11
-103.983559
 21
-103.381310
  0
LINE
  8
0
 62
     4
 10
-103.485489
 20
-97.481316
 11
-103.485489
 21
-103.381317
  0
LINE
  8
0
 62
     4
 10
-103.983566
 20
-103.381317
 11
-103.485489
 21
-103.381317
  0
LINE
  8
0
 62
     4
 10
-103.385483
 20
-102.781311
 11
-103.485489
 21
-102.781311
  0
LINE
  8
0
 62
     4
 10
-87.385483
 20
-97.481316
 11
-87.385483
 21
-84.981316
  0
LINE
  8
0
 62
     4
 10
-111.485489
 20
-98.781311
 11
-104.794670
 21
-98.781311
  0
LINE
  8
0
 62
     4
 10
-87.385483
 20
-97.481316
 11
-103.485489
 21
-97.481316
  0
LINE
  8
0
 62
     4
 10
-85.885483
 20
-83.781311
 11
-85.885483
 21
-84.681313
  0
LINE
  8
0
 62
     4
 10
-85.885483
 20
-84.981316
 11
-87.385483
 21
-84.981316
  0
LINE
  8
0
 62
     4
 10
-85.885490
 20
-84.681313
 11
-86.185486
 21
-84.981316
  0
LINE
  8
0
 62
     4
 10
-117.885483
 20
-95.281311
 11
-112.102631
 21
-95.281311
  0
LINE
  8
0
 62
     4
 10
-110.985489
 20
-97.781311
 11
-107.785484
 21
-97.781311
  0
LINE
  8
0
 62
     4
 10
-110.885483
 20
-97.881317
 11
-110.885483
 21
-97.781311
  0
LINE
  8
0
 62
     4
 10
-110.985489
 20
-98.781311
 11
-110.985489
 21
-97.781311
  0
LINE
  8
0
 62
     4
 10
-112.102631
 20
-95.281319
 11
-111.485489
 21
-98.781319
  0
LINE
  8
0
 62
     4
 10
-110.385483
 20
-98.381317
 11
-108.385483
 21
-98.381317
  0
LINE
  8
0
 62
     4
 10
-107.885483
 20
-97.881317
 11
-107.885483
 21
-97.781311
  0
LINE
  8
0
 62
     4
 10
-107.785484
 20
-98.781311
 11
-107.785484
 21
-97.781311
  0
LINE
  8
0
 62
     4
 10
-117.185486
 20
-94.581314
 11
-117.185486
 21
-86.981316
  0
LINE
  8
0
 62
     4
 10
-117.885483
 20
-84.281311
 11
-117.885483
 21
-95.281311
  0
LINE
  8
0
 62
     4
 10
-116.385483
 20
-94.581314
 11
-116.385483
 21
-86.981316
  0
LINE
  8
0
 62
     4
 10
-116.385483
 20
-94.581314
 11
-117.185486
 21
-94.581314
  0
LINE
  8
0
 62
     4
 10
-117.185486
 20
-86.981316
 11
-116.385483
 21
-86.981316
  0
LINE
  8
0
 62
     4
 10
-85.885483
 20
-84.981316
 11
-85.885483
 21
-103.081314
  0
LINE
  8
0
 62
     4
 10
-98.085487
 20
-103.381317
 11
-86.185486
 21
-103.381317
  0
LINE
  8
0
 62
     4
 10
-103.385483
 20
-108.881317
 11
-103.385483
 21
-97.481316
  0
LINE
  8
0
 62
     4
 10
-98.085487
 20
-108.881317
 11
-98.085487
 21
-103.381317
  0
LINE
  8
0
 62
     4
 10
-98.285728
 20
-112.981316
 11
-97.085487
 21
-112.981316
  0
LINE
  8
0
 62
     4
 10
-103.385483
 20
-112.981316
 11
-103.885483
 21
-113.269989
  0
LINE
  8
0
 62
     4
 10
-103.885483
 20
-113.269989
 11
-103.885483
 21
-113.981316
  0
LINE
  8
0
 62
     4
 10
-102.685486
 20
-108.881317
 11
-102.685486
 21
-108.981316
  0
LINE
  8
0
 62
     4
 10
-103.885483
 20
-113.981316
 11
-98.585487
 21
-113.981316
  0
LINE
  8
0
 62
     4
 10
-98.285721
 20
-112.981308
 11
-98.585480
 21
-111.281303
  0
LINE
  8
0
  6
PHANTOM
 62
     4
 10
-98.585487
 20
-109.781311
 11
-98.585487
 21
-111.279930
  0
LINE
  8
0
 62
     4
 10
-98.585487
 20
-108.881317
 11
-98.585487
 21
-113.981316
  0
LINE
  8
0
 62
     4
 10
-98.585487
 20
-108.981316
 11
-103.385483
 21
-108.981316
  0
LINE
  8
0
 62
     4
 10
-103.385483
 20
-108.981316
 11
-103.385483
 21
-112.981316
  0
LINE
  8
0
 62
     4
 10
-103.385483
 20
-108.881317
 11
-98.085487
 21
-108.881317
  0
LINE
  8
0
 62
     4
 10
-97.085487
 20
-112.269989
 11
-97.085487
 21
-112.981316
  0
LINE
  8
0
 62
     4
 10
-97.585487
 20
-111.981316
 11
-97.085487
 21
-112.269989
  0
LINE
  8
0
 62
     4
 10
-98.085472
 20
-104.581314
 11
-97.585472
 21
-105.447342
  0
LINE
  8
0
 62
     4
 10
-97.585487
 20
-105.447342
 11
-97.585487
 21
-111.981316
  0
LINE
  8
0
 10
-101.185486
 20
-80.281311
 11
-101.185486
 21
-84.281311
  0
LINE
  8
0
 10
-95.185486
 20
-83.781311
 11
-101.185486
 21
-83.781311
  0
LINE
  8
0
 10
-95.185486
 20
-84.281311
 11
-86.385483
 21
-84.281311
  0
LINE
  8
0
 10
-86.785484
 20
-75.281311
 11
-94.785484
 21
-75.281311
  0
LINE
  8
0
 10
-95.185486
 20
-51.081314
 11
-95.185486
 21
-74.881317
  0
LINE
  8
0
 10
-119.185486
 20
-51.081314
 11
-119.185486
 21
-83.781311
  0
LINE
  8
0
 10
-97.585487
 20
-26.271315
 11
-97.585487
 21
-29.901314
  0
LINE
  8
0
 10
-98.185486
 20
-26.271315
 11
-98.185486
 21
-29.901314
  0
LINE
  8
0
 10
-98.185486
 20
-29.901314
 11
-95.185486
 21
-29.901314
  0
LINE
  8
0
 10
-98.185486
 20
-26.271315
 11
-95.185486
 21
-26.271315
  0
LINE
  8
0
  6
CENTER
 62
     1
 10
-137.685486
 20
-23.581314
 11
-137.685486
 21
-37.581314
  0
LINE
  8
0
  6
CENTER
 62
     1
 10
-127.685486
 20
-36.581314
 11
-127.685486
 21
-50.581314
  0
LINE
  8
0
  6
CENTER
 62
     1
 10
-144.685486
 20
-30.581314
 11
-130.685486
 21
-30.581314
  0
LINE
  8
0
  6
CENTER
 62
     1
 10
-134.685486
 20
-43.581314
 11
-120.685486
 21
-43.581314
  0
LINE
  8
0
 62
     4
 10
-145.185486
 20
-64.581314
 11
-120.185486
 21
-64.581314
  0
LINE
  8
0
 62
     4
 10
-145.185486
 20
-9.581314
 11
-120.185486
 21
-9.581314
  0
LINE
  8
0
 62
     4
 10
-145.185486
 20
-9.581314
 11
-145.185486
 21
-64.581314
  0
LINE
  8
0
 62
     4
 10
-120.185486
 20
-9.581314
 11
-120.185486
 21
-64.581314
  0
LINE
  8
0
 62
     4
 10
-97.585487
 20
17.384712
 11
-97.585487
 21
23.918686
  0
LINE
  8
0
 62
     4
 10
-98.085480
 20
16.518684
 11
-97.585480
 21
17.384710
  0
LINE
  8
0
 62
     4
 10
-97.585487
 20
23.918684
 11
-97.085487
 21
24.207357
  0
LINE
  8
0
 62
     4
 10
-97.085487
 20
24.207359
 11
-97.085487
 21
24.918686
  0
LINE
  8
0
 62
     4
 10
-103.385483
 20
20.818687
 11
-98.085487
 21
20.818687
  0
LINE
  8
0
 62
     4
 10
-103.385483
 20
20.918686
 11
-103.385483
 21
24.918686
  0
LINE
  8
0
 62
     4
 10
-98.585487
 20
20.918686
 11
-103.385483
 21
20.918686
  0
LINE
  8
0
 62
     4
 10
-98.585487
 20
20.818687
 11
-98.585487
 21
25.918686
  0
LINE
  8
0
  6
PHANTOM
 62
     4
 10
-98.585487
 20
21.718685
 11
-98.585487
 21
23.217300
  0
LINE
  8
0
 62
     4
 10
-98.285728
 20
24.918686
 11
-98.585487
 21
23.218685
  0
LINE
  8
0
 62
     4
 10
-103.885483
 20
25.918686
 11
-98.585487
 21
25.918686
  0
LINE
  8
0
 62
     4
 10
-102.685486
 20
20.818687
 11
-102.685486
 21
20.918686
  0
LINE
  8
0
 62
     4
 10
-103.885483
 20
25.207359
 11
-103.885483
 21
25.918686
  0
LINE
  8
0
 62
     4
 10
-103.385483
 20
24.918686
 11
-103.885483
 21
25.207359
  0
LINE
  8
0
 62
     4
 10
-98.285728
 20
24.918686
 11
-97.085487
 21
24.918686
  0
LINE
  8
0
 62
     4
 10
-98.085487
 20
20.818687
 11
-98.085487
 21
15.318687
  0
LINE
  8
0
 62
     4
 10
-103.385483
 20
20.818687
 11
-103.385483
 21
9.418686
  0
LINE
  8
0
 62
     4
 10
-98.085487
 20
15.318687
 11
-86.185486
 21
15.318687
  0
LINE
  8
0
 62
     4
 10
-85.885483
 20
-3.081314
 11
-85.885483
 21
15.018684
  0
LINE
  8
0
 62
     4
 10
-117.185486
 20
-1.081314
 11
-116.385483
 21
-1.081314
  0
LINE
  8
0
 62
     4
 10
-116.385483
 20
6.518686
 11
-117.185486
 21
6.518686
  0
LINE
  8
0
 62
     4
 10
-116.385483
 20
6.518686
 11
-116.385483
 21
-1.081314
  0
LINE
  8
0
 62
     4
 10
-117.885483
 20
-4.281314
 11
-117.885483
 21
7.218685
  0
LINE
  8
0
 62
     4
 10
-117.185486
 20
6.518686
 11
-117.185486
 21
-1.081314
  0
LINE
  8
0
 62
     4
 10
-107.785484
 20
10.718685
 11
-107.785484
 21
9.718685
  0
LINE
  8
0
 62
     4
 10
-107.885483
 20
9.818686
 11
-107.885483
 21
9.718685
  0
LINE
  8
0
 62
     4
 10
-110.385483
 20
10.318686
 11
-108.385483
 21
10.318686
  0
LINE
  8
0
 62
     4
 10
-112.102631
 20
7.218686
 11
-111.485489
 21
10.718686
  0
LINE
  8
0
 62
     4
 10
-110.985489
 20
10.718685
 11
-110.985489
 21
9.718685
  0
LINE
  8
0
 62
     4
 10
-110.885483
 20
9.818686
 11
-110.885483
 21
9.718685
  0
LINE
  8
0
 62
     4
 10
-110.985489
 20
9.718685
 11
-107.785484
 21
9.718685
  0
LINE
  8
0
 62
     4
 10
-117.885483
 20
7.218685
 11
-112.102631
 21
7.218685
  0
LINE
  8
0
 62
     4
 10
-85.885483
 20
-3.381313
 11
-86.185486
 21
-3.081312
  0
LINE
  8
0
 62
     4
 10
-85.885483
 20
-3.081314
 11
-87.385483
 21
-3.081314
  0
LINE
  8
0
 62
     4
 10
-85.885483
 20
-4.281314
 11
-85.885483
 21
-3.381313
  0
LINE
  8
0
 62
     4
 10
-87.385483
 20
9.418686
 11
-103.485489
 21
9.418686
  0
LINE
  8
0
 62
     4
 10
-111.485489
 20
10.718685
 11
-104.794670
 21
10.718685
  0
LINE
  8
0
 62
     4
 10
-87.385483
 20
9.418686
 11
-87.385483
 21
-3.081314
  0
LINE
  8
0
 62
     4
 10
-103.385483
 20
14.718685
 11
-103.485489
 21
14.718685
  0
LINE
  8
0
 62
     4
 10
-103.983566
 20
15.318687
 11
-103.485489
 21
15.318687
  0
LINE
  8
0
 62
     4
 10
-103.485489
 20
9.418686
 11
-103.485489
 21
15.318687
  0
LINE
  8
0
 62
     4
 10
-104.794670
 20
10.718684
 11
-103.983566
 21
15.318685
  0
LINE
  8
0
 10
-118.985489
 20
-7.781314
 11
-118.985489
 21
-6.238851
  0
LINE
  8
0
 10
-118.085487
 20
-3.781314
 11
-118.085487
 21
-4.281314
  0
LINE
  8
0
 10
-86.385483
 20
-3.781314
 11
-113.185486
 21
-3.781314
  0
LINE
  8
0
 10
-119.185486
 20
-4.281312
 11
-118.685486
 21
-3.781312
  0
LINE
  8
0
 10
-119.185486
 20
-23.081314
 11
-119.185486
 21
-4.281314
  0
LINE
  8
0
 10
-86.785484
 20
-15.581314
 11
-94.685486
 21
-15.581314
  0
LINE
  8
0
 10
-86.385483
 20
-15.181314
 11
-86.385483
 21
-3.781314
  0
LINE
  8
0
 10
-95.185486
 20
-23.081314
 11
-119.185486
 21
-23.081314
  0
LINE
  8
0
 62
     4
 10
-85.885483
 20
-4.281314
 11
-86.385483
 21
-4.281314
  0
LINE
  8
0
 10
-95.185486
 20
-23.081314
 11
-95.185486
 21
-13.181314
  0
LINE
  8
0
 10
-113.185486
 20
-7.781314
 11
-119.185486
 21
-7.781314
  0
LINE
  8
0
 10
-113.185486
 20
-7.781314
 11
-113.185486
 21
-3.781314
  0
LINE
  8
0
 10
-113.385483
 20
-7.781314
 11
-113.385483
 21
-6.238851
  0
LINE
  8
0
 10
-86.785484
 20
-12.781314
 11
-94.785484
 21
-12.781314
  0
LINE
  8
0
 10
-113.185486
 20
-4.281314
 11
-118.085487
 21
-4.281314
  0
LINE
  8
0
 10
-117.885483
 20
-3.781314
 11
-118.685486
 21
-3.781314
  0
LINE
  8
0
 10
-119.185486
 20
-23.081314
 11
-119.185486
 21
-51.081314
  0
LINE
  8
0
 10
-119.185486
 20
-51.081314
 11
-95.185486
 21
-51.081314
  0
LINE
  8
0
 10
-95.185486
 20
-23.081314
 11
-95.185486
 21
-51.081314
  0
LINE
  8
0
 10
-120.185486
 20
-10.881314
 11
-119.185486
 21
-10.881314
  0
LINE
  8
0
 10
-119.185486
 20
-10.881314
 11
-119.185486
 21
-17.881313
  0
LINE
  8
0
 10
-120.185486
 20
-17.881313
 11
-119.185486
 21
-17.881313
  0
LINE
  8
0
 10
-120.185486
 20
-23.081314
 11
-119.185486
 21
-23.081314
  0
LINE
  8
0
 10
-120.185486
 20
-51.081314
 11
-119.185486
 21
-51.081314
  0
LINE
  8
0
 10
-119.185486
 20
-23.081314
 11
-119.185486
 21
-51.081314
  0
LINE
  8
0
 10
-120.185486
 20
-51.081314
 11
-119.185486
 21
-51.081314
  0
LINE
  8
0
 10
-120.185486
 20
-56.281315
 11
-119.185486
 21
-56.281315
  0
LINE
  8
0
 10
-119.185486
 20
-63.281315
 11
-119.185486
 21
-56.281315
  0
LINE
  8
0
 10
-120.185486
 20
-63.281315
 11
-119.185486
 21
-63.281315
  0
LINE
  8
0
 62
     4
 10
-100.685486
 20
-129.411316
 11
-101.485489
 21
-129.411316
  0
LINE
  8
0
 62
     4
 10
-9.145074
 20
-75.681313
 11
-5.225890
 21
-75.681313
  0
LINE
  8
0
 62
     4
 10
-9.145074
 20
-74.881317
 11
-5.225890
 21
-74.881317
  0
LINE
  8
0
 62
     4
 10
-10.125482
 20
-124.511314
 11
-10.125482
 21
-129.511322
  0
LINE
  8
0
 62
     4
 10
-9.325482
 20
-124.511314
 11
-9.325482
 21
-129.511322
  0
LINE
  8
0
 62
     4
 10
-5.045482
 20
-124.511314
 11
-5.045482
 21
-129.511322
  0
LINE
  8
0
 62
     4
 10
-4.245482
 20
-124.511314
 11
-4.245482
 21
-129.511322
  0
LINE
  8
0
  6
CENTER
 62
     2
 10
-10.185482
 20
-12.781314
 11
-4.185482
 21
-12.781314
  0
LINE
  8
0
 62
     1
 10
-12.765484
 20
-118.091324
 11
-1.667168
 21
-121.050873
  0
LINE
  8
0
 62
     1
 10
-12.765484
 20
-119.331322
 11
-1.667171
 21
-122.290871
  0
LINE
  8
0
 62
     4
 10
-3.930482
 20
-121.687317
 11
-3.930482
 21
-124.511314
  0
LINE
  8
0
 62
     4
 10
-5.360482
 20
-121.305984
 11
-5.360482
 21
-124.511314
  0
LINE
  8
0
 62
     4
 10
-5.360482
 20
-124.511314
 11
-3.930482
 21
-124.511314
  0
LINE
  8
0
 62
     4
 10
-10.440482
 20
-119.941315
 11
-10.440482
 21
-124.511314
  0
LINE
  8
0
 62
     4
 10
-9.010482
 20
-120.321312
 11
-9.010482
 21
-124.511314
  0
LINE
  8
0
 62
     4
 10
-9.010482
 20
-124.511314
 11
-10.440482
 21
-124.511314
  0
LINE
  8
0
 62
     4
 10
-9.010482
 20
-113.981316
 11
-9.010482
 21
-119.081314
  0
LINE
  8
0
 62
     4
 10
-10.440482
 20
-113.981316
 11
-10.440482
 21
-118.711311
  0
LINE
  8
0
 62
     4
 10
-3.930482
 20
-113.981316
 11
-3.930482
 21
-120.447311
  0
LINE
  8
0
 62
     4
 10
-5.360482
 20
-113.981316
 11
-5.360482
 21
-120.065979
  0
LINE
  8
0
 62
     4
 10
-5.045482
 20
41.448685
 11
-4.245482
 21
41.448685
  0
LINE
  8
0
 62
     4
 10
-5.360482
 20
36.448685
 11
-3.930482
 21
36.448685
  0
LINE
  8
0
 62
     4
 10
-4.245482
 20
36.448685
 11
-4.245482
 21
41.448685
  0
LINE
  8
0
 62
     4
 10
-5.045482
 20
36.448685
 11
-5.045482
 21
41.448685
  0
LINE
  8
0
 62
     4
 10
-5.360482
 20
32.258686
 11
-5.360482
 21
36.448685
  0
LINE
  8
0
 62
     4
 10
-3.930482
 20
31.878685
 11
-3.930482
 21
36.448685
  0
LINE
  8
0
 62
     4
 10
-5.360482
 20
25.918686
 11
-5.360482
 21
31.018684
  0
LINE
  8
0
 62
     4
 10
-3.930482
 20
25.918686
 11
-3.930482
 21
30.648685
  0
LINE
  8
0
 62
     4
 10
-9.010482
 20
36.448685
 11
-10.440482
 21
36.448685
  0
LINE
  8
0
 62
     4
 10
-9.010482
 20
33.243351
 11
-9.010482
 21
36.448685
  0
LINE
  8
0
 62
     4
 10
-9.325482
 20
36.448685
 11
-9.325482
 21
41.448685
  0
LINE
  8
0
 62
     4
 10
-10.125482
 20
36.448685
 11
-10.125482
 21
41.448685
  0
LINE
  8
0
 62
     4
 10
-9.325482
 20
41.448685
 11
-10.125482
 21
41.448685
  0
LINE
  8
0
 62
     4
 10
-10.440482
 20
33.624687
 11
-10.440482
 21
36.448685
  0
LINE
  8
0
 62
     4
 10
-10.440482
 20
25.918686
 11
-10.440482
 21
32.384686
  0
LINE
  8
0
 62
     4
 10
-9.010482
 20
25.918686
 11
-9.010482
 21
32.003353
  0
LINE
  8
0
 62
     1
 10
-1.605482
 20
31.268688
 11
-12.703795
 21
34.228237
  0
LINE
  8
0
 62
     1
 10
-1.605481
 20
30.028685
 11
-12.703795
 21
32.988239
  0
LINE
  8
0
 62
     4
 10
-11.285482
 20
-108.981316
 11
-11.285482
 21
-108.881317
  0
LINE
  8
0
 62
     4
 10
-3.085482
 20
-108.981316
 11
-3.085482
 21
-108.881317
  0
LINE
  8
0
 62
     4
 10
-9.685482
 20
-108.981316
 11
-11.885482
 21
-108.981316
  0
LINE
  8
0
 62
     4
 10
-2.485481
 20
-108.981316
 11
-4.685482
 21
-108.981316
  0
LINE
  8
0
 62
     4
 10
-9.685482
 20
20.918686
 11
-11.885482
 21
20.918686
  0
LINE
  8
0
 62
     4
 10
-2.485481
 20
20.918686
 11
-4.685482
 21
20.918686
  0
LINE
  8
0
 62
     4
 10
-11.285482
 20
20.918686
 11
-11.285482
 21
20.818687
  0
LINE
  8
0
 62
     4
 10
-3.085482
 20
20.918686
 11
-3.085482
 21
20.818687
  0
LINE
  8
0
 10
0.314518
 20
-51.081314
 11
-14.685482
 21
-51.081314
  0
LINE
  8
0
 62
     4
 10
0.314518
 20
-64.581314
 11
7.814518
 21
-64.581314
  0
LINE
  8
0
 62
     4
 10
-9.685482
 20
-108.881317
 11
-12.185482
 21
-108.881317
  0
LINE
  8
0
 62
     4
 10
-9.685482
 20
-105.347336
 11
-4.685482
 21
-105.347336
  0
LINE
  8
0
 62
     4
 10
-11.885482
 20
-108.981316
 11
-11.885482
 21
-113.981316
  0
LINE
  8
0
 62
     4
 10
-9.685482
 20
-104.481316
 11
-9.685482
 21
-112.981316
  0
LINE
  8
0
 62
     4
 10
-10.785482
 20
-108.981316
 11
-10.785482
 21
-113.981316
  0
LINE
  8
0
 62
     4
 10
-3.585482
 20
-108.981316
 11
-3.585482
 21
-113.981316
  0
LINE
  8
0
 62
     4
 10
-9.685482
 20
-111.981316
 11
-4.685482
 21
-111.981316
  0
LINE
  8
0
 62
     4
 10
-9.685482
 20
-112.269989
 11
-4.685482
 21
-112.269989
  0
LINE
  8
0
 62
     4
 10
-4.685482
 20
-104.481316
 11
-4.685482
 21
-112.981316
  0
LINE
  8
0
 62
     4
 10
-2.485481
 20
-108.981316
 11
-2.485481
 21
-113.981316
  0
LINE
  8
0
 62
     4
 10
-4.685482
 20
-112.981316
 11
-9.685482
 21
-112.981316
  0
LINE
  8
0
 62
     4
 10
-2.485481
 20
-113.981316
 11
-11.885482
 21
-113.981316
  0
LINE
  8
0
 62
     4
 10
-4.685482
 20
-104.481316
 11
-9.685482
 21
-104.481316
  0
LINE
  8
0
 62
     1
 10
-8.685482
 20
-100.381317
 11
-8.685482
 21
-103.381317
  0
LINE
  8
0
 62
     1
 10
-5.685482
 20
-100.381317
 11
-8.685482
 21
-100.381317
  0
LINE
  8
0
 62
     1
 10
-5.685482
 20
-100.381317
 11
-5.685482
 21
-103.381317
  0
LINE
  8
0
 62
     4
 10
-10.085482
 20
-103.381317
 11
-10.085482
 21
-108.881317
  0
LINE
  8
0
 62
     4
 10
-4.285482
 20
-103.381317
 11
-4.285482
 21
-108.881317
  0
LINE
  8
0
 62
     4
 10
-2.185482
 20
-108.881317
 11
-4.685482
 21
-108.881317
  0
LINE
  8
0
 62
     4
 10
-2.185482
 20
-83.781311
 11
-2.185482
 21
-108.881317
  0
LINE
  8
0
 62
     4
 10
-12.185482
 20
-83.781311
 11
-12.185482
 21
-108.881317
  0
LINE
  8
0
 62
     4
 10
-12.185482
 20
-84.981316
 11
-2.185482
 21
-84.981316
  0
LINE
  8
0
 62
     4
 10
-11.885482
 20
-103.381317
 11
-2.485481
 21
-103.381317
  0
LINE
  8
0
 62
     4
 10
-2.185482
 20
-84.681313
 11
-12.185482
 21
-84.681313
  0
LINE
  8
0
 10
-1.635483
 20
-84.281311
 11
-1.135483
 21
-84.281311
  0
LINE
  8
0
 10
-10.407728
 20
-75.031311
 11
-9.079823
 21
-72.731316
  0
LINE
  8
0
 10
-5.348876
 20
-72.631317
 11
-3.963238
 21
-75.031311
  0
LINE
  8
0
 10
-8.646807
 20
-72.481316
 11
-5.608687
 21
-72.481316
  0
LINE
  8
0
 10
-1.935482
 20
-83.781311
 11
-1.935482
 21
-83.981316
  0
LINE
  8
0
 10
-12.435482
 20
-83.781311
 11
-12.435482
 21
-83.981316
  0
LINE
  8
0
 10
-13.185482
 20
-84.281311
 11
-12.735482
 21
-84.281311
  0
LINE
  8
0
 10
-14.685485
 20
-82.781319
 11
-13.185483
 21
-84.281319
  0
LINE
  8
0
 10
-1.185483
 20
-84.281311
 11
0.314518
 21
-82.781311
  0
LINE
  8
0
 10
-3.530226
 20
-75.281311
 11
0.314518
 21
-75.281311
  0
LINE
  8
0
 10
-10.840738
 20
-75.281311
 11
-14.685482
 21
-75.281311
  0
LINE
  8
0
  6
CENTER
 62
     2
 10
-10.290265
 20
-75.281311
 11
-3.294329
 21
-75.281311
  0
LINE
  8
0
 10
-1.935482
 20
-83.781311
 11
-12.435482
 21
-83.781311
  0
LINE
  8
0
 10
0.314518
 20
-82.781311
 11
0.314518
 21
-51.081314
  0
LINE
  8
0
 10
-14.685482
 20
-82.781311
 11
-14.685482
 21
-51.081314
  0
LINE
  8
0
 10
0.314518
 20
-47.664261
 11
0.314518
 21
-51.081314
  0
LINE
  8
0
 10
-14.685482
 20
-29.676807
 11
-14.685482
 21
-51.081314
  0
LINE
  8
0
 10
-3.250484
 20
-47.646317
 11
-0.120483
 21
-44.516312
  0
LINE
  8
0
 10
-2.640481
 20
-45.126316
 11
-0.730483
 21
-47.036316
  0
LINE
  8
0
 10
0.819517
 20
-46.546314
 11
0.519518
 21
-46.546314
  0
LINE
  8
0
 10
0.539518
 20
-46.376312
 11
0.849518
 21
-46.376312
  0
LINE
  8
0
 10
0.539518
 20
-45.776314
 11
0.849518
 21
-45.776314
  0
LINE
  8
0
 10
-14.250483
 20
-29.646317
 11
-11.120483
 21
-26.516315
  0
LINE
  8
0
 10
-13.640481
 20
-27.126312
 11
-11.730481
 21
-29.036312
  0
LINE
  8
0
 10
-10.180482
 20
-28.546314
 11
-10.480482
 21
-28.546314
  0
LINE
  8
0
 10
-10.460482
 20
-28.376314
 11
-10.150482
 21
-28.376314
  0
LINE
  8
0
 10
-10.460482
 20
-27.776314
 11
-10.150482
 21
-27.776314
  0
LINE
  8
0
  6
CENTER
 62
     1
 10
-19.185482
 20
-17.081314
 11
-19.185482
 21
-22.081314
  0
LINE
  8
0
 62
     1
 10
4.814518
 20
-42.081314
 11
4.814518
 21
-47.081314
  0
LINE
  8
0
  6
CENTER
 62
     1
 10
2.314518
 20
-44.581314
 11
7.314518
 21
-44.581314
  0
LINE
  8
0
  6
CENTER
 62
     1
 10
-21.685482
 20
-19.581314
 11
-16.685482
 21
-19.581314
  0
LINE
  8
0
 62
     4
 10
0.314518
 20
-9.581314
 11
7.814518
 21
-9.581314
  0
LINE
  8
0
 62
     4
 10
7.814518
 20
-9.581314
 11
7.814518
 21
-64.581314
  0
LINE
  8
0
 62
     4
 10
-22.185482
 20
-9.581314
 11
-22.185482
 21
-64.581314
  0
LINE
  8
0
 62
     4
 10
-22.185482
 20
-64.581314
 11
-14.685482
 21
-64.581314
  0
LINE
  8
0
 62
     4
 10
-22.185482
 20
-9.581314
 11
-14.685482
 21
-9.581314
  0
LINE
  8
0
 62
     4
 10
-9.685482
 20
20.818687
 11
-12.185482
 21
20.818687
  0
LINE
  8
0
 62
     4
 10
-9.685482
 20
17.284710
 11
-4.685482
 21
17.284710
  0
LINE
  8
0
 62
     4
 10
-11.885482
 20
20.918686
 11
-11.885482
 21
25.918686
  0
LINE
  8
0
 62
     4
 10
-9.685482
 20
16.418686
 11
-9.685482
 21
24.918686
  0
LINE
  8
0
 62
     4
 10
-10.785482
 20
20.918686
 11
-10.785482
 21
25.918686
  0
LINE
  8
0
 62
     4
 10
-3.585482
 20
20.918686
 11
-3.585482
 21
25.918686
  0
LINE
  8
0
 62
     4
 10
-9.685482
 20
23.918686
 11
-4.685482
 21
23.918686
  0
LINE
  8
0
 62
     4
 10
-9.685482
 20
24.207359
 11
-4.685482
 21
24.207359
  0
LINE
  8
0
 62
     4
 10
-4.685482
 20
16.418686
 11
-4.685482
 21
24.918686
  0
LINE
  8
0
 62
     4
 10
-2.485481
 20
20.918686
 11
-2.485481
 21
25.918686
  0
LINE
  8
0
 62
     4
 10
-4.685482
 20
24.918686
 11
-9.685482
 21
24.918686
  0
LINE
  8
0
 62
     4
 10
-2.485481
 20
25.918686
 11
-11.885482
 21
25.918686
  0
LINE
  8
0
 62
     4
 10
-4.685482
 20
16.418686
 11
-9.685482
 21
16.418686
  0
LINE
  8
0
 62
     1
 10
-8.685482
 20
12.318686
 11
-8.685482
 21
15.318687
  0
LINE
  8
0
 62
     1
 10
-5.685482
 20
12.318686
 11
-8.685482
 21
12.318686
  0
LINE
  8
0
 62
     1
 10
-5.685482
 20
12.318686
 11
-5.685482
 21
15.318687
  0
LINE
  8
0
 62
     4
 10
-10.085482
 20
15.318687
 11
-10.085482
 21
20.818687
  0
LINE
  8
0
 62
     4
 10
-4.285482
 20
15.318687
 11
-4.285482
 21
20.818687
  0
LINE
  8
0
 62
     4
 10
-2.185482
 20
20.818687
 11
-4.685482
 21
20.818687
  0
LINE
  8
0
 62
     4
 10
-2.185482
 20
-4.281314
 11
-2.185482
 21
20.818687
  0
LINE
  8
0
 62
     4
 10
-12.185482
 20
-4.281314
 11
-12.185482
 21
20.818687
  0
LINE
  8
0
 62
     4
 10
-12.185482
 20
-3.081314
 11
-2.185482
 21
-3.081314
  0
LINE
  8
0
 62
     4
 10
-11.885482
 20
15.318687
 11
-2.485481
 21
15.318687
  0
LINE
  8
0
 62
     4
 10
-2.185482
 20
-3.381313
 11
-12.185482
 21
-3.381313
  0
LINE
  8
0
 10
-1.635483
 20
-3.781314
 11
-1.135483
 21
-3.781314
  0
LINE
  8
0
 10
-10.407725
 20
-13.031314
 11
-9.079820
 21
-15.331314
  0
LINE
  8
0
 10
-5.348879
 20
-15.431314
 11
-3.963239
 21
-13.031314
  0
LINE
  8
0
 10
-8.646807
 20
-15.581314
 11
-5.608687
 21
-15.581314
  0
LINE
  8
0
 10
-1.935482
 20
-4.281314
 11
-1.935482
 21
-4.081314
  0
LINE
  8
0
 10
-12.435482
 20
-4.281314
 11
-12.435482
 21
-4.081314
  0
LINE
  8
0
 10
-13.185482
 20
-3.781314
 11
-12.735482
 21
-3.781314
  0
LINE
  8
0
 10
-14.685482
 20
-5.281314
 11
-13.185482
 21
-3.781315
  0
LINE
  8
0
 10
-1.185482
 20
-3.781314
 11
0.314518
 21
-5.281314
  0
LINE
  8
0
 10
0.314518
 20
-5.281314
 11
0.314518
 21
-23.081314
  0
LINE
  8
0
 10
-14.685482
 20
-5.281314
 11
-14.685482
 21
-23.081314
  0
LINE
  8
0
 10
-3.530226
 20
-12.781314
 11
0.314518
 21
-12.781314
  0
LINE
  8
0
 10
-10.840738
 20
-12.781314
 11
-14.685482
 21
-12.781314
  0
LINE
  8
0
 10
0.314518
 20
-23.081314
 11
-14.685482
 21
-23.081314
  0
LINE
  8
0
 10
-1.935482
 20
-4.281314
 11
-12.435482
 21
-4.281314
  0
LINE
  8
0
 10
0.314518
 20
-23.081314
 11
0.314518
 21
-44.488365
  0
LINE
  8
0
 10
-14.685482
 20
-23.081314
 11
-14.685482
 21
-26.475822
  0
LINE
  8
0
 10
0.314518
 20
-64.981316
 11
-14.685482
 21
-64.981316
  0
LINE
  8
0
 62
     4
 10
-9.145074
 20
-13.181314
 11
-5.225890
 21
-13.181314
  0
LINE
  8
0
 62
     4
 10
-9.145074
 20
-12.381314
 11
-5.225890
 21
-12.381314
  0
LINE
  8
0
 62
     4
 10
-4.245482
 20
-129.511322
 11
-5.045482
 21
-129.511322
  0
LINE
  8
0
 62
     4
 10
-9.325482
 20
-129.511322
 11
-10.125482
 21
-129.511322
  0
LINE
  8
0
  6
CENTER
 62
     2
 10
-7.185482
 20
45.474243
 11
-7.185482
 21
-131.856873
  0
LINE
  8
0
 10
-194.250000
 20
132.600006
 11
194.800003
 21
132.600006
  0
LINE
  8
0
 10
194.800003
 20
132.600006
 11
194.800003
 21
-133.500000
  0
LINE
  8
0
 10
-194.250000
 20
132.600006
 11
-194.250000
 21
-133.500000
  0
LINE
  8
0
 10
-194.250000
 20
-133.500000
 11
194.800003
 21
-133.500000
  0
LINE
  8
0
 10
109.800003
 20
-118.500000
 11
109.800003
 21
-133.500000
  0
LINE
  8
0
 10
109.800003
 20
-118.500000
 11
194.800003
 21
-118.500000
  0
LINE
  8
0
 10
109.800003
 20
132.600006
 11
109.800003
 21
117.600006
  0
LINE
  8
0
 10
109.800003
 20
117.600006
 11
194.800003
 21
117.600006
  0
LINE
  8
0
 10
-194.250000
 20
117.600006
 11
-109.250000
 21
117.600006
  0
LINE
  8
0
 10
-109.250000
 20
132.600006
 11
-109.250000
 21
117.600006
  0
ARC
  8
0
 10
-2.685482
 20
66.952835
 40
2.800002
 50
280.286560
 51
79.713448
  0
ARC
  8
0
 10
-11.685482
 20
84.952835
 40
2.799998
 50
37.383152
 51
259.713440
  0
ARC
  8
0
 10
-0.085482
 20
55.552834
 40
0.400002
 50
270.000000
 51
0.000000
  0
ARC
  8
0
 10
-0.085482
 20
87.552834
 40
0.400000
 50
0.000000
 51
90.000000
  0
ARC
  8
0
 10
-14.285482
 20
87.552834
 40
0.400002
 50
90.000000
 51
180.000000
  0
ARC
  8
0
 10
-14.285482
 20
55.552834
 40
0.400000
 50
180.000000
 51
270.000000
  0
CIRCLE
  8
0
 62
     4
 10
-9.725482
 20
69.852837
 40
0.750000
  0
CIRCLE
  8
0
 62
     4
 10
-4.645482
 20
69.852837
 40
0.750000
  0
ARC
  8
0
 62
     4
 10
-3.769826
 20
70.752167
 40
0.200665
 50
356.761139
 51
89.901764
  0
ARC
  8
0
 62
     4
 10
-5.520197
 20
70.753174
 40
0.199670
 50
89.794891
 51
183.542374
  0
ARC
  8
0
 62
     4
 10
-6.309826
 20
70.752167
 40
0.200665
 50
356.761139
 51
89.901695
  0
ARC
  8
0
 62
     4
 10
-8.060197
 20
70.753174
 40
0.199670
 50
89.794754
 51
183.542358
  0
ARC
  8
0
 62
     4
 10
-8.849826
 20
70.752167
 40
0.200665
 50
356.761139
 51
89.901695
  0
ARC
  8
0
 62
     4
 10
-10.600197
 20
70.753174
 40
0.199670
 50
89.794754
 51
183.542358
  0
ARC
  8
0
 62
     4
 10
-11.885482
 20
67.152832
 40
0.300000
 50
180.000000
 51
270.000000
  0
ARC
  8
0
 62
     4
 10
-2.485481
 20
67.152832
 40
0.300003
 50
270.000000
 51
0.000000
  0
ARC
  8
0
 62
     4
 10
-2.485481
 20
54.952835
 40
0.299999
 50
270.000000
 51
0.000000
  0
ARC
  8
0
 62
     4
 10
-11.885482
 20
54.952835
 40
0.300000
 50
180.000000
 51
270.000000
  0
CIRCLE
  8
0
 62
     4
 10
-7.185482
 20
76.402832
 40
2.050000
  0
ARC
  8
0
 62
     4
 10
-3.685482
 20
78.152832
 40
1.599998
 50
90.000000
 51
270.000000
  0
ARC
  8
0
 62
     4
 10
-10.685482
 20
78.152832
 40
1.599998
 50
270.000000
 51
90.000000
  0
CIRCLE
  8
0
 62
     4
 10
-7.185482
 20
76.402832
 40
1.900000
  0
CIRCLE
  8
0
 62
     4
 10
-7.185482
 20
76.402832
 40
1.850000
  0
ARC
  8
0
 62
     4
 10
-7.185482
 20
76.402832
 40
0.800001
 50
202.024506
 51
337.975494
  0
ARC
  8
0
 62
     4
 10
-7.185482
 20
76.402832
 40
0.800001
 50
22.024509
 51
157.975494
  0
CIRCLE
  8
0
 62
     4
 10
-3.685482
 20
78.152832
 40
1.500000
  0
CIRCLE
  8
0
 62
     4
 10
-10.685482
 20
78.152832
 40
1.500000
  0
CIRCLE
  8
0
 62
     4
 10
119.814514
 20
-22.081314
 40
4.278000
  0
CIRCLE
  8
0
 62
     1
 10
119.814514
 20
-22.081314
 40
4.863999
  0
CIRCLE
  8
0
 62
     4
 10
113.314514
 20
-37.081314
 40
4.278000
  0
CIRCLE
  8
0
 62
     1
 10
113.314514
 20
-37.081314
 40
4.863999
  0
CIRCLE
  8
0
 62
     4
 10
119.814514
 20
-52.081314
 40
4.278000
  0
CIRCLE
  8
0
 62
     1
 10
119.814514
 20
-52.081314
 40
4.863999
  0
ARC
  8
0
 10
80.414513
 20
-74.881317
 40
0.400002
 50
270.000000
 51
0.000000
  0
ARC
  8
0
 10
72.414513
 20
-75.681313
 40
0.400002
 50
90.000000
 51
180.000000
  0
ARC
  8
0
 10
72.414513
 20
-72.881317
 40
0.400002
 50
90.000000
 51
180.000000
  0
ARC
  8
0
 10
80.314514
 20
-71.981316
 40
0.500000
 50
270.000000
 51
0.000000
  0
ARC
  8
0
 10
101.814514
 20
-77.681313
 40
5.000002
 50
235.944183
 51
304.055817
  0
ARC
  8
0
 62
     4
 10
96.014511
 20
-97.881317
 40
0.500000
 50
270.000000
 51
0.000000
  0
ARC
  8
0
 62
     4
 10
94.014511
 20
-97.881317
 40
0.500000
 50
180.000000
 51
270.000000
  0
ARC
  8
0
 62
     4
 10
71.814514
 20
-103.081314
 40
0.300003
 50
180.000000
 51
270.000000
  0
ARC
  8
0
 10
87.514526
 20
-46.076317
 40
6.008216
 50
163.812317
 51
196.187683
  0
ARC
  8
0
 10
82.510406
 20
-47.505936
 40
0.804240
 50
197.764679
 51
208.632385
  0
ARC
  8
0
 10
82.513779
 20
-44.648140
 40
0.807888
 50
151.392212
 51
162.210480
  0
CIRCLE
  8
0
 62
     4
 10
110.814514
 20
-60.081314
 40
2.100000
  0
CIRCLE
  8
0
 62
     1
 10
110.814514
 20
-60.081314
 40
2.500000
  0
CIRCLE
  8
0
 62
     4
 10
110.814514
 20
-14.081314
 40
2.100000
  0
CIRCLE
  8
0
 62
     1
 10
110.814514
 20
-14.081314
 40
2.500000
  0
ARC
  8
0
 10
72.414513
 20
-15.181314
 40
0.400002
 50
180.000000
 51
270.000000
  0
ARC
  8
0
 10
80.314514
 20
-16.081314
 40
0.500000
 50
0.000000
 51
90.000000
  0
ARC
  8
0
 10
83.814514
 20
-10.381314
 40
5.000001
 50
55.944172
 51
124.055824
  0
ARC
  8
0
 62
     4
 10
96.014511
 20
9.818686
 40
0.500000
 50
0.000000
 51
90.000000
  0
ARC
  8
0
 62
     4
 10
94.014511
 20
9.818686
 40
0.500000
 50
90.000000
 51
180.000000
  0
ARC
  8
0
 62
     4
 10
71.814514
 20
15.018684
 40
0.300000
 50
90.000000
 51
180.000000
  0
ARC
  8
0
 10
72.414513
 20
-12.381314
 40
0.400002
 50
180.000000
 51
270.000000
  0
ARC
  8
0
 10
80.414513
 20
-13.181314
 40
0.400002
 50
0.000000
 51
90.000000
  0
CIRCLE
  8
0
 62
     4
 10
-137.685486
 20
-30.581314
 40
4.278000
  0
CIRCLE
  8
0
 62
     1
 10
-137.685486
 20
-30.581314
 40
4.863999
  0
CIRCLE
  8
0
 62
     4
 10
-127.685486
 20
-43.581314
 40
4.278000
  0
CIRCLE
  8
0
 62
     1
 10
-127.685486
 20
-43.581314
 40
4.863999
  0
ARC
  8
0
 10
-86.785484
 20
-72.881317
 40
0.400002
 50
0.000000
 51
90.000000
  0
ARC
  8
0
 10
-94.685486
 20
-71.981316
 40
0.500000
 50
180.000000
 51
270.000000
  0
ARC
  8
0
 10
-98.185486
 20
-77.681313
 40
5.000002
 50
235.944183
 51
304.055817
  0
ARC
  8
0
 62
     4
 10
-110.385483
 20
-97.881317
 40
0.500000
 50
180.000000
 51
270.000000
  0
ARC
  8
0
 62
     4
 10
-108.385483
 20
-97.881317
 40
0.500000
 50
270.000000
 51
0.000000
  0
ARC
  8
0
 62
     4
 10
-86.185486
 20
-103.081314
 40
0.300003
 50
270.000000
 51
0.000000
  0
ARC
  8
0
 10
-86.785484
 20
-75.681313
 40
0.400002
 50
0.000000
 51
90.000000
  0
ARC
  8
0
 10
-94.785484
 20
-74.881317
 40
0.400002
 50
180.000000
 51
270.000000
  0
ARC
  8
0
 10
-101.885498
 20
-28.086315
 40
6.008216
 50
343.812317
 51
16.187691
  0
ARC
  8
0
 10
-96.881378
 20
-26.656694
 40
0.804240
 50
17.764685
 51
28.632507
  0
ARC
  8
0
 10
-96.884750
 20
-29.514488
 40
0.807888
 50
331.392212
 51
342.210480
  0
ARC
  8
0
 62
     4
 10
-86.185486
 20
15.018684
 40
0.300003
 50
0.000000
 51
90.000000
  0
ARC
  8
0
 62
     4
 10
-108.385483
 20
9.818686
 40
0.500000
 50
0.000000
 51
90.000000
  0
ARC
  8
0
 62
     4
 10
-110.385483
 20
9.818686
 40
0.500000
 50
90.000000
 51
180.000000
  0
ARC
  8
0
 10
-116.185486
 20
-10.381314
 40
5.000001
 50
55.944172
 51
124.055824
  0
ARC
  8
0
 10
-94.685486
 20
-16.081314
 40
0.500000
 50
90.000000
 51
180.000000
  0
ARC
  8
0
 10
-86.785484
 20
-15.181314
 40
0.400000
 50
270.000000
 51
0.000000
  0
ARC
  8
0
 10
-86.785484
 20
-12.381314
 40
0.400000
 50
270.000000
 51
0.000000
  0
ARC
  8
0
 10
-94.785484
 20
-13.181314
 40
0.400000
 50
90.000000
 51
180.000000
  0
ARC
  8
0
 62
     4
 10
-11.885482
 20
-103.081314
 40
0.300000
 50
180.000000
 51
270.000000
  0
ARC
  8
0
 62
     4
 10
-2.485481
 20
-103.081314
 40
0.300003
 50
270.000000
 51
0.000000
  0
ARC
  8
0
 10
-5.608687
 20
-72.781311
 40
0.300001
 50
30.000256
 51
90.000000
  0
ARC
  8
0
 10
-3.530226
 20
-74.781311
 40
0.500000
 50
210.000000
 51
270.000000
  0
ARC
  8
0
 10
-8.646807
 20
-72.981316
 40
0.500000
 50
90.000000
 51
150.000015
  0
ARC
  8
0
 10
-10.840738
 20
-74.781311
 40
0.500000
 50
270.000000
 51
330.000000
  0
ARC
  8
0
 10
-1.635483
 20
-83.981316
 40
0.300000
 50
180.000000
 51
270.000000
  0
ARC
  8
0
 10
-12.735482
 20
-83.981316
 40
0.300003
 50
270.000000
 51
0.000000
  0
CIRCLE
  8
0
 10
-7.185482
 20
-75.281311
 40
2.000000
  0
CIRCLE
  8
0
 10
-1.690481
 20
-46.076317
 40
2.250000
  0
ARC
  8
0
 10
-1.690481
 20
-46.076317
 40
2.557655
 50
6.735994
 51
353.264008
  0
CIRCLE
  8
0
 10
-12.690482
 20
-28.076313
 40
2.250000
  0
ARC
  8
0
 10
-12.690482
 20
-28.076313
 40
2.557655
 50
6.735994
 51
353.264008
  0
CIRCLE
  8
0
 62
     4
 10
4.814518
 20
-44.581314
 40
1.600000
  0
CIRCLE
  8
0
 62
     4
 10
-19.185482
 20
-19.581314
 40
1.600000
  0
ARC
  8
0
 62
     4
 10
-11.885482
 20
15.018684
 40
0.300000
 50
90.000000
 51
180.000000
  0
ARC
  8
0
 62
     4
 10
-2.485481
 20
15.018684
 40
0.300000
 50
0.000000
 51
90.000000
  0
ARC
  8
0
 10
-5.608687
 20
-15.281314
 40
0.300000
 50
270.000000
 51
330.000061
  0
ARC
  8
0
 10
-3.530226
 20
-13.281314
 40
0.500000
 50
90.000000
 51
150.000000
  0
ARC
  8
0
 10
-8.646807
 20
-15.081314
 40
0.500000
 50
209.999985
 51
270.000000
  0
ARC
  8
0
 10
-10.840738
 20
-13.281314
 40
0.500000
 50
29.999985
 51
90.000000
  0
ARC
  8
0
 10
-1.635483
 20
-4.081314
 40
0.300000
 50
90.000000
 51
180.000000
  0
ARC
  8
0
 10
-12.735482
 20
-4.081314
 40
0.300000
 50
0.000000
 51
90.000000
  0
CIRCLE
  8
0
 10
-7.185482
 20
-12.781314
 40
2.000000
  0
ARC
  8
0
 10
-1.685486
 20
-46.086311
 40
2.700784
 50
42.223671
 51
317.776337
  0
ARC
  8
0
 10
-12.684198
 20
-28.081821
 40
2.698716
 50
0.010772
 51
137.865219
  0
ARC
  8
0
 10
-12.687550
 20
-28.082127
 40
2.702068
 50
222.318970
 51
0.017229
  0
TEXT
  8
0
 10
133.907150
 20
122.050003
 40
4.500000
  1
Ver. 1.0
 50
0.000000
 41
1.052632
 51
0.000000
  7
STANDARD
  0
TEXT
  8
0
 10
113.700287
 20
-130.669998
 40
6.300000
  1
KOGANEI CORP.
 50
0.000000
 41
1.052632
 51
0.000000
  7
STANDARD
  0
TEXT
  8
0
 10
-176.892654
 20
122.050003
 40
4.500000
  1
G110 SERIES
 50
0.000000
 41
1.052632
 51
0.000000
  7
STANDARD
  0
TEXT
  8
0
 10
-186.892654
 20
104.550003
 40
4.500000
  1
MODEL:GA113-4E2-25-PSL
 50
0.000000
 41
1.052632
 51
0.000000
  7
STANDARD
  0
ENDSEC
  0
EOF
