  0
SECTION
  2
HEADER
  0
ENDSEC
  0
SECTION
  2
TABLES
  0
TABLE
  2
LTYPE
 70
     4
  0
LTYPE
  2
CONTINUOUS
 70
    64
  3
Solid line
 72
    65
 73
     0
 40
0.000000
  0
LTYPE
  2
DASHED
 70
    64
  3
__ __ __ __ __ __ __ __ __ __ __ __ __ __ __
 72
    65
 73
     2
 40
3.500000
 49
2.000000
 49
-1.500000
  0
LTYPE
  2
CENTER
 70
    64
  3
____ _ ____ _ ____ _ ____ _ ____ _ ____ _ ____
 72
    65
 73
     4
 40
17.500000
 49
13.000000
 49
-1.500000
 49
1.500000
 49
-1.500000
  0
LTYPE
  2
PHANTOM
 70
    64
  3
_____ _ _ _____ _ _ _____ _ _ _____ _ _ ____  
 72
    65
 73
     6
 40
15.500000
 49
8.000000
 49
-1.500000
 49
1.500000
 49
-1.500000
 49
1.500000
 49
-1.500000
  0
LTYPE
  2
DASHED1
 70
    64
  3
__ __ __ __ __ __ __ __ __ __ __ __ __ __ __
 72
    65
 73
     2
 40
1.500000
 49
1.000000
 49
-0.500000
  0
LTYPE
  2
DASHED2
 70
    64
  3
__ __ __ __ __ __ __ __ __ __ __ __ __ __ __
 72
    65
 73
     2
 40
3.500000
 49
2.500000
 49
-1.000000
  0
LTYPE
  2
DASHED3
 70
    64
  3
__ __ __ __ __ __ __ __ __ __ __ __ __ __ __
 72
    65
 73
     2
 40
6.000000
 49
4.000000
 49
-2.000000
  0
LTYPE
  2
DASHED4
 70
    64
  3
__ __ __ __ __ __ __ __ __ __ __ __ __ __ __
 72
    65
 73
     2
 40
12.000000
 49
10.000000
 49
-2.000000
  0
LTYPE
  2
DASHED5
 70
    64
  3
__ __ __ __ __ __ __ __ __ __ __ __ __ __ __
 72
    65
 73
     2
 40
17.000000
 49
15.000000
 49
-2.000000
  0
LTYPE
  2
DASHED6
 70
    64
  3
__ __ __ __ __ __ __ __ __ __ __ __ __ __ __
 72
    65
 73
     2
 40
29.000000
 49
27.000000
 49
-2.000000
  0
LTYPE
  2
PHANTOM1
 70
    64
  3
_____ _ _ _____ _ _ _____ _ _ _____ _ _ ____  
 72
    65
 73
     6
 40
31.000000
 49
25.000000
 49
-1.500000
 49
1.000000
 49
-1.000000
 49
1.000000
 49
-1.500000
  0
LTYPE
  2
PHANTOM2
 70
    64
  3
_____ _ _ _____ _ _ _____ _ _ _____ _ _ ____  
 72
    65
 73
     6
 40
36.000000
 49
27.000000
 49
-1.500000
 49
2.500000
 49
-1.000000
 49
2.500000
 49
-1.500000
  0
LTYPE
  2
PHANTOM3
 70
    64
  3
_____ _ _ _____ _ _ _____ _ _ _____ _ _ ____  
 72
    65
 73
     6
 40
78.000000
 49
64.000000
 49
-2.000000
 49
4.000000
 49
-2.000000
 49
4.000000
 49
-2.000000
  0
LTYPE
  2
CENTER1
 70
    64
  3
____ _ ____ _ ____ _ ____ _ ____ _ ____ _ ____
 72
    65
 73
     4
 40
19.000000
 49
14.000000
 49
-1.000000
 49
3.000000
 49
-1.000000
  0
LTYPE
  2
CENTER2
 70
    64
  3
____ _ ____ _ ____ _ ____ _ ____ _ ____ _ ____
 72
    65
 73
     4
 40
28.500000
 49
25.000000
 49
-1.000000
 49
1.500000
 49
-1.000000
  0
LTYPE
  2
CENTER3
 70
    64
  3
____ _ ____ _ ____ _ ____ _ ____ _ ____ _ ____
 72
    65
 73
     4
 40
31.500000
 49
27.000000
 49
-1.000000
 49
2.500000
 49
-1.000000
  0
LTYPE
  2
CENTER4
 70
    64
  3
____ _ ____ _ ____ _ ____ _ ____ _ ____ _ ____
 72
    65
 73
     4
 40
50.000000
 49
45.000000
 49
-1.000000
 49
3.000000
 49
-1.000000
  0
LTYPE
  2
CENTER5
 70
    64
  3
____ _ ____ _ ____ _ ____ _ ____ _ ____ _ ____
 72
    65
 73
     4
 40
100.000000
 49
92.000000
 49
-2.000000
 49
4.000000
 49
-2.000000
  0
LTYPE
  2
SBK1
 70
    64
  3
______ _ _ _ ______ _ _ _ ______ _ _ _ _____  
 72
    65
 73
     8
 40
60.500000
 49
45.000000
 49
-2.000000
 49
2.500000
 49
-2.000000
 49
2.500000
 49
-2.000000
 49
2.500000
 49
-2.000000
  0
LTYPE
  2
SBK2
 70
    64
  3
______ _ _ _ ______ _ _ _ ______ _ _ _ _____  
 72
    65
 73
     8
 40
84.000000
 49
64.000000
 49
-2.000000
 49
4.000000
 49
-2.000000
 49
4.000000
 49
-2.000000
 49
4.000000
 49
-2.000000
  0
LTYPE
  2
STCH
 70
    64
  3
__ __ __ __ __ __ __ __ __ __ __ __ __ __ __
 72
    65
 73
     2
 40
3.000000
 49
1.000000
 49
-2.000000
  0
LTYPE
  2
MTCH
 70
    64
  3
_____ _ _ _____ _ _ _____ _ _ _____ _ _ ____  
 72
    65
 73
     6
 40
80.000000
 49
66.000000
 49
-2.000000
 49
4.000000
 49
-2.000000
 49
4.000000
 49
-2.000000
  0
ENDTAB
  0
TABLE
  2
LAYER
 70
     1
  0
LAYER
  2
0
 70
     0
 62
     7
  6
CONTINUOUS
  0
ENDTAB
  0
TABLE
  2
STYLE
 70
     1
  0
STYLE
  2
STANDARD
 70
     0
 40
0.000000
 41
1.000000
 50
0.000000
 71
     0
 42
0.200000
  3
txt
  4
BIGFONT
  0
ENDTAB
  0
TABLE
  2
VIEW
 70
     0
  0
ENDTAB
  0
ENDSEC
  0
SECTION
  2
BLOCKS
  0
ENDSEC
  0
SECTION
  2
ENTITIES
  0
LINE
  8
0
  6
CENTER
 62
     1
 10
1.546980
 20
101.661865
 11
1.546980
 21
109.004738
  0
LINE
  8
0
  6
CENTER
 62
     2
 10
-4.953020
 20
78.755348
 11
-4.953020
 21
84.885651
  0
LINE
  8
0
  6
CENTER
 62
     2
 10
-15.953020
 20
78.755348
 11
-15.953020
 21
84.885651
  0
LINE
  8
0
  6
CENTER
 62
     1
 10
-22.453020
 20
101.661865
 11
-22.453020
 21
109.004738
  0
LINE
  8
0
 62
     4
 10
-25.453020
 20
80.609962
 11
-25.453020
 21
105.609962
  0
LINE
  8
0
 62
     4
 10
4.546980
 20
80.609962
 11
4.546980
 21
105.609962
  0
LINE
  8
0
 10
-3.353020
 20
79.609962
 11
-17.553020
 21
79.609962
  0
LINE
  8
0
  6
CENTER
 62
     2
 10
-10.453020
 20
109.062340
 11
-10.453020
 21
44.174030
  0
LINE
  8
0
 10
-4.453022
 20
79.109962
 11
-3.139083
 21
79.547943
  0
LINE
  8
0
 10
-11.953020
 20
79.109962
 11
-4.453020
 21
79.109962
  0
LINE
  8
0
 10
-11.953020
 20
78.509964
 11
-4.908916
 21
78.509964
  0
LINE
  8
0
 10
-2.953020
 20
79.209961
 11
-2.953020
 21
47.209961
  0
LINE
  8
0
 10
-17.953020
 20
79.209961
 11
-17.953020
 21
47.209961
  0
LINE
  8
0
 10
-15.453020
 20
46.809963
 11
-17.553020
 21
46.809963
  0
LINE
  8
0
 10
-5.453020
 20
46.809963
 11
-3.353020
 21
46.809963
  0
LINE
  8
0
 10
-17.953020
 20
73.609962
 11
-15.453020
 21
73.609962
  0
LINE
  8
0
 10
-11.953020
 20
79.609962
 11
-11.953020
 21
78.309967
  0
LINE
  8
0
 10
-5.453020
 20
55.609962
 11
-2.953020
 21
55.609962
  0
LINE
  8
0
 10
-5.453020
 20
61.609962
 11
-2.953020
 21
61.609962
  0
LINE
  8
0
 10
-5.453021
 20
58.109962
 11
-4.602221
 21
57.259163
  0
LINE
  8
0
 10
-16.303822
 20
77.960762
 11
-15.453020
 21
77.109962
  0
LINE
  8
0
 10
-4.602221
 20
59.960762
 11
-5.453020
 21
59.109962
  0
LINE
  8
0
 10
-15.453019
 20
76.109962
 11
-16.303818
 21
75.259163
  0
LINE
  8
0
 10
-5.203020
 20
46.809963
 11
-5.203020
 21
55.609962
  0
LINE
  8
0
 10
-15.703020
 20
46.809963
 11
-15.703020
 21
73.609962
  0
LINE
  8
0
 10
-5.203020
 20
61.609962
 11
-5.203020
 21
78.509964
  0
LINE
  8
0
 10
-16.453020
 20
73.609962
 11
-16.453020
 21
46.809963
  0
LINE
  8
0
 10
-4.453020
 20
79.109962
 11
-4.453020
 21
61.609962
  0
LINE
  8
0
 10
-4.453020
 20
55.609962
 11
-4.453020
 21
46.809963
  0
LINE
  8
0
 62
     4
 10
-5.753019
 20
63.809963
 11
-5.453020
 21
63.809963
  0
LINE
  8
0
 62
     4
 10
-5.753019
 20
63.909962
 11
-5.453020
 21
63.909962
  0
LINE
  8
0
 62
     4
 10
-12.953020
 20
58.509964
 11
-15.153021
 21
58.509964
  0
LINE
  8
0
 62
     4
 10
-12.953020
 20
59.509964
 11
-13.353020
 21
59.509964
  0
LINE
  8
0
 62
     4
 10
-7.953020
 20
58.709961
 11
-12.953020
 21
58.709961
  0
LINE
  8
0
 62
     4
 10
-7.953020
 20
57.509964
 11
-12.953020
 21
57.509964
  0
LINE
  8
0
 62
     4
 10
-6.753020
 20
60.009964
 11
-14.153020
 21
60.009964
  0
LINE
  8
0
 62
     4
 10
-5.753019
 20
64.309967
 11
-5.753019
 21
59.009964
  0
LINE
  8
0
 62
     4
 10
-15.153021
 20
64.309967
 11
-15.153021
 21
59.009964
  0
LINE
  8
0
 62
     4
 10
-5.753019
 20
64.309967
 11
-15.153021
 21
64.309967
  0
LINE
  8
0
 62
     4
 10
-7.363020
 20
62.609962
 11
-7.363020
 21
63.109962
  0
LINE
  8
0
 62
     4
 10
-8.463020
 20
62.609962
 11
-8.463020
 21
63.109962
  0
LINE
  8
0
 62
     4
 10
-6.963020
 20
60.509964
 11
-8.863020
 21
60.509964
  0
LINE
  8
0
 62
     4
 10
-7.037020
 20
62.609962
 11
-8.787020
 21
62.609962
  0
LINE
  8
0
 62
     4
 10
-7.363020
 20
63.109962
 11
-8.463020
 21
63.109962
  0
LINE
  8
0
 62
     4
 10
-11.703020
 20
59.009964
 11
-11.703020
 21
60.009964
  0
LINE
  8
0
 62
     4
 10
-9.203020
 20
59.009964
 11
-9.203020
 21
60.009964
  0
LINE
  8
0
 62
     4
 10
-5.753019
 20
59.009964
 11
-6.753020
 21
59.009964
  0
LINE
  8
0
 62
     4
 10
-6.753020
 20
60.009964
 11
-6.753020
 21
59.009964
  0
LINE
  8
0
 62
     4
 10
-15.153021
 20
59.009964
 11
-14.153020
 21
59.009964
  0
LINE
  8
0
 62
     4
 10
-14.153020
 20
60.009964
 11
-14.153020
 21
59.009964
  0
LINE
  8
0
 62
     4
 10
-8.863021
 20
60.509960
 11
-8.987020
 21
62.397964
  0
LINE
  8
0
 62
     4
 10
-6.837019
 20
62.397964
 11
-6.963019
 21
60.509964
  0
LINE
  8
0
 62
     4
 10
-9.503020
 20
60.509964
 11
-11.403020
 21
60.509964
  0
LINE
  8
0
 62
     4
 10
-9.377020
 20
62.397961
 11
-9.503020
 21
60.509960
  0
LINE
  8
0
 62
     4
 10
-9.577020
 20
62.609962
 11
-11.327020
 21
62.609962
  0
LINE
  8
0
 62
     4
 10
-9.903020
 20
62.609962
 11
-9.903020
 21
63.109962
  0
LINE
  8
0
 62
     4
 10
-9.903020
 20
63.109962
 11
-11.003020
 21
63.109962
  0
LINE
  8
0
 62
     4
 10
-11.003020
 20
62.609962
 11
-11.003020
 21
63.109962
  0
LINE
  8
0
 62
     4
 10
-11.403021
 20
60.509964
 11
-11.527020
 21
62.397961
  0
LINE
  8
0
 62
     4
 10
-10.053020
 20
61.109962
 11
-10.053020
 21
61.909962
  0
LINE
  8
0
 62
     4
 10
-10.853020
 20
61.109962
 11
-10.053020
 21
61.109962
  0
LINE
  8
0
 62
     4
 10
-10.853020
 20
61.109962
 11
-10.853020
 21
61.909962
  0
LINE
  8
0
 62
     4
 10
-10.853020
 20
61.909962
 11
-10.053020
 21
61.909962
  0
LINE
  8
0
 62
     4
 10
-12.043020
 20
60.509964
 11
-13.943020
 21
60.509964
  0
LINE
  8
0
 62
     4
 10
-11.917020
 20
62.397964
 11
-12.043020
 21
60.509964
  0
LINE
  8
0
 62
     4
 10
-12.117021
 20
62.609962
 11
-13.867021
 21
62.609962
  0
LINE
  8
0
 62
     4
 10
-12.443020
 20
62.609962
 11
-12.443020
 21
63.109962
  0
LINE
  8
0
 62
     4
 10
-12.443020
 20
63.109962
 11
-13.543020
 21
63.109962
  0
LINE
  8
0
 62
     4
 10
-13.543020
 20
62.609962
 11
-13.543020
 21
63.109962
  0
LINE
  8
0
 62
     4
 10
-13.943019
 20
60.509956
 11
-14.067020
 21
62.397961
  0
LINE
  8
0
 62
     4
 10
-7.953020
 20
57.509964
 11
-7.953020
 21
60.009964
  0
LINE
  8
0
 62
     4
 10
-12.953020
 20
57.509964
 11
-12.953020
 21
60.009964
  0
LINE
  8
0
 62
     4
 10
-7.553020
 20
59.009964
 11
-13.353020
 21
59.009964
  0
LINE
  8
0
 62
     4
 10
-13.353020
 20
59.509964
 11
-13.353020
 21
58.509964
  0
LINE
  8
0
 62
     4
 10
-7.553020
 20
59.509964
 11
-7.553020
 21
58.509964
  0
LINE
  8
0
 62
     4
 10
-7.553020
 20
59.509964
 11
-7.953020
 21
59.509964
  0
LINE
  8
0
 62
     4
 10
-5.753019
 20
58.509964
 11
-7.953020
 21
58.509964
  0
LINE
  8
0
 62
     4
 10
-15.153021
 20
46.309963
 11
-5.753019
 21
46.309963
  0
LINE
  8
0
 62
     4
 10
-15.453020
 20
63.809963
 11
-15.153021
 21
63.809963
  0
LINE
  8
0
 62
     1
 10
-11.953020
 20
51.309963
 11
-11.953020
 21
46.309963
  0
LINE
  8
0
 62
     1
 10
-8.953020
 20
51.309963
 11
-11.953020
 21
51.309963
  0
LINE
  8
0
 62
     1
 10
-8.953020
 20
51.309963
 11
-8.953020
 21
46.309963
  0
LINE
  8
0
 62
     4
 10
-13.253020
 20
66.009964
 11
-13.253020
 21
67.509964
  0
LINE
  8
0
 62
     4
 10
-14.753020
 20
66.009964
 11
-14.753020
 21
67.509964
  0
LINE
  8
0
 62
     4
 10
-13.253020
 20
66.009964
 11
-14.753020
 21
66.009964
  0
LINE
  8
0
 62
     4
 10
-13.253020
 20
67.509964
 11
-14.753020
 21
67.509964
  0
LINE
  8
0
 62
     4
 10
-8.058649
 20
72.350777
 11
-7.803017
 21
71.909966
  0
LINE
  8
0
 62
     4
 10
-13.103022
 20
71.909966
 11
-12.847393
 21
72.350777
  0
LINE
  8
0
 62
     4
 10
-9.308650
 20
71.100784
 11
-9.053021
 21
70.659966
  0
LINE
  8
0
 62
     4
 10
-7.803018
 20
71.909958
 11
-9.053019
 21
70.659958
  0
LINE
  8
0
 62
     4
 10
-9.308648
 20
71.100777
 11
-8.058650
 21
72.350777
  0
LINE
  8
0
 62
     4
 10
-11.597395
 20
71.100777
 11
-11.853023
 21
70.659966
  0
LINE
  8
0
 62
     4
 10
-15.453020
 20
65.219147
 11
-5.453020
 21
65.219147
  0
LINE
  8
0
 62
     4
 10
-11.597388
 20
71.100777
 11
-12.847389
 21
72.350777
  0
LINE
  8
0
 62
     4
 10
-15.453020
 20
72.350784
 11
-12.847390
 21
72.350784
  0
LINE
  8
0
 62
     4
 10
-8.058650
 20
72.350784
 11
-5.453020
 21
72.350784
  0
LINE
  8
0
 62
     4
 10
-9.308650
 20
71.100784
 11
-11.597390
 21
71.100784
  0
LINE
  8
0
 62
     4
 10
-15.453020
 20
71.909958
 11
-13.103020
 21
71.909958
  0
LINE
  8
0
 62
     4
 10
-13.103020
 20
71.909966
 11
-11.853021
 21
70.659966
  0
LINE
  8
0
 62
     4
 10
-9.053020
 20
70.659958
 11
-11.853020
 21
70.659958
  0
LINE
  8
0
 62
     4
 10
-7.803020
 20
71.909958
 11
-5.453020
 21
71.909958
  0
LINE
  8
0
 62
     4
 10
-5.453020
 20
64.408035
 11
-15.453020
 21
64.408035
  0
LINE
  8
0
 62
     4
 10
-15.453020
 20
63.909962
 11
-15.153021
 21
63.909962
  0
LINE
  8
0
 62
     4
 10
-13.953020
 20
68.209961
 11
-15.453020
 21
68.209961
  0
LINE
  8
0
 62
     4
 10
-15.453020
 20
71.409958
 11
-13.953020
 21
71.409958
  0
LINE
  8
0
 62
     4
 10
-6.953020
 20
71.409958
 11
-5.453020
 21
71.409958
  0
LINE
  8
0
 62
     4
 10
-5.453020
 20
68.209961
 11
-6.953020
 21
68.209961
  0
LINE
  8
0
 62
     4
 10
-5.453020
 20
46.609962
 11
-5.453020
 21
78.309967
  0
LINE
  8
0
 62
     1
 10
-12.953020
 20
68.059967
 11
-7.953020
 21
68.059967
  0
LINE
  8
0
 62
     4
 10
-15.453020
 20
46.609962
 11
-15.453020
 21
78.309967
  0
LINE
  8
0
 62
     4
 10
-12.278534
 20
68.359962
 11
-8.627506
 21
68.359962
  0
LINE
  8
0
 62
     4
 10
-10.453020
 20
67.759964
 11
-8.627506
 21
67.759964
  0
LINE
  8
0
 62
     4
 10
-12.278534
 20
67.759964
 11
-10.453020
 21
67.759964
  0
LINE
  8
0
 62
     4
 10
-6.245915
 20
70.517067
 11
-7.660128
 21
69.102852
  0
LINE
  8
0
 62
     4
 10
-6.245912
 20
69.102852
 11
-7.660128
 21
70.517067
  0
LINE
  8
0
 62
     4
 10
-14.660126
 20
69.102852
 11
-13.245913
 21
70.517067
  0
LINE
  8
0
 62
     4
 10
-14.660128
 20
70.517067
 11
-13.245914
 21
69.102859
  0
LINE
  8
0
 62
     4
 10
-15.453020
 20
78.309967
 11
-5.453020
 21
78.309967
  0
LINE
  8
0
 10
-17.456348
 20
79.609962
 11
-17.456348
 21
80.609962
  0
LINE
  8
0
 10
-3.456348
 20
80.609962
 11
-17.456348
 21
80.609962
  0
LINE
  8
0
 10
-3.456348
 20
79.609962
 11
-17.456348
 21
79.609962
  0
LINE
  8
0
 10
-3.456348
 20
79.609962
 11
-3.456348
 21
80.609962
  0
LINE
  8
0
 62
     4
 10
-25.453020
 20
80.609962
 11
4.546980
 21
80.609962
  0
LINE
  8
0
 62
     4
 10
-25.453020
 20
105.609962
 11
4.546980
 21
105.609962
  0
LINE
  8
0
  6
CENTER
 62
     2
 10
97.145775
 20
-55.909760
 11
107.701157
 21
-55.909760
  0
LINE
  8
0
  6
CENTER
 62
     2
 10
97.145775
 20
-37.909760
 11
107.701157
 21
-37.909760
  0
LINE
  8
0
  6
CENTER
 62
     1
 10
123.763702
 20
-54.409760
 11
131.106567
 21
-54.409760
  0
LINE
  8
0
  6
CENTER
 62
     1
 10
123.763702
 20
-29.409761
 11
131.106567
 21
-29.409761
  0
LINE
  8
0
 62
     1
 10
80.406982
 20
-113.919754
 11
86.406982
 21
-115.519753
  0
LINE
  8
0
 62
     1
 10
80.406975
 20
-115.159760
 11
86.406975
 21
-116.759758
  0
LINE
  8
0
 62
     4
 10
82.731979
 20
-115.779762
 11
82.731979
 21
-120.339760
  0
LINE
  8
0
 62
     4
 10
84.161987
 20
-116.161095
 11
84.161987
 21
-120.339760
  0
LINE
  8
0
 62
     4
 10
83.846985
 20
-120.339760
 11
83.846985
 21
-125.339760
  0
LINE
  8
0
 62
     4
 10
83.046982
 20
-120.339760
 11
83.046982
 21
-125.339760
  0
LINE
  8
0
 62
     4
 10
84.161987
 20
-120.339760
 11
82.731979
 21
-120.339760
  0
LINE
  8
0
 62
     4
 10
83.846985
 20
-125.339760
 11
83.046982
 21
-125.339760
  0
LINE
  8
0
 62
     4
 10
83.846985
 20
31.520239
 11
83.046982
 21
31.520239
  0
LINE
  8
0
 62
     4
 10
84.161987
 20
26.520239
 11
82.731979
 21
26.520239
  0
LINE
  8
0
 62
     4
 10
83.046982
 20
26.520239
 11
83.046982
 21
31.520239
  0
LINE
  8
0
 62
     4
 10
83.846985
 20
26.520239
 11
83.846985
 21
31.520239
  0
LINE
  8
0
 62
     4
 10
82.731979
 20
22.341574
 11
82.731979
 21
26.520239
  0
LINE
  8
0
 62
     4
 10
84.161987
 20
21.960238
 11
84.161987
 21
26.520239
  0
LINE
  8
0
 62
     1
 10
86.486984
 20
21.340239
 11
80.486984
 21
22.940241
  0
LINE
  8
0
 62
     1
 10
86.486984
 20
20.100239
 11
80.486984
 21
21.700239
  0
LINE
  8
0
 62
     4
 10
82.731979
 20
16.090239
 11
82.731979
 21
21.101572
  0
LINE
  8
0
 62
     4
 10
84.161987
 20
16.090239
 11
84.161987
 21
20.720240
  0
LINE
  8
0
 10
100.246979
 20
-80.209763
 11
101.046982
 21
-80.209763
  0
LINE
  8
0
 10
95.546982
 20
-79.709763
 11
100.446983
 21
-79.709763
  0
LINE
  8
0
 10
69.146980
 20
-71.209763
 11
77.146980
 21
-71.209763
  0
LINE
  8
0
 10
95.746979
 20
-76.209763
 11
95.746979
 21
-77.752228
  0
LINE
  8
0
 10
95.546982
 20
-76.209763
 11
95.546982
 21
-80.209763
  0
LINE
  8
0
 10
95.546982
 20
-76.209763
 11
101.546982
 21
-76.209763
  0
LINE
  8
0
 62
     4
 10
68.246979
 20
-79.709763
 11
68.746979
 21
-79.709763
  0
LINE
  8
0
 10
68.746979
 20
-68.809761
 11
68.746979
 21
-80.209763
  0
LINE
  8
0
 10
69.146980
 20
-68.409760
 11
77.046982
 21
-68.409760
  0
LINE
  8
0
 10
101.546982
 20
-79.709763
 11
101.046982
 21
-80.209763
  0
LINE
  8
0
 10
68.746979
 20
-80.209763
 11
95.546982
 21
-80.209763
  0
LINE
  8
0
 10
100.446983
 20
-80.209763
 11
100.446983
 21
-79.709763
  0
LINE
  8
0
 10
101.346985
 20
-76.209763
 11
101.346985
 21
-77.752228
  0
LINE
  8
0
 62
     4
 10
87.156158
 20
-94.709763
 11
86.345055
 21
-99.309753
  0
LINE
  8
0
 62
     4
 10
85.846985
 20
-93.409760
 11
85.846985
 21
-99.309761
  0
LINE
  8
0
 62
     4
 10
86.345062
 20
-99.309761
 11
85.846985
 21
-99.309761
  0
LINE
  8
0
 62
     4
 10
85.746979
 20
-98.709763
 11
85.846985
 21
-98.709763
  0
LINE
  8
0
 62
     4
 10
69.746979
 20
-93.409760
 11
69.746979
 21
-80.909760
  0
LINE
  8
0
 62
     4
 10
93.846985
 20
-94.709763
 11
87.156166
 21
-94.709763
  0
LINE
  8
0
 62
     4
 10
69.746979
 20
-93.409760
 11
85.846985
 21
-93.409760
  0
LINE
  8
0
 62
     4
 10
68.246979
 20
-79.709763
 11
68.246979
 21
-80.609764
  0
LINE
  8
0
 62
     4
 10
68.246979
 20
-80.909760
 11
69.746979
 21
-80.909760
  0
LINE
  8
0
 62
     4
 10
68.246979
 20
-80.609764
 11
68.546982
 21
-80.909760
  0
LINE
  8
0
 62
     4
 10
100.246979
 20
-91.209763
 11
94.464127
 21
-91.209763
  0
LINE
  8
0
 62
     4
 10
93.346985
 20
-93.709763
 11
90.146980
 21
-93.709763
  0
LINE
  8
0
 62
     4
 10
93.246979
 20
-93.809761
 11
93.246979
 21
-93.709763
  0
LINE
  8
0
 62
     4
 10
93.346985
 20
-94.709763
 11
93.346985
 21
-93.709763
  0
LINE
  8
0
 62
     4
 10
94.464127
 20
-91.209763
 11
93.846985
 21
-94.709763
  0
LINE
  8
0
 62
     4
 10
92.746979
 20
-94.309761
 11
90.746979
 21
-94.309761
  0
LINE
  8
0
 62
     4
 10
90.246979
 20
-93.809761
 11
90.246979
 21
-93.709763
  0
LINE
  8
0
 62
     4
 10
90.146980
 20
-94.709763
 11
90.146980
 21
-93.709763
  0
LINE
  8
0
 62
     4
 10
99.546982
 20
-90.509758
 11
99.546982
 21
-82.909760
  0
LINE
  8
0
 62
     4
 10
100.246979
 20
-79.709763
 11
100.246979
 21
-91.209763
  0
LINE
  8
0
 62
     4
 10
98.746979
 20
-90.509758
 11
98.746979
 21
-82.909760
  0
LINE
  8
0
 62
     4
 10
98.746979
 20
-90.509758
 11
99.546982
 21
-90.509758
  0
LINE
  8
0
 62
     4
 10
99.546982
 20
-82.909760
 11
98.746979
 21
-82.909760
  0
LINE
  8
0
 62
     4
 10
68.246979
 20
-80.909760
 11
68.246979
 21
-99.009758
  0
LINE
  8
0
 62
     4
 10
80.446983
 20
-99.309761
 11
68.546982
 21
-99.309761
  0
LINE
  8
0
 62
     4
 10
85.746979
 20
-104.809761
 11
85.746979
 21
-93.409760
  0
LINE
  8
0
 62
     4
 10
80.446983
 20
-104.809761
 11
80.446983
 21
-99.309761
  0
LINE
  8
0
 62
     4
 10
80.647224
 20
-108.909760
 11
79.446983
 21
-108.909760
  0
LINE
  8
0
 62
     4
 10
85.746994
 20
-108.909760
 11
86.246986
 21
-109.198433
  0
LINE
  8
0
 62
     4
 10
86.246979
 20
-109.198433
 11
86.246979
 21
-109.909760
  0
LINE
  8
0
 62
     4
 10
85.046982
 20
-104.809761
 11
85.046982
 21
-104.909760
  0
LINE
  8
0
 62
     4
 10
86.246979
 20
-109.909760
 11
80.946983
 21
-109.909760
  0
LINE
  8
0
 62
     4
 10
80.647232
 20
-108.909767
 11
80.946991
 21
-107.209755
  0
LINE
  8
0
  6
PHANTOM
 62
     4
 10
80.946983
 20
-105.709763
 11
80.946983
 21
-107.208374
  0
LINE
  8
0
 62
     4
 10
80.946983
 20
-104.809761
 11
80.946983
 21
-109.909760
  0
LINE
  8
0
 62
     4
 10
80.946983
 20
-104.909760
 11
85.746979
 21
-104.909760
  0
LINE
  8
0
 62
     4
 10
85.746979
 20
-104.909760
 11
85.746979
 21
-108.909760
  0
LINE
  8
0
 62
     4
 10
85.746979
 20
-104.809761
 11
80.446983
 21
-104.809761
  0
LINE
  8
0
 62
     4
 10
79.446983
 20
-108.198433
 11
79.446983
 21
-108.909760
  0
LINE
  8
0
 62
     4
 10
79.946976
 20
-107.909760
 11
79.446968
 21
-108.198441
  0
LINE
  8
0
 62
     4
 10
80.446976
 20
-100.509758
 11
79.946976
 21
-101.375786
  0
LINE
  8
0
 62
     4
 10
79.946983
 20
-101.375786
 11
79.946983
 21
-107.909760
  0
LINE
  8
0
 10
101.546982
 20
-60.909760
 11
101.546982
 21
-79.709763
  0
LINE
  8
0
 10
77.546982
 20
-60.909760
 11
77.546982
 21
-70.809761
  0
LINE
  8
0
 10
79.946983
 20
-57.719761
 11
79.946983
 21
-54.089760
  0
LINE
  8
0
 10
80.546982
 20
-57.719761
 11
80.546982
 21
-54.089760
  0
LINE
  8
0
 10
80.546982
 20
-57.719761
 11
77.546982
 21
-57.719761
  0
LINE
  8
0
 10
80.546982
 20
-54.089760
 11
77.546982
 21
-54.089760
  0
LINE
  8
0
  6
CENTER
 62
     1
 10
111.046982
 20
-69.909760
 11
104.046982
 21
-69.909760
  0
LINE
  8
0
  6
CENTER
 62
     1
 10
107.546982
 20
-73.409760
 11
107.546982
 21
-66.409760
  0
LINE
  8
0
  6
CENTER
 62
     1
 10
123.546982
 20
-31.909761
 11
109.546982
 21
-31.909761
  0
LINE
  8
0
  6
CENTER
 62
     1
 10
123.546982
 20
-61.909760
 11
109.546982
 21
-61.909760
  0
LINE
  8
0
  6
CENTER
 62
     1
 10
111.046982
 20
-23.909761
 11
104.046982
 21
-23.909761
  0
LINE
  8
0
  6
CENTER
 62
     1
 10
116.546982
 20
-24.909761
 11
116.546982
 21
-68.909760
  0
LINE
  8
0
  6
CENTER
 62
     1
 10
110.046982
 20
-39.909760
 11
110.046982
 21
-53.909760
  0
LINE
  8
0
  6
CENTER
 62
     1
 10
107.546982
 20
-20.409761
 11
107.546982
 21
-27.409761
  0
LINE
  8
0
 10
102.546982
 20
-19.409761
 11
102.546982
 21
-74.409760
  0
LINE
  8
0
 62
     4
 10
127.546982
 20
-19.409761
 11
127.546982
 21
-74.409760
  0
LINE
  8
0
 62
     4
 10
127.546982
 20
-19.409761
 11
102.546982
 21
-19.409761
  0
LINE
  8
0
 62
     4
 10
127.546982
 20
-74.409760
 11
102.546982
 21
-74.409760
  0
LINE
  8
0
 10
77.546982
 20
-32.909760
 11
77.546982
 21
-60.909760
  0
LINE
  8
0
 10
101.546982
 20
-60.909760
 11
77.546982
 21
-60.909760
  0
LINE
  8
0
 10
101.546982
 20
-32.909760
 11
77.546982
 21
-32.909760
  0
LINE
  8
0
 62
     4
 10
101.546982
 20
-32.909760
 11
101.546982
 21
-60.909760
  0
LINE
  8
0
 10
77.746979
 20
-17.609760
 11
77.746979
 21
-16.067299
  0
LINE
  8
0
 10
77.546982
 20
-17.609760
 11
77.546982
 21
-13.609761
  0
LINE
  8
0
 10
77.546982
 20
-17.609760
 11
83.546982
 21
-17.609760
  0
LINE
  8
0
 62
     4
 10
68.246979
 20
-14.109761
 11
68.746979
 21
-14.109761
  0
LINE
  8
0
 10
68.746979
 20
-25.009762
 11
68.746979
 21
-13.609761
  0
LINE
  8
0
 10
69.146980
 20
-25.409761
 11
77.046982
 21
-25.409761
  0
LINE
  8
0
 10
101.546982
 20
-14.109757
 11
101.046989
 21
-13.609763
  0
LINE
  8
0
 10
101.046982
 20
-13.609761
 11
83.546982
 21
-13.609761
  0
LINE
  8
0
 10
83.346985
 20
-17.609760
 11
83.346985
 21
-16.067299
  0
LINE
  8
0
 62
     4
 10
87.156166
 20
0.890237
 11
86.345062
 21
5.490237
  0
LINE
  8
0
 62
     4
 10
85.846985
 20
-0.409761
 11
85.846985
 21
5.490240
  0
LINE
  8
0
 62
     4
 10
86.345062
 20
5.490240
 11
85.846985
 21
5.490240
  0
LINE
  8
0
 62
     4
 10
85.746979
 20
4.890238
 11
85.846985
 21
4.890238
  0
LINE
  8
0
 62
     4
 10
69.746979
 20
-0.409761
 11
69.746979
 21
-12.909761
  0
LINE
  8
0
 62
     4
 10
93.846985
 20
0.890238
 11
87.156166
 21
0.890238
  0
LINE
  8
0
 62
     4
 10
69.746979
 20
-0.409761
 11
85.846985
 21
-0.409761
  0
LINE
  8
0
 62
     4
 10
68.246979
 20
-14.109761
 11
68.246979
 21
-13.209761
  0
LINE
  8
0
 62
     4
 10
68.246979
 20
-12.909761
 11
69.746979
 21
-12.909761
  0
LINE
  8
0
 62
     4
 10
68.246979
 20
-13.209760
 11
68.546982
 21
-12.909760
  0
LINE
  8
0
 62
     4
 10
100.246979
 20
-2.609762
 11
94.464127
 21
-2.609762
  0
LINE
  8
0
 62
     4
 10
93.346985
 20
-0.109762
 11
90.146980
 21
-0.109762
  0
LINE
  8
0
 62
     4
 10
93.246979
 20
-0.009762
 11
93.246979
 21
-0.109762
  0
LINE
  8
0
 62
     4
 10
93.346985
 20
0.890238
 11
93.346985
 21
-0.109762
  0
LINE
  8
0
 62
     4
 10
94.464127
 20
-2.609761
 11
93.846985
 21
0.890239
  0
LINE
  8
0
 62
     4
 10
92.746979
 20
0.490238
 11
90.746979
 21
0.490238
  0
LINE
  8
0
 62
     4
 10
90.246979
 20
-0.009762
 11
90.246979
 21
-0.109762
  0
LINE
  8
0
 62
     4
 10
90.146980
 20
0.890238
 11
90.146980
 21
-0.109762
  0
LINE
  8
0
 62
     4
 10
99.546982
 20
-3.309761
 11
99.546982
 21
-10.909761
  0
LINE
  8
0
 62
     4
 10
100.246979
 20
-13.609761
 11
100.246979
 21
-2.609762
  0
LINE
  8
0
 62
     4
 10
98.746979
 20
-3.309761
 11
98.746979
 21
-10.909761
  0
LINE
  8
0
 62
     4
 10
98.746979
 20
-3.309761
 11
99.546982
 21
-3.309761
  0
LINE
  8
0
 62
     4
 10
99.546982
 20
-10.909761
 11
98.746979
 21
-10.909761
  0
LINE
  8
0
 62
     4
 10
68.246979
 20
-12.909761
 11
68.246979
 21
5.190237
  0
LINE
  8
0
 62
     4
 10
80.446983
 20
5.490240
 11
68.546982
 21
5.490240
  0
LINE
  8
0
 62
     4
 10
85.746979
 20
10.990240
 11
85.746979
 21
-0.409761
  0
LINE
  8
0
 62
     4
 10
80.446983
 20
10.990240
 11
80.446983
 21
5.490240
  0
LINE
  8
0
 62
     4
 10
80.647224
 20
15.090239
 11
79.446983
 21
15.090239
  0
LINE
  8
0
 62
     4
 10
85.746979
 20
15.090237
 11
86.246979
 21
15.378914
  0
LINE
  8
0
 62
     4
 10
86.246979
 20
15.378912
 11
86.246979
 21
16.090239
  0
LINE
  8
0
 62
     4
 10
85.046982
 20
10.990240
 11
85.046982
 21
11.090239
  0
LINE
  8
0
 62
     4
 10
86.246979
 20
16.090239
 11
80.946983
 21
16.090239
  0
LINE
  8
0
 62
     4
 10
80.647224
 20
15.090238
 11
80.946983
 21
13.390236
  0
LINE
  8
0
  6
PHANTOM
 62
     4
 10
80.946983
 20
11.890238
 11
80.946983
 21
13.388853
  0
LINE
  8
0
 62
     4
 10
80.946983
 20
10.990240
 11
80.946983
 21
16.090239
  0
LINE
  8
0
 62
     4
 10
80.946983
 20
11.090239
 11
85.746979
 21
11.090239
  0
LINE
  8
0
 62
     4
 10
85.746979
 20
11.090239
 11
85.746979
 21
15.090239
  0
LINE
  8
0
 62
     4
 10
85.746979
 20
10.990240
 11
80.446983
 21
10.990240
  0
LINE
  8
0
 62
     4
 10
79.446983
 20
14.378912
 11
79.446983
 21
15.090239
  0
LINE
  8
0
 62
     4
 10
79.946983
 20
14.090239
 11
79.446983
 21
14.378914
  0
LINE
  8
0
 62
     4
 10
80.446983
 20
6.690239
 11
79.946983
 21
7.556265
  0
LINE
  8
0
 62
     4
 10
79.946983
 20
7.556265
 11
79.946983
 21
14.090239
  0
LINE
  8
0
 10
83.546982
 20
-17.609760
 11
83.546982
 21
-13.609761
  0
LINE
  8
0
 10
77.546982
 20
-14.109761
 11
83.546982
 21
-14.109761
  0
LINE
  8
0
 10
77.546982
 20
-13.609761
 11
68.746979
 21
-13.609761
  0
LINE
  8
0
 10
69.146980
 20
-22.609760
 11
77.146980
 21
-22.609760
  0
LINE
  8
0
 10
101.546982
 20
-32.909760
 11
101.546982
 21
-14.109761
  0
LINE
  8
0
 10
77.546982
 20
-32.909760
 11
77.546982
 21
-23.009762
  0
LINE
  8
0
 10
102.546982
 20
-20.709763
 11
101.546982
 21
-20.709763
  0
LINE
  8
0
 10
101.546982
 20
-20.709763
 11
101.546982
 21
-27.709761
  0
LINE
  8
0
 10
102.546982
 20
-20.709763
 11
102.546982
 21
-27.709761
  0
LINE
  8
0
 10
102.546982
 20
-27.709761
 11
101.546982
 21
-27.709761
  0
LINE
  8
0
 10
102.546982
 20
-32.909760
 11
101.546982
 21
-32.909760
  0
LINE
  8
0
 10
102.546982
 20
-60.909760
 11
101.546982
 21
-60.909760
  0
LINE
  8
0
 10
101.546982
 20
-32.909760
 11
101.546982
 21
-60.909760
  0
LINE
  8
0
 10
102.546982
 20
-32.909760
 11
102.546982
 21
-60.909760
  0
LINE
  8
0
 10
102.546982
 20
-60.909760
 11
101.546982
 21
-60.909760
  0
LINE
  8
0
 10
102.546982
 20
-66.109764
 11
101.546982
 21
-66.109764
  0
LINE
  8
0
 10
102.546982
 20
-73.109764
 11
102.546982
 21
-66.109764
  0
LINE
  8
0
 10
101.546982
 20
-73.109764
 11
101.546982
 21
-66.109764
  0
LINE
  8
0
 10
102.546982
 20
-73.109764
 11
101.546982
 21
-73.109764
  0
LINE
  8
0
 62
     4
 10
82.731979
 20
-109.909760
 11
82.731979
 21
-114.539757
  0
LINE
  8
0
 62
     4
 10
84.161987
 20
-109.909760
 11
84.161987
 21
-114.921089
  0
LINE
  8
0
  6
CENTER
 62
     2
 10
-127.729774
 20
-55.909760
 11
-117.633324
 21
-55.909760
  0
LINE
  8
0
  6
CENTER
 62
     2
 10
-127.729774
 20
-37.909760
 11
-117.633324
 21
-37.909760
  0
LINE
  8
0
  6
CENTER
 62
     1
 10
-152.511978
 20
-54.409760
 11
-145.169098
 21
-54.409760
  0
LINE
  8
0
  6
CENTER
 62
     1
 10
-152.511978
 20
-29.409761
 11
-145.169098
 21
-29.409761
  0
LINE
  8
0
 62
     1
 10
-107.393021
 20
-113.919754
 11
-101.393021
 21
-115.519760
  0
LINE
  8
0
 62
     1
 10
-107.393021
 20
-115.159767
 11
-101.393013
 21
-116.759766
  0
LINE
  8
0
 62
     4
 10
-105.068024
 20
-115.779762
 11
-105.068024
 21
-120.339760
  0
LINE
  8
0
 62
     4
 10
-103.638016
 20
-116.161095
 11
-103.638016
 21
-120.339760
  0
LINE
  8
0
 62
     4
 10
-103.953018
 20
-120.339760
 11
-103.953018
 21
-125.339760
  0
LINE
  8
0
 62
     4
 10
-104.753021
 20
-120.339760
 11
-104.753021
 21
-125.339760
  0
LINE
  8
0
 62
     4
 10
-103.638016
 20
-120.339760
 11
-105.068024
 21
-120.339760
  0
LINE
  8
0
 62
     4
 10
-103.953018
 20
-125.339760
 11
-104.753021
 21
-125.339760
  0
LINE
  8
0
 62
     4
 10
-103.638016
 20
-109.909760
 11
-103.638016
 21
-114.921089
  0
LINE
  8
0
 62
     4
 10
-105.068024
 20
-109.909760
 11
-105.068024
 21
-114.539757
  0
LINE
  8
0
 62
     4
 10
-104.753021
 20
31.520239
 11
-103.953018
 21
31.520239
  0
LINE
  8
0
 62
     4
 10
-105.068024
 20
26.520239
 11
-103.638016
 21
26.520239
  0
LINE
  8
0
 62
     4
 10
-103.953018
 20
26.520239
 11
-103.953018
 21
31.520239
  0
LINE
  8
0
 62
     4
 10
-104.753021
 20
26.520239
 11
-104.753021
 21
31.520239
  0
LINE
  8
0
 62
     4
 10
-105.068024
 20
22.341574
 11
-105.068024
 21
26.520239
  0
LINE
  8
0
 62
     4
 10
-103.638016
 20
21.960238
 11
-103.638016
 21
26.520239
  0
LINE
  8
0
 62
     1
 10
-101.313019
 20
21.340239
 11
-107.313019
 21
22.940237
  0
LINE
  8
0
 62
     1
 10
-101.313019
 20
20.100237
 11
-107.313019
 21
21.700237
  0
LINE
  8
0
 62
     4
 10
-105.068024
 20
16.090239
 11
-105.068024
 21
21.101572
  0
LINE
  8
0
 62
     4
 10
-103.638016
 20
16.090239
 11
-103.638016
 21
20.720240
  0
LINE
  8
0
 10
-98.653015
 20
-76.209763
 11
-98.653015
 21
-77.752228
  0
LINE
  8
0
 10
-98.453018
 20
-76.209763
 11
-98.453018
 21
-80.209763
  0
LINE
  8
0
 10
-98.453018
 20
-76.209763
 11
-104.453018
 21
-76.209763
  0
LINE
  8
0
 62
     4
 10
-89.153015
 20
-79.709763
 11
-89.653015
 21
-79.709763
  0
LINE
  8
0
 10
-89.653015
 20
-68.809761
 11
-89.653015
 21
-80.209763
  0
LINE
  8
0
 10
-90.053017
 20
-68.409760
 11
-97.953018
 21
-68.409760
  0
LINE
  8
0
 10
-122.453011
 20
-79.709755
 11
-121.953011
 21
-80.209755
  0
LINE
  8
0
 10
-121.953018
 20
-80.209763
 11
-104.453018
 21
-80.209763
  0
LINE
  8
0
 10
-104.253021
 20
-76.209763
 11
-104.253021
 21
-77.752228
  0
LINE
  8
0
 62
     4
 10
-108.062195
 20
-94.709763
 11
-107.251091
 21
-99.309753
  0
LINE
  8
0
 62
     4
 10
-106.753021
 20
-93.409760
 11
-106.753021
 21
-99.309761
  0
LINE
  8
0
 62
     4
 10
-107.251099
 20
-99.309761
 11
-106.753021
 21
-99.309761
  0
LINE
  8
0
 62
     4
 10
-106.653015
 20
-98.709763
 11
-106.753021
 21
-98.709763
  0
LINE
  8
0
 62
     4
 10
-90.653015
 20
-93.409760
 11
-90.653015
 21
-80.909760
  0
LINE
  8
0
 62
     4
 10
-114.753021
 20
-94.709763
 11
-108.062202
 21
-94.709763
  0
LINE
  8
0
 62
     4
 10
-90.653015
 20
-93.409760
 11
-106.753021
 21
-93.409760
  0
LINE
  8
0
 62
     4
 10
-89.153015
 20
-79.709763
 11
-89.153015
 21
-80.609764
  0
LINE
  8
0
 62
     4
 10
-89.153015
 20
-80.909760
 11
-90.653015
 21
-80.909760
  0
LINE
  8
0
 62
     4
 10
-89.153015
 20
-80.609764
 11
-89.453018
 21
-80.909760
  0
LINE
  8
0
 62
     4
 10
-121.153015
 20
-91.209763
 11
-115.370163
 21
-91.209763
  0
LINE
  8
0
 62
     4
 10
-114.253021
 20
-93.709763
 11
-111.053017
 21
-93.709763
  0
LINE
  8
0
 62
     4
 10
-114.153015
 20
-93.809761
 11
-114.153015
 21
-93.709763
  0
LINE
  8
0
 62
     4
 10
-114.253021
 20
-94.709763
 11
-114.253021
 21
-93.709763
  0
LINE
  8
0
 62
     4
 10
-115.370163
 20
-91.209763
 11
-114.753014
 21
-94.709763
  0
LINE
  8
0
 62
     4
 10
-113.653015
 20
-94.309761
 11
-111.653015
 21
-94.309761
  0
LINE
  8
0
 62
     4
 10
-111.153015
 20
-93.809761
 11
-111.153015
 21
-93.709763
  0
LINE
  8
0
 62
     4
 10
-111.053017
 20
-94.709763
 11
-111.053017
 21
-93.709763
  0
LINE
  8
0
 62
     4
 10
-120.453018
 20
-90.509758
 11
-120.453018
 21
-82.909760
  0
LINE
  8
0
 62
     4
 10
-121.153015
 20
-80.209763
 11
-121.153015
 21
-91.209763
  0
LINE
  8
0
 62
     4
 10
-119.653015
 20
-90.509758
 11
-119.653015
 21
-82.909760
  0
LINE
  8
0
 62
     4
 10
-119.653015
 20
-90.509758
 11
-120.453018
 21
-90.509758
  0
LINE
  8
0
 62
     4
 10
-120.453018
 20
-82.909760
 11
-119.653015
 21
-82.909760
  0
LINE
  8
0
 62
     4
 10
-89.153015
 20
-80.909760
 11
-89.153015
 21
-99.009758
  0
LINE
  8
0
 62
     4
 10
-101.353020
 20
-99.309761
 11
-89.453018
 21
-99.309761
  0
LINE
  8
0
 62
     4
 10
-106.653015
 20
-104.809761
 11
-106.653015
 21
-93.409760
  0
LINE
  8
0
 62
     4
 10
-101.353020
 20
-104.809761
 11
-101.353020
 21
-99.309761
  0
LINE
  8
0
 62
     4
 10
-101.553261
 20
-108.909760
 11
-100.353020
 21
-108.909760
  0
LINE
  8
0
 62
     4
 10
-106.653023
 20
-108.909760
 11
-107.153023
 21
-109.198433
  0
LINE
  8
0
 62
     4
 10
-107.153015
 20
-109.198433
 11
-107.153015
 21
-109.909760
  0
LINE
  8
0
 62
     4
 10
-105.953018
 20
-104.809761
 11
-105.953018
 21
-104.909760
  0
LINE
  8
0
 62
     4
 10
-107.153015
 20
-109.909760
 11
-101.853020
 21
-109.909760
  0
LINE
  8
0
 62
     4
 10
-101.553261
 20
-108.909760
 11
-101.853020
 21
-107.209755
  0
LINE
  8
0
  6
PHANTOM
 62
     4
 10
-101.853020
 20
-105.709763
 11
-101.853020
 21
-107.208374
  0
LINE
  8
0
 62
     4
 10
-101.853020
 20
-104.809761
 11
-101.853020
 21
-109.909760
  0
LINE
  8
0
 62
     4
 10
-101.853020
 20
-104.909760
 11
-106.653015
 21
-104.909760
  0
LINE
  8
0
 62
     4
 10
-106.653015
 20
-104.909760
 11
-106.653015
 21
-108.909760
  0
LINE
  8
0
 62
     4
 10
-106.653015
 20
-104.809761
 11
-101.353020
 21
-104.809761
  0
LINE
  8
0
 62
     4
 10
-100.353020
 20
-108.198433
 11
-100.353020
 21
-108.909760
  0
LINE
  8
0
 62
     4
 10
-100.853020
 20
-107.909767
 11
-100.353012
 21
-108.198448
  0
LINE
  8
0
 62
     4
 10
-101.353020
 20
-100.509758
 11
-100.853020
 21
-101.375786
  0
LINE
  8
0
 62
     4
 10
-100.853020
 20
-101.375786
 11
-100.853020
 21
-107.909760
  0
LINE
  8
0
 10
-104.453018
 20
-76.209763
 11
-104.453018
 21
-80.209763
  0
LINE
  8
0
 10
-98.453018
 20
-79.709763
 11
-104.453018
 21
-79.709763
  0
LINE
  8
0
 10
-98.453018
 20
-80.209763
 11
-89.653015
 21
-80.209763
  0
LINE
  8
0
 10
-90.053017
 20
-71.209763
 11
-98.053017
 21
-71.209763
  0
LINE
  8
0
 10
-98.453018
 20
-60.909760
 11
-98.453018
 21
-70.809761
  0
LINE
  8
0
 10
-122.453018
 20
-60.909760
 11
-122.453018
 21
-79.709763
  0
LINE
  8
0
 10
-100.853020
 20
-36.099762
 11
-100.853020
 21
-39.729759
  0
LINE
  8
0
 10
-101.453018
 20
-36.099762
 11
-101.453018
 21
-39.729759
  0
LINE
  8
0
 10
-101.453018
 20
-39.729759
 11
-98.453018
 21
-39.729759
  0
LINE
  8
0
 10
-101.453018
 20
-36.099762
 11
-98.453018
 21
-36.099762
  0
LINE
  8
0
  6
CENTER
 62
     1
 10
-140.953018
 20
-33.409760
 11
-140.953018
 21
-47.409760
  0
LINE
  8
0
  6
CENTER
 62
     1
 10
-130.953018
 20
-46.409760
 11
-130.953018
 21
-60.409760
  0
LINE
  8
0
  6
CENTER
 62
     1
 10
-147.953018
 20
-40.409760
 11
-133.953018
 21
-40.409760
  0
LINE
  8
0
  6
CENTER
 62
     1
 10
-137.953018
 20
-53.409760
 11
-123.953018
 21
-53.409760
  0
LINE
  8
0
 62
     4
 10
-148.453018
 20
-74.409760
 11
-123.453018
 21
-74.409760
  0
LINE
  8
0
 62
     4
 10
-148.453018
 20
-19.409761
 11
-123.453018
 21
-19.409761
  0
LINE
  8
0
 62
     4
 10
-148.453018
 20
-19.409761
 11
-148.453018
 21
-74.409760
  0
LINE
  8
0
 62
     4
 10
-123.453018
 20
-19.409761
 11
-123.453018
 21
-74.409760
  0
LINE
  8
0
 62
     4
 10
-100.853020
 20
7.556265
 11
-100.853020
 21
14.090239
  0
LINE
  8
0
 62
     4
 10
-101.353012
 20
6.690238
 11
-100.853012
 21
7.556263
  0
LINE
  8
0
 62
     4
 10
-100.853020
 20
14.090238
 11
-100.353020
 21
14.378915
  0
LINE
  8
0
 62
     4
 10
-100.353020
 20
14.378912
 11
-100.353020
 21
15.090239
  0
LINE
  8
0
 62
     4
 10
-106.653015
 20
10.990240
 11
-101.353020
 21
10.990240
  0
LINE
  8
0
 62
     4
 10
-106.653015
 20
11.090239
 11
-106.653015
 21
15.090239
  0
LINE
  8
0
 62
     4
 10
-101.853020
 20
11.090239
 11
-106.653015
 21
11.090239
  0
LINE
  8
0
 62
     4
 10
-101.853020
 20
10.990240
 11
-101.853020
 21
16.090239
  0
LINE
  8
0
  6
PHANTOM
 62
     4
 10
-101.853020
 20
11.890238
 11
-101.853020
 21
13.388853
  0
LINE
  8
0
 62
     4
 10
-101.553261
 20
15.090239
 11
-101.853020
 21
13.390237
  0
LINE
  8
0
 62
     4
 10
-107.153015
 20
16.090239
 11
-101.853020
 21
16.090239
  0
LINE
  8
0
 62
     4
 10
-105.953018
 20
10.990240
 11
-105.953018
 21
11.090239
  0
LINE
  8
0
 62
     4
 10
-107.153015
 20
15.378912
 11
-107.153015
 21
16.090239
  0
LINE
  8
0
 62
     4
 10
-106.653015
 20
15.090237
 11
-107.153015
 21
15.378910
  0
LINE
  8
0
 62
     4
 10
-101.553261
 20
15.090239
 11
-100.353020
 21
15.090239
  0
LINE
  8
0
 62
     4
 10
-101.353020
 20
10.990240
 11
-101.353020
 21
5.490240
  0
LINE
  8
0
 62
     4
 10
-106.653015
 20
10.990240
 11
-106.653015
 21
-0.409761
  0
LINE
  8
0
 62
     4
 10
-101.353020
 20
5.490240
 11
-89.453018
 21
5.490240
  0
LINE
  8
0
 62
     4
 10
-89.153015
 20
-12.909761
 11
-89.153015
 21
5.190237
  0
LINE
  8
0
 62
     4
 10
-120.453018
 20
-10.909761
 11
-119.653015
 21
-10.909761
  0
LINE
  8
0
 62
     4
 10
-119.653015
 20
-3.309761
 11
-120.453018
 21
-3.309761
  0
LINE
  8
0
 62
     4
 10
-119.653015
 20
-3.309761
 11
-119.653015
 21
-10.909761
  0
LINE
  8
0
 62
     4
 10
-121.153015
 20
-14.109761
 11
-121.153015
 21
-2.609762
  0
LINE
  8
0
 62
     4
 10
-120.453018
 20
-3.309761
 11
-120.453018
 21
-10.909761
  0
LINE
  8
0
 62
     4
 10
-111.053017
 20
0.890238
 11
-111.053017
 21
-0.109762
  0
LINE
  8
0
 62
     4
 10
-111.153015
 20
-0.009762
 11
-111.153015
 21
-0.109762
  0
LINE
  8
0
 62
     4
 10
-113.653015
 20
0.490238
 11
-111.653015
 21
0.490238
  0
LINE
  8
0
 62
     4
 10
-115.370163
 20
-2.609761
 11
-114.753021
 21
0.890240
  0
LINE
  8
0
 62
     4
 10
-114.253021
 20
0.890238
 11
-114.253021
 21
-0.109762
  0
LINE
  8
0
 62
     4
 10
-114.153015
 20
-0.009762
 11
-114.153015
 21
-0.109762
  0
LINE
  8
0
 62
     4
 10
-114.253021
 20
-0.109762
 11
-111.053017
 21
-0.109762
  0
LINE
  8
0
 62
     4
 10
-121.153015
 20
-2.609762
 11
-115.370163
 21
-2.609762
  0
LINE
  8
0
 62
     4
 10
-89.153015
 20
-13.209760
 11
-89.453018
 21
-12.909762
  0
LINE
  8
0
 62
     4
 10
-89.153015
 20
-12.909761
 11
-90.653015
 21
-12.909761
  0
LINE
  8
0
 62
     4
 10
-89.153015
 20
-14.109761
 11
-89.153015
 21
-13.209761
  0
LINE
  8
0
 62
     4
 10
-90.653015
 20
-0.409761
 11
-106.753021
 21
-0.409761
  0
LINE
  8
0
 62
     4
 10
-114.753021
 20
0.890238
 11
-108.062202
 21
0.890238
  0
LINE
  8
0
 62
     4
 10
-90.653015
 20
-0.409761
 11
-90.653015
 21
-12.909761
  0
LINE
  8
0
 62
     4
 10
-106.653015
 20
4.890238
 11
-106.753021
 21
4.890238
  0
LINE
  8
0
 62
     4
 10
-107.251099
 20
5.490240
 11
-106.753021
 21
5.490240
  0
LINE
  8
0
 62
     4
 10
-106.753021
 20
-0.409761
 11
-106.753021
 21
5.490240
  0
LINE
  8
0
 62
     4
 10
-108.062202
 20
0.890236
 11
-107.251099
 21
5.490237
  0
LINE
  8
0
 10
-122.253021
 20
-17.609760
 11
-122.253021
 21
-16.067299
  0
LINE
  8
0
 10
-121.353020
 20
-13.609761
 11
-121.353020
 21
-14.109761
  0
LINE
  8
0
 10
-89.653015
 20
-13.609761
 11
-116.453018
 21
-13.609761
  0
LINE
  8
0
 10
-122.453018
 20
-14.109756
 11
-121.953026
 21
-13.609762
  0
LINE
  8
0
 10
-122.453018
 20
-32.909760
 11
-122.453018
 21
-14.109761
  0
LINE
  8
0
 10
-90.053017
 20
-25.409761
 11
-97.953018
 21
-25.409761
  0
LINE
  8
0
 10
-89.653015
 20
-25.009762
 11
-89.653015
 21
-13.609761
  0
LINE
  8
0
 10
-98.453018
 20
-32.909760
 11
-122.453018
 21
-32.909760
  0
LINE
  8
0
 62
     4
 10
-89.153015
 20
-14.109761
 11
-89.653015
 21
-14.109761
  0
LINE
  8
0
 10
-98.453018
 20
-32.909760
 11
-98.453018
 21
-23.009762
  0
LINE
  8
0
 10
-116.453018
 20
-17.609760
 11
-122.453018
 21
-17.609760
  0
LINE
  8
0
 10
-116.453018
 20
-17.609760
 11
-116.453018
 21
-13.609761
  0
LINE
  8
0
 10
-116.653015
 20
-17.609760
 11
-116.653015
 21
-16.067299
  0
LINE
  8
0
 10
-90.053017
 20
-22.609760
 11
-98.053017
 21
-22.609760
  0
LINE
  8
0
 10
-116.453018
 20
-14.109761
 11
-121.353020
 21
-14.109761
  0
LINE
  8
0
 10
-121.153015
 20
-13.609761
 11
-121.953018
 21
-13.609761
  0
LINE
  8
0
 10
-122.453018
 20
-32.909760
 11
-122.453018
 21
-60.909760
  0
LINE
  8
0
 10
-122.453018
 20
-60.909760
 11
-98.453018
 21
-60.909760
  0
LINE
  8
0
 10
-98.453018
 20
-32.909760
 11
-98.453018
 21
-60.909760
  0
LINE
  8
0
 10
-123.453018
 20
-20.709763
 11
-122.453018
 21
-20.709763
  0
LINE
  8
0
 10
-122.453018
 20
-20.709763
 11
-122.453018
 21
-27.709761
  0
LINE
  8
0
 10
-123.453018
 20
-20.709763
 11
-123.453018
 21
-27.709761
  0
LINE
  8
0
 10
-123.453018
 20
-27.709761
 11
-122.453018
 21
-27.709761
  0
LINE
  8
0
 10
-123.453018
 20
-32.909760
 11
-122.453018
 21
-32.909760
  0
LINE
  8
0
 10
-123.453018
 20
-60.909760
 11
-122.453018
 21
-60.909760
  0
LINE
  8
0
 10
-122.453018
 20
-32.909760
 11
-122.453018
 21
-60.909760
  0
LINE
  8
0
 10
-123.453018
 20
-32.909760
 11
-123.453018
 21
-60.909760
  0
LINE
  8
0
 10
-123.453018
 20
-60.909760
 11
-122.453018
 21
-60.909760
  0
LINE
  8
0
 10
-123.453018
 20
-66.109764
 11
-122.453018
 21
-66.109764
  0
LINE
  8
0
 10
-123.453018
 20
-73.109764
 11
-123.453018
 21
-66.109764
  0
LINE
  8
0
 10
-122.453018
 20
-73.109764
 11
-122.453018
 21
-66.109764
  0
LINE
  8
0
 10
-123.453018
 20
-73.109764
 11
-122.453018
 21
-73.109764
  0
LINE
  8
0
  6
CENTER
 62
     2
 10
-13.453020
 20
-71.209763
 11
-7.453020
 21
-71.209763
  0
LINE
  8
0
  6
CENTER
 62
     2
 10
-13.453020
 20
-22.609760
 11
-7.453020
 21
-22.609760
  0
LINE
  8
0
 62
     4
 10
-7.513021
 20
-120.439758
 11
-7.513021
 21
-125.439758
  0
LINE
  8
0
 62
     4
 10
-8.313020
 20
-120.439758
 11
-8.313020
 21
-125.439758
  0
LINE
  8
0
 62
     1
 10
-16.033024
 20
-114.019760
 11
-4.934711
 21
-116.979317
  0
LINE
  8
0
 62
     1
 10
-16.033018
 20
-115.259758
 11
-4.934706
 21
-118.219307
  0
LINE
  8
0
 62
     4
 10
-8.628020
 20
-117.234428
 11
-8.628020
 21
-120.439758
  0
LINE
  8
0
 62
     4
 10
-7.198020
 20
-117.615761
 11
-7.198020
 21
-120.439758
  0
LINE
  8
0
 62
     4
 10
-8.628020
 20
-120.439758
 11
-7.198020
 21
-120.439758
  0
LINE
  8
0
 62
     4
 10
-12.593020
 20
-125.439758
 11
-13.393020
 21
-125.439758
  0
LINE
  8
0
 62
     4
 10
-12.278020
 20
-120.439758
 11
-13.708020
 21
-120.439758
  0
LINE
  8
0
 62
     4
 10
-13.393020
 20
-120.439758
 11
-13.393020
 21
-125.439758
  0
LINE
  8
0
 62
     4
 10
-12.593020
 20
-120.439758
 11
-12.593020
 21
-125.439758
  0
LINE
  8
0
 62
     4
 10
-12.278020
 20
-116.249756
 11
-12.278020
 21
-120.439758
  0
LINE
  8
0
 62
     4
 10
-13.708020
 20
-115.869759
 11
-13.708020
 21
-120.439758
  0
LINE
  8
0
 62
     4
 10
-8.313020
 20
-125.439758
 11
-7.513021
 21
-125.439758
  0
LINE
  8
0
 62
     4
 10
-12.278020
 20
-109.909760
 11
-12.278020
 21
-115.009758
  0
LINE
  8
0
 62
     4
 10
-13.708020
 20
-109.909760
 11
-13.708020
 21
-114.639763
  0
LINE
  8
0
 62
     4
 10
-7.198020
 20
-109.909760
 11
-7.198020
 21
-116.375763
  0
LINE
  8
0
 62
     4
 10
-8.628020
 20
-109.909760
 11
-8.628020
 21
-115.994423
  0
LINE
  8
0
 62
     4
 10
-12.593020
 20
31.620237
 11
-13.393020
 21
31.620237
  0
LINE
  8
0
 62
     4
 10
-7.198020
 20
22.050238
 11
-7.198020
 21
26.620237
  0
LINE
  8
0
 62
     4
 10
-8.628020
 20
22.430239
 11
-8.628020
 21
26.620237
  0
LINE
  8
0
 62
     4
 10
-8.313020
 20
26.620237
 11
-8.313020
 21
31.620237
  0
LINE
  8
0
 62
     4
 10
-7.513021
 20
26.620237
 11
-7.513021
 21
31.620237
  0
LINE
  8
0
 62
     4
 10
-8.628020
 20
26.620237
 11
-7.198020
 21
26.620237
  0
LINE
  8
0
 62
     4
 10
-8.313020
 20
31.620237
 11
-7.513021
 21
31.620237
  0
LINE
  8
0
 62
     4
 10
-8.628020
 20
16.090239
 11
-8.628020
 21
21.190237
  0
LINE
  8
0
 62
     4
 10
-7.198020
 20
16.090239
 11
-7.198020
 21
20.820238
  0
LINE
  8
0
 62
     4
 10
-12.278020
 20
26.620237
 11
-13.708020
 21
26.620237
  0
LINE
  8
0
 62
     4
 10
-13.708020
 20
23.796240
 11
-13.708020
 21
26.620237
  0
LINE
  8
0
 62
     4
 10
-12.278020
 20
23.414904
 11
-12.278020
 21
26.620237
  0
LINE
  8
0
 62
     1
 10
-4.873020
 20
21.440241
 11
-15.971333
 21
24.399790
  0
LINE
  8
0
 62
     1
 10
-4.873019
 20
20.200239
 11
-15.971333
 21
23.159790
  0
LINE
  8
0
 62
     4
 10
-13.708020
 20
16.090239
 11
-13.708020
 21
22.556238
  0
LINE
  8
0
 62
     4
 10
-12.278020
 20
16.090239
 11
-12.278020
 21
22.174906
  0
LINE
  8
0
 62
     4
 10
-12.593020
 20
26.620237
 11
-12.593020
 21
31.620237
  0
LINE
  8
0
 62
     4
 10
-13.393020
 20
26.620237
 11
-13.393020
 21
31.620237
  0
LINE
  8
0
 62
     4
 10
-14.553020
 20
-104.909760
 11
-14.553020
 21
-104.809761
  0
LINE
  8
0
 62
     4
 10
-6.353020
 20
-104.909760
 11
-6.353020
 21
-104.809761
  0
LINE
  8
0
 62
     4
 10
-14.553020
 20
11.090239
 11
-14.553020
 21
10.990240
  0
LINE
  8
0
 62
     4
 10
-6.353020
 20
11.090239
 11
-6.353020
 21
10.990240
  0
LINE
  8
0
 62
     4
 10
-12.953020
 20
-104.909760
 11
-15.153020
 21
-104.909760
  0
LINE
  8
0
 62
     4
 10
-5.753019
 20
-104.909760
 11
-7.953020
 21
-104.909760
  0
LINE
  8
0
 62
     4
 10
-12.953020
 20
11.090239
 11
-15.153020
 21
11.090239
  0
LINE
  8
0
 62
     4
 10
-5.753019
 20
11.090239
 11
-7.953020
 21
11.090239
  0
LINE
  8
0
 62
     4
 10
-2.953020
 20
-74.409760
 11
4.546980
 21
-74.409760
  0
LINE
  8
0
 62
     4
 10
-12.953020
 20
-104.809761
 11
-15.453020
 21
-104.809761
  0
LINE
  8
0
 62
     4
 10
-12.953020
 20
-101.275787
 11
-7.953020
 21
-101.275787
  0
LINE
  8
0
 62
     4
 10
-15.153020
 20
-104.909760
 11
-15.153020
 21
-109.909760
  0
LINE
  8
0
 62
     4
 10
-12.953020
 20
-100.409760
 11
-12.953020
 21
-108.909760
  0
LINE
  8
0
 62
     4
 10
-14.053020
 20
-104.909760
 11
-14.053020
 21
-109.909760
  0
LINE
  8
0
 62
     4
 10
-6.853020
 20
-104.909760
 11
-6.853020
 21
-109.909760
  0
LINE
  8
0
 62
     4
 10
-12.953020
 20
-107.909760
 11
-7.953020
 21
-107.909760
  0
LINE
  8
0
 62
     4
 10
-12.953020
 20
-108.198433
 11
-7.953020
 21
-108.198433
  0
LINE
  8
0
 62
     4
 10
-7.953020
 20
-100.409760
 11
-7.953020
 21
-108.909760
  0
LINE
  8
0
 62
     4
 10
-5.753019
 20
-104.909760
 11
-5.753019
 21
-109.909760
  0
LINE
  8
0
 62
     4
 10
-7.953020
 20
-108.909760
 11
-12.953020
 21
-108.909760
  0
LINE
  8
0
 62
     4
 10
-5.753019
 20
-109.909760
 11
-15.153020
 21
-109.909760
  0
LINE
  8
0
 62
     4
 10
-7.953020
 20
-100.409760
 11
-12.953020
 21
-100.409760
  0
LINE
  8
0
 62
     1
 10
-11.953020
 20
-96.309761
 11
-11.953020
 21
-99.309761
  0
LINE
  8
0
 62
     1
 10
-8.953020
 20
-96.309761
 11
-8.953020
 21
-99.309761
  0
LINE
  8
0
 62
     1
 10
-11.953020
 20
-96.309761
 11
-8.953020
 21
-96.309761
  0
LINE
  8
0
 62
     4
 10
-13.353020
 20
-99.309761
 11
-13.353020
 21
-104.809761
  0
LINE
  8
0
 62
     4
 10
-7.553020
 20
-99.309761
 11
-7.553020
 21
-104.809761
  0
LINE
  8
0
 62
     4
 10
-5.453020
 20
-104.809761
 11
-7.953020
 21
-104.809761
  0
LINE
  8
0
 62
     4
 10
-5.453020
 20
-79.709763
 11
-5.453020
 21
-104.809761
  0
LINE
  8
0
 62
     4
 10
-15.453020
 20
-79.709763
 11
-15.453020
 21
-104.809761
  0
LINE
  8
0
 62
     4
 10
-15.453020
 20
-80.909760
 11
-5.453020
 21
-80.909760
  0
LINE
  8
0
 62
     4
 10
-15.153020
 20
-99.309761
 11
-5.753019
 21
-99.309761
  0
LINE
  8
0
 62
     4
 10
-5.453020
 20
-80.609764
 11
-15.453020
 21
-80.609764
  0
LINE
  8
0
 10
-4.903021
 20
-80.209763
 11
-4.403021
 21
-80.209763
  0
LINE
  8
0
 10
-13.675265
 20
-70.959763
 11
-12.347359
 21
-68.659760
  0
LINE
  8
0
 10
-8.616416
 20
-68.559761
 11
-7.230775
 21
-70.959763
  0
LINE
  8
0
 10
-11.914345
 20
-68.409760
 11
-8.876225
 21
-68.409760
  0
LINE
  8
0
 10
-5.203020
 20
-79.709763
 11
-5.203020
 21
-79.909760
  0
LINE
  8
0
 10
-15.703020
 20
-79.709763
 11
-15.703020
 21
-79.909760
  0
LINE
  8
0
 10
-16.453020
 20
-80.209763
 11
-16.003021
 21
-80.209763
  0
LINE
  8
0
 10
-17.953022
 20
-78.709763
 11
-16.453020
 21
-80.209763
  0
LINE
  8
0
 10
-4.453022
 20
-80.209763
 11
-2.953022
 21
-78.709763
  0
LINE
  8
0
 10
-6.797764
 20
-71.209763
 11
-2.953020
 21
-71.209763
  0
LINE
  8
0
 10
-14.108276
 20
-71.209763
 11
-17.953020
 21
-71.209763
  0
LINE
  8
0
 10
-5.203020
 20
-79.709763
 11
-15.703020
 21
-79.709763
  0
LINE
  8
0
 10
-2.953020
 20
-78.709763
 11
-2.953020
 21
-60.909760
  0
LINE
  8
0
 10
-17.953020
 20
-78.709763
 11
-17.953020
 21
-60.909760
  0
LINE
  8
0
 10
-2.953020
 20
-57.492706
 11
-2.953020
 21
-60.909760
  0
LINE
  8
0
 10
-17.953020
 20
-39.505253
 11
-17.953020
 21
-60.909760
  0
LINE
  8
0
 10
-6.518021
 20
-57.474758
 11
-3.388019
 21
-54.344757
  0
LINE
  8
0
 10
-5.908021
 20
-54.954762
 11
-3.998021
 21
-56.864761
  0
LINE
  8
0
 10
-2.448021
 20
-56.374763
 11
-2.748020
 21
-56.374763
  0
LINE
  8
0
 10
-2.728020
 20
-56.204762
 11
-2.418020
 21
-56.204762
  0
LINE
  8
0
 10
-2.728020
 20
-55.604759
 11
-2.418020
 21
-55.604759
  0
LINE
  8
0
 10
-17.518019
 20
-39.474762
 11
-14.388020
 21
-36.344761
  0
LINE
  8
0
 10
-16.908020
 20
-36.954762
 11
-14.998020
 21
-38.864761
  0
LINE
  8
0
 10
-13.448020
 20
-38.374763
 11
-13.748020
 21
-38.374763
  0
LINE
  8
0
 10
-13.728020
 20
-38.204762
 11
-13.418020
 21
-38.204762
  0
LINE
  8
0
 10
-13.728020
 20
-37.604759
 11
-13.418020
 21
-37.604759
  0
LINE
  8
0
  6
CENTER
 62
     1
 10
-22.453020
 20
-26.909761
 11
-22.453020
 21
-31.909761
  0
LINE
  8
0
  6
CENTER
 62
     1
 10
1.546980
 20
-51.909760
 11
1.546980
 21
-56.909760
  0
LINE
  8
0
  6
CENTER
 62
     1
 10
-0.953020
 20
-54.409760
 11
4.046980
 21
-54.409760
  0
LINE
  8
0
  6
CENTER
 62
     1
 10
-24.953020
 20
-29.409761
 11
-19.953020
 21
-29.409761
  0
LINE
  8
0
 62
     4
 10
-2.953020
 20
-19.409761
 11
4.546980
 21
-19.409761
  0
LINE
  8
0
 62
     4
 10
4.546980
 20
-19.409761
 11
4.546980
 21
-74.409760
  0
LINE
  8
0
 62
     4
 10
-25.453020
 20
-19.409761
 11
-25.453020
 21
-74.409760
  0
LINE
  8
0
 62
     4
 10
-25.453020
 20
-74.409760
 11
-17.953020
 21
-74.409760
  0
LINE
  8
0
 62
     4
 10
-25.453020
 20
-19.409761
 11
-17.953020
 21
-19.409761
  0
LINE
  8
0
 62
     4
 10
-12.953020
 20
10.990240
 11
-15.453020
 21
10.990240
  0
LINE
  8
0
 62
     4
 10
-12.953020
 20
7.456263
 11
-7.953020
 21
7.456263
  0
LINE
  8
0
 62
     4
 10
-15.153020
 20
11.090239
 11
-15.153020
 21
16.090239
  0
LINE
  8
0
 62
     4
 10
-12.953020
 20
6.590239
 11
-12.953020
 21
15.090239
  0
LINE
  8
0
 62
     4
 10
-14.053020
 20
11.090239
 11
-14.053020
 21
16.090239
  0
LINE
  8
0
 62
     4
 10
-6.853020
 20
11.090239
 11
-6.853020
 21
16.090239
  0
LINE
  8
0
 62
     4
 10
-12.953020
 20
14.090239
 11
-7.953020
 21
14.090239
  0
LINE
  8
0
 62
     4
 10
-12.953020
 20
14.378912
 11
-7.953020
 21
14.378912
  0
LINE
  8
0
 62
     4
 10
-7.953020
 20
6.590239
 11
-7.953020
 21
15.090239
  0
LINE
  8
0
 62
     4
 10
-5.753019
 20
11.090239
 11
-5.753019
 21
16.090239
  0
LINE
  8
0
 62
     4
 10
-7.953020
 20
15.090239
 11
-12.953020
 21
15.090239
  0
LINE
  8
0
 62
     4
 10
-5.753019
 20
16.090239
 11
-15.153020
 21
16.090239
  0
LINE
  8
0
 62
     4
 10
-7.953020
 20
6.590239
 11
-12.953020
 21
6.590239
  0
LINE
  8
0
 62
     1
 10
-11.953020
 20
2.490238
 11
-11.953020
 21
5.490240
  0
LINE
  8
0
 62
     1
 10
-11.953020
 20
2.490238
 11
-8.953020
 21
2.490238
  0
LINE
  8
0
 62
     1
 10
-8.953020
 20
2.490238
 11
-8.953020
 21
5.490240
  0
LINE
  8
0
 62
     4
 10
-13.353020
 20
5.490240
 11
-13.353020
 21
10.990240
  0
LINE
  8
0
 62
     4
 10
-7.553020
 20
5.490240
 11
-7.553020
 21
10.990240
  0
LINE
  8
0
 62
     4
 10
-5.453020
 20
10.990240
 11
-7.953020
 21
10.990240
  0
LINE
  8
0
 62
     4
 10
-5.453020
 20
-14.109761
 11
-5.453020
 21
10.990240
  0
LINE
  8
0
 62
     4
 10
-15.453020
 20
-14.109761
 11
-15.453020
 21
10.990240
  0
LINE
  8
0
 62
     4
 10
-15.453020
 20
-12.909761
 11
-5.453020
 21
-12.909761
  0
LINE
  8
0
 62
     4
 10
-15.153020
 20
5.490240
 11
-5.753019
 21
5.490240
  0
LINE
  8
0
 62
     4
 10
-5.453020
 20
-13.209761
 11
-15.453020
 21
-13.209761
  0
LINE
  8
0
 10
-4.903021
 20
-13.609761
 11
-4.403021
 21
-13.609761
  0
LINE
  8
0
 10
-13.675263
 20
-22.859762
 11
-12.347358
 21
-25.159761
  0
LINE
  8
0
 10
-8.616416
 20
-25.259762
 11
-7.230776
 21
-22.859760
  0
LINE
  8
0
 10
-11.914345
 20
-25.409761
 11
-8.876225
 21
-25.409761
  0
LINE
  8
0
 10
-5.203020
 20
-14.109761
 11
-5.203020
 21
-13.909761
  0
LINE
  8
0
 10
-15.703020
 20
-14.109761
 11
-15.703020
 21
-13.909761
  0
LINE
  8
0
 10
-16.453020
 20
-13.609761
 11
-16.003021
 21
-13.609761
  0
LINE
  8
0
 10
-17.953020
 20
-15.109761
 11
-16.453020
 21
-13.609761
  0
LINE
  8
0
 10
-4.453020
 20
-13.609761
 11
-2.953020
 21
-15.109761
  0
LINE
  8
0
 10
-2.953020
 20
-15.109761
 11
-2.953020
 21
-32.909760
  0
LINE
  8
0
 10
-17.953020
 20
-15.109761
 11
-17.953020
 21
-32.909760
  0
LINE
  8
0
 10
-6.797764
 20
-22.609760
 11
-2.953020
 21
-22.609760
  0
LINE
  8
0
 10
-14.108276
 20
-22.609760
 11
-17.953020
 21
-22.609760
  0
LINE
  8
0
 10
-2.953020
 20
-32.909760
 11
-17.953020
 21
-32.909760
  0
LINE
  8
0
 10
-5.203020
 20
-14.109761
 11
-15.703020
 21
-14.109761
  0
LINE
  8
0
 10
-2.953020
 20
-32.909760
 11
-2.953020
 21
-54.316814
  0
LINE
  8
0
 10
-17.953020
 20
-32.909760
 11
-17.953020
 21
-36.304268
  0
LINE
  8
0
 10
-2.953020
 20
-60.909760
 11
-17.953020
 21
-60.909760
  0
LINE
  8
0
 62
     4
 10
-12.412612
 20
-22.209763
 11
-8.493428
 21
-22.209763
  0
LINE
  8
0
 62
     4
 10
-12.412612
 20
-23.009762
 11
-8.493428
 21
-23.009762
  0
LINE
  8
0
 62
     4
 10
-12.412612
 20
-70.809761
 11
-8.493428
 21
-70.809761
  0
LINE
  8
0
 62
     4
 10
-12.412612
 20
-71.609764
 11
-8.493428
 21
-71.609764
  0
LINE
  8
0
  6
CENTER
 62
     2
 10
-10.453020
 20
33.918861
 11
-10.453020
 21
-127.685318
  0
LINE
  8
0
 10
-194.250000
 20
132.600006
 11
194.800003
 21
132.600006
  0
LINE
  8
0
 10
194.800003
 20
132.600006
 11
194.800003
 21
-133.500000
  0
LINE
  8
0
 10
-194.250000
 20
132.600006
 11
-194.250000
 21
-133.500000
  0
LINE
  8
0
 10
-194.250000
 20
-133.500000
 11
194.800003
 21
-133.500000
  0
LINE
  8
0
 10
109.800003
 20
-118.500000
 11
109.800003
 21
-133.500000
  0
LINE
  8
0
 10
109.800003
 20
-118.500000
 11
194.800003
 21
-118.500000
  0
LINE
  8
0
 10
109.800003
 20
132.600006
 11
109.800003
 21
117.600006
  0
LINE
  8
0
 10
109.800003
 20
117.600006
 11
194.800003
 21
117.600006
  0
LINE
  8
0
 10
-194.250000
 20
117.600006
 11
-109.250000
 21
117.600006
  0
LINE
  8
0
 10
-109.250000
 20
132.600006
 11
-109.250000
 21
117.600006
  0
ARC
  8
0
 10
-5.953020
 20
58.609962
 40
2.800002
 50
280.286560
 51
79.713448
  0
ARC
  8
0
 10
-14.953020
 20
76.609962
 40
2.799998
 50
37.383152
 51
259.713440
  0
ARC
  8
0
 10
-3.353020
 20
47.209961
 40
0.400002
 50
270.000000
 51
0.000000
  0
ARC
  8
0
 10
-3.353020
 20
79.209961
 40
0.400000
 50
0.000000
 51
90.000000
  0
ARC
  8
0
 10
-17.553020
 20
79.209961
 40
0.400002
 50
90.000000
 51
180.000000
  0
ARC
  8
0
 10
-17.553020
 20
47.209961
 40
0.400000
 50
180.000000
 51
270.000000
  0
CIRCLE
  8
0
 62
     4
 10
-12.993020
 20
61.509964
 40
0.750000
  0
CIRCLE
  8
0
 62
     4
 10
-7.913020
 20
61.509964
 40
0.750000
  0
ARC
  8
0
 62
     4
 10
-7.037364
 20
62.409298
 40
0.200665
 50
356.761139
 51
89.901695
  0
ARC
  8
0
 62
     4
 10
-8.787735
 20
62.410297
 40
0.199666
 50
89.794754
 51
183.541275
  0
ARC
  8
0
 62
     4
 10
-9.577364
 20
62.409298
 40
0.200665
 50
356.761139
 51
89.901695
  0
ARC
  8
0
 62
     4
 10
-11.327735
 20
62.410297
 40
0.199666
 50
89.794754
 51
183.541275
  0
ARC
  8
0
 62
     4
 10
-12.117364
 20
62.409298
 40
0.200665
 50
356.761139
 51
89.901695
  0
ARC
  8
0
 62
     4
 10
-13.867735
 20
62.410297
 40
0.199666
 50
89.794754
 51
183.541275
  0
ARC
  8
0
 62
     4
 10
-15.153021
 20
58.809963
 40
0.300000
 50
180.000000
 51
270.000000
  0
ARC
  8
0
 62
     4
 10
-5.753019
 20
58.809963
 40
0.299999
 50
270.000000
 51
0.000000
  0
ARC
  8
0
 62
     4
 10
-5.753019
 20
46.609962
 40
0.299999
 50
270.000000
 51
0.000000
  0
ARC
  8
0
 62
     4
 10
-15.153021
 20
46.609962
 40
0.300000
 50
180.000000
 51
270.000000
  0
CIRCLE
  8
0
 62
     4
 10
-10.453020
 20
68.059967
 40
2.050000
  0
ARC
  8
0
 62
     4
 10
-6.953020
 20
69.809967
 40
1.599998
 50
90.000000
 51
270.000000
  0
ARC
  8
0
 62
     4
 10
-13.953020
 20
69.809967
 40
1.599998
 50
270.000000
 51
90.000000
  0
CIRCLE
  8
0
 62
     4
 10
-10.453020
 20
68.059967
 40
1.900000
  0
CIRCLE
  8
0
 62
     4
 10
-10.453020
 20
68.059967
 40
1.850000
  0
ARC
  8
0
 62
     4
 10
-10.453020
 20
68.059967
 40
0.800001
 50
202.024506
 51
337.975494
  0
ARC
  8
0
 62
     4
 10
-10.453020
 20
68.059967
 40
0.800001
 50
22.024509
 51
157.975494
  0
CIRCLE
  8
0
 62
     4
 10
-6.953020
 20
69.809967
 40
1.500000
  0
CIRCLE
  8
0
 62
     4
 10
-13.953020
 20
69.809967
 40
1.500000
  0
CIRCLE
  8
0
 62
     4
 10
116.546982
 20
-31.909761
 40
4.278000
  0
CIRCLE
  8
0
 62
     1
 10
116.546982
 20
-31.909761
 40
4.863999
  0
CIRCLE
  8
0
 62
     4
 10
110.046982
 20
-46.909760
 40
4.278000
  0
CIRCLE
  8
0
 62
     1
 10
110.046982
 20
-46.909760
 40
4.863999
  0
CIRCLE
  8
0
 62
     4
 10
116.546982
 20
-61.909760
 40
4.278000
  0
CIRCLE
  8
0
 62
     1
 10
116.546982
 20
-61.909760
 40
4.863999
  0
ARC
  8
0
 10
77.146980
 20
-70.809761
 40
0.400002
 50
270.000000
 51
0.000000
  0
ARC
  8
0
 10
69.146980
 20
-71.609764
 40
0.400002
 50
90.000000
 51
180.000000
  0
ARC
  8
0
 10
69.146980
 20
-68.809761
 40
0.400002
 50
90.000000
 51
180.000000
  0
ARC
  8
0
 10
77.046982
 20
-67.909760
 40
0.500000
 50
270.000000
 51
0.000000
  0
ARC
  8
0
 10
98.546982
 20
-73.609764
 40
5.000002
 50
235.944183
 51
304.055817
  0
ARC
  8
0
 62
     4
 10
92.746979
 20
-93.809761
 40
0.500000
 50
270.000000
 51
0.000000
  0
ARC
  8
0
 62
     4
 10
90.746979
 20
-93.809761
 40
0.500000
 50
180.000000
 51
270.000000
  0
ARC
  8
0
 62
     4
 10
68.546982
 20
-99.009758
 40
0.300003
 50
180.000000
 51
270.000000
  0
ARC
  8
0
 10
84.246994
 20
-55.904762
 40
6.008216
 50
163.812317
 51
196.187683
  0
ARC
  8
0
 10
79.242874
 20
-57.334381
 40
0.804240
 50
197.764679
 51
208.632385
  0
ARC
  8
0
 10
79.246246
 20
-54.476585
 40
0.807888
 50
151.392212
 51
162.210480
  0
CIRCLE
  8
0
 62
     4
 10
107.546982
 20
-69.909760
 40
2.100000
  0
CIRCLE
  8
0
 62
     1
 10
107.546982
 20
-69.909760
 40
2.500000
  0
CIRCLE
  8
0
 62
     4
 10
107.546982
 20
-23.909761
 40
2.100000
  0
CIRCLE
  8
0
 62
     1
 10
107.546982
 20
-23.909761
 40
2.500000
  0
ARC
  8
0
 10
69.146980
 20
-25.009762
 40
0.400002
 50
180.000000
 51
270.000000
  0
ARC
  8
0
 10
77.046982
 20
-25.909761
 40
0.500000
 50
0.000000
 51
90.000000
  0
ARC
  8
0
 10
80.546982
 20
-20.209763
 40
5.000002
 50
55.944176
 51
124.055824
  0
ARC
  8
0
 62
     4
 10
92.746979
 20
-0.009762
 40
0.500000
 50
0.000000
 51
90.000000
  0
ARC
  8
0
 62
     4
 10
90.746979
 20
-0.009762
 40
0.500000
 50
90.000000
 51
180.000000
  0
ARC
  8
0
 62
     4
 10
68.546982
 20
5.190237
 40
0.300000
 50
90.000000
 51
180.000000
  0
ARC
  8
0
 10
69.146980
 20
-22.209763
 40
0.400002
 50
180.000000
 51
270.000000
  0
ARC
  8
0
 10
77.146980
 20
-23.009762
 40
0.400002
 50
0.000000
 51
90.000000
  0
CIRCLE
  8
0
 62
     4
 10
-140.953018
 20
-40.409760
 40
4.278000
  0
CIRCLE
  8
0
 62
     1
 10
-140.953018
 20
-40.409760
 40
4.863999
  0
CIRCLE
  8
0
 62
     4
 10
-130.953018
 20
-53.409760
 40
4.278000
  0
CIRCLE
  8
0
 62
     1
 10
-130.953018
 20
-53.409760
 40
4.863999
  0
ARC
  8
0
 10
-90.053017
 20
-68.809761
 40
0.400002
 50
0.000000
 51
90.000000
  0
ARC
  8
0
 10
-97.953018
 20
-67.909760
 40
0.500000
 50
180.000000
 51
270.000000
  0
ARC
  8
0
 10
-101.453018
 20
-73.609764
 40
5.000002
 50
235.944183
 51
304.055817
  0
ARC
  8
0
 62
     4
 10
-113.653015
 20
-93.809761
 40
0.500000
 50
180.000000
 51
270.000000
  0
ARC
  8
0
 62
     4
 10
-111.653015
 20
-93.809761
 40
0.500000
 50
270.000000
 51
0.000000
  0
ARC
  8
0
 62
     4
 10
-89.453018
 20
-99.009758
 40
0.300003
 50
270.000000
 51
0.000000
  0
ARC
  8
0
 10
-90.053017
 20
-71.609764
 40
0.400002
 50
0.000000
 51
90.000000
  0
ARC
  8
0
 10
-98.053017
 20
-70.809761
 40
0.400002
 50
180.000000
 51
270.000000
  0
ARC
  8
0
 10
-105.153030
 20
-37.914761
 40
6.008216
 50
343.812317
 51
16.187691
  0
ARC
  8
0
 10
-100.148911
 20
-36.485142
 40
0.804240
 50
17.764685
 51
28.632387
  0
ARC
  8
0
 10
-100.152283
 20
-39.342934
 40
0.807888
 50
331.392212
 51
342.210480
  0
ARC
  8
0
 62
     4
 10
-89.453018
 20
5.190237
 40
0.300003
 50
0.000000
 51
90.000000
  0
ARC
  8
0
 62
     4
 10
-111.653015
 20
-0.009762
 40
0.500000
 50
0.000000
 51
90.000000
  0
ARC
  8
0
 62
     4
 10
-113.653015
 20
-0.009762
 40
0.500000
 50
90.000000
 51
180.000000
  0
ARC
  8
0
 10
-119.453018
 20
-20.209763
 40
5.000002
 50
55.944176
 51
124.055824
  0
ARC
  8
0
 10
-97.953018
 20
-25.909761
 40
0.500000
 50
90.000000
 51
180.000000
  0
ARC
  8
0
 10
-90.053017
 20
-25.009762
 40
0.400000
 50
270.000000
 51
0.000000
  0
ARC
  8
0
 10
-90.053017
 20
-22.209763
 40
0.400000
 50
270.000000
 51
0.000000
  0
ARC
  8
0
 10
-98.053017
 20
-23.009762
 40
0.400000
 50
90.000000
 51
180.000000
  0
ARC
  8
0
 62
     4
 10
-15.153020
 20
-99.009758
 40
0.300000
 50
180.000000
 51
270.000000
  0
ARC
  8
0
 62
     4
 10
-5.753019
 20
-99.009758
 40
0.300003
 50
270.000000
 51
0.000000
  0
ARC
  8
0
 10
-8.876225
 20
-68.709763
 40
0.300001
 50
30.000256
 51
90.000000
  0
ARC
  8
0
 10
-6.797764
 20
-70.709763
 40
0.500000
 50
210.000015
 51
270.000000
  0
ARC
  8
0
 10
-11.914345
 20
-68.909760
 40
0.500000
 50
90.000000
 51
150.000015
  0
ARC
  8
0
 10
-14.108276
 20
-70.709763
 40
0.500000
 50
270.000000
 51
330.000000
  0
ARC
  8
0
 10
-4.903021
 20
-79.909760
 40
0.300000
 50
180.000000
 51
270.000000
  0
ARC
  8
0
 10
-16.003021
 20
-79.909760
 40
0.300003
 50
270.000000
 51
0.000000
  0
CIRCLE
  8
0
 10
-10.453020
 20
-71.209763
 40
2.000000
  0
CIRCLE
  8
0
 10
-4.958019
 20
-55.904762
 40
2.250000
  0
ARC
  8
0
 10
-4.958019
 20
-55.904762
 40
2.557655
 50
6.735994
 51
353.264008
  0
CIRCLE
  8
0
 10
-15.958020
 20
-37.904762
 40
2.250000
  0
ARC
  8
0
 10
-15.958020
 20
-37.904762
 40
2.557655
 50
6.735994
 51
353.264008
  0
CIRCLE
  8
0
 62
     4
 10
1.546980
 20
-54.409760
 40
1.600000
  0
CIRCLE
  8
0
 62
     4
 10
-22.453020
 20
-29.409761
 40
1.600000
  0
ARC
  8
0
 62
     4
 10
-15.153020
 20
5.190237
 40
0.300000
 50
90.000000
 51
180.000000
  0
ARC
  8
0
 62
     4
 10
-5.753019
 20
5.190237
 40
0.300000
 50
0.000000
 51
90.000000
  0
ARC
  8
0
 10
-8.876225
 20
-25.109760
 40
0.299999
 50
270.000000
 51
330.000061
  0
ARC
  8
0
 10
-6.797764
 20
-23.109760
 40
0.500000
 50
90.000000
 51
149.999985
  0
ARC
  8
0
 10
-11.914345
 20
-24.909761
 40
0.500000
 50
209.999985
 51
270.000000
  0
ARC
  8
0
 10
-14.108276
 20
-23.109760
 40
0.500000
 50
29.999985
 51
90.000000
  0
ARC
  8
0
 10
-4.903021
 20
-13.909761
 40
0.300000
 50
90.000000
 51
180.000000
  0
ARC
  8
0
 10
-16.003021
 20
-13.909761
 40
0.300000
 50
0.000000
 51
90.000000
  0
CIRCLE
  8
0
 10
-10.453020
 20
-22.609760
 40
2.000000
  0
ARC
  8
0
 10
-4.953024
 20
-55.914761
 40
2.700784
 50
42.223675
 51
317.776337
  0
ARC
  8
0
 10
-15.951736
 20
-37.910267
 40
2.698716
 50
0.010772
 51
137.865189
  0
ARC
  8
0
 10
-15.955088
 20
-37.910576
 40
2.702069
 50
222.318954
 51
0.017229
  0
TEXT
  8
0
 10
133.907150
 20
122.050003
 40
4.500000
  1
Ver. 1.0
 50
0.000000
 41
1.052632
 51
0.000000
  7
STANDARD
  0
TEXT
  8
0
 10
113.700287
 20
-130.669998
 40
6.300000
  1
KOGANEI CORP.
 50
0.000000
 41
1.052632
 51
0.000000
  7
STANDARD
  0
TEXT
  8
0
 10
-176.892654
 20
122.050003
 40
4.500000
  1
G110 SERIES
 50
0.000000
 41
1.052632
 51
0.000000
  7
STANDARD
  0
TEXT
  8
0
 10
-186.892654
 20
104.550003
 40
4.500000
  1
MODEL:GA110-4E2-25-PSL
 50
0.000000
 41
1.052632
 51
0.000000
  7
STANDARD
  0
ENDSEC
  0
EOF
