  0
SECTION
  2
HEADER
  0
ENDSEC
  0
SECTION
  2
TABLES
  0
TABLE
  2
LTYPE
 70
     4
  0
LTYPE
  2
CONTINUOUS
 70
    64
  3
Solid line
 72
    65
 73
     0
 40
0.000000
  0
LTYPE
  2
DASHED
 70
    64
  3
__ __ __ __ __ __ __ __ __ __ __ __ __ __ __
 72
    65
 73
     2
 40
3.500000
 49
2.000000
 49
-1.500000
  0
LTYPE
  2
CENTER
 70
    64
  3
____ _ ____ _ ____ _ ____ _ ____ _ ____ _ ____
 72
    65
 73
     4
 40
17.500000
 49
13.000000
 49
-1.500000
 49
1.500000
 49
-1.500000
  0
LTYPE
  2
PHANTOM
 70
    64
  3
_____ _ _ _____ _ _ _____ _ _ _____ _ _ ____  
 72
    65
 73
     6
 40
15.500000
 49
8.000000
 49
-1.500000
 49
1.500000
 49
-1.500000
 49
1.500000
 49
-1.500000
  0
LTYPE
  2
DASHED1
 70
    64
  3
__ __ __ __ __ __ __ __ __ __ __ __ __ __ __
 72
    65
 73
     2
 40
1.500000
 49
1.000000
 49
-0.500000
  0
LTYPE
  2
DASHED2
 70
    64
  3
__ __ __ __ __ __ __ __ __ __ __ __ __ __ __
 72
    65
 73
     2
 40
3.500000
 49
2.500000
 49
-1.000000
  0
LTYPE
  2
DASHED3
 70
    64
  3
__ __ __ __ __ __ __ __ __ __ __ __ __ __ __
 72
    65
 73
     2
 40
6.000000
 49
4.000000
 49
-2.000000
  0
LTYPE
  2
DASHED4
 70
    64
  3
__ __ __ __ __ __ __ __ __ __ __ __ __ __ __
 72
    65
 73
     2
 40
12.000000
 49
10.000000
 49
-2.000000
  0
LTYPE
  2
DASHED5
 70
    64
  3
__ __ __ __ __ __ __ __ __ __ __ __ __ __ __
 72
    65
 73
     2
 40
17.000000
 49
15.000000
 49
-2.000000
  0
LTYPE
  2
DASHED6
 70
    64
  3
__ __ __ __ __ __ __ __ __ __ __ __ __ __ __
 72
    65
 73
     2
 40
29.000000
 49
27.000000
 49
-2.000000
  0
LTYPE
  2
PHANTOM1
 70
    64
  3
_____ _ _ _____ _ _ _____ _ _ _____ _ _ ____  
 72
    65
 73
     6
 40
31.000000
 49
25.000000
 49
-1.500000
 49
1.000000
 49
-1.000000
 49
1.000000
 49
-1.500000
  0
LTYPE
  2
PHANTOM2
 70
    64
  3
_____ _ _ _____ _ _ _____ _ _ _____ _ _ ____  
 72
    65
 73
     6
 40
36.000000
 49
27.000000
 49
-1.500000
 49
2.500000
 49
-1.000000
 49
2.500000
 49
-1.500000
  0
LTYPE
  2
PHANTOM3
 70
    64
  3
_____ _ _ _____ _ _ _____ _ _ _____ _ _ ____  
 72
    65
 73
     6
 40
78.000000
 49
64.000000
 49
-2.000000
 49
4.000000
 49
-2.000000
 49
4.000000
 49
-2.000000
  0
LTYPE
  2
CENTER1
 70
    64
  3
____ _ ____ _ ____ _ ____ _ ____ _ ____ _ ____
 72
    65
 73
     4
 40
19.000000
 49
14.000000
 49
-1.000000
 49
3.000000
 49
-1.000000
  0
LTYPE
  2
CENTER2
 70
    64
  3
____ _ ____ _ ____ _ ____ _ ____ _ ____ _ ____
 72
    65
 73
     4
 40
28.500000
 49
25.000000
 49
-1.000000
 49
1.500000
 49
-1.000000
  0
LTYPE
  2
CENTER3
 70
    64
  3
____ _ ____ _ ____ _ ____ _ ____ _ ____ _ ____
 72
    65
 73
     4
 40
31.500000
 49
27.000000
 49
-1.000000
 49
2.500000
 49
-1.000000
  0
LTYPE
  2
CENTER4
 70
    64
  3
____ _ ____ _ ____ _ ____ _ ____ _ ____ _ ____
 72
    65
 73
     4
 40
50.000000
 49
45.000000
 49
-1.000000
 49
3.000000
 49
-1.000000
  0
LTYPE
  2
CENTER5
 70
    64
  3
____ _ ____ _ ____ _ ____ _ ____ _ ____ _ ____
 72
    65
 73
     4
 40
100.000000
 49
92.000000
 49
-2.000000
 49
4.000000
 49
-2.000000
  0
LTYPE
  2
SBK1
 70
    64
  3
______ _ _ _ ______ _ _ _ ______ _ _ _ _____  
 72
    65
 73
     8
 40
60.500000
 49
45.000000
 49
-2.000000
 49
2.500000
 49
-2.000000
 49
2.500000
 49
-2.000000
 49
2.500000
 49
-2.000000
  0
LTYPE
  2
SBK2
 70
    64
  3
______ _ _ _ ______ _ _ _ ______ _ _ _ _____  
 72
    65
 73
     8
 40
84.000000
 49
64.000000
 49
-2.000000
 49
4.000000
 49
-2.000000
 49
4.000000
 49
-2.000000
 49
4.000000
 49
-2.000000
  0
LTYPE
  2
STCH
 70
    64
  3
__ __ __ __ __ __ __ __ __ __ __ __ __ __ __
 72
    65
 73
     2
 40
3.000000
 49
1.000000
 49
-2.000000
  0
LTYPE
  2
MTCH
 70
    64
  3
_____ _ _ _____ _ _ _____ _ _ _____ _ _ ____  
 72
    65
 73
     6
 40
80.000000
 49
66.000000
 49
-2.000000
 49
4.000000
 49
-2.000000
 49
4.000000
 49
-2.000000
  0
ENDTAB
  0
TABLE
  2
LAYER
 70
     1
  0
LAYER
  2
0
 70
     0
 62
     7
  6
CONTINUOUS
  0
ENDTAB
  0
TABLE
  2
STYLE
 70
     1
  0
STYLE
  2
STANDARD
 70
     0
 40
0.000000
 41
1.000000
 50
0.000000
 71
     0
 42
0.200000
  3
txt
  4
BIGFONT
  0
ENDTAB
  0
TABLE
  2
VIEW
 70
     0
  0
ENDTAB
  0
ENDSEC
  0
SECTION
  2
BLOCKS
  0
ENDSEC
  0
SECTION
  2
ENTITIES
  0
POINT
  8
0
 10
-18.780682
 20
-81.646973
  0
POINT
  8
0
 10
-35.780682
 20
-81.646973
  0
POINT
  8
0
 10
110.219315
 20
1.134998
  0
POINT
  8
0
 10
100.219315
 20
1.134998
  0
POINT
  8
0
 10
-18.780682
 20
1.134998
  0
POINT
  8
0
 10
-35.780682
 20
1.134998
  0
POINT
  8
0
 10
-78.180679
 20
1.134998
  0
POINT
  8
0
 10
-112.780685
 20
1.134998
  0
POINT
  8
0
 10
53.219318
 20
1.134998
  0
POINT
  8
0
 10
43.219318
 20
1.134998
  0
POINT
  8
0
 10
-35.780682
 20
79.916969
  0
POINT
  8
0
 10
-18.780682
 20
79.916969
  0
LINE
  8
0
 10
94.219315
 20
21.634998
 11
94.219315
 21
21.134998
  0
LINE
  8
0
 10
96.219315
 20
5.134998
 11
96.219315
 21
22.134998
  0
LINE
  8
0
 10
88.219315
 20
21.634998
 11
88.219315
 21
21.134998
  0
LINE
  8
0
 10
86.219315
 20
5.134998
 11
86.219315
 21
22.134998
  0
LINE
  8
0
 10
94.219315
 20
21.134998
 11
88.219315
 21
21.134998
  0
LINE
  8
0
 10
94.219315
 20
21.634998
 11
88.219315
 21
21.634998
  0
LINE
  8
0
 10
96.219315
 20
22.134998
 11
86.219315
 21
22.134998
  0
LINE
  8
0
 62
     4
 10
83.219315
 20
5.134998
 11
83.219315
 21
-14.865002
  0
LINE
  8
0
 62
     4
 10
83.219315
 20
-14.865002
 11
103.219315
 21
-14.865002
  0
LINE
  8
0
 62
     4
 10
83.219315
 20
5.134998
 11
103.219315
 21
5.134998
  0
LINE
  8
0
  6
CENTER
 62
     1
 10
97.615707
 20
1.134998
 11
102.699379
 21
1.134998
  0
LINE
  8
0
  6
CENTER
 62
     1
 10
97.615707
 20
-10.865002
 11
102.699379
 21
-10.865002
  0
LINE
  8
0
  6
CENTER
 62
     1
 10
100.219315
 20
-8.185589
 11
100.219315
 21
-13.559542
  0
LINE
  8
0
 62
     4
 10
103.219315
 20
5.134998
 11
103.219315
 21
-14.865002
  0
LINE
  8
0
  6
CENTER
 62
     1
 10
100.219315
 20
3.702833
 11
100.219315
 21
-1.449225
  0
LINE
  8
0
  6
CENTER
 62
     2
 10
91.219315
 20
-17.918301
 11
91.219315
 21
25.823446
  0
LINE
  8
0
 10
-21.780682
 20
-67.646973
 11
-31.780682
 21
-67.646973
  0
LINE
  8
0
 62
     4
 10
-21.780682
 20
-67.646973
 11
-18.780682
 21
-67.646973
  0
LINE
  8
0
 10
-27.127350
 20
-64.846970
 11
-27.127350
 21
-65.946976
  0
LINE
  8
0
 10
-26.980682
 20
-64.846970
 11
-26.980682
 21
-66.946976
  0
LINE
  8
0
 10
-27.054016
 20
-65.946976
 11
-27.054016
 21
-66.946976
  0
LINE
  8
0
 10
-24.640682
 20
-31.516972
 11
-23.840683
 21
-31.516972
  0
LINE
  8
0
 10
-24.955681
 20
-36.516972
 11
-23.525681
 21
-36.516972
  0
LINE
  8
0
 10
-23.840683
 20
-36.516972
 11
-23.840683
 21
-31.516972
  0
LINE
  8
0
 10
-24.640682
 20
-36.516972
 11
-24.640682
 21
-31.516972
  0
LINE
  8
0
 10
-24.955681
 20
-40.695641
 11
-24.955681
 21
-36.516972
  0
LINE
  8
0
 10
-23.525681
 20
-41.076973
 11
-23.525681
 21
-36.516972
  0
LINE
  8
0
 10
-23.525681
 20
-47.046974
 11
-23.525681
 21
-42.316971
  0
LINE
  8
0
 10
-24.955681
 20
-47.046974
 11
-24.955681
 21
-41.935638
  0
LINE
  8
0
 10
-22.480682
 20
-66.646973
 11
-22.480682
 21
-65.146973
  0
LINE
  8
0
 10
-26.434013
 20
-64.846970
 11
-26.434013
 21
-65.946976
  0
LINE
  8
0
 10
-26.580681
 20
-64.846970
 11
-26.580681
 21
-66.946976
  0
LINE
  8
0
 10
-24.480682
 20
-64.846970
 11
-24.480682
 21
-65.946976
  0
LINE
  8
0
 10
-24.080681
 20
-65.946976
 11
-26.507347
 21
-65.946976
  0
LINE
  8
0
 10
-23.880682
 20
-66.146973
 11
-23.880682
 21
-66.946976
  0
LINE
  8
0
 10
-26.507347
 20
-65.946976
 11
-26.507347
 21
-66.946976
  0
LINE
  8
0
 10
-21.780682
 20
-67.646973
 11
-21.780682
 21
-47.046974
  0
LINE
  8
0
  6
CENTER
 62
     2
 10
-23.280682
 20
-64.019241
 11
-23.280682
 21
-69.299263
  0
LINE
  8
0
 10
-28.920681
 20
-31.516972
 11
-29.720682
 21
-31.516972
  0
LINE
  8
0
 10
-30.035683
 20
-36.516972
 11
-28.605682
 21
-36.516972
  0
LINE
  8
0
 10
-28.605682
 20
-39.722305
 11
-28.605682
 21
-36.516972
  0
LINE
  8
0
 10
-30.035683
 20
-39.340973
 11
-30.035683
 21
-36.516972
  0
LINE
  8
0
 10
-28.605682
 20
-47.046974
 11
-28.605682
 21
-40.962307
  0
LINE
  8
0
 10
-30.035683
 20
-47.046974
 11
-30.035683
 21
-40.580971
  0
LINE
  8
0
 10
-29.080681
 20
-64.846970
 11
-29.080681
 21
-65.946976
  0
LINE
  8
0
 10
-29.680681
 20
-66.146973
 11
-29.680681
 21
-66.946976
  0
LINE
  8
0
 10
-31.080681
 20
-66.646973
 11
-31.080681
 21
-65.146973
  0
LINE
  8
0
 10
-31.780682
 20
-47.046974
 11
-21.780682
 21
-47.046974
  0
LINE
  8
0
 10
-27.054016
 20
-65.946976
 11
-29.480682
 21
-65.946976
  0
LINE
  8
0
 10
-22.780682
 20
-64.846970
 11
-30.780682
 21
-64.846970
  0
LINE
  8
0
 10
-22.780682
 20
-66.946976
 11
-30.780682
 21
-66.946976
  0
LINE
  8
0
 10
-21.780682
 20
-56.146973
 11
-31.780682
 21
-56.146973
  0
LINE
  8
0
 10
-21.780682
 20
-52.646973
 11
-31.780682
 21
-52.646973
  0
LINE
  8
0
 10
-21.780682
 20
-48.046974
 11
-31.780682
 21
-48.046974
  0
LINE
  8
0
 10
-31.780682
 20
-67.646973
 11
-31.780682
 21
-47.046974
  0
LINE
  8
0
 62
     2
 10
-21.200682
 20
-41.696972
 11
-32.298996
 21
-38.737423
  0
LINE
  8
0
 62
     2
 10
-21.200680
 20
-42.936974
 11
-32.298996
 21
-39.977421
  0
LINE
  8
0
 10
-29.720682
 20
-36.516972
 11
-29.720682
 21
-31.516972
  0
LINE
  8
0
 10
-28.920681
 20
-36.516972
 11
-28.920681
 21
-31.516972
  0
LINE
  8
0
  6
CENTER
 62
     2
 10
-30.280682
 20
-64.019241
 11
-30.280682
 21
-69.299263
  0
LINE
  8
0
 62
     4
 10
-38.780682
 20
-81.646973
 11
-38.780682
 21
-67.646973
  0
LINE
  8
0
 62
     4
 10
-38.780682
 20
-81.646973
 11
-18.780682
 21
-81.646973
  0
LINE
  8
0
 62
     4
 10
-38.780682
 20
-67.646973
 11
-31.780682
 21
-67.646973
  0
LINE
  8
0
 62
     4
 10
-18.780682
 20
-81.646973
 11
-18.780682
 21
-67.646973
  0
LINE
  8
0
  6
CENTER
 62
     2
 10
-26.780682
 20
-83.710442
 11
-26.780682
 21
-43.973080
  0
LINE
  8
0
  6
CENTER
 62
     1
 10
-35.780682
 20
-78.666878
 11
-35.780682
 21
-84.354218
  0
LINE
  8
0
 10
-31.780682
 20
65.916969
 11
-21.780682
 21
65.916969
  0
LINE
  8
0
 62
     2
 10
-25.480682
 20
41.036968
 11
-22.280680
 21
40.176968
  0
LINE
  8
0
 62
     2
 10
-25.480682
 20
42.066971
 11
-22.280682
 21
41.206970
  0
LINE
  8
0
 10
-23.630682
 20
33.116970
 11
-24.130682
 21
33.116970
  0
LINE
  8
0
 10
-23.230682
 20
37.116970
 11
-24.530682
 21
37.116970
  0
LINE
  8
0
 10
-23.630682
 20
37.116970
 11
-23.630682
 21
33.116970
  0
LINE
  8
0
 10
-24.130682
 20
37.116970
 11
-24.130682
 21
33.116970
  0
LINE
  8
0
 10
-24.530682
 20
40.776970
 11
-24.530682
 21
37.116970
  0
LINE
  8
0
 10
-23.230682
 20
40.426968
 11
-23.230682
 21
37.116970
  0
LINE
  8
0
 10
-23.230682
 20
45.316971
 11
-23.230682
 21
41.466969
  0
LINE
  8
0
 10
-24.530682
 20
45.316971
 11
-24.530682
 21
41.816971
  0
LINE
  8
0
 62
     2
 10
-31.280684
 20
41.036968
 11
-28.080681
 21
40.176968
  0
LINE
  8
0
 62
     2
 10
-31.280680
 20
42.066967
 11
-28.080677
 21
41.206970
  0
LINE
  8
0
 10
-29.430681
 20
33.116970
 11
-29.930681
 21
33.116970
  0
LINE
  8
0
 10
-29.030682
 20
37.116970
 11
-30.330681
 21
37.116970
  0
LINE
  8
0
 10
-29.430681
 20
37.116970
 11
-29.430681
 21
33.116970
  0
LINE
  8
0
 10
-29.930681
 20
37.116970
 11
-29.930681
 21
33.116970
  0
LINE
  8
0
 10
-30.330681
 20
40.776970
 11
-30.330681
 21
37.116970
  0
LINE
  8
0
 10
-29.030682
 20
40.426968
 11
-29.030682
 21
37.116970
  0
LINE
  8
0
 10
-29.030682
 20
45.316971
 11
-29.030682
 21
41.466969
  0
LINE
  8
0
 10
-30.330681
 20
45.316971
 11
-30.330681
 21
41.816971
  0
LINE
  8
0
 10
-31.780682
 20
65.016968
 11
-21.780682
 21
65.016968
  0
LINE
  8
0
 10
-31.480682
 20
46.316971
 11
-22.080681
 21
46.316971
  0
LINE
  8
0
 10
-31.780682
 20
64.716972
 11
-21.780682
 21
64.716972
  0
LINE
  8
0
 10
-31.480682
 20
45.316971
 11
-22.080681
 21
45.316971
  0
LINE
  8
0
 10
-21.880682
 20
45.516968
 11
-21.880682
 21
46.393364
  0
LINE
  8
0
 10
-31.680681
 20
45.516968
 11
-31.680681
 21
46.393364
  0
LINE
  8
0
 62
     2
 10
-28.280682
 20
49.316971
 11
-28.280682
 21
46.316971
  0
LINE
  8
0
 62
     2
 10
-25.280682
 20
49.316971
 11
-28.280682
 21
49.316971
  0
LINE
  8
0
 62
     2
 10
-25.280682
 20
49.316971
 11
-25.280682
 21
46.316971
  0
LINE
  8
0
  6
CENTER
 62
     2
 10
-30.280682
 20
62.978989
 11
-30.280682
 21
69.298256
  0
LINE
  8
0
  6
CENTER
 62
     2
 10
-23.280682
 20
62.978989
 11
-23.280682
 21
69.298256
  0
LINE
  8
0
 10
-21.780682
 20
65.916969
 11
-21.780682
 21
46.616970
  0
LINE
  8
0
 10
-31.780682
 20
65.916969
 11
-31.780682
 21
46.616970
  0
LINE
  8
0
  6
CENTER
 62
     2
 10
-26.780811
 20
82.351906
 11
-26.780504
 21
43.616886
  0
LINE
  8
0
 62
     4
 10
-38.780682
 20
79.916969
 11
-38.780682
 21
65.916969
  0
LINE
  8
0
 62
     4
 10
-18.780682
 20
79.916969
 11
-18.780682
 21
65.916969
  0
LINE
  8
0
 62
     4
 10
-38.780682
 20
79.916969
 11
-18.780682
 21
79.916969
  0
LINE
  8
0
 62
     4
 10
-38.780682
 20
65.916969
 11
-18.780682
 21
65.916969
  0
LINE
  8
0
  6
CENTER
 62
     1
 10
-35.780682
 20
78.367401
 11
-35.780682
 21
81.064041
  0
LINE
  8
0
 10
28.019318
 20
22.134998
 11
9.919319
 21
22.134998
  0
LINE
  8
0
 10
-3.580681
 20
2.384998
 11
-3.580681
 21
1.884998
  0
LINE
  8
0
 10
17.719318
 20
-14.865002
 11
17.719318
 21
-9.082146
  0
LINE
  8
0
 10
17.719316
 20
-9.082146
 11
14.219318
 21
-8.465001
  0
LINE
  8
0
 10
10.219318
 20
-0.365002
 11
10.219318
 21
-0.465002
  0
LINE
  8
0
 10
9.619320
 20
-0.963080
 11
9.619320
 21
-0.465002
  0
LINE
  8
0
 10
14.219317
 20
-1.774184
 11
9.619319
 21
-0.963080
  0
LINE
  8
0
 10
15.519318
 20
-0.465002
 11
9.619320
 21
-0.465002
  0
LINE
  8
0
 10
14.219318
 20
-8.465002
 11
14.219318
 21
-1.774184
  0
LINE
  8
0
 10
8.819317
 20
0.134998
 11
9.619320
 21
0.134998
  0
LINE
  8
0
 10
8.619320
 20
0.334998
 11
8.619320
 21
3.934999
  0
LINE
  8
0
 10
8.819317
 20
4.134998
 11
9.619320
 21
4.134998
  0
LINE
  8
0
 10
15.519318
 20
-0.365002
 11
9.619320
 21
-0.365002
  0
LINE
  8
0
 10
9.619320
 20
-0.365002
 11
9.619320
 21
21.834999
  0
LINE
  8
0
 10
15.519318
 20
15.634998
 11
15.519318
 21
-0.465002
  0
LINE
  8
0
 10
15.219318
 20
-7.965002
 11
15.219318
 21
-4.765002
  0
LINE
  8
0
 10
14.219318
 20
-4.765002
 11
15.219318
 21
-4.765002
  0
LINE
  8
0
 10
14.219318
 20
-7.965002
 11
15.219318
 21
-7.965002
  0
LINE
  8
0
 10
8.619320
 20
1.484998
 11
5.119320
 21
1.484998
  0
LINE
  8
0
 10
8.619320
 20
2.784998
 11
4.769318
 21
2.784998
  0
LINE
  8
0
 62
     2
 10
4.339320
 20
0.534999
 11
3.479319
 21
3.734999
  0
LINE
  8
0
 62
     2
 10
5.369320
 20
0.534999
 11
4.509320
 21
3.734999
  0
LINE
  8
0
 10
0.419319
 20
2.784998
 11
0.419319
 21
1.484998
  0
LINE
  8
0
 10
4.079319
 20
1.484998
 11
0.419319
 21
1.484998
  0
LINE
  8
0
 10
3.729317
 20
2.784998
 11
0.419319
 21
2.784998
  0
LINE
  8
0
 10
15.119318
 20
-7.865002
 11
15.219318
 21
-7.865002
  0
LINE
  8
0
 10
15.119318
 20
-4.865002
 11
15.219318
 21
-4.865002
  0
LINE
  8
0
 10
14.619318
 20
-7.365002
 11
14.619318
 21
-5.365002
  0
LINE
  8
0
 10
0.419319
 20
1.884998
 11
-3.580681
 21
1.884998
  0
LINE
  8
0
 10
0.419319
 20
2.384998
 11
-3.580681
 21
2.384998
  0
LINE
  8
0
 10
29.219318
 20
-14.865002
 11
17.719318
 21
-14.865002
  0
LINE
  8
0
 10
15.519318
 20
15.634998
 11
28.019318
 21
15.634998
  0
LINE
  8
0
 62
     4
 10
29.219318
 20
5.134998
 11
43.219318
 21
5.134998
  0
LINE
  8
0
 62
     4
 10
43.219318
 20
-14.865002
 11
43.219318
 21
5.134998
  0
LINE
  8
0
 62
     4
 10
29.219318
 20
-14.865002
 11
43.219318
 21
-14.865002
  0
LINE
  8
0
  6
CENTER
 62
     1
 10
37.719318
 20
-14.176384
 11
37.719318
 21
-7.377602
  0
LINE
  8
0
  6
CENTER
 62
     1
 10
34.203201
 20
-10.865002
 11
41.113438
 21
-10.865002
  0
LINE
  8
0
  6
CENTER
 62
     1
 10
33.219318
 20
-5.148493
 11
33.219318
 21
1.650289
  0
LINE
  8
0
  6
CENTER
 62
     1
 10
29.744984
 20
-1.865002
 11
36.655220
 21
-1.865002
  0
LINE
  8
0
  6
CENTER
 62
     2
 10
22.219318
 20
-16.650007
 11
22.219318
 21
19.271051
  0
LINE
  8
0
 10
28.319321
 20
17.134998
 11
28.019318
 21
16.834997
  0
LINE
  8
0
 10
18.419319
 20
-14.165002
 11
26.019318
 21
-14.165002
  0
LINE
  8
0
 10
29.219318
 20
17.134998
 11
28.319319
 21
17.134998
  0
LINE
  8
0
 10
29.219318
 20
17.134998
 11
29.219318
 21
-14.865002
  0
LINE
  8
0
 10
18.419319
 20
-13.365002
 11
26.019318
 21
-13.365002
  0
LINE
  8
0
 10
18.419319
 20
-13.365002
 11
18.419319
 21
-14.165002
  0
LINE
  8
0
 10
26.019318
 20
-14.165002
 11
26.019318
 21
-13.365002
  0
LINE
  8
0
 10
28.019318
 20
22.134998
 11
28.019318
 21
15.634998
  0
LINE
  8
0
  6
CENTER
 62
     1
 10
45.376137
 20
-10.865002
 11
41.408375
 21
-10.865002
  0
LINE
  8
0
  6
CENTER
 62
     1
 10
45.376137
 20
1.134998
 11
41.408375
 21
1.134998
  0
LINE
  8
0
 10
-97.580688
 20
22.134998
 11
-79.480682
 21
22.134998
  0
LINE
  8
0
 10
-98.780685
 20
-14.865002
 11
-87.280685
 21
-14.865002
  0
LINE
  8
0
 10
-65.980682
 20
2.384998
 11
-65.980682
 21
1.884998
  0
LINE
  8
0
 10
-84.180687
 20
-7.365002
 11
-84.180687
 21
-5.365002
  0
LINE
  8
0
 10
-84.680687
 20
-4.865002
 11
-84.780685
 21
-4.865002
  0
LINE
  8
0
 10
-84.680687
 20
-7.865002
 11
-84.780685
 21
-7.865002
  0
LINE
  8
0
 10
-73.645370
 20
2.784998
 11
-69.980682
 21
2.784998
  0
LINE
  8
0
 10
-73.295998
 20
1.484998
 11
-69.980682
 21
1.484998
  0
LINE
  8
0
 10
-69.980682
 20
1.884998
 11
-65.980682
 21
1.884998
  0
LINE
  8
0
 10
-69.980682
 20
2.384998
 11
-65.980682
 21
2.384998
  0
LINE
  8
0
 10
-69.980682
 20
2.784998
 11
-69.980682
 21
1.484998
  0
LINE
  8
0
 62
     2
 10
-73.040688
 20
0.534997
 11
-73.900688
 21
3.734998
  0
LINE
  8
0
 62
     2
 10
-74.070686
 20
0.534996
 11
-74.930687
 21
3.734997
  0
LINE
  8
0
 10
-78.180687
 20
2.784998
 11
-74.675369
 21
2.784998
  0
LINE
  8
0
 10
-78.180687
 20
1.484998
 11
-74.325996
 21
1.484998
  0
LINE
  8
0
 10
-83.780685
 20
-7.965002
 11
-84.780685
 21
-7.965002
  0
LINE
  8
0
 10
-83.780685
 20
-4.765002
 11
-84.780685
 21
-4.765002
  0
LINE
  8
0
 10
-84.780685
 20
-7.965002
 11
-84.780685
 21
-4.765002
  0
LINE
  8
0
 10
-85.080688
 20
15.634998
 11
-85.080688
 21
-0.465002
  0
LINE
  8
0
 10
-79.180687
 20
-0.365002
 11
-79.180687
 21
21.834999
  0
LINE
  8
0
 10
-85.080688
 20
-0.365002
 11
-79.180687
 21
-0.365002
  0
LINE
  8
0
 10
-78.380684
 20
4.134998
 11
-79.180687
 21
4.134998
  0
LINE
  8
0
 10
-78.180687
 20
0.334998
 11
-78.180687
 21
3.934999
  0
LINE
  8
0
 10
-78.380684
 20
0.134998
 11
-79.180687
 21
0.134998
  0
LINE
  8
0
 10
-83.780685
 20
-8.465002
 11
-83.780685
 21
-1.774184
  0
LINE
  8
0
 10
-85.080688
 20
-0.465002
 11
-79.180687
 21
-0.465002
  0
LINE
  8
0
 10
-83.780678
 20
-1.774183
 11
-79.180687
 21
-0.963080
  0
LINE
  8
0
 10
-79.180687
 20
-0.963080
 11
-79.180687
 21
-0.465002
  0
LINE
  8
0
 10
-79.780685
 20
-0.365002
 11
-79.780685
 21
-0.465002
  0
LINE
  8
0
 10
-87.280685
 20
-9.082146
 11
-83.780685
 21
-8.465001
  0
LINE
  8
0
 10
-87.280685
 20
-14.865002
 11
-87.280685
 21
-9.082146
  0
LINE
  8
0
 10
-85.080688
 20
15.634998
 11
-97.580688
 21
15.634998
  0
LINE
  8
0
  6
CENTER
 62
     1
 10
-107.280685
 20
-1.622514
 11
-107.280685
 21
-9.197331
  0
LINE
  8
0
  6
CENTER
 62
     1
 10
-103.623833
 20
-5.365002
 11
-110.841347
 21
-5.365002
  0
LINE
  8
0
 62
     4
 10
-112.780685
 20
-14.865002
 11
-112.780685
 21
5.134998
  0
LINE
  8
0
 62
     4
 10
-112.780685
 20
5.134998
 11
-98.780685
 21
5.134998
  0
LINE
  8
0
 62
     4
 10
-98.780685
 20
-14.865002
 11
-112.780685
 21
-14.865002
  0
LINE
  8
0
 10
-97.580688
 20
22.134998
 11
-97.580688
 21
15.634998
  0
LINE
  8
0
 10
-95.580688
 20
-14.165002
 11
-95.580688
 21
-13.365002
  0
LINE
  8
0
 10
-87.980682
 20
-13.365002
 11
-87.980682
 21
-14.165002
  0
LINE
  8
0
 10
-87.980682
 20
-13.365002
 11
-95.580688
 21
-13.365002
  0
LINE
  8
0
 10
-98.780685
 20
17.134998
 11
-98.780685
 21
-14.865002
  0
LINE
  8
0
 10
-98.780685
 20
17.134998
 11
-97.880684
 21
17.134998
  0
LINE
  8
0
 10
-87.980682
 20
-14.165002
 11
-95.580688
 21
-14.165002
  0
LINE
  8
0
 10
-97.880684
 20
17.134996
 11
-97.580696
 21
16.835001
  0
LINE
  8
0
  6
CENTER
 62
     2
 10
-91.780685
 20
-16.650007
 11
-91.780685
 21
25.254427
  0
LINE
  8
0
  6
CENTER
 62
     1
 10
-111.406395
 20
1.134998
 11
-114.748222
 21
1.134998
  0
LINE
  8
0
  6
CENTER
 62
     2
 10
-100.419502
 20
-6.365002
 11
-96.821205
 21
-6.365002
  0
LINE
  8
0
  6
CENTER
 62
     1
 10
-111.406395
 20
-10.865002
 11
-114.748222
 21
-10.865002
  0
LINE
  8
0
 62
     4
 10
-31.780682
 20
-14.865002
 11
-38.780682
 21
-14.865002
  0
LINE
  8
0
 10
-31.780682
 20
-14.865002
 11
-21.780682
 21
-14.865002
  0
LINE
  8
0
 10
-22.573574
 20
-7.072108
 11
-23.987789
 21
-5.657895
  0
LINE
  8
0
 10
-22.573574
 20
-5.657895
 11
-23.987789
 21
-7.072107
  0
LINE
  8
0
 10
-30.987787
 20
-5.657894
 11
-29.573572
 21
-7.072108
  0
LINE
  8
0
 10
-30.987785
 20
-7.072109
 11
-29.573574
 21
-5.657897
  0
LINE
  8
0
 10
-24.955168
 20
-4.315001
 11
-28.606195
 21
-4.315001
  0
LINE
  8
0
 10
-24.955168
 20
-4.915002
 11
-28.606195
 21
-4.915002
  0
LINE
  8
0
 10
-23.880682
 20
4.134998
 11
-29.680681
 21
4.134998
  0
LINE
  8
0
 10
-23.880682
 20
0.134998
 11
-29.680681
 21
0.134998
  0
LINE
  8
0
  6
CENTER
 62
     2
 10
-24.280682
 20
-4.615002
 11
-29.280682
 21
-4.615002
  0
LINE
  8
0
 10
-28.180681
 20
-7.215002
 11
-25.380682
 21
-7.215002
  0
LINE
  8
0
 10
-24.130682
 20
-8.465000
 11
-25.380682
 21
-7.215001
  0
LINE
  8
0
 10
-27.925053
 20
-7.655819
 11
-25.636311
 21
-7.655819
  0
LINE
  8
0
 10
-25.636311
 20
-7.655819
 11
-24.386311
 21
-8.905818
  0
LINE
  8
0
 10
-25.636309
 20
-7.655819
 11
-25.380682
 21
-7.215003
  0
LINE
  8
0
 10
-27.925053
 20
-7.655820
 11
-29.175053
 21
-8.905820
  0
LINE
  8
0
 10
-29.430681
 20
-8.465000
 11
-28.180681
 21
-7.215000
  0
LINE
  8
0
 10
-27.925051
 20
-7.655818
 11
-28.180681
 21
-7.215001
  0
LINE
  8
0
 10
-24.130682
 20
-8.465002
 11
-24.386312
 21
-8.905819
  0
LINE
  8
0
 10
-29.175053
 20
-8.905818
 11
-29.430681
 21
-8.465000
  0
LINE
  8
0
 10
-21.780682
 20
-1.774184
 11
-31.780682
 21
-1.774184
  0
LINE
  8
0
 10
-21.780682
 20
-8.905819
 11
-24.386311
 21
-8.905819
  0
LINE
  8
0
 10
-29.175053
 20
-8.905819
 11
-31.780682
 21
-8.905819
  0
LINE
  8
0
 10
-21.780682
 20
-8.465002
 11
-24.130682
 21
-8.465002
  0
LINE
  8
0
 10
-29.430681
 20
-8.465002
 11
-31.780682
 21
-8.465002
  0
LINE
  8
0
 10
-31.780682
 20
-0.963080
 11
-21.780682
 21
-0.963080
  0
LINE
  8
0
 10
-21.780682
 20
-0.465002
 11
-31.780682
 21
-0.465002
  0
LINE
  8
0
 10
-23.280682
 20
-4.765002
 11
-21.780682
 21
-4.765002
  0
LINE
  8
0
 10
-21.780682
 20
-7.965002
 11
-23.280682
 21
-7.965002
  0
LINE
  8
0
 10
-30.280682
 20
-7.965002
 11
-31.780682
 21
-7.965002
  0
LINE
  8
0
 10
-31.780682
 20
-4.765002
 11
-30.280682
 21
-4.765002
  0
LINE
  8
0
 10
-21.780682
 20
-0.365002
 11
-31.780682
 21
-0.365002
  0
LINE
  8
0
 62
     2
 10
-28.280682
 20
17.134998
 11
-25.280682
 21
17.134998
  0
LINE
  8
0
 62
     2
 10
-28.280682
 20
17.134998
 11
-28.280682
 21
22.134998
  0
LINE
  8
0
 62
     2
 10
-25.280682
 20
17.134998
 11
-25.280682
 21
22.134998
  0
LINE
  8
0
 10
-31.780682
 20
22.134998
 11
-21.780682
 21
22.134998
  0
LINE
  8
0
 10
-31.780682
 20
22.134998
 11
-31.780682
 21
-14.865002
  0
LINE
  8
0
  6
CENTER
 62
     2
 10
-26.780682
 20
-16.650007
 11
-26.780682
 21
24.271051
  0
LINE
  8
0
 10
-21.780682
 20
22.134998
 11
-21.780682
 21
-14.865002
  0
LINE
  8
0
 62
     4
 10
-18.780682
 20
-14.865002
 11
-21.780682
 21
-14.865002
  0
LINE
  8
0
 62
     4
 10
-31.780682
 20
5.134998
 11
-38.780682
 21
5.134998
  0
LINE
  8
0
 62
     4
 10
-18.780682
 20
5.134998
 11
-18.780682
 21
-14.865002
  0
LINE
  8
0
  6
CENTER
 62
     1
 10
-35.780682
 20
3.702833
 11
-35.780682
 21
-1.449225
  0
LINE
  8
0
 62
     4
 10
-38.780682
 20
5.134998
 11
-38.780682
 21
-14.865002
  0
LINE
  8
0
 62
     4
 10
-18.780682
 20
5.134998
 11
-21.780682
 21
5.134998
  0
LINE
  8
0
  6
CENTER
 62
     1
 10
-35.780682
 20
-8.185589
 11
-35.780682
 21
-13.887486
  0
LINE
  8
0
  6
CENTER
 62
     1
 10
-33.177078
 20
1.134998
 11
-38.260750
 21
1.134998
  0
LINE
  8
0
  6
CENTER
 62
     1
 10
-33.177078
 20
-10.865002
 11
-38.260750
 21
-10.865002
  0
LINE
  8
0
 10
-138.399994
 20
94.500000
 11
138.350006
 21
94.500000
  0
LINE
  8
0
 10
138.350006
 20
94.500000
 11
138.350006
 21
-94.800003
  0
LINE
  8
0
 10
-138.399994
 20
-94.800003
 11
138.350006
 21
-94.800003
  0
LINE
  8
0
 10
-138.399994
 20
94.500000
 11
-138.399994
 21
-94.800003
  0
LINE
  8
0
 10
73.350006
 20
-84.800003
 11
138.350006
 21
-84.800003
  0
LINE
  8
0
 10
-138.399994
 20
84.500000
 11
-73.399994
 21
84.500000
  0
LINE
  8
0
 10
73.350006
 20
84.500000
 11
138.350006
 21
84.500000
  0
LINE
  8
0
 10
73.350006
 20
-84.800003
 11
73.350006
 21
-94.800003
  0
LINE
  8
0
 10
73.350006
 20
94.500000
 11
73.350006
 21
84.500000
  0
LINE
  8
0
 10
-73.399994
 20
94.500000
 11
-73.399994
 21
84.500000
  0
CIRCLE
  8
0
 62
     4
 10
100.219315
 20
1.134998
 40
1.700000
  0
CIRCLE
  8
0
 62
     4
 10
100.219315
 20
-10.865002
 40
1.700000
  0
ARC
  8
0
 10
-22.780682
 20
-65.146973
 40
0.299999
 50
0.000000
 51
90.000000
  0
ARC
  8
0
 10
-22.780682
 20
-66.646973
 40
0.300003
 50
270.000000
 51
0.000000
  0
ARC
  8
0
 10
-24.080681
 20
-66.146973
 40
0.200001
 50
0.000000
 51
90.000000
  0
ARC
  8
0
 10
-30.780682
 20
-65.146973
 40
0.300003
 50
90.000000
 51
180.000000
  0
ARC
  8
0
 10
-30.780682
 20
-66.646973
 40
0.299999
 50
180.000000
 51
270.000000
  0
ARC
  8
0
 10
-29.480682
 20
-66.146973
 40
0.199997
 50
90.000000
 51
180.000000
  0
ARC
  8
0
 10
-22.079971
 20
45.516258
 40
0.199289
 50
269.795471
 51
0.203990
  0
ARC
  8
0
 10
-31.481392
 20
45.516258
 40
0.199291
 50
179.796005
 51
270.204529
  0
ARC
  8
0
 10
-22.080681
 20
46.616970
 40
0.299999
 50
270.000000
 51
0.000000
  0
ARC
  8
0
 10
-31.480682
 20
46.616970
 40
0.299999
 50
180.000000
 51
270.000000
  0
ARC
  8
0
 10
8.818607
 20
0.334287
 40
0.199290
 50
179.795471
 51
270.204529
  0
ARC
  8
0
 10
8.818607
 20
3.935710
 40
0.199290
 50
89.795464
 51
180.204544
  0
ARC
  8
0
 10
9.919319
 20
21.834999
 40
0.299999
 50
90.000000
 51
180.000000
  0
ARC
  8
0
 10
15.119318
 20
-5.365002
 40
0.500000
 50
90.000000
 51
180.000000
  0
ARC
  8
0
 10
15.119318
 20
-7.365002
 40
0.500000
 50
180.000000
 51
270.000000
  0
CIRCLE
  8
0
 62
     4
 10
37.719318
 20
-10.865002
 40
2.500000
  0
CIRCLE
  8
0
 62
     4
 10
37.719318
 20
-10.865002
 40
2.100000
  0
CIRCLE
  8
0
 62
     4
 10
33.219318
 20
-1.865002
 40
2.500000
  0
CIRCLE
  8
0
 62
     4
 10
33.219318
 20
-1.865002
 40
2.100000
  0
ARC
  8
0
 10
-84.680687
 20
-7.365002
 40
0.500000
 50
270.000000
 51
0.000000
  0
ARC
  8
0
 10
-84.680687
 20
-5.365002
 40
0.500000
 50
0.000000
 51
90.000000
  0
ARC
  8
0
 10
-79.480682
 20
21.834999
 40
0.300003
 50
0.000000
 51
90.000000
  0
ARC
  8
0
 10
-78.379974
 20
3.935710
 40
0.199289
 50
359.795471
 51
90.203995
  0
ARC
  8
0
 10
-78.379974
 20
0.334287
 40
0.199290
 50
269.796021
 51
0.204541
  0
CIRCLE
  8
0
 62
     4
 10
-107.280685
 20
-5.365002
 40
2.100000
  0
CIRCLE
  8
0
 62
     4
 10
-107.280685
 20
-5.365002
 40
2.500000
  0
ARC
  8
0
 10
-26.780682
 20
-4.615002
 40
0.799999
 50
202.024338
 51
337.975647
  0
ARC
  8
0
 10
-26.780682
 20
-4.615002
 40
0.799999
 50
22.024345
 51
157.975662
  0
CIRCLE
  8
0
 10
-26.780682
 20
-4.615002
 40
1.850000
  0
CIRCLE
  8
0
 10
-23.880682
 20
2.134998
 40
0.875000
  0
CIRCLE
  8
0
 10
-29.680681
 20
2.134998
 40
0.875000
  0
CIRCLE
  8
0
 10
-26.780682
 20
-4.615002
 40
1.900000
  0
ARC
  8
0
 10
-23.280682
 20
-6.365002
 40
1.600000
 50
90.000000
 51
270.000000
  0
ARC
  8
0
 10
-30.280682
 20
-6.365002
 40
1.600000
 50
270.000000
 51
90.000000
  0
CIRCLE
  8
0
 10
-26.780682
 20
-4.615002
 40
2.050000
  0
ARC
  8
0
 10
-23.880682
 20
2.134998
 40
2.000000
 50
270.000000
 51
90.000000
  0
ARC
  8
0
 10
-29.680681
 20
2.134998
 40
2.000000
 50
90.000000
 51
270.000000
  0
CIRCLE
  8
0
 10
-30.280682
 20
-6.365002
 40
1.500000
  0
CIRCLE
  8
0
 10
-23.280682
 20
-6.365002
 40
1.500000
  0
ARC
  8
0
 10
-22.080681
 20
21.834999
 40
0.299999
 50
0.000000
 51
90.000000
  0
ARC
  8
0
 10
-31.480682
 20
21.834999
 40
0.299999
 50
90.000000
 51
180.000000
  0
CIRCLE
  8
0
 62
     4
 10
-35.780682
 20
-10.865002
 40
1.700000
  0
CIRCLE
  8
0
 62
     4
 10
-35.780682
 20
1.134998
 40
1.700000
  0
TEXT
  8
0
 10
76.207352
 20
-92.850006
 40
4.500000
  1
KOGANEI CORP.
 50
0.000000
 41
1.052632
 51
0.000000
  7
STANDARD
  0
TEXT
  8
0
 10
92.842865
 20
87.620003
 40
3.200000
  1
Ver. 1.0
 50
0.000000
 41
1.052632
 51
0.000000
  7
STANDARD
  0
TEXT
  8
0
 10
-123.707138
 20
87.620003
 40
3.200000
  1
G010 SERIES
 50
0.000000
 41
1.052632
 51
0.000000
  7
STANDARD
  0
TEXT
  8
0
 10
-130.207001
 20
72.620003
 40
3.200000
  1
MODEL:GA010-E1-25(AC200)
 50
0.000000
 41
1.052632
 51
0.000000
  7
STANDARD
  0
ENDSEC
  0
EOF
