  0
SECTION
  2
HEADER
  0
ENDSEC
  0
SECTION
  2
TABLES
  0
TABLE
  2
LTYPE
 70
     4
  0
LTYPE
  2
CONTINUOUS
 70
    64
  3
Solid line
 72
    65
 73
     0
 40
0.000000
  0
LTYPE
  2
DASHED
 70
    64
  3
__ __ __ __ __ __ __ __ __ __ __ __ __ __ __
 72
    65
 73
     2
 40
3.500000
 49
2.000000
 49
-1.500000
  0
LTYPE
  2
CENTER
 70
    64
  3
____ _ ____ _ ____ _ ____ _ ____ _ ____ _ ____
 72
    65
 73
     4
 40
17.500000
 49
13.000000
 49
-1.500000
 49
1.500000
 49
-1.500000
  0
LTYPE
  2
PHANTOM
 70
    64
  3
_____ _ _ _____ _ _ _____ _ _ _____ _ _ ____  
 72
    65
 73
     6
 40
15.500000
 49
8.000000
 49
-1.500000
 49
1.500000
 49
-1.500000
 49
1.500000
 49
-1.500000
  0
LTYPE
  2
DASHED1
 70
    64
  3
__ __ __ __ __ __ __ __ __ __ __ __ __ __ __
 72
    65
 73
     2
 40
1.500000
 49
1.000000
 49
-0.500000
  0
LTYPE
  2
DASHED2
 70
    64
  3
__ __ __ __ __ __ __ __ __ __ __ __ __ __ __
 72
    65
 73
     2
 40
3.500000
 49
2.500000
 49
-1.000000
  0
LTYPE
  2
DASHED3
 70
    64
  3
__ __ __ __ __ __ __ __ __ __ __ __ __ __ __
 72
    65
 73
     2
 40
6.000000
 49
4.000000
 49
-2.000000
  0
LTYPE
  2
DASHED4
 70
    64
  3
__ __ __ __ __ __ __ __ __ __ __ __ __ __ __
 72
    65
 73
     2
 40
12.000000
 49
10.000000
 49
-2.000000
  0
LTYPE
  2
DASHED5
 70
    64
  3
__ __ __ __ __ __ __ __ __ __ __ __ __ __ __
 72
    65
 73
     2
 40
17.000000
 49
15.000000
 49
-2.000000
  0
LTYPE
  2
DASHED6
 70
    64
  3
__ __ __ __ __ __ __ __ __ __ __ __ __ __ __
 72
    65
 73
     2
 40
29.000000
 49
27.000000
 49
-2.000000
  0
LTYPE
  2
PHANTOM1
 70
    64
  3
_____ _ _ _____ _ _ _____ _ _ _____ _ _ ____  
 72
    65
 73
     6
 40
31.000000
 49
25.000000
 49
-1.500000
 49
1.000000
 49
-1.000000
 49
1.000000
 49
-1.500000
  0
LTYPE
  2
PHANTOM2
 70
    64
  3
_____ _ _ _____ _ _ _____ _ _ _____ _ _ ____  
 72
    65
 73
     6
 40
36.000000
 49
27.000000
 49
-1.500000
 49
2.500000
 49
-1.000000
 49
2.500000
 49
-1.500000
  0
LTYPE
  2
PHANTOM3
 70
    64
  3
_____ _ _ _____ _ _ _____ _ _ _____ _ _ ____  
 72
    65
 73
     6
 40
78.000000
 49
64.000000
 49
-2.000000
 49
4.000000
 49
-2.000000
 49
4.000000
 49
-2.000000
  0
LTYPE
  2
CENTER1
 70
    64
  3
____ _ ____ _ ____ _ ____ _ ____ _ ____ _ ____
 72
    65
 73
     4
 40
19.000000
 49
14.000000
 49
-1.000000
 49
3.000000
 49
-1.000000
  0
LTYPE
  2
CENTER2
 70
    64
  3
____ _ ____ _ ____ _ ____ _ ____ _ ____ _ ____
 72
    65
 73
     4
 40
28.500000
 49
25.000000
 49
-1.000000
 49
1.500000
 49
-1.000000
  0
LTYPE
  2
CENTER3
 70
    64
  3
____ _ ____ _ ____ _ ____ _ ____ _ ____ _ ____
 72
    65
 73
     4
 40
31.500000
 49
27.000000
 49
-1.000000
 49
2.500000
 49
-1.000000
  0
LTYPE
  2
CENTER4
 70
    64
  3
____ _ ____ _ ____ _ ____ _ ____ _ ____ _ ____
 72
    65
 73
     4
 40
50.000000
 49
45.000000
 49
-1.000000
 49
3.000000
 49
-1.000000
  0
LTYPE
  2
CENTER5
 70
    64
  3
____ _ ____ _ ____ _ ____ _ ____ _ ____ _ ____
 72
    65
 73
     4
 40
100.000000
 49
92.000000
 49
-2.000000
 49
4.000000
 49
-2.000000
  0
LTYPE
  2
SBK1
 70
    64
  3
______ _ _ _ ______ _ _ _ ______ _ _ _ _____  
 72
    65
 73
     8
 40
60.500000
 49
45.000000
 49
-2.000000
 49
2.500000
 49
-2.000000
 49
2.500000
 49
-2.000000
 49
2.500000
 49
-2.000000
  0
LTYPE
  2
SBK2
 70
    64
  3
______ _ _ _ ______ _ _ _ ______ _ _ _ _____  
 72
    65
 73
     8
 40
84.000000
 49
64.000000
 49
-2.000000
 49
4.000000
 49
-2.000000
 49
4.000000
 49
-2.000000
 49
4.000000
 49
-2.000000
  0
LTYPE
  2
STCH
 70
    64
  3
__ __ __ __ __ __ __ __ __ __ __ __ __ __ __
 72
    65
 73
     2
 40
3.000000
 49
1.000000
 49
-2.000000
  0
LTYPE
  2
MTCH
 70
    64
  3
_____ _ _ _____ _ _ _____ _ _ _____ _ _ ____  
 72
    65
 73
     6
 40
80.000000
 49
66.000000
 49
-2.000000
 49
4.000000
 49
-2.000000
 49
4.000000
 49
-2.000000
  0
ENDTAB
  0
TABLE
  2
LAYER
 70
     1
  0
LAYER
  2
0
 70
     0
 62
     7
  6
CONTINUOUS
  0
ENDTAB
  0
TABLE
  2
STYLE
 70
     1
  0
STYLE
  2
STANDARD
 70
     0
 40
0.000000
 41
1.000000
 50
0.000000
 71
     0
 42
0.200000
  3
txt
  4
BIGFONT
  0
ENDTAB
  0
TABLE
  2
VIEW
 70
     0
  0
ENDTAB
  0
ENDSEC
  0
SECTION
  2
BLOCKS
  0
ENDSEC
  0
SECTION
  2
ENTITIES
  0
LINE
  8
0
 10
-262.247223
 20
-180.000046
 11
-262.247223
 21
180.000046
  0
LINE
  8
0
 10
262.247223
 20
180.000046
 11
262.247223
 21
-180.000046
  0
LINE
  8
0
 10
-262.247223
 20
-180.000046
 11
262.247223
 21
-180.000046
  0
LINE
  8
0
 10
-262.247223
 20
180.000046
 11
262.247223
 21
180.000046
  0
LINE
  8
0
 10
-262.247223
 20
159.775299
 11
-154.382050
 21
159.775299
  0
LINE
  8
0
 10
-154.382050
 20
159.775299
 11
-154.382050
 21
180.000046
  0
LINE
  8
0
 10
154.382034
 20
-159.775345
 11
262.247223
 21
-159.775345
  0
LINE
  8
0
 10
154.382034
 20
159.775299
 11
262.247223
 21
159.775299
  0
LINE
  8
0
 10
154.382034
 20
180.000046
 11
154.382034
 21
159.775299
  0
LINE
  8
0
 10
154.382034
 20
-159.775345
 11
154.382034
 21
-180.000046
  0
TEXT
  8
0
 10
160.213089
 20
165.487701
 40
6.000000
  1
DATE : SEP ,1992
 50
0.000000
 41
1.052631
 51
0.000000
  7
STANDARD
  0
TEXT
  8
0
 10
-240.564621
 20
164.587692
 40
7.000000
  1
GA SERIES
 50
0.000000
 41
1.052632
 51
0.000000
  7
STANDARD
  0
TEXT
  8
0
 10
162.064636
 20
-175.187698
 40
7.000000
  1
KOGANEI CORP.
 50
0.000000
 41
1.052632
 51
0.000000
  7
STANDARD
  0
TEXT
  8
0
 10
-250.761948
 20
136.402390
 40
8.000000
  1
MODEL:GADA32X50-K2-S2
 50
0.000000
 41
1.052632
 51
0.000000
  7
STANDARD
  0
POINT
  8
0
 10
-163.739746
 20
47.911263
  0
POINT
  8
0
 10
-143.239777
 20
47.911263
  0
LINE
  8
0
 10
-215.699326
 20
47.911263
 11
-132.232651
 21
47.911263
  0
LINE
  8
0
 10
-163.739746
 20
123.163017
 11
-163.739746
 21
-24.498550
  0
LINE
  8
0
 10
-173.239746
 20
53.396095
 11
-173.239746
 21
42.426445
  0
LINE
  8
0
 10
-154.239746
 20
53.396095
 11
-154.239746
 21
42.426437
  0
LINE
  8
0
 10
-173.239792
 20
53.396252
 11
-163.739777
 21
58.881081
  0
LINE
  8
0
 10
-163.739761
 20
58.880924
 11
-154.239777
 21
53.396107
  0
LINE
  8
0
 10
-173.239716
 20
42.426395
 11
-163.739731
 21
36.941582
  0
LINE
  8
0
 10
-163.739639
 20
36.941467
 11
-154.239639
 21
42.426292
  0
LINE
  8
0
 10
-175.739746
 20
108.911263
 11
-175.739746
 21
96.911263
  0
LINE
  8
0
 10
-151.739746
 20
108.911263
 11
-151.739746
 21
96.911263
  0
LINE
  8
0
 10
-151.739746
 20
78.911263
 11
-151.739746
 21
66.911263
  0
LINE
  8
0
 10
-175.739746
 20
28.911263
 11
-175.739746
 21
16.911263
  0
LINE
  8
0
 10
-151.739746
 20
28.911263
 11
-151.739746
 21
16.911263
  0
LINE
  8
0
 10
-151.739746
 20
-1.088734
 11
-151.739746
 21
-12.286293
  0
LINE
  8
0
 10
-175.739746
 20
-1.088734
 11
-175.739746
 21
-12.286293
  0
LINE
  8
0
 10
-181.739746
 20
102.911263
 11
-169.739746
 21
102.911263
  0
LINE
  8
0
 10
-157.739746
 20
102.911263
 11
-146.800247
 21
102.911263
  0
LINE
  8
0
 10
-157.739746
 20
72.911263
 11
-146.800247
 21
72.911263
  0
LINE
  8
0
 10
-181.739746
 20
72.911263
 11
-169.739746
 21
72.911263
  0
LINE
  8
0
 10
-181.739746
 20
22.911263
 11
-169.739746
 21
22.911263
  0
LINE
  8
0
 10
-157.739746
 20
22.911263
 11
-146.800247
 21
22.911263
  0
LINE
  8
0
 10
-181.739746
 20
-7.088734
 11
-169.739746
 21
-7.088734
  0
LINE
  8
0
 10
-157.739746
 20
-7.088734
 11
-146.800247
 21
-7.088734
  0
LINE
  8
0
 10
-175.739746
 20
78.911263
 11
-175.739746
 21
66.911263
  0
LINE
  8
0
 10
-198.239731
 20
109.911263
 11
-198.239731
 21
-14.088737
  0
LINE
  8
0
 10
-145.239746
 20
109.911263
 11
-145.239746
 21
-14.088737
  0
LINE
  8
0
 10
-198.239731
 20
-14.088737
 11
-145.239746
 21
-14.088737
  0
LINE
  8
0
 10
-198.239731
 20
109.911263
 11
-145.239746
 21
109.911263
  0
LINE
  8
0
 10
-206.239731
 20
114.411263
 11
-206.239731
 21
-18.588737
  0
LINE
  8
0
 10
-143.239731
 20
114.411263
 11
-143.239731
 21
-18.588737
  0
LINE
  8
0
 10
-206.239731
 20
114.411263
 11
-143.239731
 21
114.411263
  0
LINE
  8
0
 10
-206.239731
 20
-18.588737
 11
-143.239731
 21
-18.588737
  0
LINE
  8
0
 10
-210.739731
 20
115.911263
 11
-210.739731
 21
91.911263
  0
LINE
  8
0
 10
-210.739731
 20
-20.088737
 11
-194.739731
 21
-20.088737
  0
LINE
  8
0
 10
-210.739731
 20
115.911263
 11
-194.739731
 21
115.911263
  0
LINE
  8
0
 10
-210.739731
 20
91.911263
 11
-209.239731
 21
91.911263
  0
LINE
  8
0
 10
-210.739731
 20
3.911263
 11
-209.239731
 21
3.911263
  0
LINE
  8
0
 10
-209.239731
 20
91.911263
 11
-209.239731
 21
3.911263
  0
LINE
  8
0
 10
-210.739731
 20
3.911263
 11
-210.739731
 21
-20.088737
  0
LINE
  8
0
 10
-194.739731
 20
115.911263
 11
-194.739731
 21
114.911263
  0
LINE
  8
0
 10
-157.739731
 20
115.911263
 11
-157.739731
 21
114.911263
  0
LINE
  8
0
 10
-194.739731
 20
-19.088737
 11
-194.739731
 21
-20.088737
  0
LINE
  8
0
 10
-157.739731
 20
-19.088737
 11
-157.739731
 21
-20.088737
  0
LINE
  8
0
 10
-194.739731
 20
-19.088737
 11
-157.739731
 21
-19.088737
  0
LINE
  8
0
 10
-194.739731
 20
114.911263
 11
-157.739731
 21
114.911263
  0
LINE
  8
0
 10
-157.739731
 20
115.911263
 11
-141.739731
 21
115.911263
  0
LINE
  8
0
 10
-157.739731
 20
-20.088737
 11
-141.739731
 21
-20.088737
  0
LINE
  8
0
 10
-141.739990
 20
78.411522
 11
-143.239990
 21
76.911522
  0
LINE
  8
0
 10
-141.739807
 20
17.411114
 11
-143.239807
 21
18.911116
  0
LINE
  8
0
 10
-141.739731
 20
78.411263
 11
-141.739731
 21
115.911263
  0
LINE
  8
0
 10
-141.739731
 20
17.411263
 11
-141.739731
 21
-20.088737
  0
CIRCLE
  8
0
 10
-151.739746
 20
22.911263
 40
3.000000
  0
CIRCLE
  8
0
 10
-151.739746
 20
72.911263
 40
3.000000
  0
CIRCLE
  8
0
 10
-175.739746
 20
72.911263
 40
3.000000
  0
CIRCLE
  8
0
 10
-151.739746
 20
102.911263
 40
3.300000
  0
CIRCLE
  8
0
 10
-163.739746
 20
47.911263
 40
5.000000
  0
CIRCLE
  8
0
 10
-163.739746
 20
47.911263
 40
4.375000
  0
CIRCLE
  8
0
 10
-175.739746
 20
102.911263
 40
3.300000
  0
CIRCLE
  8
0
 10
-175.739746
 20
-7.088734
 40
3.300000
  0
CIRCLE
  8
0
 10
-151.739746
 20
-7.088734
 40
3.300000
  0
CIRCLE
  8
0
 10
-175.739746
 20
72.911263
 40
2.500000
  0
CIRCLE
  8
0
 10
-151.739746
 20
72.911263
 40
2.500000
  0
CIRCLE
  8
0
 10
-151.739746
 20
22.911263
 40
2.500000
  0
CIRCLE
  8
0
 10
-175.739746
 20
22.911263
 40
2.500000
  0
CIRCLE
  8
0
 10
-175.739746
 20
22.911263
 40
3.000000
  0
POINT
  8
0
 10
-43.239769
 20
-87.088737
  0
POINT
  8
0
 10
210.760254
 20
-87.088737
  0
LINE
  8
0
 10
-31.239769
 20
-79.088737
 11
-0.239769
 21
-79.088737
  0
LINE
  8
0
 10
-31.239769
 20
-95.088737
 11
-0.239769
 21
-95.088737
  0
LINE
  8
0
 10
129.760223
 20
-79.088737
 11
196.760254
 21
-79.088737
  0
LINE
  8
0
 10
129.760223
 20
-95.088737
 11
196.760254
 21
-95.088737
  0
LINE
  8
0
 10
134.260223
 20
-69.588737
 11
134.260223
 21
-79.088737
  0
LINE
  8
0
 10
134.260223
 20
-69.588737
 11
129.760223
 21
-69.588737
  0
LINE
  8
0
 10
134.260223
 20
-104.588737
 11
129.760223
 21
-104.588737
  0
LINE
  8
0
 10
134.260223
 20
-73.588737
 11
135.260223
 21
-73.588737
  0
LINE
  8
0
 10
134.260223
 20
-100.588737
 11
135.260223
 21
-100.588737
  0
LINE
  8
0
 10
135.260223
 20
-73.588737
 11
135.260223
 21
-79.088737
  0
LINE
  8
0
 10
-59.950005
 20
-87.088737
 11
217.988678
 21
-87.088737
  0
LINE
  8
0
 10
-43.239769
 20
-68.588737
 11
-43.239769
 21
-121.588737
  0
LINE
  8
0
 10
-31.239769
 20
-68.588737
 11
-31.239769
 21
-122.588737
  0
LINE
  8
0
 10
-0.239769
 20
-66.588737
 11
-0.239769
 21
-129.588745
  0
LINE
  8
0
 10
9.760231
 20
-65.088737
 11
9.760231
 21
-134.088745
  0
LINE
  8
0
 10
196.760254
 20
-68.588737
 11
196.760254
 21
-121.588737
  0
LINE
  8
0
 10
208.760254
 20
-68.588737
 11
208.760254
 21
-121.588737
  0
LINE
  8
0
 10
142.260223
 20
-108.088737
 11
136.760223
 21
-108.088737
  0
LINE
  8
0
 10
143.760223
 20
-109.588737
 11
136.760223
 21
-109.588737
  0
LINE
  8
0
 10
142.260223
 20
-108.088737
 11
142.260223
 21
-124.088737
  0
LINE
  8
0
 10
142.260315
 20
-108.088684
 11
143.760315
 21
-109.588684
  0
LINE
  8
0
 10
148.760223
 20
-109.588737
 11
143.760223
 21
-109.588737
  0
LINE
  8
0
 10
143.760223
 20
-109.588737
 11
143.760223
 21
-122.588737
  0
LINE
  8
0
 10
148.760223
 20
-122.588737
 11
143.760223
 21
-122.588737
  0
LINE
  8
0
 10
143.760223
 20
-122.588737
 11
136.760223
 21
-122.588737
  0
LINE
  8
0
 10
142.260223
 20
-124.088737
 11
136.760223
 21
-124.088737
  0
LINE
  8
0
 10
143.760132
 20
-122.588623
 11
142.260162
 21
-124.088623
  0
LINE
  8
0
 10
148.760223
 20
-109.588737
 11
148.760223
 21
-122.588737
  0
LINE
  8
0
 10
148.760223
 20
-113.588737
 11
163.760223
 21
-113.588737
  0
LINE
  8
0
 10
148.760223
 20
-118.588737
 11
163.760223
 21
-118.588737
  0
LINE
  8
0
 10
163.760223
 20
-113.588737
 11
163.760223
 21
-118.588737
  0
LINE
  8
0
 10
134.260223
 20
-95.088737
 11
134.260223
 21
-104.588737
  0
LINE
  8
0
 10
135.260223
 20
-95.088737
 11
135.260223
 21
-100.588737
  0
LINE
  8
0
 10
-9.739769
 20
-69.088737
 11
-0.239769
 21
-69.088737
  0
LINE
  8
0
 10
-9.739769
 20
-105.088737
 11
-0.239769
 21
-105.088737
  0
LINE
  8
0
 10
-9.739769
 20
-69.088737
 11
-9.739769
 21
-79.088737
  0
LINE
  8
0
 10
-9.739769
 20
-95.088737
 11
-9.739769
 21
-105.088737
  0
LINE
  8
0
 10
-0.239769
 20
-129.588745
 11
9.760231
 21
-129.588745
  0
LINE
  8
0
 10
-0.239769
 20
-66.588737
 11
9.760231
 21
-66.588737
  0
LINE
  8
0
 10
-43.239769
 20
-121.588737
 11
-31.239769
 21
-121.588737
  0
LINE
  8
0
 10
-43.239769
 20
-68.588737
 11
-31.239769
 21
-68.588737
  0
LINE
  8
0
 10
9.760231
 20
-134.088745
 11
129.760223
 21
-134.088745
  0
LINE
  8
0
 10
9.760231
 20
-65.088737
 11
129.760223
 21
-65.088737
  0
LINE
  8
0
 10
129.760223
 20
-65.088737
 11
129.760223
 21
-134.088745
  0
LINE
  8
0
 10
196.760254
 20
-121.588737
 11
208.760254
 21
-121.588737
  0
LINE
  8
0
 10
196.760254
 20
-68.588737
 11
208.760254
 21
-68.588737
  0
LINE
  8
0
 10
9.760231
 20
-118.088737
 11
129.760223
 21
-118.088737
  0
LINE
  8
0
 10
9.760231
 20
-81.088737
 11
129.760223
 21
-81.088737
  0
LINE
  8
0
 10
135.911713
 20
-127.058388
 11
130.608734
 21
-127.058388
  0
LINE
  8
0
 10
135.911713
 20
-121.516487
 11
130.608734
 21
-121.516487
  0
LINE
  8
0
 10
135.911713
 20
-110.660957
 11
130.608734
 21
-110.660957
  0
LINE
  8
0
 10
135.911713
 20
-105.119087
 11
130.608734
 21
-105.119087
  0
LINE
  8
0
 10
136.760284
 20
-106.588699
 11
135.911774
 21
-105.119041
  0
LINE
  8
0
 10
136.760223
 20
-125.588737
 11
136.760223
 21
-106.588737
  0
LINE
  8
0
 10
136.760101
 20
-125.588638
 11
135.911591
 21
-127.058304
  0
LINE
  8
0
 10
129.760437
 20
-106.588806
 11
130.608978
 21
-105.119110
  0
LINE
  8
0
 10
129.760284
 20
-125.588692
 11
130.608795
 21
-127.058350
  0
LINE
  8
0
 10
-0.239845
 20
-106.588791
 11
-1.088356
 21
-105.119125
  0
LINE
  8
0
 10
-24.739769
 20
-108.088737
 11
-7.239769
 21
-108.088737
  0
LINE
  8
0
 10
-24.739771
 20
-124.088737
 11
-7.239769
 21
-124.088737
  0
LINE
  8
0
 10
-31.239769
 20
-109.588737
 11
-26.239769
 21
-109.588737
  0
LINE
  8
0
 10
-31.239769
 20
-122.588737
 11
-26.239769
 21
-122.588737
  0
LINE
  8
0
 10
-26.239769
 20
-109.588737
 11
-26.239769
 21
-122.588737
  0
LINE
  8
0
 10
-26.239769
 20
-109.588737
 11
-7.239769
 21
-109.588737
  0
LINE
  8
0
 10
-26.239769
 20
-122.588737
 11
-7.239769
 21
-122.588737
  0
LINE
  8
0
 10
-24.739666
 20
-108.088821
 11
-26.239668
 21
-109.588821
  0
LINE
  8
0
 10
-26.239813
 20
-122.588776
 11
-24.739813
 21
-124.088776
  0
LINE
  8
0
 10
-24.739771
 20
-108.088737
 11
-24.739771
 21
-124.088737
  0
LINE
  8
0
 10
-7.239845
 20
-125.588783
 11
-6.391331
 21
-127.058441
  0
LINE
  8
0
 10
-7.239769
 20
-106.588753
 11
-7.239769
 21
-125.588753
  0
LINE
  8
0
 10
-7.239685
 20
-106.588821
 11
-6.391167
 21
-105.119171
  0
LINE
  8
0
 10
-0.239849
 20
-125.588760
 11
-1.088375
 21
-127.058456
  0
LINE
  8
0
 10
-6.391258
 20
-110.661018
 11
-1.088280
 21
-110.661018
  0
LINE
  8
0
 10
-6.391258
 20
-121.516548
 11
-1.088280
 21
-121.516548
  0
LINE
  8
0
 10
-6.391258
 20
-127.058418
 11
-1.088280
 21
-127.058418
  0
LINE
  8
0
 10
33.036705
 20
-73.088737
 11
45.506233
 21
-73.088737
  0
LINE
  8
0
 10
33.036705
 20
-126.088737
 11
45.506233
 21
-126.088737
  0
LINE
  8
0
 10
39.760231
 20
-62.215813
 11
39.760231
 21
-79.615150
  0
LINE
  8
0
 10
89.760231
 20
-62.215813
 11
89.760231
 21
-79.615150
  0
LINE
  8
0
 10
82.044846
 20
-73.088737
 11
97.124275
 21
-73.088737
  0
LINE
  8
0
 10
82.044846
 20
-126.088737
 11
97.124275
 21
-126.088737
  0
LINE
  8
0
 10
39.760231
 20
-118.088737
 11
39.760231
 21
-138.482910
  0
LINE
  8
0
 10
89.760231
 20
-118.088737
 11
89.760231
 21
-138.482910
  0
LINE
  8
0
 10
210.760254
 20
-79.088737
 11
210.760254
 21
-95.088737
  0
LINE
  8
0
 10
208.760254
 20
-79.088737
 11
210.760254
 21
-79.088737
  0
LINE
  8
0
 10
208.760254
 20
-95.088737
 11
210.760254
 21
-95.088737
  0
ARC
  8
0
 10
-2.291466
 20
-124.287483
 40
4.948347
 50
145.946045
 51
205.954010
  0
ARC
  8
0
 10
-5.188072
 20
-107.890053
 40
4.948347
 50
325.946045
 51
25.940462
  0
ARC
  8
0
 10
-2.291466
 20
-107.890053
 40
4.948346
 50
154.067307
 51
214.053955
  0
ARC
  8
0
 10
10.544838
 20
-116.088753
 40
17.784563
 50
162.230087
 51
197.769882
  0
ARC
  8
0
 10
20.258667
 20
-78.782326
 40
30.000000
 50
161.148315
 51
180.585175
  0
ARC
  8
0
 10
20.258667
 20
-95.395149
 40
30.000002
 50
179.414764
 51
198.851608
  0
CIRCLE
  8
0
 10
39.760231
 20
-73.088737
 40
4.000000
  0
CIRCLE
  8
0
 10
89.760231
 20
-73.088737
 40
4.000000
  0
CIRCLE
  8
0
 10
89.760231
 20
-126.088737
 40
4.000000
  0
CIRCLE
  8
0
 10
39.760231
 20
-126.088737
 40
4.000000
  0
CIRCLE
  8
0
 10
39.760231
 20
-126.088737
 40
2.800000
  0
CIRCLE
  8
0
 10
89.760231
 20
-126.088737
 40
2.800000
  0
CIRCLE
  8
0
 10
89.760231
 20
-73.088737
 40
2.800000
  0
CIRCLE
  8
0
 10
39.760231
 20
-73.088737
 40
2.800000
  0
ARC
  8
0
 10
131.811920
 20
-107.890007
 40
4.948350
 50
325.946075
 51
25.954033
  0
ARC
  8
0
 10
118.975624
 20
-116.088737
 40
17.784561
 50
342.230103
 51
17.769913
  0
ARC
  8
0
 10
131.811920
 20
-124.287437
 40
4.948356
 50
334.067444
 51
34.053932
  0
ARC
  8
0
 10
134.708527
 20
-107.890007
 40
4.948329
 50
154.057587
 51
214.053925
  0
ARC
  8
0
 10
147.544769
 20
-116.088737
 40
17.784542
 50
162.230057
 51
197.769882
  0
ARC
  8
0
 10
134.708527
 20
-124.287437
 40
4.948350
 50
145.946075
 51
205.940445
  0
ARC
  8
0
 10
-18.024315
 20
-116.088753
 40
17.784561
 50
342.230072
 51
17.769867
  0
ARC
  8
0
 10
-5.188072
 20
-124.287483
 40
4.948347
 50
334.057587
 51
34.053955
  0
POINT
  8
0
 10
-43.239769
 20
47.911278
  0
POINT
  8
0
 10
208.760254
 20
47.911278
  0
LINE
  8
0
 10
-0.239769
 20
114.411278
 11
-0.239769
 21
-18.588722
  0
LINE
  8
0
 10
9.760231
 20
115.911278
 11
9.760231
 21
65.411278
  0
LINE
  8
0
 10
9.760231
 20
115.911278
 11
129.760223
 21
115.911278
  0
LINE
  8
0
 10
9.760231
 20
-20.088722
 11
129.760223
 21
-20.088722
  0
LINE
  8
0
 10
4.260231
 20
68.411278
 11
4.260231
 21
27.411278
  0
LINE
  8
0
 10
4.260231
 20
68.411278
 11
129.760223
 21
68.411278
  0
LINE
  8
0
 10
4.260231
 20
27.411278
 11
129.760223
 21
27.411278
  0
LINE
  8
0
 10
9.760231
 20
30.411278
 11
9.760231
 21
-20.088722
  0
LINE
  8
0
 10
39.760239
 20
-23.625755
 11
39.760239
 21
-7.105766
  0
LINE
  8
0
 10
-8.132072
 20
68.695885
 11
-0.239769
 21
68.695885
  0
LINE
  8
0
 10
-8.132076
 20
37.518974
 11
-0.239769
 21
37.518974
  0
LINE
  8
0
 10
-8.132072
 20
27.126671
 11
-0.239769
 21
27.126671
  0
LINE
  8
0
 10
-9.739769
 20
65.911293
 11
-9.739769
 21
29.911278
  0
LINE
  8
0
 10
-8.132072
 20
58.303581
 11
-0.239769
 21
58.303581
  0
LINE
  8
0
 10
-9.739777
 20
65.911301
 11
-8.132088
 21
68.695908
  0
LINE
  8
0
 10
-9.739754
 20
29.911303
 11
-8.132065
 21
27.126699
  0
LINE
  8
0
 10
-31.239769
 20
109.911278
 11
-31.239769
 21
-14.088718
  0
LINE
  8
0
 10
-43.239769
 20
109.911278
 11
-31.239769
 21
109.911278
  0
LINE
  8
0
 10
-43.239769
 20
-14.088718
 11
-31.239769
 21
-14.088718
  0
LINE
  8
0
 10
-31.239769
 20
97.911278
 11
-0.239769
 21
97.911278
  0
LINE
  8
0
 10
-31.239769
 20
81.911278
 11
-0.239769
 21
81.911278
  0
LINE
  8
0
 10
129.760223
 20
97.911278
 11
196.760254
 21
97.911278
  0
LINE
  8
0
 10
129.760223
 20
81.911278
 11
196.760254
 21
81.911278
  0
LINE
  8
0
 10
-30.845970
 20
58.880936
 11
-25.633560
 21
58.880936
  0
LINE
  8
0
 10
-30.845970
 20
53.396111
 11
-25.633553
 21
53.396111
  0
LINE
  8
0
 10
-30.845970
 20
42.426453
 11
-25.633553
 21
42.426453
  0
LINE
  8
0
 10
-30.845978
 20
36.941628
 11
-25.633568
 21
36.941628
  0
LINE
  8
0
 10
-25.239769
 20
57.411278
 11
-25.239769
 21
38.411278
  0
LINE
  8
0
 10
-31.239750
 20
57.411278
 11
-30.845955
 21
58.880932
  0
LINE
  8
0
 10
-25.633533
 20
36.941639
 11
-25.239740
 21
38.411293
  0
LINE
  8
0
 10
-25.633562
 20
58.880928
 11
-25.239773
 21
57.411289
  0
LINE
  8
0
 10
-31.239761
 20
38.411278
 11
-30.845970
 21
36.941620
  0
LINE
  8
0
 10
-17.739769
 20
52.911278
 11
-17.739769
 21
47.911278
  0
LINE
  8
0
 10
-15.739769
 20
52.911278
 11
-15.739769
 21
47.911278
  0
LINE
  8
0
 10
-17.739769
 20
52.911278
 11
-25.239769
 21
52.911278
  0
LINE
  8
0
 10
-17.739769
 20
52.911278
 11
-15.739769
 21
52.911278
  0
LINE
  8
0
 10
-14.739769
 20
53.911278
 11
-9.739769
 21
53.911278
  0
LINE
  8
0
 10
-17.739769
 20
52.211281
 11
-25.239769
 21
52.211281
  0
LINE
  8
0
 10
-15.739674
 20
52.911163
 11
-14.739672
 21
53.911163
  0
LINE
  8
0
 10
-17.739836
 20
52.211384
 11
-16.527399
 21
52.911385
  0
LINE
  8
0
 10
-17.739769
 20
42.911278
 11
-25.239769
 21
42.911278
  0
LINE
  8
0
 10
-17.739769
 20
43.611282
 11
-25.239769
 21
43.611282
  0
LINE
  8
0
 10
-17.739769
 20
42.911278
 11
-17.739769
 21
47.911278
  0
LINE
  8
0
 10
-17.739763
 20
43.611282
 11
-16.527327
 21
42.911282
  0
LINE
  8
0
 10
-17.739769
 20
42.911278
 11
-15.739769
 21
42.911278
  0
LINE
  8
0
 10
-15.739769
 20
42.911278
 11
-15.739769
 21
47.911278
  0
LINE
  8
0
 10
-15.739838
 20
42.911240
 11
-14.739836
 21
41.911240
  0
LINE
  8
0
 10
-14.739769
 20
41.911278
 11
-9.739769
 21
41.911278
  0
LINE
  8
0
 10
-14.739769
 20
41.911278
 11
-14.739769
 21
53.911278
  0
LINE
  8
0
 10
20.260231
 20
65.411278
 11
20.260231
 21
30.411278
  0
LINE
  8
0
 10
4.260231
 20
65.411278
 11
20.260231
 21
65.411278
  0
LINE
  8
0
 10
4.260231
 20
30.411278
 11
20.260231
 21
30.411278
  0
LINE
  8
0
 10
197.760254
 20
108.911278
 11
207.760254
 21
108.911278
  0
LINE
  8
0
 10
197.760254
 20
101.911278
 11
197.760254
 21
108.911278
  0
LINE
  8
0
 10
207.760254
 20
101.911278
 11
207.760254
 21
108.911278
  0
LINE
  8
0
 10
197.760254
 20
-13.088718
 11
207.760254
 21
-13.088718
  0
LINE
  8
0
 10
197.760254
 20
-6.088718
 11
197.760254
 21
-13.088718
  0
LINE
  8
0
 10
207.760254
 20
-6.088718
 11
207.760254
 21
-13.088718
  0
LINE
  8
0
 10
12.260231
 20
56.766762
 11
12.260231
 21
39.666679
  0
LINE
  8
0
 10
-55.107635
 20
89.911278
 11
223.786041
 21
89.911278
  0
LINE
  8
0
 10
-55.107635
 20
47.911278
 11
227.988678
 21
47.911278
  0
LINE
  8
0
 10
-55.107635
 20
5.911278
 11
223.786041
 21
5.911278
  0
LINE
  8
0
  6
DASHED
 10
43.760239
 20
-20.088722
 11
43.760239
 21
-14.088722
  0
LINE
  8
0
  6
DASHED
 10
35.760239
 20
-20.088722
 11
35.760239
 21
-14.088722
  0
LINE
  8
0
  6
DASHED
 10
42.760239
 20
-20.088722
 11
42.760239
 21
-12.088722
  0
LINE
  8
0
  6
DASHED
 10
36.760239
 20
-20.088722
 11
36.760239
 21
-12.088722
  0
LINE
  8
0
 10
-43.239769
 20
109.911278
 11
-43.239769
 21
-14.088718
  0
LINE
  8
0
 10
-31.239769
 20
13.911278
 11
-0.239769
 21
13.911278
  0
LINE
  8
0
 10
-31.239769
 20
-2.088718
 11
-0.239769
 21
-2.088718
  0
LINE
  8
0
 10
129.760223
 20
13.911278
 11
196.760254
 21
13.911278
  0
LINE
  8
0
 10
129.760223
 20
-2.088718
 11
196.760254
 21
-2.088718
  0
LINE
  8
0
 10
134.260223
 20
65.411278
 11
134.260223
 21
30.411278
  0
LINE
  8
0
 10
118.260231
 20
65.411278
 11
118.260231
 21
30.411278
  0
LINE
  8
0
 10
134.260223
 20
65.411278
 11
118.260231
 21
65.411278
  0
LINE
  8
0
 10
134.260223
 20
30.411278
 11
118.260231
 21
30.411278
  0
LINE
  8
0
 10
20.260231
 20
64.711281
 11
118.260231
 21
64.711281
  0
LINE
  8
0
 10
20.260231
 20
31.111290
 11
118.260231
 21
31.111290
  0
LINE
  8
0
 10
134.260223
 20
61.411278
 11
135.260223
 21
61.411278
  0
LINE
  8
0
 10
134.260223
 20
34.411278
 11
135.260223
 21
34.411278
  0
LINE
  8
0
 10
135.260223
 20
61.411278
 11
135.260223
 21
34.411278
  0
LINE
  8
0
 10
126.260231
 20
56.200005
 11
126.260231
 21
39.886383
  0
LINE
  8
0
 10
129.760223
 20
115.911278
 11
129.760223
 21
65.411278
  0
LINE
  8
0
 10
129.760223
 20
30.411278
 11
129.760223
 21
-20.088722
  0
LINE
  8
0
  6
DASHED
 10
86.760231
 20
115.911278
 11
86.760231
 21
107.911278
  0
LINE
  8
0
  6
DASHED
 10
85.760231
 20
115.911278
 11
85.760231
 21
109.911278
  0
LINE
  8
0
 10
89.760231
 20
119.448311
 11
89.760231
 21
102.928322
  0
LINE
  8
0
  6
DASHED
 10
92.760231
 20
115.911278
 11
92.760231
 21
107.911278
  0
LINE
  8
0
  6
DASHED
 10
93.760231
 20
115.911278
 11
93.760231
 21
109.911278
  0
LINE
  8
0
  6
DASHED
 10
36.760231
 20
115.911278
 11
36.760231
 21
107.911278
  0
LINE
  8
0
  6
DASHED
 10
35.760231
 20
115.911278
 11
35.760231
 21
109.911278
  0
LINE
  8
0
 10
39.760231
 20
119.448311
 11
39.760231
 21
102.928322
  0
LINE
  8
0
  6
DASHED
 10
42.760231
 20
115.911278
 11
42.760231
 21
107.911278
  0
LINE
  8
0
  6
DASHED
 10
43.760231
 20
115.911278
 11
43.760231
 21
109.911278
  0
LINE
  8
0
  6
DASHED
 10
85.760231
 20
-20.088722
 11
85.760231
 21
-14.088722
  0
LINE
  8
0
  6
DASHED
 10
86.760231
 20
-20.088722
 11
86.760231
 21
-12.088722
  0
LINE
  8
0
 10
89.760231
 20
-23.625755
 11
89.760231
 21
-7.105766
  0
LINE
  8
0
  6
DASHED
 10
92.760231
 20
-20.088722
 11
92.760231
 21
-12.088722
  0
LINE
  8
0
  6
DASHED
 10
93.760231
 20
-20.088722
 11
93.760231
 21
-14.088722
  0
LINE
  8
0
 10
-0.239769
 20
-18.588722
 11
9.760231
 21
-18.588722
  0
LINE
  8
0
 10
-0.239769
 20
114.411278
 11
9.760231
 21
114.411278
  0
LINE
  8
0
 10
9.760231
 20
17.411278
 11
129.760223
 21
17.411278
  0
LINE
  8
0
 10
9.760231
 20
78.411278
 11
129.760223
 21
78.411278
  0
LINE
  8
0
 10
196.760254
 20
101.911278
 11
208.760254
 21
101.911278
  0
LINE
  8
0
 10
196.760254
 20
-6.088722
 11
208.760254
 21
-6.088722
  0
LINE
  8
0
 10
196.760254
 20
18.911278
 11
208.760254
 21
18.911278
  0
LINE
  8
0
 10
196.760254
 20
76.911278
 11
208.760254
 21
76.911278
  0
LINE
  8
0
 10
196.760254
 20
28.911278
 11
208.760254
 21
28.911278
  0
LINE
  8
0
 10
196.760254
 20
66.911278
 11
208.760254
 21
66.911278
  0
LINE
  8
0
 10
196.760254
 20
101.911278
 11
196.760254
 21
-6.088722
  0
LINE
  8
0
 10
208.760254
 20
101.911278
 11
208.760254
 21
-6.088722
  0
LINE
  8
0
 10
210.760254
 20
97.911278
 11
210.760254
 21
81.911278
  0
LINE
  8
0
 10
208.760254
 20
97.911278
 11
210.760254
 21
97.911278
  0
LINE
  8
0
 10
208.760254
 20
81.911278
 11
210.760254
 21
81.911278
  0
LINE
  8
0
 10
208.760254
 20
13.911278
 11
210.760254
 21
13.911278
  0
LINE
  8
0
 10
208.760254
 20
-2.088718
 11
210.760254
 21
-2.088718
  0
LINE
  8
0
 10
210.760254
 20
13.911278
 11
210.760254
 21
-2.088718
  0
LINE
  8
0
 10
29.760231
 20
119.549950
 11
29.760231
 21
100.004234
  0
LINE
  8
0
 10
99.760231
 20
120.734535
 11
99.760231
 21
98.227356
  0
LINE
  8
0
 10
18.632984
 20
-13.088722
 11
39.067131
 21
-13.088722
  0
LINE
  8
0
 10
19.521427
 20
108.911278
 11
36.994102
 21
108.911278
  0
LINE
  8
0
 10
29.760231
 20
-1.574207
 11
29.760231
 21
-23.489090
  0
LINE
  8
0
 10
99.760231
 20
-3.647236
 11
99.760231
 21
-23.192940
  0
LINE
  8
0
 10
92.316887
 20
-13.088722
 11
107.114815
 21
-13.088722
  0
LINE
  8
0
 10
91.189018
 20
108.911278
 11
109.846291
 21
108.911278
  0
CIRCLE
  8
0
  6
DASHED
 10
99.760231
 20
-13.088722
 40
4.000000
  0
CIRCLE
  8
0
  6
DASHED
 10
29.760231
 20
-13.088722
 40
4.000000
  0
ARC
  8
0
 10
24.652580
 20
47.911278
 40
34.392345
 50
162.412094
 51
197.587891
  0
ARC
  8
0
 10
-0.538795
 20
63.499733
 40
9.200974
 50
179.999954
 51
214.384155
  0
ARC
  8
0
 10
-0.538795
 20
32.322823
 40
9.200973
 50
145.615768
 51
179.999954
  0
ARC
  8
0
 10
7.153847
 20
47.911278
 40
38.393620
 50
171.786774
 51
188.213211
  0
ARC
  8
0
 10
-63.633751
 20
47.911278
 40
38.393990
 50
0.000000
 51
8.213165
  0
ARC
  8
0
 10
-63.633751
 20
47.911278
 40
38.393990
 50
351.786774
 51
359.999939
  0
ARC
  8
0
 10
-21.493706
 20
56.138527
 40
9.746063
 50
179.999985
 51
196.342957
  0
ARC
  8
0
 10
-21.493706
 20
39.684044
 40
9.746061
 50
163.656967
 51
179.999954
  0
ARC
  8
0
 10
-34.985924
 20
56.138527
 40
9.746153
 50
343.657166
 51
0.000000
  0
ARC
  8
0
 10
-34.985924
 20
39.684044
 40
9.746153
 50
359.999969
 51
16.342808
  0
CIRCLE
  8
0
 10
12.260231
 20
47.911278
 40
4.250000
  0
CIRCLE
  8
0
 10
12.260231
 20
47.911278
 40
5.000000
  0
CIRCLE
  8
0
 10
126.260231
 20
47.911278
 40
5.000000
  0
CIRCLE
  8
0
 10
126.260231
 20
47.911278
 40
4.250000
  0
CIRCLE
  8
0
 10
29.760231
 20
108.911278
 40
3.300000
  0
CIRCLE
  8
0
 10
99.760231
 20
108.911278
 40
3.300000
  0
CIRCLE
  8
0
 10
99.760231
 20
-13.088722
 40
3.300000
  0
CIRCLE
  8
0
 10
29.760231
 20
-13.088722
 40
3.300000
  0
CIRCLE
  8
0
 10
29.760231
 20
108.911278
 40
5.500000
  0
CIRCLE
  8
0
 10
99.760231
 20
108.911278
 40
5.500000
  0
CIRCLE
  8
0
 10
99.760231
 20
-13.088722
 40
5.500000
  0
CIRCLE
  8
0
 10
29.760231
 20
-13.088722
 40
5.500000
  0
CIRCLE
  8
0
  6
DASHED
 10
29.760231
 20
108.911278
 40
4.000000
  0
CIRCLE
  8
0
  6
DASHED
 10
99.760231
 20
108.911278
 40
4.000000
  0
ENDSEC
  0
EOF
