  0
SECTION
  2
HEADER
  0
ENDSEC
  0
SECTION
  2
TABLES
  0
TABLE
  2
LTYPE
 70
     4
  0
LTYPE
  2
CONTINUOUS
 70
    64
  3
Solid line
 72
    65
 73
     0
 40
0.000000
  0
LTYPE
  2
DASHED
 70
    64
  3
__ __ __ __ __ __ __ __ __ __ __ __ __ __ __
 72
    65
 73
     2
 40
3.500000
 49
2.000000
 49
-1.500000
  0
LTYPE
  2
CENTER
 70
    64
  3
____ _ ____ _ ____ _ ____ _ ____ _ ____ _ ____
 72
    65
 73
     4
 40
17.500000
 49
13.000000
 49
-1.500000
 49
1.500000
 49
-1.500000
  0
LTYPE
  2
PHANTOM
 70
    64
  3
_____ _ _ _____ _ _ _____ _ _ _____ _ _ ____  
 72
    65
 73
     6
 40
15.500000
 49
8.000000
 49
-1.500000
 49
1.500000
 49
-1.500000
 49
1.500000
 49
-1.500000
  0
LTYPE
  2
DASHED1
 70
    64
  3
__ __ __ __ __ __ __ __ __ __ __ __ __ __ __
 72
    65
 73
     2
 40
1.500000
 49
1.000000
 49
-0.500000
  0
LTYPE
  2
DASHED2
 70
    64
  3
__ __ __ __ __ __ __ __ __ __ __ __ __ __ __
 72
    65
 73
     2
 40
3.500000
 49
2.500000
 49
-1.000000
  0
LTYPE
  2
DASHED3
 70
    64
  3
__ __ __ __ __ __ __ __ __ __ __ __ __ __ __
 72
    65
 73
     2
 40
6.000000
 49
4.000000
 49
-2.000000
  0
LTYPE
  2
DASHED4
 70
    64
  3
__ __ __ __ __ __ __ __ __ __ __ __ __ __ __
 72
    65
 73
     2
 40
12.000000
 49
10.000000
 49
-2.000000
  0
LTYPE
  2
DASHED5
 70
    64
  3
__ __ __ __ __ __ __ __ __ __ __ __ __ __ __
 72
    65
 73
     2
 40
17.000000
 49
15.000000
 49
-2.000000
  0
LTYPE
  2
DASHED6
 70
    64
  3
__ __ __ __ __ __ __ __ __ __ __ __ __ __ __
 72
    65
 73
     2
 40
29.000000
 49
27.000000
 49
-2.000000
  0
LTYPE
  2
PHANTOM1
 70
    64
  3
_____ _ _ _____ _ _ _____ _ _ _____ _ _ ____  
 72
    65
 73
     6
 40
31.000000
 49
25.000000
 49
-1.500000
 49
1.000000
 49
-1.000000
 49
1.000000
 49
-1.500000
  0
LTYPE
  2
PHANTOM2
 70
    64
  3
_____ _ _ _____ _ _ _____ _ _ _____ _ _ ____  
 72
    65
 73
     6
 40
36.000000
 49
27.000000
 49
-1.500000
 49
2.500000
 49
-1.000000
 49
2.500000
 49
-1.500000
  0
LTYPE
  2
PHANTOM3
 70
    64
  3
_____ _ _ _____ _ _ _____ _ _ _____ _ _ ____  
 72
    65
 73
     6
 40
78.000000
 49
64.000000
 49
-2.000000
 49
4.000000
 49
-2.000000
 49
4.000000
 49
-2.000000
  0
LTYPE
  2
CENTER1
 70
    64
  3
____ _ ____ _ ____ _ ____ _ ____ _ ____ _ ____
 72
    65
 73
     4
 40
19.000000
 49
14.000000
 49
-1.000000
 49
3.000000
 49
-1.000000
  0
LTYPE
  2
CENTER2
 70
    64
  3
____ _ ____ _ ____ _ ____ _ ____ _ ____ _ ____
 72
    65
 73
     4
 40
28.500000
 49
25.000000
 49
-1.000000
 49
1.500000
 49
-1.000000
  0
LTYPE
  2
CENTER3
 70
    64
  3
____ _ ____ _ ____ _ ____ _ ____ _ ____ _ ____
 72
    65
 73
     4
 40
31.500000
 49
27.000000
 49
-1.000000
 49
2.500000
 49
-1.000000
  0
LTYPE
  2
CENTER4
 70
    64
  3
____ _ ____ _ ____ _ ____ _ ____ _ ____ _ ____
 72
    65
 73
     4
 40
50.000000
 49
45.000000
 49
-1.000000
 49
3.000000
 49
-1.000000
  0
LTYPE
  2
CENTER5
 70
    64
  3
____ _ ____ _ ____ _ ____ _ ____ _ ____ _ ____
 72
    65
 73
     4
 40
100.000000
 49
92.000000
 49
-2.000000
 49
4.000000
 49
-2.000000
  0
LTYPE
  2
SBK1
 70
    64
  3
______ _ _ _ ______ _ _ _ ______ _ _ _ _____  
 72
    65
 73
     8
 40
60.500000
 49
45.000000
 49
-2.000000
 49
2.500000
 49
-2.000000
 49
2.500000
 49
-2.000000
 49
2.500000
 49
-2.000000
  0
LTYPE
  2
SBK2
 70
    64
  3
______ _ _ _ ______ _ _ _ ______ _ _ _ _____  
 72
    65
 73
     8
 40
84.000000
 49
64.000000
 49
-2.000000
 49
4.000000
 49
-2.000000
 49
4.000000
 49
-2.000000
 49
4.000000
 49
-2.000000
  0
LTYPE
  2
STCH
 70
    64
  3
__ __ __ __ __ __ __ __ __ __ __ __ __ __ __
 72
    65
 73
     2
 40
3.000000
 49
1.000000
 49
-2.000000
  0
LTYPE
  2
MTCH
 70
    64
  3
_____ _ _ _____ _ _ _____ _ _ _____ _ _ ____  
 72
    65
 73
     6
 40
80.000000
 49
66.000000
 49
-2.000000
 49
4.000000
 49
-2.000000
 49
4.000000
 49
-2.000000
  0
ENDTAB
  0
TABLE
  2
LAYER
 70
     1
  0
LAYER
  2
0
 70
     0
 62
     7
  6
CONTINUOUS
  0
ENDTAB
  0
TABLE
  2
STYLE
 70
     1
  0
STYLE
  2
STANDARD
 70
     0
 40
0.000000
 41
1.000000
 50
0.000000
 71
     0
 42
0.200000
  3
txt
  4
BIGFONT
  0
ENDTAB
  0
TABLE
  2
VIEW
 70
     0
  0
ENDTAB
  0
ENDSEC
  0
SECTION
  2
BLOCKS
  0
ENDSEC
  0
SECTION
  2
ENTITIES
  0
POINT
  8
0
 10
7.653346
 20
-0.914927
  0
POINT
  8
0
 10
7.653346
 20
-0.914927
  0
POINT
  8
0
 10
-94.553421
 20
-0.914927
  0
POINT
  8
0
 10
-110.053421
 20
-0.914927
  0
POINT
  8
0
 10
1.353346
 20
-0.914927
  0
POINT
  8
0
 10
-25.646654
 20
-0.914927
  0
POINT
  8
0
 10
114.841660
 20
-0.914927
  0
POINT
  8
0
 10
99.841660
 20
-0.914927
  0
POINT
  8
0
 10
-25.646654
 20
89.418091
  0
POINT
  8
0
 10
7.653346
 20
89.418091
  0
LINE
  8
0
 10
-25.646654
 20
97.918091
 11
-25.646654
 21
80.918091
  0
LINE
  8
0
  6
CENTER
 62
     2
 10
-30.500326
 20
89.418091
 11
9.789400
 21
89.418091
  0
LINE
  8
0
 62
     4
 10
7.353346
 20
94.418091
 11
-24.346655
 21
94.418091
  0
LINE
  8
0
 62
     4
 10
7.353346
 20
84.418091
 11
-24.346655
 21
84.418091
  0
LINE
  8
0
 62
     4
 10
-16.553764
 20
85.210983
 11
-15.139548
 21
86.625198
  0
LINE
  8
0
 62
     4
 10
-15.139546
 20
85.210983
 11
-16.553759
 21
86.625198
  0
LINE
  8
0
 62
     4
 10
-15.139545
 20
93.625191
 11
-16.553759
 21
92.210983
  0
LINE
  8
0
 62
     4
 10
-16.553759
 20
93.625198
 11
-15.139546
 21
92.210983
  0
LINE
  8
0
 62
     4
 10
-13.796654
 20
87.592575
 11
-13.796654
 21
91.243607
  0
LINE
  8
0
 62
     4
 10
-14.396654
 20
87.592575
 11
-14.396654
 21
91.243607
  0
LINE
  8
0
  6
CENTER
 62
     2
 10
-14.096654
 20
86.918091
 11
-14.096654
 21
91.918091
  0
LINE
  8
0
 62
     4
 10
-14.246655
 20
94.418091
 11
-14.246655
 21
92.918091
  0
LINE
  8
0
 62
     4
 10
-17.446655
 20
92.918091
 11
-17.446655
 21
94.418091
  0
LINE
  8
0
 62
     4
 10
-17.446655
 20
84.418091
 11
-17.446655
 21
85.918091
  0
LINE
  8
0
 62
     4
 10
-14.246655
 20
85.918091
 11
-14.246655
 21
84.418091
  0
LINE
  8
0
 62
     4
 10
-9.946654
 20
84.418091
 11
-9.946654
 21
84.718094
  0
LINE
  8
0
 62
     4
 10
-10.444733
 20
94.418091
 11
-10.444733
 21
84.418091
  0
LINE
  8
0
 62
     4
 10
-17.946655
 20
92.068092
 11
-17.946655
 21
94.418091
  0
LINE
  8
0
 62
     4
 10
-16.696655
 20
90.818092
 11
-16.696655
 21
88.018089
  0
LINE
  8
0
 62
     4
 10
-17.946651
 20
86.768089
 11
-16.696653
 21
88.018082
  0
LINE
  8
0
 62
     4
 10
-17.946655
 20
84.418091
 11
-17.946655
 21
86.768089
  0
LINE
  8
0
 62
     4
 10
-17.137470
 20
90.562462
 11
-17.137470
 21
88.273720
  0
LINE
  8
0
 62
     4
 10
-18.387472
 20
91.812462
 11
-18.387472
 21
94.418091
  0
LINE
  8
0
 62
     4
 10
-18.387472
 20
84.418091
 11
-18.387472
 21
87.023720
  0
LINE
  8
0
 62
     4
 10
-17.137474
 20
88.273720
 11
-18.387474
 21
87.023720
  0
LINE
  8
0
 62
     4
 10
-11.255836
 20
84.418091
 11
-11.255836
 21
94.418091
  0
LINE
  8
0
 62
     4
 10
-17.137474
 20
88.273720
 11
-16.696657
 21
88.018089
  0
LINE
  8
0
 62
     4
 10
-17.137474
 20
90.562462
 11
-18.387470
 21
91.812462
  0
LINE
  8
0
 62
     4
 10
-17.946653
 20
92.068092
 11
-16.696653
 21
90.818092
  0
LINE
  8
0
 62
     4
 10
-17.137470
 20
90.562462
 11
-16.696653
 21
90.818092
  0
LINE
  8
0
 62
     4
 10
-17.946653
 20
86.768089
 11
-18.387474
 21
87.023727
  0
LINE
  8
0
 62
     4
 10
-18.387474
 20
91.812469
 11
-17.946655
 21
92.068100
  0
LINE
  8
0
 62
     1
 10
2.653345
 20
90.918091
 11
7.653345
 21
90.918091
  0
LINE
  8
0
 62
     1
 10
2.653345
 20
90.918091
 11
2.653345
 21
87.918091
  0
LINE
  8
0
 62
     1
 10
2.653345
 20
87.918091
 11
7.653345
 21
87.918091
  0
LINE
  8
0
 62
     4
 10
-9.846654
 20
84.418091
 11
-9.846654
 21
84.718094
  0
LINE
  8
0
 62
     4
 10
7.653345
 20
84.718094
 11
7.653345
 21
94.118088
  0
LINE
  8
0
 62
     4
 10
-4.546654
 20
94.118088
 11
-4.546654
 21
91.918091
  0
LINE
  8
0
 62
     4
 10
-5.546654
 20
92.318092
 11
-5.546654
 21
91.918091
  0
LINE
  8
0
 62
     4
 10
-5.546654
 20
92.318092
 11
-4.546654
 21
92.318092
  0
LINE
  8
0
 62
     4
 10
-5.546654
 20
86.518089
 11
-4.546654
 21
86.518089
  0
LINE
  8
0
 62
     4
 10
-5.046654
 20
92.318092
 11
-5.046654
 21
86.518089
  0
LINE
  8
0
 62
     4
 10
-3.546654
 20
86.918091
 11
-6.046654
 21
86.918091
  0
LINE
  8
0
 62
     4
 10
-3.546654
 20
91.918091
 11
-6.046654
 21
91.918091
  0
LINE
  8
0
 62
     4
 10
-6.546654
 20
85.928093
 11
-8.434654
 21
85.804092
  0
LINE
  8
0
 62
     4
 10
-8.646654
 20
86.328094
 11
-9.146654
 21
86.328094
  0
LINE
  8
0
 62
     4
 10
-9.146654
 20
87.428093
 11
-9.146654
 21
86.328094
  0
LINE
  8
0
 62
     4
 10
-8.646654
 20
87.428093
 11
-9.146654
 21
87.428093
  0
LINE
  8
0
 62
     4
 10
-8.646654
 20
87.754089
 11
-8.646654
 21
86.004089
  0
LINE
  8
0
 62
     4
 10
-8.434654
 20
87.954094
 11
-6.546653
 21
87.828094
  0
LINE
  8
0
 62
     4
 10
-6.546654
 20
87.828094
 11
-6.546654
 21
85.928093
  0
LINE
  8
0
 62
     4
 10
-7.946653
 20
89.018089
 11
-7.946653
 21
89.818092
  0
LINE
  8
0
 62
     4
 10
-7.146654
 20
89.018089
 11
-7.946653
 21
89.018089
  0
LINE
  8
0
 62
     4
 10
-7.146654
 20
89.018089
 11
-7.146654
 21
89.818092
  0
LINE
  8
0
 62
     4
 10
-7.146654
 20
89.818092
 11
-7.946653
 21
89.818092
  0
LINE
  8
0
 62
     4
 10
-6.546655
 20
88.468094
 11
-8.434654
 21
88.344093
  0
LINE
  8
0
 62
     4
 10
-8.646654
 20
88.868088
 11
-9.146654
 21
88.868088
  0
LINE
  8
0
 62
     4
 10
-9.146654
 20
89.968094
 11
-9.146654
 21
88.868088
  0
LINE
  8
0
 62
     4
 10
-8.646654
 20
89.968094
 11
-9.146654
 21
89.968094
  0
LINE
  8
0
 62
     4
 10
-8.646654
 20
90.294090
 11
-8.646654
 21
88.544090
  0
LINE
  8
0
 62
     4
 10
-8.434654
 20
90.494087
 11
-6.546655
 21
90.368088
  0
LINE
  8
0
 62
     4
 10
-6.546654
 20
90.368088
 11
-6.546654
 21
88.468094
  0
LINE
  8
0
 62
     4
 10
-8.434653
 20
93.034088
 11
-6.546655
 21
92.908089
  0
LINE
  8
0
 62
     4
 10
-6.546654
 20
91.008087
 11
-8.434653
 21
90.884094
  0
LINE
  8
0
 62
     4
 10
-6.046654
 20
85.718094
 11
-5.046654
 21
85.718094
  0
LINE
  8
0
 62
     4
 10
-5.046654
 20
84.718094
 11
-5.046654
 21
85.718094
  0
LINE
  8
0
 62
     4
 10
-6.046654
 20
93.118088
 11
-5.046654
 21
93.118088
  0
LINE
  8
0
 62
     4
 10
-5.046654
 20
94.118088
 11
-5.046654
 21
93.118088
  0
LINE
  8
0
 62
     4
 10
-5.046654
 20
90.668091
 11
-6.046654
 21
90.668091
  0
LINE
  8
0
 62
     4
 10
-5.046654
 20
88.168091
 11
-6.046654
 21
88.168091
  0
LINE
  8
0
 62
     4
 10
-9.146654
 20
92.508087
 11
-9.146654
 21
91.408089
  0
LINE
  8
0
 62
     4
 10
-8.646654
 20
92.834091
 11
-8.646654
 21
91.084091
  0
LINE
  8
0
 62
     4
 10
-6.546654
 20
92.908089
 11
-6.546654
 21
91.008087
  0
LINE
  8
0
 62
     4
 10
-8.646654
 20
91.408089
 11
-9.146654
 21
91.408089
  0
LINE
  8
0
 62
     4
 10
-8.646654
 20
92.508087
 11
-9.146654
 21
92.508087
  0
LINE
  8
0
 62
     4
 10
-10.346654
 20
94.118088
 11
-10.346654
 21
84.718094
  0
LINE
  8
0
 62
     4
 10
-10.346654
 20
84.718094
 11
-5.046654
 21
84.718094
  0
LINE
  8
0
 62
     4
 10
-10.346654
 20
94.118088
 11
-5.046654
 21
94.118088
  0
LINE
  8
0
 62
     4
 10
-6.046654
 20
93.118088
 11
-6.046654
 21
85.718094
  0
LINE
  8
0
 62
     4
 10
-3.546654
 20
91.918091
 11
-3.546654
 21
86.918091
  0
LINE
  8
0
 62
     4
 10
-4.746655
 20
91.918091
 11
-4.746655
 21
86.918091
  0
LINE
  8
0
 62
     4
 10
-5.546654
 20
86.918091
 11
-5.546654
 21
86.518089
  0
LINE
  8
0
 62
     4
 10
-4.546654
 20
86.918091
 11
-4.546654
 21
84.718094
  0
LINE
  8
0
 62
     4
 10
-9.946654
 20
94.118088
 11
-9.946654
 21
94.418091
  0
LINE
  8
0
 62
     4
 10
-9.846654
 20
94.118088
 11
-9.846654
 21
94.418091
  0
LINE
  8
0
 62
     4
 10
-24.346655
 20
84.418091
 11
-24.346655
 21
94.418091
  0
LINE
  8
0
 10
-19.741917
 20
84.168091
 11
7.153345
 21
84.168091
  0
LINE
  8
0
 10
-24.546654
 20
94.668091
 11
-7.551392
 21
94.668091
  0
LINE
  8
0
 10
-25.646654
 20
80.418091
 11
-25.646654
 21
98.418091
  0
LINE
  8
0
 10
7.153345
 20
80.418091
 11
7.153345
 21
84.418091
  0
LINE
  8
0
 10
-25.646654
 20
80.418091
 11
7.153345
 21
80.418091
  0
LINE
  8
0
 10
-25.646654
 20
98.418091
 11
7.153345
 21
98.418091
  0
LINE
  8
0
 10
-24.846655
 20
95.418091
 11
-7.646654
 21
95.418091
  0
LINE
  8
0
 10
-25.146654
 20
86.418091
 11
-25.146654
 21
95.118088
  0
LINE
  8
0
 10
-1.646654
 20
95.418091
 11
-1.646654
 21
98.418091
  0
LINE
  8
0
 10
-7.646654
 20
95.418091
 11
-7.646654
 21
98.418091
  0
LINE
  8
0
 10
-19.646654
 20
83.418091
 11
-19.646654
 21
80.418091
  0
LINE
  8
0
 10
-24.346655
 20
86.418091
 11
-25.646654
 21
86.418091
  0
LINE
  8
0
 10
-1.646654
 20
95.418091
 11
7.153345
 21
95.418091
  0
LINE
  8
0
 10
-1.741917
 20
94.668091
 11
7.153345
 21
94.668091
  0
LINE
  8
0
 10
-19.646654
 20
83.418091
 11
7.153345
 21
83.418091
  0
LINE
  8
0
 10
7.153345
 20
94.418091
 11
7.153345
 21
98.418091
  0
LINE
  8
0
 10
-24.546654
 20
86.418091
 11
-24.546654
 21
95.044861
  0
LINE
  8
0
 10
-3.232437
 20
96.832306
 11
-5.646651
 21
94.418091
  0
LINE
  8
0
 10
-6.060866
 20
96.832306
 11
-3.646652
 21
94.418091
  0
LINE
  8
0
 10
-21.646654
 20
84.418098
 11
-24.060867
 21
82.003876
  0
LINE
  8
0
 10
-23.646654
 20
84.418091
 11
-21.232441
 21
82.003876
  0
LINE
  8
0
 62
     4
 10
91.201660
 20
-117.744926
 11
90.401657
 21
-117.744926
  0
LINE
  8
0
 62
     4
 10
95.481659
 20
-117.744926
 11
96.281662
 21
-117.744926
  0
LINE
  8
0
 10
84.341660
 20
-50.814926
 11
102.341660
 21
-50.814926
  0
LINE
  8
0
 10
98.591660
 20
-72.014923
 11
88.091660
 21
-72.014923
  0
LINE
  8
0
  6
CENTER
 62
     2
 10
90.236877
 20
-63.514923
 11
97.232811
 21
-63.514923
  0
LINE
  8
0
 10
89.744141
 20
-63.514923
 11
84.341660
 21
-63.514923
  0
LINE
  8
0
 10
96.939178
 20
-63.514923
 11
102.341660
 21
-63.514923
  0
LINE
  8
0
 10
99.341660
 20
-72.514923
 11
102.341660
 21
-69.514923
  0
LINE
  8
0
 10
84.341660
 20
-69.514931
 11
87.341660
 21
-72.514931
  0
LINE
  8
0
 10
87.341660
 20
-72.514923
 11
87.791656
 21
-72.514923
  0
LINE
  8
0
 10
88.091660
 20
-72.014923
 11
88.091660
 21
-72.214928
  0
LINE
  8
0
 10
98.591660
 20
-72.014923
 11
98.591660
 21
-72.214928
  0
LINE
  8
0
 10
91.822601
 20
-60.714928
 11
94.860718
 21
-60.714928
  0
LINE
  8
0
 10
95.207130
 20
-60.914932
 11
96.592766
 21
-63.314930
  0
LINE
  8
0
 10
90.090561
 20
-63.314926
 11
91.476196
 21
-60.914928
  0
LINE
  8
0
 10
98.891663
 20
-72.514923
 11
99.341660
 21
-72.514923
  0
LINE
  8
0
 62
     4
 10
98.341660
 20
-72.914925
 11
88.341660
 21
-72.914925
  0
LINE
  8
0
 62
     4
 10
88.641663
 20
-91.614922
 11
98.041656
 21
-91.614922
  0
LINE
  8
0
 62
     4
 10
88.341660
 20
-73.214928
 11
98.341660
 21
-73.214928
  0
LINE
  8
0
 62
     4
 10
88.341660
 20
-72.014923
 11
88.341660
 21
-97.114922
  0
LINE
  8
0
 62
     4
 10
98.341660
 20
-72.014923
 11
98.341660
 21
-97.114922
  0
LINE
  8
0
 62
     4
 10
98.341660
 20
-97.114922
 11
95.841660
 21
-97.114922
  0
LINE
  8
0
 62
     4
 10
96.241661
 20
-91.614922
 11
96.241661
 21
-97.114922
  0
LINE
  8
0
 62
     4
 10
90.441658
 20
-91.614922
 11
90.441658
 21
-97.114922
  0
LINE
  8
0
 62
     1
 10
94.841660
 20
-88.614922
 11
94.841660
 21
-91.614922
  0
LINE
  8
0
 62
     1
 10
94.841660
 20
-88.614922
 11
91.841660
 21
-88.614922
  0
LINE
  8
0
 62
     1
 10
91.841660
 20
-88.614922
 11
91.841660
 21
-91.614922
  0
LINE
  8
0
 62
     4
 10
95.841660
 20
-92.714928
 11
90.841660
 21
-92.714928
  0
LINE
  8
0
 62
     4
 10
98.041656
 20
-102.214928
 11
88.641663
 21
-102.214928
  0
LINE
  8
0
 62
     4
 10
95.841660
 20
-101.214928
 11
90.841660
 21
-101.214928
  0
LINE
  8
0
 62
     4
 10
98.041656
 20
-97.214928
 11
98.041656
 21
-102.214928
  0
LINE
  8
0
 62
     4
 10
95.841660
 20
-92.714928
 11
95.841660
 21
-101.214928
  0
LINE
  8
0
 62
     4
 10
90.841660
 20
-100.503601
 11
95.841660
 21
-100.503601
  0
LINE
  8
0
 62
     4
 10
90.841660
 20
-100.214928
 11
95.841660
 21
-100.214928
  0
LINE
  8
0
 62
     4
 10
96.941658
 20
-97.214928
 11
96.941658
 21
-102.214928
  0
LINE
  8
0
 62
     4
 10
89.741661
 20
-97.214928
 11
89.741661
 21
-102.214928
  0
LINE
  8
0
 62
     4
 10
90.841660
 20
-92.714928
 11
90.841660
 21
-101.214928
  0
LINE
  8
0
 62
     4
 10
88.641663
 20
-97.214928
 11
88.641663
 21
-102.214928
  0
LINE
  8
0
 62
     4
 10
90.841660
 20
-97.114922
 11
88.341660
 21
-97.114922
  0
LINE
  8
0
 62
     4
 10
90.841660
 20
-93.580948
 11
95.841660
 21
-93.580948
  0
LINE
  8
0
 62
     4
 10
98.041656
 20
-97.214928
 11
95.841660
 21
-97.214928
  0
LINE
  8
0
 62
     4
 10
90.841660
 20
-97.214928
 11
88.641663
 21
-97.214928
  0
LINE
  8
0
 62
     4
 10
97.441658
 20
-97.214928
 11
97.441658
 21
-97.114922
  0
LINE
  8
0
 62
     4
 10
89.241661
 20
-97.214928
 11
89.241661
 21
-97.114922
  0
LINE
  8
0
 62
     4
 10
91.516663
 20
-102.214928
 11
91.516663
 21
-107.326256
  0
LINE
  8
0
 62
     4
 10
90.086662
 20
-102.214928
 11
90.086662
 21
-106.944923
  0
LINE
  8
0
 62
     1
 10
87.761665
 20
-106.324921
 11
98.859985
 21
-109.284477
  0
LINE
  8
0
 62
     1
 10
87.761665
 20
-107.564926
 11
98.859970
 21
-110.524475
  0
LINE
  8
0
 62
     4
 10
91.516663
 20
-108.566261
 11
91.516663
 21
-112.744926
  0
LINE
  8
0
 62
     4
 10
90.086662
 20
-108.184921
 11
90.086662
 21
-112.744926
  0
LINE
  8
0
 62
     4
 10
91.516663
 20
-112.744926
 11
90.086662
 21
-112.744926
  0
LINE
  8
0
 62
     4
 10
96.596657
 20
-102.214928
 11
96.596657
 21
-108.680923
  0
LINE
  8
0
 62
     4
 10
95.166656
 20
-102.214928
 11
95.166656
 21
-108.299591
  0
LINE
  8
0
 62
     4
 10
95.166656
 20
-112.744926
 11
96.596657
 21
-112.744926
  0
LINE
  8
0
 62
     4
 10
95.166656
 20
-109.539589
 11
95.166656
 21
-112.744926
  0
LINE
  8
0
 62
     4
 10
96.596657
 20
-109.920921
 11
96.596657
 21
-112.744926
  0
LINE
  8
0
  6
CENTER
 62
     2
 10
92.841660
 20
-17.334927
 11
92.841660
 21
-30.074926
  0
LINE
  8
0
  6
CENTER
 62
     2
 10
87.251663
 20
-23.914927
 11
99.411659
 21
-23.914927
  0
LINE
  8
0
  6
CENTER
 62
     2
 10
93.841660
 20
-1.784927
 11
93.841660
 21
-14.364926
  0
LINE
  8
0
  6
CENTER
 62
     2
 10
87.691658
 20
-7.914927
 11
99.321663
 21
-7.914927
  0
LINE
  8
0
 62
     4
 10
96.596657
 20
62.445076
 11
96.596657
 21
67.015076
  0
LINE
  8
0
 62
     4
 10
95.166656
 20
62.825073
 11
95.166656
 21
67.015076
  0
LINE
  8
0
 62
     4
 10
95.481659
 20
67.015076
 11
95.481659
 21
72.015076
  0
LINE
  8
0
 62
     4
 10
96.281662
 20
67.015076
 11
96.281662
 21
72.015076
  0
LINE
  8
0
 62
     4
 10
95.166656
 20
67.015076
 11
96.596657
 21
67.015076
  0
LINE
  8
0
 62
     4
 10
95.481659
 20
72.015076
 11
96.281662
 21
72.015076
  0
LINE
  8
0
 62
     4
 10
95.166656
 20
56.485077
 11
95.166656
 21
61.585075
  0
LINE
  8
0
 62
     4
 10
96.596657
 20
56.485077
 11
96.596657
 21
61.215073
  0
LINE
  8
0
 62
     4
 10
91.201660
 20
72.015076
 11
90.401657
 21
72.015076
  0
LINE
  8
0
 62
     4
 10
91.516663
 20
67.015076
 11
90.086662
 21
67.015076
  0
LINE
  8
0
 62
     4
 10
90.401657
 20
67.015076
 11
90.401657
 21
72.015076
  0
LINE
  8
0
 62
     4
 10
91.201660
 20
67.015076
 11
91.201660
 21
72.015076
  0
LINE
  8
0
 62
     4
 10
90.086662
 20
64.191078
 11
90.086662
 21
67.015076
  0
LINE
  8
0
 62
     4
 10
91.516663
 20
63.809746
 11
91.516663
 21
67.015076
  0
LINE
  8
0
 62
     1
 10
98.921661
 20
61.835068
 11
87.823349
 21
64.794624
  0
LINE
  8
0
 62
     1
 10
98.921661
 20
60.595078
 11
87.823357
 21
63.554626
  0
LINE
  8
0
 62
     4
 10
90.086662
 20
56.485077
 11
90.086662
 21
62.951073
  0
LINE
  8
0
 62
     4
 10
91.516663
 20
56.485077
 11
91.516663
 21
62.569740
  0
LINE
  8
0
 62
     4
 10
89.241661
 20
51.485077
 11
89.241661
 21
51.385071
  0
LINE
  8
0
 62
     4
 10
97.441658
 20
51.485077
 11
97.441658
 21
51.385071
  0
LINE
  8
0
 62
     4
 10
90.841660
 20
51.485077
 11
88.641663
 21
51.485077
  0
LINE
  8
0
 62
     4
 10
98.041656
 20
51.485077
 11
95.841660
 21
51.485077
  0
LINE
  8
0
 62
     4
 10
90.841660
 20
47.851097
 11
95.841660
 21
47.851097
  0
LINE
  8
0
 62
     4
 10
90.841660
 20
51.385071
 11
88.341660
 21
51.385071
  0
LINE
  8
0
 62
     4
 10
88.641663
 20
51.485077
 11
88.641663
 21
56.485077
  0
LINE
  8
0
 62
     4
 10
90.841660
 20
46.985077
 11
90.841660
 21
55.485077
  0
LINE
  8
0
 62
     4
 10
89.741661
 20
51.485077
 11
89.741661
 21
56.485077
  0
LINE
  8
0
 62
     4
 10
96.941658
 20
51.485077
 11
96.941658
 21
56.485077
  0
LINE
  8
0
 62
     4
 10
90.841660
 20
54.485077
 11
95.841660
 21
54.485077
  0
LINE
  8
0
 62
     4
 10
90.841660
 20
54.773750
 11
95.841660
 21
54.773750
  0
LINE
  8
0
 62
     4
 10
95.841660
 20
46.985077
 11
95.841660
 21
55.485077
  0
LINE
  8
0
 62
     4
 10
98.041656
 20
51.485077
 11
98.041656
 21
56.485077
  0
LINE
  8
0
 62
     4
 10
95.841660
 20
55.485077
 11
90.841660
 21
55.485077
  0
LINE
  8
0
 62
     4
 10
98.041656
 20
56.485077
 11
88.641663
 21
56.485077
  0
LINE
  8
0
 62
     4
 10
95.841660
 20
46.985077
 11
90.841660
 21
46.985077
  0
LINE
  8
0
 62
     1
 10
91.841660
 20
42.885071
 11
91.841660
 21
45.885071
  0
LINE
  8
0
 62
     1
 10
94.841660
 20
42.885071
 11
91.841660
 21
42.885071
  0
LINE
  8
0
 62
     1
 10
94.841660
 20
42.885071
 11
94.841660
 21
45.885071
  0
LINE
  8
0
 62
     4
 10
90.441658
 20
45.885071
 11
90.441658
 21
51.385071
  0
LINE
  8
0
 62
     4
 10
96.241661
 20
45.885071
 11
96.241661
 21
51.385071
  0
LINE
  8
0
 62
     4
 10
98.341660
 20
51.385071
 11
95.841660
 21
51.385071
  0
LINE
  8
0
 62
     4
 10
98.341660
 20
26.285074
 11
98.341660
 21
51.385071
  0
LINE
  8
0
 62
     4
 10
88.341660
 20
26.285074
 11
88.341660
 21
51.385071
  0
LINE
  8
0
 62
     4
 10
88.341660
 20
27.485073
 11
98.341660
 21
27.485073
  0
LINE
  8
0
 62
     4
 10
88.641663
 20
45.885071
 11
98.041656
 21
45.885071
  0
LINE
  8
0
 62
     4
 10
98.341660
 20
27.185074
 11
88.341660
 21
27.185074
  0
LINE
  8
0
 10
98.891663
 20
26.785074
 11
99.341660
 21
26.785074
  0
LINE
  8
0
 10
90.090546
 20
17.585072
 11
91.476189
 21
15.185071
  0
LINE
  8
0
 10
95.207130
 20
15.185073
 11
96.592773
 21
17.585073
  0
LINE
  8
0
 10
91.822601
 20
14.985073
 11
94.860718
 21
14.985073
  0
LINE
  8
0
 10
98.591660
 20
26.285074
 11
98.591660
 21
26.485073
  0
LINE
  8
0
 10
88.091660
 20
26.285074
 11
88.091660
 21
26.485073
  0
LINE
  8
0
 10
87.341660
 20
26.785074
 11
87.791656
 21
26.785074
  0
LINE
  8
0
 10
84.341660
 20
23.785072
 11
87.341660
 21
26.785076
  0
LINE
  8
0
 10
99.341652
 20
26.785072
 11
102.341652
 21
23.785072
  0
LINE
  8
0
 10
96.939178
 20
17.785074
 11
102.341660
 21
17.785074
  0
LINE
  8
0
 10
89.744141
 20
17.785074
 11
84.341660
 21
17.785074
  0
LINE
  8
0
  6
CENTER
 62
     2
 10
90.236877
 20
17.785074
 11
97.232811
 21
17.785074
  0
LINE
  8
0
 10
102.341660
 20
5.085073
 11
84.341660
 21
5.085073
  0
LINE
  8
0
 10
98.591660
 20
26.285074
 11
88.091660
 21
26.285074
  0
LINE
  8
0
 10
102.341660
 20
23.785074
 11
102.341660
 21
-69.514923
  0
LINE
  8
0
 10
84.341660
 20
23.785074
 11
84.341660
 21
-69.514923
  0
LINE
  8
0
  6
CENTER
 62
     2
 10
95.281723
 20
-0.914927
 11
102.921661
 21
-0.914927
  0
LINE
  8
0
  6
CENTER
 62
     2
 10
83.921661
 20
-30.914927
 11
90.991661
 21
-30.914927
  0
LINE
  8
0
  6
CENTER
 62
     2
 10
86.841660
 20
-26.804926
 11
86.841660
 21
-35.214928
  0
LINE
  8
0
  6
CENTER
 62
     2
 10
99.841660
 20
3.675074
 11
99.841660
 21
-5.334927
  0
LINE
  8
0
 10
84.341660
 20
-36.914925
 11
102.341660
 21
-36.914925
  0
LINE
  8
0
  6
CENTER
 62
     2
 10
93.341660
 20
59.049286
 11
93.341660
 21
-105.368073
  0
LINE
  8
0
 62
     4
 10
95.481659
 20
-112.744926
 11
95.481659
 21
-117.744926
  0
LINE
  8
0
 62
     4
 10
96.281662
 20
-112.744926
 11
96.281662
 21
-117.744926
  0
LINE
  8
0
 62
     4
 10
90.401657
 20
-112.744926
 11
90.401657
 21
-117.744926
  0
LINE
  8
0
 62
     4
 10
91.201660
 20
-112.744926
 11
91.201660
 21
-117.744926
  0
LINE
  8
0
 10
-112.553421
 20
-50.814926
 11
-94.553421
 21
-50.814926
  0
LINE
  8
0
 62
     2
 10
-101.553421
 20
-46.814926
 11
-105.553421
 21
-46.814926
  0
LINE
  8
0
 10
-112.353424
 20
-66.314926
 11
-112.353424
 21
-67.857391
  0
LINE
  8
0
 10
-106.753418
 20
-66.314926
 11
-106.753418
 21
-67.857391
  0
LINE
  8
0
 10
-106.553421
 20
-72.514923
 11
-106.553421
 21
-66.314926
  0
LINE
  8
0
 62
     4
 10
-106.253418
 20
-73.714928
 11
-103.826752
 21
-73.714928
  0
LINE
  8
0
 62
     4
 10
-103.280090
 20
-73.714928
 11
-100.853424
 21
-73.714928
  0
LINE
  8
0
 62
     4
 10
-107.553421
 20
-72.714928
 11
-99.553421
 21
-72.714928
  0
LINE
  8
0
 62
     4
 10
-100.653419
 20
-73.514923
 11
-100.653419
 21
-72.714928
  0
LINE
  8
0
 62
     4
 10
-106.453423
 20
-73.514923
 11
-106.453423
 21
-72.714928
  0
LINE
  8
0
 62
     4
 10
-103.826752
 20
-73.714928
 11
-103.826752
 21
-72.714928
  0
LINE
  8
0
 62
     4
 10
-103.280090
 20
-73.714928
 11
-103.280090
 21
-72.714928
  0
LINE
  8
0
 62
     4
 10
-108.253418
 20
-101.503601
 11
-98.853424
 21
-101.503601
  0
LINE
  8
0
 62
     4
 10
-108.253418
 20
-101.214928
 11
-98.853424
 21
-101.214928
  0
LINE
  8
0
 62
     4
 10
-107.653419
 20
-97.714928
 11
-107.653419
 21
-97.614922
  0
LINE
  8
0
 62
     4
 10
-99.453423
 20
-97.714928
 11
-99.453423
 21
-97.614922
  0
LINE
  8
0
 62
     4
 10
-108.253418
 20
-102.214928
 11
-108.253418
 21
-97.714928
  0
LINE
  8
0
 62
     4
 10
-98.853424
 20
-102.214928
 11
-98.853424
 21
-97.714928
  0
LINE
  8
0
 62
     4
 10
-108.253418
 20
-102.214928
 11
-98.853424
 21
-102.214928
  0
LINE
  8
0
 62
     4
 10
-108.253418
 20
-97.714928
 11
-98.853424
 21
-97.714928
  0
LINE
  8
0
 62
     4
 10
-108.553421
 20
-97.614922
 11
-98.553421
 21
-97.614922
  0
LINE
  8
0
 62
     4
 10
-108.553421
 20
-91.614922
 11
-98.553421
 21
-91.614922
  0
LINE
  8
0
 62
     4
 10
-108.553421
 20
-87.014923
 11
-98.553421
 21
-87.014923
  0
LINE
  8
0
 62
     4
 10
-108.553421
 20
-83.514923
 11
-98.553421
 21
-83.514923
  0
LINE
  8
0
 62
     4
 10
-107.553421
 20
-74.814926
 11
-99.553421
 21
-74.814926
  0
LINE
  8
0
 62
     4
 10
-99.253418
 20
-73.014923
 11
-99.253418
 21
-74.514923
  0
LINE
  8
0
 62
     4
 10
-105.853424
 20
-74.814926
 11
-105.853424
 21
-73.714928
  0
LINE
  8
0
 62
     4
 10
-101.253418
 20
-74.814926
 11
-101.253418
 21
-73.714928
  0
LINE
  8
0
 62
     4
 10
-103.206757
 20
-74.814926
 11
-103.206757
 21
-73.714928
  0
LINE
  8
0
 62
     4
 10
-103.353424
 20
-74.814926
 11
-103.353424
 21
-72.714928
  0
LINE
  8
0
 62
     4
 10
-103.753418
 20
-74.814926
 11
-103.753418
 21
-72.714928
  0
LINE
  8
0
 62
     4
 10
-103.900085
 20
-74.814926
 11
-103.900085
 21
-73.714928
  0
LINE
  8
0
 62
     4
 10
-107.853424
 20
-73.014923
 11
-107.853424
 21
-74.514923
  0
LINE
  8
0
 62
     4
 10
-98.553421
 20
-72.514923
 11
-98.553421
 21
-97.614922
  0
LINE
  8
0
 62
     4
 10
-108.553421
 20
-72.014923
 11
-108.553421
 21
-97.614922
  0
LINE
  8
0
 10
-109.103424
 20
-72.514923
 11
-109.553421
 21
-72.514923
  0
LINE
  8
0
 10
-108.803421
 20
-72.014923
 11
-108.803421
 21
-72.214928
  0
LINE
  8
0
 10
-97.553421
 20
-72.514923
 11
-106.553421
 21
-72.514923
  0
LINE
  8
0
 10
-108.803421
 20
-72.014923
 11
-106.553421
 21
-72.014923
  0
LINE
  8
0
 62
     1
 10
-109.133423
 20
-106.324928
 11
-98.035110
 21
-109.284485
  0
LINE
  8
0
 62
     1
 10
-109.133423
 20
-107.564934
 11
-98.035118
 21
-110.524483
  0
LINE
  8
0
 62
     4
 10
-100.298424
 20
-102.214928
 11
-100.298424
 21
-108.680923
  0
LINE
  8
0
 62
     4
 10
-101.728424
 20
-102.214928
 11
-101.728424
 21
-108.299591
  0
LINE
  8
0
 62
     4
 10
-100.298424
 20
-109.920921
 11
-100.298424
 21
-112.744926
  0
LINE
  8
0
 62
     4
 10
-101.728424
 20
-109.539589
 11
-101.728424
 21
-112.744926
  0
LINE
  8
0
 62
     4
 10
-101.413422
 20
-112.744926
 11
-101.413422
 21
-117.744926
  0
LINE
  8
0
 62
     4
 10
-100.613419
 20
-112.744926
 11
-100.613419
 21
-117.744926
  0
LINE
  8
0
 62
     4
 10
-101.728424
 20
-112.744926
 11
-100.298424
 21
-112.744926
  0
LINE
  8
0
 62
     4
 10
-101.413422
 20
-117.744926
 11
-100.613419
 21
-117.744926
  0
LINE
  8
0
 62
     4
 10
-105.378418
 20
-102.214928
 11
-105.378418
 21
-107.326256
  0
LINE
  8
0
 62
     4
 10
-106.808418
 20
-102.214928
 11
-106.808418
 21
-106.944923
  0
LINE
  8
0
 62
     4
 10
-106.808418
 20
-108.184921
 11
-106.808418
 21
-112.744926
  0
LINE
  8
0
 62
     4
 10
-105.693420
 20
-117.744926
 11
-106.493423
 21
-117.744926
  0
LINE
  8
0
 62
     4
 10
-106.493423
 20
-112.744926
 11
-106.493423
 21
-117.744926
  0
LINE
  8
0
 62
     4
 10
-105.693420
 20
-112.744926
 11
-105.693420
 21
-117.744926
  0
LINE
  8
0
 62
     4
 10
-105.378418
 20
-108.566261
 11
-105.378418
 21
-112.744926
  0
LINE
  8
0
 62
     4
 10
-105.378418
 20
-112.744926
 11
-106.808418
 21
-112.744926
  0
LINE
  8
0
 10
-109.553421
 20
-72.514923
 11
-112.553421
 21
-69.514923
  0
LINE
  8
0
 10
-94.553421
 20
-69.514931
 11
-97.553421
 21
-72.514931
  0
LINE
  8
0
 10
-112.553421
 20
-66.314926
 11
-106.553421
 21
-66.314926
  0
LINE
  8
0
  6
CENTER
 62
     2
 10
-104.053421
 20
-22.564926
 11
-104.053421
 21
-35.154930
  0
LINE
  8
0
  6
CENTER
 62
     2
 10
-110.447441
 20
-29.114927
 11
-97.633423
 21
-29.114927
  0
LINE
  8
0
  6
CENTER
 62
     2
 10
-109.779991
 20
-15.914927
 11
-97.289207
 21
-15.914927
  0
LINE
  8
0
  6
CENTER
 62
     2
 10
-109.112549
 20
-2.714926
 11
-97.213425
 21
-2.714926
  0
LINE
  8
0
  6
CENTER
 62
     2
 10
-103.053421
 20
3.695074
 11
-103.053421
 21
-8.964927
  0
LINE
  8
0
  6
CENTER
 62
     2
 10
-103.553421
 20
60.200211
 11
-103.553421
 21
-105.368073
  0
LINE
  8
0
 62
     4
 10
-105.378418
 20
67.015076
 11
-106.808418
 21
67.015076
  0
LINE
  8
0
 62
     4
 10
-105.378418
 20
63.809746
 11
-105.378418
 21
67.015076
  0
LINE
  8
0
 62
     4
 10
-105.693420
 20
67.015076
 11
-105.693420
 21
72.015076
  0
LINE
  8
0
 62
     4
 10
-106.493423
 20
67.015076
 11
-106.493423
 21
72.015076
  0
LINE
  8
0
 62
     4
 10
-105.693420
 20
72.015076
 11
-106.493423
 21
72.015076
  0
LINE
  8
0
 62
     4
 10
-106.808418
 20
64.191078
 11
-106.808418
 21
67.015076
  0
LINE
  8
0
 62
     4
 10
-106.808418
 20
56.485077
 11
-106.808418
 21
62.951073
  0
LINE
  8
0
 62
     4
 10
-105.378418
 20
56.485077
 11
-105.378418
 21
62.569740
  0
LINE
  8
0
 62
     4
 10
-101.413422
 20
72.015076
 11
-100.613419
 21
72.015076
  0
LINE
  8
0
 62
     4
 10
-101.728424
 20
67.015076
 11
-100.298424
 21
67.015076
  0
LINE
  8
0
 62
     4
 10
-100.613419
 20
67.015076
 11
-100.613419
 21
72.015076
  0
LINE
  8
0
 62
     4
 10
-101.413422
 20
67.015076
 11
-101.413422
 21
72.015076
  0
LINE
  8
0
 62
     4
 10
-101.728424
 20
62.825073
 11
-101.728424
 21
67.015076
  0
LINE
  8
0
 62
     4
 10
-100.298424
 20
62.445076
 11
-100.298424
 21
67.015076
  0
LINE
  8
0
 62
     4
 10
-101.728424
 20
56.485077
 11
-101.728424
 21
61.585075
  0
LINE
  8
0
 62
     4
 10
-100.298424
 20
56.485077
 11
-100.298424
 21
61.215073
  0
LINE
  8
0
 62
     1
 10
-97.973427
 20
61.835075
 11
-109.071732
 21
64.794624
  0
LINE
  8
0
 62
     1
 10
-97.973419
 20
60.595078
 11
-109.071732
 21
63.554630
  0
LINE
  8
0
  6
CENTER
 62
     2
 10
-110.053421
 20
1.835073
 11
-110.053421
 21
-3.334927
  0
LINE
  8
0
  6
CENTER
 62
     2
 10
-97.053421
 20
-28.204927
 11
-97.053421
 21
-33.724930
  0
LINE
  8
0
  6
CENTER
 62
     2
 10
-112.553421
 20
-0.914927
 11
-107.553421
 21
-0.914927
  0
LINE
  8
0
  6
CENTER
 62
     2
 10
-99.633423
 20
-30.914927
 11
-94.553421
 21
-30.914927
  0
LINE
  8
0
 10
-112.553421
 20
-36.914925
 11
-94.553421
 21
-36.914925
  0
LINE
  8
0
 10
-112.553421
 20
5.085073
 11
-94.553421
 21
5.085073
  0
LINE
  8
0
 10
-98.303421
 20
26.285074
 11
-100.553421
 21
26.285074
  0
LINE
  8
0
 10
-112.553421
 20
23.785074
 11
-112.553421
 21
-69.514923
  0
LINE
  8
0
 10
-94.553421
 20
23.785074
 11
-94.553421
 21
-69.514923
  0
LINE
  8
0
 10
-97.553421
 20
26.785072
 11
-94.553421
 21
23.785076
  0
LINE
  8
0
 10
-112.553421
 20
23.785076
 11
-109.553421
 21
26.785076
  0
LINE
  8
0
 10
-109.553421
 20
26.785074
 11
-100.553421
 21
26.785074
  0
LINE
  8
0
 10
-98.303421
 20
26.285074
 11
-98.303421
 21
26.485073
  0
LINE
  8
0
 10
-98.003418
 20
26.785074
 11
-97.553421
 21
26.785074
  0
LINE
  8
0
 62
     4
 10
-98.553421
 20
26.285074
 11
-98.553421
 21
51.885071
  0
LINE
  8
0
 62
     4
 10
-108.553421
 20
26.785074
 11
-108.553421
 21
51.885071
  0
LINE
  8
0
 62
     4
 10
-107.853424
 20
27.285074
 11
-107.853424
 21
28.785074
  0
LINE
  8
0
 62
     4
 10
-103.900085
 20
29.085073
 11
-103.900085
 21
27.985073
  0
LINE
  8
0
 62
     4
 10
-103.753418
 20
29.085073
 11
-103.753418
 21
26.985073
  0
LINE
  8
0
 62
     4
 10
-103.353424
 20
29.085073
 11
-103.353424
 21
26.985073
  0
LINE
  8
0
 62
     4
 10
-103.206757
 20
29.085073
 11
-103.206757
 21
27.985073
  0
LINE
  8
0
 62
     4
 10
-101.253418
 20
29.085073
 11
-101.253418
 21
27.985073
  0
LINE
  8
0
 62
     4
 10
-105.853424
 20
29.085073
 11
-105.853424
 21
27.985073
  0
LINE
  8
0
 62
     4
 10
-99.253418
 20
27.285074
 11
-99.253418
 21
28.785074
  0
LINE
  8
0
 62
     4
 10
-107.553421
 20
29.085073
 11
-99.553421
 21
29.085073
  0
LINE
  8
0
 62
     4
 10
-108.553421
 20
37.785072
 11
-98.553421
 21
37.785072
  0
LINE
  8
0
 62
     4
 10
-108.553421
 20
41.285072
 11
-98.553421
 21
41.285072
  0
LINE
  8
0
 62
     4
 10
-108.553421
 20
45.885071
 11
-98.553421
 21
45.885071
  0
LINE
  8
0
 62
     4
 10
-108.553421
 20
51.885071
 11
-98.553421
 21
51.885071
  0
LINE
  8
0
 62
     4
 10
-108.253418
 20
51.985077
 11
-98.853424
 21
51.985077
  0
LINE
  8
0
 62
     4
 10
-108.253418
 20
56.485077
 11
-98.853424
 21
56.485077
  0
LINE
  8
0
 62
     4
 10
-98.853424
 20
56.485077
 11
-98.853424
 21
51.985077
  0
LINE
  8
0
 62
     4
 10
-108.253418
 20
56.485077
 11
-108.253418
 21
51.985077
  0
LINE
  8
0
 62
     4
 10
-99.453423
 20
51.985077
 11
-99.453423
 21
51.885071
  0
LINE
  8
0
 62
     4
 10
-107.653419
 20
51.985077
 11
-107.653419
 21
51.885071
  0
LINE
  8
0
 62
     4
 10
-108.253418
 20
55.485077
 11
-98.853424
 21
55.485077
  0
LINE
  8
0
 62
     4
 10
-108.253418
 20
55.773750
 11
-98.853424
 21
55.773750
  0
LINE
  8
0
 62
     4
 10
-103.280090
 20
27.985073
 11
-103.280090
 21
26.985073
  0
LINE
  8
0
 62
     4
 10
-103.826752
 20
27.985073
 11
-103.826752
 21
26.985073
  0
LINE
  8
0
 62
     4
 10
-106.453423
 20
27.785074
 11
-106.453423
 21
26.985073
  0
LINE
  8
0
 62
     4
 10
-100.653419
 20
27.785074
 11
-100.653419
 21
26.985073
  0
LINE
  8
0
 62
     4
 10
-107.553421
 20
26.985073
 11
-99.553421
 21
26.985073
  0
LINE
  8
0
 62
     4
 10
-103.280090
 20
27.985073
 11
-100.853424
 21
27.985073
  0
LINE
  8
0
 62
     4
 10
-106.253418
 20
27.985073
 11
-103.826752
 21
27.985073
  0
LINE
  8
0
 10
-100.553421
 20
26.785074
 11
-100.553421
 21
20.585073
  0
LINE
  8
0
 10
-94.553421
 20
20.585073
 11
-100.553421
 21
20.585073
  0
LINE
  8
0
 10
-94.753418
 20
20.585073
 11
-94.753418
 21
22.127537
  0
LINE
  8
0
 10
-100.353424
 20
20.585073
 11
-100.353424
 21
22.127537
  0
LINE
  8
0
  6
CENTER
 62
     2
 10
-101.553421
 20
14.985073
 11
-105.553421
 21
14.985073
  0
LINE
  8
0
 10
-4.646654
 20
-72.514923
 11
-25.146654
 21
-72.514923
  0
LINE
  8
0
 10
1.353346
 20
-72.014923
 11
-4.646654
 21
-72.014923
  0
LINE
  8
0
 10
1.153345
 20
-66.314926
 11
1.153345
 21
-67.857391
  0
LINE
  8
0
 10
1.353346
 20
-66.314926
 11
-4.646654
 21
-66.314926
  0
LINE
  8
0
 10
-4.446653
 20
-66.314926
 11
-4.446653
 21
-67.857391
  0
LINE
  8
0
 10
-4.646654
 20
-66.314926
 11
-4.646654
 21
-72.514923
  0
LINE
  8
0
 10
1.353346
 20
-72.514923
 11
1.353346
 21
-66.314926
  0
LINE
  8
0
 10
-25.646654
 20
-50.814926
 11
1.353346
 21
-50.814926
  0
LINE
  8
0
 10
6.753347
 20
-63.514923
 11
1.753345
 21
-63.514923
  0
LINE
  8
0
 62
     4
 10
-4.046654
 20
-93.680946
 11
-4.046654
 21
-100.214928
  0
LINE
  8
0
 62
     4
 10
-4.546652
 20
-92.814926
 11
-4.046653
 21
-93.680954
  0
LINE
  8
0
 62
     4
 10
-4.046653
 20
-100.214920
 11
-3.546651
 21
-100.503601
  0
LINE
  8
0
 62
     4
 10
-3.546654
 20
-100.503601
 11
-3.546654
 21
-101.214928
  0
LINE
  8
0
 62
     4
 10
-9.846654
 20
-97.114922
 11
-4.546654
 21
-97.114922
  0
LINE
  8
0
 62
     4
 10
-9.846654
 20
-97.214928
 11
-9.846654
 21
-101.214928
  0
LINE
  8
0
 62
     4
 10
-5.046654
 20
-97.214928
 11
-9.846654
 21
-97.214928
  0
LINE
  8
0
 62
     4
 10
-5.046654
 20
-97.114922
 11
-5.046654
 21
-102.214928
  0
LINE
  8
0
  6
PHANTOM
 62
     4
 10
-5.046654
 20
-98.014923
 11
-5.046654
 21
-99.513542
  0
LINE
  8
0
 62
     4
 10
-4.746898
 20
-101.214928
 11
-5.046654
 21
-99.514931
  0
LINE
  8
0
 62
     4
 10
-10.346654
 20
-102.214928
 11
-5.046654
 21
-102.214928
  0
LINE
  8
0
 62
     4
 10
-9.146654
 20
-97.114922
 11
-9.146654
 21
-97.214928
  0
LINE
  8
0
 62
     4
 10
-10.346654
 20
-101.503601
 11
-10.346654
 21
-102.214928
  0
LINE
  8
0
 62
     4
 10
-9.846655
 20
-101.214920
 11
-10.346656
 21
-101.503601
  0
LINE
  8
0
 62
     4
 10
-4.746899
 20
-101.214928
 11
-3.546654
 21
-101.214928
  0
LINE
  8
0
 62
     4
 10
-4.546654
 20
-97.114922
 11
-4.546654
 21
-91.614922
  0
LINE
  8
0
 62
     4
 10
-9.846654
 20
-97.114922
 11
-9.846654
 21
-85.714928
  0
LINE
  8
0
 62
     4
 10
-4.546654
 20
-91.614922
 11
7.353346
 21
-91.614922
  0
LINE
  8
0
 62
     4
 10
7.653345
 20
-73.214928
 11
7.653345
 21
-91.314926
  0
LINE
  8
0
 62
     4
 10
-23.646654
 20
-75.214928
 11
-22.846655
 21
-75.214928
  0
LINE
  8
0
 62
     4
 10
-22.846655
 20
-82.814926
 11
-23.646654
 21
-82.814926
  0
LINE
  8
0
 62
     4
 10
-22.846655
 20
-82.814926
 11
-22.846655
 21
-75.214928
  0
LINE
  8
0
 62
     4
 10
-24.346655
 20
-72.514923
 11
-24.346655
 21
-83.514923
  0
LINE
  8
0
 62
     4
 10
-23.646654
 20
-82.814926
 11
-23.646654
 21
-75.214928
  0
LINE
  8
0
 62
     4
 10
-14.246655
 20
-87.014923
 11
-14.246655
 21
-86.014923
  0
LINE
  8
0
 62
     4
 10
-14.346654
 20
-86.114922
 11
-14.346654
 21
-86.014923
  0
LINE
  8
0
 62
     4
 10
-16.846653
 20
-86.614922
 11
-14.846654
 21
-86.614922
  0
LINE
  8
0
 62
     4
 10
-18.563799
 20
-83.514915
 11
-17.946651
 21
-87.014923
  0
LINE
  8
0
 62
     4
 10
-17.446655
 20
-87.014923
 11
-17.446655
 21
-86.014923
  0
LINE
  8
0
 62
     4
 10
-17.346653
 20
-86.114922
 11
-17.346653
 21
-86.014923
  0
LINE
  8
0
 62
     4
 10
-17.446655
 20
-86.014923
 11
-14.246655
 21
-86.014923
  0
LINE
  8
0
 62
     4
 10
-24.346655
 20
-83.514923
 11
-18.563799
 21
-83.514923
  0
LINE
  8
0
 10
7.653345
 20
-72.914925
 11
7.353344
 21
-73.214928
  0
LINE
  8
0
 10
7.653345
 20
-73.214928
 11
6.153345
 21
-73.214928
  0
LINE
  8
0
 10
7.653345
 20
-72.014923
 11
7.653345
 21
-72.914925
  0
LINE
  8
0
 62
     4
 10
6.153345
 20
-85.714928
 11
-9.946654
 21
-85.714928
  0
LINE
  8
0
 62
     4
 10
-17.946655
 20
-87.014923
 11
-11.255836
 21
-87.014923
  0
LINE
  8
0
 62
     4
 10
6.153345
 20
-85.714928
 11
6.153345
 21
-73.214928
  0
LINE
  8
0
 62
     4
 10
-9.846654
 20
-91.014923
 11
-9.946654
 21
-91.014923
  0
LINE
  8
0
 62
     4
 10
-10.444733
 20
-91.614922
 11
-9.946654
 21
-91.614922
  0
LINE
  8
0
 62
     4
 10
-9.946654
 20
-85.714928
 11
-9.946654
 21
-91.614922
  0
LINE
  8
0
 62
     4
 10
-11.255834
 20
-87.014923
 11
-10.444731
 21
-91.614922
  0
LINE
  8
0
 10
6.753347
 20
-60.714928
 11
1.853346
 21
-60.714928
  0
LINE
  8
0
 10
7.153345
 20
-72.514923
 11
1.353346
 21
-72.514923
  0
LINE
  8
0
 10
-25.646654
 20
-72.014923
 11
-25.146658
 21
-72.514923
  0
LINE
  8
0
 10
7.153345
 20
-61.114929
 11
7.153345
 21
-72.514923
  0
LINE
  8
0
 10
7.653345
 20
-72.014923
 11
7.153345
 21
-72.014923
  0
LINE
  8
0
 62
     4
 10
-8.261654
 20
-102.214928
 11
-8.261654
 21
-105.848755
  0
LINE
  8
0
 62
     4
 10
-6.831654
 20
-102.214928
 11
-6.831654
 21
-106.182426
  0
LINE
  8
0
 62
     1
 10
-4.506655
 20
-106.724922
 11
-10.506653
 21
-105.324928
  0
LINE
  8
0
 62
     1
 10
-4.506654
 20
-107.964928
 11
-10.506656
 21
-106.564926
  0
LINE
  8
0
 62
     4
 10
-8.261654
 20
-107.088760
 11
-8.261654
 21
-112.644928
  0
LINE
  8
0
 62
     4
 10
-6.831654
 20
-107.422424
 11
-6.831654
 21
-112.644928
  0
LINE
  8
0
 62
     4
 10
-6.831654
 20
-112.644928
 11
-8.261654
 21
-112.644928
  0
LINE
  8
0
  6
CENTER
 62
     2
 10
-4.646654
 20
2.138245
 11
-4.646654
 21
-34.432014
  0
LINE
  8
0
  6
CENTER
 62
     2
 10
-7.646654
 20
-0.914927
 11
2.373346
 21
-0.914927
  0
LINE
  8
0
  6
CENTER
 62
     2
 10
-7.646654
 20
-30.914927
 11
-1.316654
 21
-30.914927
  0
LINE
  8
0
 10
-24.546654
 20
26.285074
 11
-24.546654
 21
26.785074
  0
LINE
  8
0
 62
     4
 10
-7.146654
 20
71.915077
 11
-7.946653
 21
71.915077
  0
LINE
  8
0
 62
     4
 10
-6.831654
 20
66.915077
 11
-8.261654
 21
66.915077
  0
LINE
  8
0
 62
     4
 10
-7.946653
 20
66.915077
 11
-7.946653
 21
71.915077
  0
LINE
  8
0
 62
     4
 10
-7.146654
 20
66.915077
 11
-7.146654
 21
71.915077
  0
LINE
  8
0
 62
     4
 10
-6.831654
 20
66.915077
 11
-6.831654
 21
64.045990
  0
LINE
  8
0
 62
     4
 10
-8.261654
 20
64.498825
 11
-8.261654
 21
66.915077
  0
LINE
  8
0
 62
     1
 10
-10.586652
 20
65.235069
 11
-4.586653
 21
63.335072
  0
LINE
  8
0
 62
     1
 10
-10.586654
 20
63.995071
 11
-4.586655
 21
62.095074
  0
LINE
  8
0
 62
     4
 10
-6.831654
 20
56.485077
 11
-6.831654
 21
62.805992
  0
LINE
  8
0
 62
     4
 10
-8.261654
 20
56.485077
 11
-8.261654
 21
63.258827
  0
LINE
  8
0
 10
-25.646654
 20
-36.914925
 11
1.353346
 21
-36.914925
  0
LINE
  8
0
 10
-25.646654
 20
5.085073
 11
1.353346
 21
5.085073
  0
LINE
  8
0
 10
-1.646654
 20
-2.564927
 11
1.353346
 21
-2.564927
  0
LINE
  8
0
 10
-1.646654
 20
0.745073
 11
1.353346
 21
0.745073
  0
LINE
  8
0
 10
-1.646654
 20
-2.564927
 11
-1.646654
 21
0.745073
  0
LINE
  8
0
 10
-25.446653
 20
20.585073
 11
-25.446653
 21
22.127537
  0
LINE
  8
0
 10
-25.646654
 20
20.585073
 11
-19.646654
 21
20.585073
  0
LINE
  8
0
 10
-19.846653
 20
20.585073
 11
-19.846653
 21
22.127537
  0
LINE
  8
0
 10
-19.646654
 20
20.585073
 11
-19.646654
 21
26.785074
  0
LINE
  8
0
 62
     4
 10
7.653345
 20
26.285074
 11
7.153345
 21
26.285074
  0
LINE
  8
0
 10
7.153345
 20
15.385073
 11
7.153345
 21
26.785074
  0
LINE
  8
0
 10
-25.646654
 20
26.285074
 11
-25.146654
 21
26.785074
  0
LINE
  8
0
 10
7.153345
 20
26.785074
 11
-19.646654
 21
26.785074
  0
LINE
  8
0
 10
6.753347
 20
14.985073
 11
1.853346
 21
14.985073
  0
LINE
  8
0
 62
     4
 10
-11.255835
 20
41.285072
 11
-10.444731
 21
45.885075
  0
LINE
  8
0
 62
     4
 10
-9.946654
 20
39.985077
 11
-9.946654
 21
45.885071
  0
LINE
  8
0
 62
     4
 10
-10.444733
 20
45.885071
 11
-9.946654
 21
45.885071
  0
LINE
  8
0
 62
     4
 10
-9.846654
 20
45.285072
 11
-9.946654
 21
45.285072
  0
LINE
  8
0
 62
     4
 10
6.153345
 20
39.985077
 11
6.153345
 21
27.485073
  0
LINE
  8
0
 62
     4
 10
-17.946655
 20
41.285072
 11
-11.255836
 21
41.285072
  0
LINE
  8
0
 62
     4
 10
6.153345
 20
39.985077
 11
-9.946654
 21
39.985077
  0
LINE
  8
0
 62
     4
 10
7.653345
 20
26.285074
 11
7.653345
 21
27.185074
  0
LINE
  8
0
 62
     4
 10
7.653345
 20
27.485073
 11
6.153345
 21
27.485073
  0
LINE
  8
0
 62
     4
 10
7.653345
 20
27.185070
 11
7.353344
 21
27.485073
  0
LINE
  8
0
 62
     4
 10
-24.346655
 20
37.785072
 11
-18.563799
 21
37.785072
  0
LINE
  8
0
 62
     4
 10
-17.446655
 20
40.285072
 11
-14.246655
 21
40.285072
  0
LINE
  8
0
 62
     4
 10
-17.346653
 20
40.385071
 11
-17.346653
 21
40.285072
  0
LINE
  8
0
 62
     4
 10
-17.446655
 20
41.285072
 11
-17.446655
 21
40.285072
  0
LINE
  8
0
 62
     4
 10
-18.563799
 20
37.785069
 11
-17.946653
 21
41.285069
  0
LINE
  8
0
 62
     4
 10
-16.846653
 20
40.885071
 11
-14.846654
 21
40.885071
  0
LINE
  8
0
 62
     4
 10
-14.346654
 20
40.385071
 11
-14.346654
 21
40.285072
  0
LINE
  8
0
 62
     4
 10
-14.246655
 20
41.285072
 11
-14.246655
 21
40.285072
  0
LINE
  8
0
 62
     4
 10
-23.646654
 20
37.085075
 11
-23.646654
 21
29.485073
  0
LINE
  8
0
 62
     4
 10
-24.346655
 20
26.285074
 11
-24.346655
 21
37.785072
  0
LINE
  8
0
 62
     4
 10
-22.846655
 20
37.085075
 11
-22.846655
 21
29.485073
  0
LINE
  8
0
 62
     4
 10
-22.846655
 20
37.085075
 11
-23.646654
 21
37.085075
  0
LINE
  8
0
 62
     4
 10
-23.646654
 20
29.485073
 11
-22.846655
 21
29.485073
  0
LINE
  8
0
 62
     4
 10
7.653345
 20
27.485073
 11
7.653345
 21
45.585075
  0
LINE
  8
0
 62
     4
 10
-4.546654
 20
45.885071
 11
7.353346
 21
45.885071
  0
LINE
  8
0
 62
     4
 10
-9.846654
 20
51.385071
 11
-9.846654
 21
39.985077
  0
LINE
  8
0
 62
     4
 10
-4.546654
 20
51.385071
 11
-4.546654
 21
45.885071
  0
LINE
  8
0
 62
     4
 10
-4.746899
 20
55.485077
 11
-3.546654
 21
55.485077
  0
LINE
  8
0
 62
     4
 10
-9.846655
 20
55.485073
 11
-10.346656
 21
55.773746
  0
LINE
  8
0
 62
     4
 10
-10.346654
 20
55.773750
 11
-10.346654
 21
56.485077
  0
LINE
  8
0
 62
     4
 10
-9.146654
 20
51.385071
 11
-9.146654
 21
51.485077
  0
LINE
  8
0
 62
     4
 10
-10.346654
 20
56.485077
 11
-5.046654
 21
56.485077
  0
LINE
  8
0
 62
     4
 10
-4.746897
 20
55.485073
 11
-5.046653
 21
53.785072
  0
LINE
  8
0
  6
PHANTOM
 62
     4
 10
-5.046654
 20
52.285072
 11
-5.046654
 21
53.783691
  0
LINE
  8
0
 62
     4
 10
-5.046654
 20
51.385071
 11
-5.046654
 21
56.485077
  0
LINE
  8
0
 62
     4
 10
-5.046654
 20
51.485077
 11
-9.846654
 21
51.485077
  0
LINE
  8
0
 62
     4
 10
-9.846654
 20
51.485077
 11
-9.846654
 21
55.485077
  0
LINE
  8
0
 62
     4
 10
-9.846654
 20
51.385071
 11
-4.546654
 21
51.385071
  0
LINE
  8
0
 62
     4
 10
-3.546654
 20
54.773750
 11
-3.546654
 21
55.485077
  0
LINE
  8
0
 62
     4
 10
-4.046654
 20
54.485073
 11
-3.546654
 21
54.773746
  0
LINE
  8
0
 62
     4
 10
-4.546653
 20
47.085072
 11
-4.046652
 21
47.951099
  0
LINE
  8
0
 62
     4
 10
-4.046654
 20
47.951096
 11
-4.046654
 21
54.485077
  0
LINE
  8
0
 10
-24.346655
 20
26.785074
 11
-25.146654
 21
26.785074
  0
LINE
  8
0
 10
-24.546654
 20
26.285074
 11
-19.646654
 21
26.285074
  0
LINE
  8
0
 10
6.753347
 20
17.785074
 11
1.753345
 21
17.785074
  0
LINE
  8
0
 10
1.353346
 20
-63.114929
 11
1.353346
 21
17.385073
  0
LINE
  8
0
 10
-25.646654
 20
-72.014923
 11
-25.646654
 21
26.285074
  0
LINE
  8
0
 62
     4
 10
-105.693420
 20
-117.744926
 11
-106.493423
 21
-117.744926
  0
LINE
  8
0
 62
     4
 10
-101.413422
 20
-117.744926
 11
-100.613419
 21
-117.744926
  0
LINE
  8
0
 62
     4
 10
95.481659
 20
-117.744926
 11
96.281662
 21
-117.744926
  0
LINE
  8
0
 62
     4
 10
91.201660
 20
-117.744926
 11
90.401657
 21
-117.744926
  0
LINE
  8
0
 10
-194.250000
 20
132.600006
 11
194.800003
 21
132.600006
  0
LINE
  8
0
 10
194.800003
 20
132.600006
 11
194.800003
 21
-133.500000
  0
LINE
  8
0
 10
-194.250000
 20
132.600006
 11
-194.250000
 21
-133.500000
  0
LINE
  8
0
 10
-194.250000
 20
-133.500000
 11
194.800003
 21
-133.500000
  0
LINE
  8
0
 10
109.800003
 20
-118.500000
 11
109.800003
 21
-133.500000
  0
LINE
  8
0
 10
109.800003
 20
-118.500000
 11
194.800003
 21
-118.500000
  0
LINE
  8
0
 10
109.800003
 20
132.600006
 11
109.800003
 21
117.600006
  0
LINE
  8
0
 10
109.800003
 20
117.600006
 11
194.800003
 21
117.600006
  0
LINE
  8
0
 10
-194.250000
 20
117.600006
 11
-109.250000
 21
117.600006
  0
LINE
  8
0
 10
-109.250000
 20
132.600006
 11
-109.250000
 21
117.600006
  0
CIRCLE
  8
0
 62
     4
 10
-15.846654
 20
85.918091
 40
1.500000
  0
CIRCLE
  8
0
 62
     4
 10
-15.846654
 20
92.918091
 40
1.500000
  0
ARC
  8
0
 62
     4
 10
-14.096654
 20
89.418091
 40
0.800003
 50
112.024246
 51
247.975754
  0
ARC
  8
0
 62
     4
 10
-14.096654
 20
89.418091
 40
0.800003
 50
292.024231
 51
67.975754
  0
CIRCLE
  8
0
 62
     4
 10
-14.096654
 20
89.418091
 40
1.850000
  0
CIRCLE
  8
0
 62
     4
 10
-14.096654
 20
89.418091
 40
1.900000
  0
ARC
  8
0
 62
     4
 10
-15.846654
 20
85.918091
 40
1.600000
 50
0.000000
 51
180.000000
  0
ARC
  8
0
 62
     4
 10
-15.846654
 20
92.918091
 40
1.599999
 50
180.000000
 51
0.000000
  0
CIRCLE
  8
0
 62
     4
 10
-14.096654
 20
89.418091
 40
2.050000
  0
ARC
  8
0
 62
     4
 10
7.353346
 20
84.718094
 40
0.300003
 50
270.000000
 51
0.000000
  0
ARC
  8
0
 62
     4
 10
7.353346
 20
94.118088
 40
0.300000
 50
0.000000
 51
90.000000
  0
ARC
  8
0
 62
     4
 10
-4.846655
 20
94.118088
 40
0.300000
 50
0.000000
 51
90.000000
  0
ARC
  8
0
 62
     4
 10
-4.846655
 20
84.718094
 40
0.300003
 50
270.000000
 51
0.000000
  0
ARC
  8
0
 62
     4
 10
-8.446989
 20
86.003372
 40
0.199666
 50
179.794205
 51
273.541779
  0
ARC
  8
0
 62
     4
 10
-8.445990
 20
87.753746
 40
0.200668
 50
86.761749
 51
179.901978
  0
ARC
  8
0
 62
     4
 10
-8.446989
 20
88.543373
 40
0.199666
 50
179.794205
 51
273.541779
  0
ARC
  8
0
 62
     4
 10
-8.445990
 20
90.293747
 40
0.200668
 50
86.761749
 51
179.901978
  0
ARC
  8
0
 62
     4
 10
-8.446989
 20
91.083374
 40
0.199666
 50
179.794205
 51
273.541779
  0
ARC
  8
0
 62
     4
 10
-8.445990
 20
92.833748
 40
0.200668
 50
86.761749
 51
179.901978
  0
CIRCLE
  8
0
 62
     4
 10
-7.546654
 20
91.958092
 40
0.750000
  0
CIRCLE
  8
0
 62
     4
 10
-7.546654
 20
86.878090
 40
0.750000
  0
ARC
  8
0
 10
-4.646654
 20
95.418091
 40
3.000000
 50
180.000000
 51
199.471222
  0
ARC
  8
0
 10
-22.646654
 20
83.418091
 40
3.000000
 50
0.000000
 51
19.471226
  0
ARC
  8
0
 10
-4.646654
 20
95.418091
 40
3.000000
 50
340.528778
 51
0.000000
  0
ARC
  8
0
 10
-24.846655
 20
95.118088
 40
0.300003
 50
90.000000
 51
180.000000
  0
ARC
  8
0
 10
-4.646654
 20
95.418091
 40
2.800000
 50
339.075165
 51
200.924835
  0
ARC
  8
0
 10
-22.646654
 20
83.418091
 40
2.800001
 50
127.383163
 51
20.924833
  0
CIRCLE
  8
0
 10
93.341660
 20
-63.514923
 40
2.000000
  0
ARC
  8
0
 10
87.791656
 20
-72.214928
 40
0.300003
 50
270.000000
 51
0.000000
  0
ARC
  8
0
 10
98.891663
 20
-72.214928
 40
0.300003
 50
180.000000
 51
270.000000
  0
ARC
  8
0
 10
89.744141
 20
-63.114929
 40
0.400002
 50
270.000000
 51
330.000092
  0
ARC
  8
0
 10
91.822601
 20
-61.114929
 40
0.400002
 50
90.000000
 51
150.000092
  0
ARC
  8
0
 10
94.860718
 20
-61.114929
 40
0.400003
 50
29.999916
 51
90.000000
  0
ARC
  8
0
 10
96.939178
 20
-63.114929
 40
0.400003
 50
209.999908
 51
270.000000
  0
CIRCLE
  8
0
 10
93.341660
 20
-63.514923
 40
0.800000
  0
ARC
  8
0
 62
     4
 10
98.041656
 20
-91.314926
 40
0.300003
 50
270.000000
 51
0.000000
  0
ARC
  8
0
 62
     4
 10
88.641663
 20
-91.314926
 40
0.300003
 50
180.000000
 51
270.000000
  0
CIRCLE
  8
0
 10
92.841660
 20
-23.914923
 40
4.283250
  0
CIRCLE
  8
0
 10
92.841660
 20
-23.914923
 40
4.864349
  0
CIRCLE
  8
0
 10
93.841660
 20
-7.914924
 40
4.283250
  0
CIRCLE
  8
0
 10
93.841660
 20
-7.914924
 40
4.864349
  0
ARC
  8
0
 62
     4
 10
88.641663
 20
45.585075
 40
0.299999
 50
90.000000
 51
180.000000
  0
ARC
  8
0
 62
     4
 10
98.041656
 20
45.585075
 40
0.300003
 50
0.000000
 51
90.000000
  0
CIRCLE
  8
0
 10
93.341660
 20
17.785074
 40
0.800000
  0
ARC
  8
0
 10
96.939178
 20
17.385073
 40
0.400000
 50
90.000000
 51
150.000092
  0
ARC
  8
0
 10
94.860718
 20
15.385073
 40
0.400000
 50
270.000000
 51
330.000214
  0
ARC
  8
0
 10
91.822601
 20
15.385073
 40
0.400002
 50
209.999802
 51
270.000000
  0
ARC
  8
0
 10
89.744141
 20
17.385073
 40
0.400003
 50
29.999916
 51
90.000000
  0
ARC
  8
0
 10
98.891663
 20
26.485073
 40
0.299999
 50
90.000000
 51
180.000000
  0
ARC
  8
0
 10
87.791656
 20
26.485073
 40
0.300003
 50
0.000000
 51
90.000000
  0
CIRCLE
  8
0
 10
93.341660
 20
17.785074
 40
2.000000
  0
ARC
  8
0
 10
86.841194
 20
-30.915064
 40
3.000468
 50
213.586853
 51
0.002622
  0
ARC
  8
0
 10
86.843956
 20
-30.915611
 40
2.997704
 50
0.013088
 51
146.588425
  0
ARC
  8
0
 10
99.841660
 20
-0.919927
 40
2.998170
 50
33.504559
 51
326.495453
  0
CIRCLE
  8
0
 10
99.841660
 20
-0.914923
 40
1.599999
  0
CIRCLE
  8
0
 10
86.841660
 20
-30.914923
 40
1.599999
  0
CIRCLE
  8
0
 10
-103.553421
 20
-46.814926
 40
0.900000
  0
ARC
  8
0
 62
     4
 10
-99.553421
 20
-73.014923
 40
0.300003
 50
0.000000
 51
90.000000
  0
ARC
  8
0
 62
     4
 10
-107.553421
 20
-73.014923
 40
0.300003
 50
90.000000
 51
180.000000
  0
ARC
  8
0
 62
     4
 10
-100.853424
 20
-73.514923
 40
0.199997
 50
270.000000
 51
0.000000
  0
ARC
  8
0
 62
     4
 10
-106.253418
 20
-73.514923
 40
0.199997
 50
180.000000
 51
270.000000
  0
ARC
  8
0
 62
     4
 10
-99.553421
 20
-74.514923
 40
0.300003
 50
270.000000
 51
0.000000
  0
ARC
  8
0
 62
     4
 10
-107.553421
 20
-74.514923
 40
0.300003
 50
180.000000
 51
270.000000
  0
ARC
  8
0
 10
-109.103424
 20
-72.214928
 40
0.300003
 50
270.000000
 51
0.000000
  0
ARC
  8
0
 10
-109.553421
 20
-63.714928
 40
5.000002
 50
235.944183
 51
304.055817
  0
CIRCLE
  8
0
 10
-104.053421
 20
-29.114935
 40
4.283250
  0
CIRCLE
  8
0
 62
     2
 10
-104.053421
 20
-29.114935
 40
4.864349
  0
CIRCLE
  8
0
 10
-103.553421
 20
-15.914924
 40
4.283250
  0
CIRCLE
  8
0
 62
     2
 10
-103.553421
 20
-15.914924
 40
4.864349
  0
CIRCLE
  8
0
 10
-103.053421
 20
-2.714926
 40
4.283250
  0
CIRCLE
  8
0
 62
     2
 10
-103.053421
 20
-2.714926
 40
4.864349
  0
CIRCLE
  8
0
 10
-110.058105
 20
-0.914469
 40
1.599999
  0
CIRCLE
  8
0
 10
-97.058105
 20
-30.914469
 40
1.599999
  0
ARC
  8
0
 10
-98.003418
 20
26.485073
 40
0.299999
 50
90.000000
 51
180.000000
  0
ARC
  8
0
 62
     4
 10
-107.553421
 20
28.785074
 40
0.299999
 50
90.000000
 51
180.000000
  0
ARC
  8
0
 62
     4
 10
-99.553421
 20
28.785074
 40
0.300003
 50
0.000000
 51
90.000000
  0
ARC
  8
0
 62
     4
 10
-106.253418
 20
27.785074
 40
0.200001
 50
90.000000
 51
180.000000
  0
ARC
  8
0
 62
     4
 10
-100.853424
 20
27.785074
 40
0.199997
 50
0.000000
 51
90.000000
  0
ARC
  8
0
 62
     4
 10
-107.553421
 20
27.285074
 40
0.300003
 50
180.000000
 51
270.000000
  0
ARC
  8
0
 62
     4
 10
-99.553421
 20
27.285074
 40
0.299999
 50
270.000000
 51
0.000000
  0
ARC
  8
0
 10
-97.553421
 20
17.985073
 40
5.000002
 50
55.944176
 51
124.055824
  0
CIRCLE
  8
0
 10
-103.553421
 20
14.985073
 40
0.900000
  0
ARC
  8
0
 10
-1.646654
 20
-63.714928
 40
5.000000
 50
235.944199
 51
304.055786
  0
ARC
  8
0
 10
1.753345
 20
-63.114929
 40
0.400000
 50
180.000000
 51
270.000000
  0
ARC
  8
0
 10
6.753347
 20
-63.914925
 40
0.400000
 50
0.000000
 51
90.000000
  0
ARC
  8
0
 62
     4
 10
7.353346
 20
-91.314926
 40
0.300003
 50
270.000000
 51
0.000000
  0
ARC
  8
0
 62
     4
 10
-14.846654
 20
-86.114922
 40
0.500000
 50
270.000000
 51
0.000000
  0
ARC
  8
0
 62
     4
 10
-16.846653
 20
-86.114922
 40
0.500000
 50
180.000000
 51
270.000000
  0
ARC
  8
0
 10
1.853346
 20
-60.214928
 40
0.500000
 50
180.000000
 51
270.000000
  0
ARC
  8
0
 10
6.753347
 20
-61.114929
 40
0.400000
 50
0.000000
 51
90.000000
  0
CIRCLE
  8
0
 10
-4.646669
 20
-0.914923
 40
1.599999
  0
CIRCLE
  8
0
 10
-4.646669
 20
-30.914923
 40
1.599999
  0
ARC
  8
0
 10
-22.646654
 20
17.985073
 40
5.000000
 50
55.944214
 51
124.055786
  0
ARC
  8
0
 10
6.753347
 20
15.385073
 40
0.400000
 50
270.000000
 51
0.000000
  0
ARC
  8
0
 10
1.853346
 20
14.485073
 40
0.500000
 50
90.000000
 51
180.000000
  0
ARC
  8
0
 62
     4
 10
-16.846653
 20
40.385071
 40
0.500000
 50
90.000000
 51
180.000000
  0
ARC
  8
0
 62
     4
 10
-14.846654
 20
40.385071
 40
0.500000
 50
0.000000
 51
90.000000
  0
ARC
  8
0
 62
     4
 10
7.353346
 20
45.585075
 40
0.300000
 50
0.000000
 51
90.000000
  0
ARC
  8
0
 10
6.753347
 20
18.185074
 40
0.400000
 50
270.000000
 51
0.000000
  0
ARC
  8
0
 10
1.753345
 20
17.385073
 40
0.400000
 50
90.000000
 51
180.000000
  0
TEXT
  8
0
 10
-186.892654
 20
104.550003
 40
4.500000
  1
MODEL:G183-4E2-25-PSL
 50
0.000000
 41
1.052632
 51
0.000000
  7
STANDARD
  0
TEXT
  8
0
 10
133.907150
 20
122.050003
 40
4.500000
  1
Ver. 1.0
 50
0.000000
 41
1.052632
 51
0.000000
  7
STANDARD
  0
TEXT
  8
0
 10
113.700287
 20
-130.669998
 40
6.300000
  1
KOGANEI CORP.
 50
0.000000
 41
1.052632
 51
0.000000
  7
STANDARD
  0
TEXT
  8
0
 10
-176.892654
 20
122.050003
 40
4.500000
  1
G180 SERIES
 50
0.000000
 41
1.052632
 51
0.000000
  7
STANDARD
  0
ENDSEC
  0
EOF
