  0
SECTION
  2
HEADER
  0
ENDSEC
  0
SECTION
  2
TABLES
  0
TABLE
  2
LTYPE
 70
     4
  0
LTYPE
  2
CONTINUOUS
 70
    64
  3
Solid line
 72
    65
 73
     0
 40
0.000000
  0
LTYPE
  2
DASHED
 70
    64
  3
__ __ __ __ __ __ __ __ __ __ __ __ __ __ __
 72
    65
 73
     2
 40
3.500000
 49
2.000000
 49
-1.500000
  0
LTYPE
  2
CENTER
 70
    64
  3
____ _ ____ _ ____ _ ____ _ ____ _ ____ _ ____
 72
    65
 73
     4
 40
17.500000
 49
13.000000
 49
-1.500000
 49
1.500000
 49
-1.500000
  0
LTYPE
  2
PHANTOM
 70
    64
  3
_____ _ _ _____ _ _ _____ _ _ _____ _ _ ____  
 72
    65
 73
     6
 40
15.500000
 49
8.000000
 49
-1.500000
 49
1.500000
 49
-1.500000
 49
1.500000
 49
-1.500000
  0
LTYPE
  2
DASHED1
 70
    64
  3
__ __ __ __ __ __ __ __ __ __ __ __ __ __ __
 72
    65
 73
     2
 40
1.500000
 49
1.000000
 49
-0.500000
  0
LTYPE
  2
DASHED2
 70
    64
  3
__ __ __ __ __ __ __ __ __ __ __ __ __ __ __
 72
    65
 73
     2
 40
3.500000
 49
2.500000
 49
-1.000000
  0
LTYPE
  2
DASHED3
 70
    64
  3
__ __ __ __ __ __ __ __ __ __ __ __ __ __ __
 72
    65
 73
     2
 40
6.000000
 49
4.000000
 49
-2.000000
  0
LTYPE
  2
DASHED4
 70
    64
  3
__ __ __ __ __ __ __ __ __ __ __ __ __ __ __
 72
    65
 73
     2
 40
12.000000
 49
10.000000
 49
-2.000000
  0
LTYPE
  2
DASHED5
 70
    64
  3
__ __ __ __ __ __ __ __ __ __ __ __ __ __ __
 72
    65
 73
     2
 40
17.000000
 49
15.000000
 49
-2.000000
  0
LTYPE
  2
DASHED6
 70
    64
  3
__ __ __ __ __ __ __ __ __ __ __ __ __ __ __
 72
    65
 73
     2
 40
29.000000
 49
27.000000
 49
-2.000000
  0
LTYPE
  2
PHANTOM1
 70
    64
  3
_____ _ _ _____ _ _ _____ _ _ _____ _ _ ____  
 72
    65
 73
     6
 40
31.000000
 49
25.000000
 49
-1.500000
 49
1.000000
 49
-1.000000
 49
1.000000
 49
-1.500000
  0
LTYPE
  2
PHANTOM2
 70
    64
  3
_____ _ _ _____ _ _ _____ _ _ _____ _ _ ____  
 72
    65
 73
     6
 40
36.000000
 49
27.000000
 49
-1.500000
 49
2.500000
 49
-1.000000
 49
2.500000
 49
-1.500000
  0
LTYPE
  2
PHANTOM3
 70
    64
  3
_____ _ _ _____ _ _ _____ _ _ _____ _ _ ____  
 72
    65
 73
     6
 40
78.000000
 49
64.000000
 49
-2.000000
 49
4.000000
 49
-2.000000
 49
4.000000
 49
-2.000000
  0
LTYPE
  2
CENTER1
 70
    64
  3
____ _ ____ _ ____ _ ____ _ ____ _ ____ _ ____
 72
    65
 73
     4
 40
19.000000
 49
14.000000
 49
-1.000000
 49
3.000000
 49
-1.000000
  0
LTYPE
  2
CENTER2
 70
    64
  3
____ _ ____ _ ____ _ ____ _ ____ _ ____ _ ____
 72
    65
 73
     4
 40
28.500000
 49
25.000000
 49
-1.000000
 49
1.500000
 49
-1.000000
  0
LTYPE
  2
CENTER3
 70
    64
  3
____ _ ____ _ ____ _ ____ _ ____ _ ____ _ ____
 72
    65
 73
     4
 40
31.500000
 49
27.000000
 49
-1.000000
 49
2.500000
 49
-1.000000
  0
LTYPE
  2
CENTER4
 70
    64
  3
____ _ ____ _ ____ _ ____ _ ____ _ ____ _ ____
 72
    65
 73
     4
 40
50.000000
 49
45.000000
 49
-1.000000
 49
3.000000
 49
-1.000000
  0
LTYPE
  2
CENTER5
 70
    64
  3
____ _ ____ _ ____ _ ____ _ ____ _ ____ _ ____
 72
    65
 73
     4
 40
100.000000
 49
92.000000
 49
-2.000000
 49
4.000000
 49
-2.000000
  0
LTYPE
  2
SBK1
 70
    64
  3
______ _ _ _ ______ _ _ _ ______ _ _ _ _____  
 72
    65
 73
     8
 40
60.500000
 49
45.000000
 49
-2.000000
 49
2.500000
 49
-2.000000
 49
2.500000
 49
-2.000000
 49
2.500000
 49
-2.000000
  0
LTYPE
  2
SBK2
 70
    64
  3
______ _ _ _ ______ _ _ _ ______ _ _ _ _____  
 72
    65
 73
     8
 40
84.000000
 49
64.000000
 49
-2.000000
 49
4.000000
 49
-2.000000
 49
4.000000
 49
-2.000000
 49
4.000000
 49
-2.000000
  0
LTYPE
  2
STCH
 70
    64
  3
__ __ __ __ __ __ __ __ __ __ __ __ __ __ __
 72
    65
 73
     2
 40
3.000000
 49
1.000000
 49
-2.000000
  0
LTYPE
  2
MTCH
 70
    64
  3
_____ _ _ _____ _ _ _____ _ _ _____ _ _ ____  
 72
    65
 73
     6
 40
80.000000
 49
66.000000
 49
-2.000000
 49
4.000000
 49
-2.000000
 49
4.000000
 49
-2.000000
  0
ENDTAB
  0
TABLE
  2
LAYER
 70
     1
  0
LAYER
  2
0
 70
     0
 62
     7
  6
CONTINUOUS
  0
ENDTAB
  0
TABLE
  2
STYLE
 70
     1
  0
STYLE
  2
STANDARD
 70
     0
 40
0.000000
 41
1.000000
 50
0.000000
 71
     0
 42
0.200000
  3
txt
  4
BIGFONT
  0
ENDTAB
  0
TABLE
  2
VIEW
 70
     0
  0
ENDTAB
  0
ENDSEC
  0
SECTION
  2
BLOCKS
  0
ENDSEC
  0
SECTION
  2
ENTITIES
  0
POINT
  8
0
 10
-221.250000
 20
189.500000
  0
POINT
  8
0
 10
-221.250000
 20
181.500000
  0
LINE
  8
0
  6
CENTER
 62
     2
 10
127.297646
 20
-173.362610
 11
127.297646
 21
-180.505829
  0
LINE
  8
0
  6
CENTER
 62
     2
 10
39.297646
 20
-162.557159
 11
39.297646
 21
-176.047180
  0
LINE
  8
0
  6
CENTER
 62
     2
 10
31.297646
 20
-144.567154
 11
31.297646
 21
-157.557159
  0
LINE
  8
0
  6
CENTER
 62
     2
 10
50.297646
 20
-157.557159
 11
50.297646
 21
-144.567154
  0
LINE
  8
0
  6
CENTER
 62
     2
 10
58.297646
 20
-176.047180
 11
58.297646
 21
-162.557159
  0
LINE
  8
0
  6
CENTER
 62
     2
 10
69.297646
 20
-157.557159
 11
69.297646
 21
-144.567154
  0
LINE
  8
0
  6
CENTER
 62
     2
 10
77.297646
 20
-176.047180
 11
77.297646
 21
-162.557159
  0
LINE
  8
0
  6
CENTER
 62
     2
 10
88.297646
 20
-157.557159
 11
88.297646
 21
-144.567154
  0
LINE
  8
0
  6
CENTER
 62
     2
 10
96.297646
 20
-176.047180
 11
96.297646
 21
-162.557159
  0
LINE
  8
0
  6
CENTER
 62
     2
 10
107.297646
 20
-157.557159
 11
107.297646
 21
-144.567154
  0
LINE
  8
0
  6
CENTER
 62
     2
 10
115.297646
 20
-176.047180
 11
115.297646
 21
-162.557159
  0
LINE
  8
0
 62
     4
 10
112.197647
 20
-150.057159
 11
112.197647
 21
-152.057159
  0
LINE
  8
0
 62
     4
 10
110.397644
 20
-168.557175
 11
110.397644
 21
-170.557175
  0
LINE
  8
0
 62
     4
 10
120.197647
 20
-168.557175
 11
120.197647
 21
-170.557175
  0
LINE
  8
0
 62
     4
 10
102.397644
 20
-150.057159
 11
102.397644
 21
-152.057159
  0
LINE
  8
0
 62
     4
 10
93.197647
 20
-150.057159
 11
93.197647
 21
-152.057159
  0
LINE
  8
0
 62
     4
 10
91.397644
 20
-168.557175
 11
91.397644
 21
-170.557175
  0
LINE
  8
0
 62
     4
 10
101.197647
 20
-168.557175
 11
101.197647
 21
-170.557175
  0
LINE
  8
0
 62
     4
 10
83.397644
 20
-150.057159
 11
83.397644
 21
-152.057159
  0
LINE
  8
0
 62
     4
 10
74.197647
 20
-150.057159
 11
74.197647
 21
-152.057159
  0
LINE
  8
0
 62
     4
 10
72.397644
 20
-168.557175
 11
72.397644
 21
-170.557175
  0
LINE
  8
0
 62
     4
 10
82.197647
 20
-168.557175
 11
82.197647
 21
-170.557175
  0
LINE
  8
0
 62
     4
 10
64.397644
 20
-150.057159
 11
64.397644
 21
-152.057159
  0
LINE
  8
0
 62
     4
 10
55.197647
 20
-150.057159
 11
55.197647
 21
-152.057159
  0
LINE
  8
0
 62
     4
 10
53.397644
 20
-168.557175
 11
53.397644
 21
-170.557175
  0
LINE
  8
0
 62
     4
 10
63.197647
 20
-168.557175
 11
63.197647
 21
-170.557175
  0
LINE
  8
0
 62
     4
 10
45.397644
 20
-150.057159
 11
45.397644
 21
-152.057159
  0
LINE
  8
0
 62
     4
 10
36.197647
 20
-150.057159
 11
36.197647
 21
-152.057159
  0
LINE
  8
0
 10
26.397646
 20
-150.057159
 11
26.397646
 21
-152.057159
  0
LINE
  8
0
 62
     4
 10
44.197647
 20
-168.557175
 11
44.197647
 21
-170.557175
  0
LINE
  8
0
 62
     4
 10
34.397644
 20
-168.557175
 11
34.397644
 21
-170.557175
  0
LINE
  8
0
  6
CENTER
 62
     2
 10
24.297646
 20
-151.057159
 11
116.987358
 21
-151.057159
  0
LINE
  8
0
  6
CENTER
 62
     2
 10
32.297646
 20
-169.557159
 11
122.297646
 21
-169.557159
  0
LINE
  8
0
 10
39.297646
 20
-135.057159
 11
40.667645
 21
-135.557159
  0
LINE
  8
0
 10
45.797646
 20
-135.557159
 11
40.667648
 21
-135.557159
  0
LINE
  8
0
 10
45.797646
 20
-135.557159
 11
45.797646
 21
-136.557159
  0
LINE
  8
0
 10
28.797646
 20
-136.557159
 11
45.797646
 21
-136.557159
  0
LINE
  8
0
 10
28.797646
 20
-135.557159
 11
28.797646
 21
-136.557159
  0
LINE
  8
0
 10
33.927647
 20
-135.557159
 11
28.797646
 21
-135.557159
  0
LINE
  8
0
 10
33.927647
 20
-135.557159
 11
35.297646
 21
-135.057159
  0
LINE
  8
0
 10
39.297646
 20
-135.057159
 11
35.297646
 21
-135.057159
  0
LINE
  8
0
 10
58.297646
 20
-135.057159
 11
59.667645
 21
-135.557159
  0
LINE
  8
0
 10
64.797646
 20
-135.557159
 11
59.667645
 21
-135.557159
  0
LINE
  8
0
 10
64.797646
 20
-135.557159
 11
64.797646
 21
-136.557159
  0
LINE
  8
0
 10
47.797646
 20
-136.557159
 11
64.797646
 21
-136.557159
  0
LINE
  8
0
 10
47.797646
 20
-135.557159
 11
47.797646
 21
-136.557159
  0
LINE
  8
0
 10
52.927643
 20
-135.557159
 11
47.797646
 21
-135.557159
  0
LINE
  8
0
 10
52.927647
 20
-135.557159
 11
54.297646
 21
-135.057159
  0
LINE
  8
0
 10
58.297646
 20
-135.057159
 11
54.297646
 21
-135.057159
  0
LINE
  8
0
 10
18.297646
 20
-176.557159
 11
132.297638
 21
-176.557159
  0
LINE
  8
0
 10
47.797646
 20
-114.757156
 11
50.297646
 21
-114.757156
  0
LINE
  8
0
 10
53.497646
 20
-111.557159
 11
53.497646
 21
-109.057159
  0
LINE
  8
0
 10
59.097645
 20
-135.057159
 11
59.097645
 21
-132.557159
  0
LINE
  8
0
 10
62.297646
 20
-129.357162
 11
64.797646
 21
-129.357162
  0
LINE
  8
0
 10
47.797646
 20
-108.557159
 11
64.797646
 21
-108.557159
  0
LINE
  8
0
 10
47.297646
 20
-135.057159
 11
47.297646
 21
-109.057159
  0
LINE
  8
0
 10
65.297646
 20
-135.057159
 11
65.297646
 21
-109.057159
  0
LINE
  8
0
 10
49.230145
 20
-112.619659
 11
51.355141
 21
-110.494659
  0
LINE
  8
0
 10
49.204849
 20
-110.524307
 11
51.352646
 21
-112.622162
  0
LINE
  8
0
 10
61.204857
 20
-131.489777
 11
63.352650
 21
-133.587631
  0
LINE
  8
0
 10
61.230145
 20
-133.585129
 11
63.355145
 21
-131.460129
  0
LINE
  8
0
 10
47.297646
 20
-103.157158
 11
47.297646
 21
-109.057159
  0
LINE
  8
0
 10
65.297646
 20
-103.157158
 11
65.297646
 21
-109.057159
  0
LINE
  8
0
 10
59.664227
 20
-103.157158
 11
59.664227
 21
-108.057159
  0
LINE
  8
0
 10
52.931065
 20
-103.157158
 11
52.931065
 21
-108.057159
  0
LINE
  8
0
 10
54.547646
 20
-103.157158
 11
54.547646
 21
-108.057159
  0
LINE
  8
0
 10
58.047646
 20
-103.157158
 11
58.047646
 21
-108.057159
  0
LINE
  8
0
 10
47.697647
 20
-102.757156
 11
64.897644
 21
-102.757156
  0
LINE
  8
0
 10
51.297646
 20
-102.557159
 11
51.297646
 21
-102.757156
  0
LINE
  8
0
 10
61.297646
 20
-102.557159
 11
61.297646
 21
-102.757156
  0
LINE
  8
0
 10
60.997646
 20
-102.257156
 11
51.597645
 21
-102.257156
  0
LINE
  8
0
  6
CENTER
 62
     2
 10
56.297646
 20
-137.557159
 11
56.297646
 21
-100.121109
  0
LINE
  8
0
 10
41.997646
 20
-102.257156
 11
32.597645
 21
-102.257156
  0
LINE
  8
0
 10
42.297646
 20
-102.557159
 11
42.297646
 21
-102.757156
  0
LINE
  8
0
 10
32.297646
 20
-102.557159
 11
32.297646
 21
-102.757156
  0
LINE
  8
0
 10
28.697645
 20
-102.757156
 11
45.897644
 21
-102.757156
  0
LINE
  8
0
 10
39.047646
 20
-103.157158
 11
39.047646
 21
-108.057159
  0
LINE
  8
0
 10
35.547646
 20
-103.157158
 11
35.547646
 21
-108.057159
  0
LINE
  8
0
 10
33.931065
 20
-103.157158
 11
33.931065
 21
-108.057159
  0
LINE
  8
0
 10
40.664227
 20
-103.157158
 11
40.664227
 21
-108.057159
  0
LINE
  8
0
 10
46.297646
 20
-103.157158
 11
46.297646
 21
-109.057159
  0
LINE
  8
0
 10
28.297646
 20
-103.157158
 11
28.297646
 21
-109.057159
  0
LINE
  8
0
  6
CENTER
 62
     2
 10
94.297646
 20
-136.042160
 11
94.297646
 21
-100.121109
  0
LINE
  8
0
 62
     4
 10
89.297646
 20
-102.557159
 11
89.297646
 21
-134.257156
  0
LINE
  8
0
 62
     4
 10
99.297646
 20
-102.557159
 11
99.297646
 21
-134.257156
  0
LINE
  8
0
 62
     4
 10
98.504745
 20
-126.464256
 11
97.090538
 21
-125.050056
  0
LINE
  8
0
 62
     4
 10
98.504753
 20
-125.050056
 11
97.090538
 21
-126.464264
  0
LINE
  8
0
 62
     4
 10
90.090530
 20
-125.050049
 11
91.504745
 21
-126.464256
  0
LINE
  8
0
 62
     4
 10
90.090530
 20
-126.464256
 11
91.504745
 21
-125.050041
  0
LINE
  8
0
 62
     4
 10
96.123161
 20
-123.707161
 11
92.472130
 21
-123.707161
  0
LINE
  8
0
 62
     4
 10
96.123161
 20
-124.307159
 11
92.472130
 21
-124.307159
  0
LINE
  8
0
  6
CENTER
 62
     2
 10
96.797646
 20
-124.007156
 11
91.797646
 21
-124.007156
  0
LINE
  8
0
 62
     4
 10
89.297646
 20
-124.157158
 11
90.797646
 21
-124.157158
  0
LINE
  8
0
 62
     4
 10
90.797646
 20
-127.357162
 11
89.297646
 21
-127.357162
  0
LINE
  8
0
 62
     4
 10
99.297646
 20
-127.357162
 11
97.797646
 21
-127.357162
  0
LINE
  8
0
 62
     4
 10
97.797646
 20
-124.157158
 11
99.297646
 21
-124.157158
  0
LINE
  8
0
 62
     4
 10
99.297646
 20
-119.857162
 11
98.997643
 21
-119.857162
  0
LINE
  8
0
 62
     4
 10
89.297646
 20
-120.355240
 11
99.297646
 21
-120.355240
  0
LINE
  8
0
 62
     4
 10
91.647644
 20
-127.857162
 11
89.297646
 21
-127.857162
  0
LINE
  8
0
 62
     4
 10
92.897644
 20
-126.607162
 11
95.697647
 21
-126.607162
  0
LINE
  8
0
 62
     4
 10
96.947639
 20
-127.857162
 11
95.697632
 21
-126.607155
  0
LINE
  8
0
 62
     4
 10
99.297646
 20
-127.857162
 11
96.947647
 21
-127.857162
  0
LINE
  8
0
 62
     4
 10
93.153275
 20
-127.047974
 11
95.442017
 21
-127.047974
  0
LINE
  8
0
 62
     4
 10
91.903275
 20
-128.297974
 11
89.297646
 21
-128.297974
  0
LINE
  8
0
 62
     4
 10
99.297646
 20
-128.297974
 11
96.692017
 21
-128.297974
  0
LINE
  8
0
 62
     4
 10
95.442009
 20
-127.047974
 11
96.692009
 21
-128.297974
  0
LINE
  8
0
 62
     4
 10
99.297646
 20
-121.166344
 11
89.297646
 21
-121.166344
  0
LINE
  8
0
 62
     4
 10
95.442017
 20
-127.047974
 11
95.697647
 21
-126.607162
  0
LINE
  8
0
 62
     4
 10
93.153275
 20
-127.047974
 11
91.903275
 21
-128.297974
  0
LINE
  8
0
 62
     4
 10
91.647636
 20
-127.857155
 11
92.897636
 21
-126.607155
  0
LINE
  8
0
 62
     4
 10
93.153282
 20
-127.047981
 11
92.897644
 21
-126.607162
  0
LINE
  8
0
 62
     4
 10
96.947647
 20
-127.857162
 11
96.692017
 21
-128.297974
  0
LINE
  8
0
 62
     4
 10
91.903282
 20
-128.297989
 11
91.647644
 21
-127.857162
  0
LINE
  8
0
 62
     4
 10
97.097649
 20
-123.457161
 11
98.597649
 21
-123.457161
  0
LINE
  8
0
 62
     4
 10
97.097649
 20
-121.957161
 11
98.597649
 21
-121.957161
  0
LINE
  8
0
 62
     4
 10
98.597649
 20
-121.957161
 11
98.597649
 21
-123.457161
  0
LINE
  8
0
 62
     4
 10
97.097649
 20
-121.957161
 11
97.097649
 21
-123.457161
  0
LINE
  8
0
 62
     1
 10
92.797646
 20
-107.257156
 11
92.797646
 21
-102.257156
  0
LINE
  8
0
 62
     1
 10
92.797646
 20
-107.257156
 11
95.797646
 21
-107.257156
  0
LINE
  8
0
 62
     1
 10
95.797646
 20
-107.257156
 11
95.797646
 21
-102.257156
  0
LINE
  8
0
 62
     4
 10
99.297646
 20
-119.757156
 11
98.997643
 21
-119.757156
  0
LINE
  8
0
 62
     4
 10
98.997643
 20
-102.257156
 11
89.597649
 21
-102.257156
  0
LINE
  8
0
 62
     4
 10
89.597649
 20
-114.457161
 11
91.797646
 21
-114.457161
  0
LINE
  8
0
 62
     4
 10
91.397644
 20
-115.457161
 11
91.797646
 21
-115.457161
  0
LINE
  8
0
 62
     4
 10
91.397644
 20
-115.457161
 11
91.397644
 21
-114.457161
  0
LINE
  8
0
 62
     4
 10
97.197647
 20
-115.457161
 11
97.197647
 21
-114.457161
  0
LINE
  8
0
 62
     4
 10
91.397644
 20
-114.957161
 11
97.197647
 21
-114.957161
  0
LINE
  8
0
 62
     4
 10
96.797646
 20
-113.457161
 11
96.797646
 21
-115.957161
  0
LINE
  8
0
 62
     4
 10
91.797646
 20
-113.457161
 11
91.797646
 21
-115.957161
  0
LINE
  8
0
 62
     4
 10
97.787636
 20
-116.457161
 11
97.911636
 21
-118.345161
  0
LINE
  8
0
 62
     4
 10
97.387642
 20
-118.557159
 11
97.387642
 21
-119.057159
  0
LINE
  8
0
 62
     4
 10
96.287643
 20
-119.057159
 11
97.387642
 21
-119.057159
  0
LINE
  8
0
 62
     4
 10
96.287643
 20
-118.557159
 11
96.287643
 21
-119.057159
  0
LINE
  8
0
 62
     4
 10
95.961647
 20
-118.557159
 11
97.711647
 21
-118.557159
  0
LINE
  8
0
 62
     4
 10
95.761650
 20
-118.345161
 11
95.887650
 21
-116.457161
  0
LINE
  8
0
 62
     4
 10
95.887642
 20
-116.457161
 11
97.787643
 21
-116.457161
  0
LINE
  8
0
 62
     4
 10
94.697647
 20
-117.857162
 11
93.897644
 21
-117.857162
  0
LINE
  8
0
 62
     4
 10
94.697647
 20
-117.057159
 11
94.697647
 21
-117.857162
  0
LINE
  8
0
 62
     4
 10
94.697647
 20
-117.057159
 11
93.897644
 21
-117.057159
  0
LINE
  8
0
 62
     4
 10
93.897644
 20
-117.057159
 11
93.897644
 21
-117.857162
  0
LINE
  8
0
 62
     4
 10
95.247643
 20
-116.457161
 11
95.371643
 21
-118.345161
  0
LINE
  8
0
 62
     4
 10
94.847649
 20
-118.557159
 11
94.847649
 21
-119.057159
  0
LINE
  8
0
 62
     4
 10
93.747643
 20
-119.057159
 11
94.847649
 21
-119.057159
  0
LINE
  8
0
 62
     4
 10
93.747643
 20
-118.557159
 11
93.747643
 21
-119.057159
  0
LINE
  8
0
 62
     4
 10
93.421646
 20
-118.557159
 11
95.171646
 21
-118.557159
  0
LINE
  8
0
 62
     4
 10
93.221649
 20
-118.345161
 11
93.347649
 21
-116.457161
  0
LINE
  8
0
 62
     4
 10
93.347649
 20
-116.457161
 11
95.247643
 21
-116.457161
  0
LINE
  8
0
 62
     4
 10
90.681648
 20
-118.345154
 11
90.807648
 21
-116.457153
  0
LINE
  8
0
 62
     4
 10
92.707649
 20
-116.457161
 11
92.831642
 21
-118.345169
  0
LINE
  8
0
 62
     4
 10
97.997643
 20
-115.957161
 11
97.997643
 21
-114.957161
  0
LINE
  8
0
 62
     4
 10
98.997643
 20
-114.957161
 11
97.997643
 21
-114.957161
  0
LINE
  8
0
 62
     4
 10
90.597649
 20
-115.957161
 11
90.597649
 21
-114.957161
  0
LINE
  8
0
 62
     4
 10
89.597649
 20
-114.957161
 11
90.597649
 21
-114.957161
  0
LINE
  8
0
 62
     4
 10
93.047646
 20
-114.957161
 11
93.047646
 21
-115.957161
  0
LINE
  8
0
 62
     4
 10
95.547646
 20
-114.957161
 11
95.547646
 21
-115.957161
  0
LINE
  8
0
 62
     4
 10
91.207649
 20
-119.057159
 11
92.307648
 21
-119.057159
  0
LINE
  8
0
 62
     4
 10
90.881645
 20
-118.557159
 11
92.631645
 21
-118.557159
  0
LINE
  8
0
 62
     4
 10
90.807648
 20
-116.457161
 11
92.707649
 21
-116.457161
  0
LINE
  8
0
 62
     4
 10
92.307648
 20
-118.557159
 11
92.307648
 21
-119.057159
  0
LINE
  8
0
 62
     4
 10
91.207649
 20
-118.557159
 11
91.207649
 21
-119.057159
  0
LINE
  8
0
 62
     4
 10
89.597649
 20
-120.257156
 11
98.997643
 21
-120.257156
  0
LINE
  8
0
 62
     4
 10
98.997643
 20
-120.257156
 11
98.997643
 21
-114.957161
  0
LINE
  8
0
 62
     4
 10
89.597649
 20
-120.257156
 11
89.597649
 21
-114.957161
  0
LINE
  8
0
 62
     4
 10
90.597649
 20
-115.957161
 11
97.997643
 21
-115.957161
  0
LINE
  8
0
 62
     4
 10
91.797646
 20
-113.457161
 11
96.797646
 21
-113.457161
  0
LINE
  8
0
 62
     4
 10
91.797646
 20
-114.657158
 11
96.797646
 21
-114.657158
  0
LINE
  8
0
 62
     4
 10
96.797646
 20
-115.457161
 11
97.197647
 21
-115.457161
  0
LINE
  8
0
 62
     4
 10
96.797646
 20
-114.457161
 11
98.997643
 21
-114.457161
  0
LINE
  8
0
 62
     4
 10
89.597649
 20
-119.857162
 11
89.297646
 21
-119.857162
  0
LINE
  8
0
 62
     4
 10
89.597649
 20
-119.757156
 11
89.297646
 21
-119.757156
  0
LINE
  8
0
 62
     4
 10
99.297646
 20
-134.257156
 11
89.297646
 21
-134.257156
  0
LINE
  8
0
 10
99.547646
 20
-129.652420
 11
99.547646
 21
-102.757156
  0
LINE
  8
0
 10
89.047646
 20
-134.457153
 11
89.047646
 21
-117.461899
  0
LINE
  8
0
 10
103.297646
 20
-135.557159
 11
85.297646
 21
-135.557159
  0
LINE
  8
0
 10
103.297646
 20
-102.757156
 11
99.297646
 21
-102.757156
  0
LINE
  8
0
 10
103.297646
 20
-135.557159
 11
103.297646
 21
-102.757156
  0
LINE
  8
0
 10
85.297646
 20
-135.557159
 11
85.297646
 21
-102.757156
  0
LINE
  8
0
 10
88.297646
 20
-134.757156
 11
88.297646
 21
-117.557159
  0
LINE
  8
0
 10
97.297646
 20
-135.057159
 11
88.597649
 21
-135.057159
  0
LINE
  8
0
 10
88.297646
 20
-111.557159
 11
85.297646
 21
-111.557159
  0
LINE
  8
0
 10
88.297646
 20
-117.557159
 11
85.297646
 21
-117.557159
  0
LINE
  8
0
 10
100.297646
 20
-129.557159
 11
103.297646
 21
-129.557159
  0
LINE
  8
0
 10
97.297646
 20
-134.257156
 11
97.297646
 21
-135.557159
  0
LINE
  8
0
 10
88.297646
 20
-111.557159
 11
88.297646
 21
-102.757156
  0
LINE
  8
0
 10
89.047646
 20
-111.652420
 11
89.047646
 21
-102.757156
  0
LINE
  8
0
 10
100.297646
 20
-129.557159
 11
100.297646
 21
-102.757156
  0
LINE
  8
0
 10
89.297646
 20
-102.757156
 11
85.297646
 21
-102.757156
  0
LINE
  8
0
 10
97.297646
 20
-134.457153
 11
88.670876
 21
-134.457153
  0
LINE
  8
0
 10
86.883423
 20
-113.142937
 11
89.297638
 21
-115.557152
  0
LINE
  8
0
 10
86.883423
 20
-115.971367
 11
89.297638
 21
-113.557152
  0
LINE
  8
0
 10
99.297646
 20
-131.557159
 11
101.711861
 21
-133.971375
  0
LINE
  8
0
 10
99.297646
 20
-133.557159
 11
101.711861
 21
-131.142944
  0
LINE
  8
0
 10
80.297646
 20
-133.557159
 11
82.711861
 21
-131.142944
  0
LINE
  8
0
 10
80.297646
 20
-131.557159
 11
82.711861
 21
-133.971375
  0
LINE
  8
0
 10
67.883423
 20
-115.971367
 11
70.297638
 21
-113.557152
  0
LINE
  8
0
 10
67.883430
 20
-113.142937
 11
70.297646
 21
-115.557152
  0
LINE
  8
0
 10
78.297646
 20
-134.457153
 11
69.670883
 21
-134.457153
  0
LINE
  8
0
 10
70.297646
 20
-102.757156
 11
66.297646
 21
-102.757156
  0
LINE
  8
0
 10
81.297646
 20
-129.557159
 11
81.297646
 21
-102.757156
  0
LINE
  8
0
 10
70.047646
 20
-111.652420
 11
70.047646
 21
-102.757156
  0
LINE
  8
0
 10
69.297646
 20
-111.557159
 11
69.297646
 21
-102.757156
  0
LINE
  8
0
 10
78.297646
 20
-134.257156
 11
78.297646
 21
-135.557159
  0
LINE
  8
0
 10
81.297646
 20
-129.557159
 11
84.297646
 21
-129.557159
  0
LINE
  8
0
 10
69.297646
 20
-117.557159
 11
66.297646
 21
-117.557159
  0
LINE
  8
0
 10
69.297646
 20
-111.557159
 11
66.297646
 21
-111.557159
  0
LINE
  8
0
 10
78.297646
 20
-135.057159
 11
69.597641
 21
-135.057159
  0
LINE
  8
0
 10
69.297646
 20
-134.757156
 11
69.297646
 21
-117.557159
  0
LINE
  8
0
 10
66.297646
 20
-135.557159
 11
66.297646
 21
-102.757156
  0
LINE
  8
0
 10
84.297646
 20
-135.557159
 11
84.297646
 21
-102.757156
  0
LINE
  8
0
 10
84.297646
 20
-102.757156
 11
80.297646
 21
-102.757156
  0
LINE
  8
0
 10
84.297646
 20
-135.557159
 11
66.297646
 21
-135.557159
  0
LINE
  8
0
 10
70.047646
 20
-134.457153
 11
70.047646
 21
-117.461899
  0
LINE
  8
0
 10
80.547646
 20
-129.652420
 11
80.547646
 21
-102.757156
  0
LINE
  8
0
 62
     4
 10
80.297646
 20
-134.257156
 11
70.297646
 21
-134.257156
  0
LINE
  8
0
 62
     4
 10
70.597641
 20
-119.757156
 11
70.297646
 21
-119.757156
  0
LINE
  8
0
 62
     4
 10
70.597641
 20
-119.857162
 11
70.297646
 21
-119.857162
  0
LINE
  8
0
 62
     4
 10
77.797646
 20
-114.457161
 11
79.997650
 21
-114.457161
  0
LINE
  8
0
 62
     4
 10
77.797646
 20
-115.457161
 11
78.197647
 21
-115.457161
  0
LINE
  8
0
 62
     4
 10
72.797646
 20
-114.657158
 11
77.797646
 21
-114.657158
  0
LINE
  8
0
 62
     4
 10
72.797646
 20
-113.457161
 11
77.797646
 21
-113.457161
  0
LINE
  8
0
 62
     4
 10
71.597641
 20
-115.957161
 11
78.997650
 21
-115.957161
  0
LINE
  8
0
 62
     4
 10
70.597641
 20
-120.257156
 11
70.597641
 21
-114.957161
  0
LINE
  8
0
 62
     4
 10
79.997650
 20
-120.257156
 11
79.997650
 21
-114.957161
  0
LINE
  8
0
 62
     4
 10
70.597641
 20
-120.257156
 11
79.997650
 21
-120.257156
  0
LINE
  8
0
 62
     4
 10
72.207642
 20
-118.557159
 11
72.207642
 21
-119.057159
  0
LINE
  8
0
 62
     4
 10
73.307648
 20
-118.557159
 11
73.307648
 21
-119.057159
  0
LINE
  8
0
 62
     4
 10
71.807648
 20
-116.457161
 11
73.707642
 21
-116.457161
  0
LINE
  8
0
 62
     4
 10
71.881645
 20
-118.557159
 11
73.631645
 21
-118.557159
  0
LINE
  8
0
 62
     4
 10
72.207642
 20
-119.057159
 11
73.307648
 21
-119.057159
  0
LINE
  8
0
 62
     4
 10
76.547646
 20
-114.957161
 11
76.547646
 21
-115.957161
  0
LINE
  8
0
 62
     4
 10
74.047646
 20
-114.957161
 11
74.047646
 21
-115.957161
  0
LINE
  8
0
 62
     4
 10
70.597641
 20
-114.957161
 11
71.597641
 21
-114.957161
  0
LINE
  8
0
 62
     4
 10
71.597641
 20
-115.957161
 11
71.597641
 21
-114.957161
  0
LINE
  8
0
 62
     4
 10
79.997650
 20
-114.957161
 11
78.997650
 21
-114.957161
  0
LINE
  8
0
 62
     4
 10
78.997650
 20
-115.957161
 11
78.997650
 21
-114.957161
  0
LINE
  8
0
 62
     4
 10
73.707649
 20
-116.457161
 11
73.831650
 21
-118.345161
  0
LINE
  8
0
 62
     4
 10
71.681648
 20
-118.345161
 11
71.807648
 21
-116.457161
  0
LINE
  8
0
 62
     4
 10
74.347641
 20
-116.457161
 11
76.247650
 21
-116.457161
  0
LINE
  8
0
 62
     4
 10
74.221649
 20
-118.345161
 11
74.347649
 21
-116.457169
  0
LINE
  8
0
 62
     4
 10
74.421646
 20
-118.557159
 11
76.171646
 21
-118.557159
  0
LINE
  8
0
 62
     4
 10
74.747650
 20
-118.557159
 11
74.747650
 21
-119.057159
  0
LINE
  8
0
 62
     4
 10
74.747650
 20
-119.057159
 11
75.847641
 21
-119.057159
  0
LINE
  8
0
 62
     4
 10
75.847641
 20
-118.557159
 11
75.847641
 21
-119.057159
  0
LINE
  8
0
 62
     4
 10
76.247643
 20
-116.457161
 11
76.371643
 21
-118.345161
  0
LINE
  8
0
 62
     4
 10
74.897644
 20
-117.057159
 11
74.897644
 21
-117.857162
  0
LINE
  8
0
 62
     4
 10
75.697647
 20
-117.057159
 11
74.897644
 21
-117.057159
  0
LINE
  8
0
 62
     4
 10
75.697647
 20
-117.057159
 11
75.697647
 21
-117.857162
  0
LINE
  8
0
 62
     4
 10
75.697647
 20
-117.857162
 11
74.897644
 21
-117.857162
  0
LINE
  8
0
 62
     4
 10
76.887650
 20
-116.457161
 11
78.787643
 21
-116.457161
  0
LINE
  8
0
 62
     4
 10
76.761635
 20
-118.345161
 11
76.887642
 21
-116.457161
  0
LINE
  8
0
 62
     4
 10
76.961647
 20
-118.557159
 11
78.711647
 21
-118.557159
  0
LINE
  8
0
 62
     4
 10
77.287643
 20
-118.557159
 11
77.287643
 21
-119.057159
  0
LINE
  8
0
 62
     4
 10
77.287643
 20
-119.057159
 11
78.387650
 21
-119.057159
  0
LINE
  8
0
 62
     4
 10
78.387650
 20
-118.557159
 11
78.387650
 21
-119.057159
  0
LINE
  8
0
 62
     4
 10
78.787636
 20
-116.457153
 11
78.911644
 21
-118.345161
  0
LINE
  8
0
 62
     4
 10
72.797646
 20
-113.457161
 11
72.797646
 21
-115.957161
  0
LINE
  8
0
 62
     4
 10
77.797646
 20
-113.457161
 11
77.797646
 21
-115.957161
  0
LINE
  8
0
 62
     4
 10
72.397644
 20
-114.957161
 11
78.197647
 21
-114.957161
  0
LINE
  8
0
 62
     4
 10
78.197647
 20
-115.457161
 11
78.197647
 21
-114.457161
  0
LINE
  8
0
 62
     4
 10
72.397644
 20
-115.457161
 11
72.397644
 21
-114.457161
  0
LINE
  8
0
 62
     4
 10
72.397644
 20
-115.457161
 11
72.797646
 21
-115.457161
  0
LINE
  8
0
 62
     4
 10
70.597641
 20
-114.457161
 11
72.797646
 21
-114.457161
  0
LINE
  8
0
 62
     4
 10
79.997650
 20
-102.257156
 11
70.597641
 21
-102.257156
  0
LINE
  8
0
 62
     4
 10
80.297646
 20
-119.757156
 11
79.997650
 21
-119.757156
  0
LINE
  8
0
 62
     1
 10
76.797646
 20
-107.257156
 11
76.797646
 21
-102.257156
  0
LINE
  8
0
 62
     1
 10
73.797646
 20
-107.257156
 11
76.797646
 21
-107.257156
  0
LINE
  8
0
 62
     1
 10
73.797646
 20
-107.257156
 11
73.797646
 21
-102.257156
  0
LINE
  8
0
 62
     4
 10
78.097641
 20
-121.957161
 11
78.097641
 21
-123.457161
  0
LINE
  8
0
 62
     4
 10
79.597641
 20
-121.957161
 11
79.597641
 21
-123.457161
  0
LINE
  8
0
 62
     4
 10
78.097641
 20
-121.957161
 11
79.597641
 21
-121.957161
  0
LINE
  8
0
 62
     4
 10
78.097641
 20
-123.457161
 11
79.597641
 21
-123.457161
  0
LINE
  8
0
 62
     4
 10
72.903275
 20
-128.297974
 11
72.647644
 21
-127.857162
  0
LINE
  8
0
 62
     4
 10
77.947655
 20
-127.857162
 11
77.692024
 21
-128.297974
  0
LINE
  8
0
 62
     4
 10
74.153275
 20
-127.047974
 11
73.897644
 21
-126.607162
  0
LINE
  8
0
 62
     4
 10
72.647644
 20
-127.857155
 11
73.897636
 21
-126.607162
  0
LINE
  8
0
 62
     4
 10
74.153275
 20
-127.047981
 11
72.903275
 21
-128.297974
  0
LINE
  8
0
 62
     4
 10
76.442009
 20
-127.047974
 11
76.697639
 21
-126.607162
  0
LINE
  8
0
 62
     4
 10
80.297646
 20
-121.166344
 11
70.297646
 21
-121.166344
  0
LINE
  8
0
 62
     4
 10
76.442017
 20
-127.047981
 11
77.692017
 21
-128.297974
  0
LINE
  8
0
 62
     4
 10
80.297646
 20
-128.297974
 11
77.692017
 21
-128.297974
  0
LINE
  8
0
 62
     4
 10
72.903275
 20
-128.297974
 11
70.297646
 21
-128.297974
  0
LINE
  8
0
 62
     4
 10
74.153275
 20
-127.047974
 11
76.442017
 21
-127.047974
  0
LINE
  8
0
 62
     4
 10
80.297646
 20
-127.857162
 11
77.947647
 21
-127.857162
  0
LINE
  8
0
 62
     4
 10
77.947639
 20
-127.857155
 11
76.697647
 21
-126.607162
  0
LINE
  8
0
 62
     4
 10
73.897644
 20
-126.607162
 11
76.697647
 21
-126.607162
  0
LINE
  8
0
 62
     4
 10
72.647644
 20
-127.857162
 11
70.297646
 21
-127.857162
  0
LINE
  8
0
 62
     4
 10
70.297646
 20
-120.355240
 11
80.297646
 21
-120.355240
  0
LINE
  8
0
 62
     4
 10
80.297646
 20
-119.857162
 11
79.997650
 21
-119.857162
  0
LINE
  8
0
 62
     4
 10
78.797646
 20
-124.157158
 11
80.297646
 21
-124.157158
  0
LINE
  8
0
 62
     4
 10
80.297646
 20
-127.357162
 11
78.797646
 21
-127.357162
  0
LINE
  8
0
 62
     4
 10
71.797646
 20
-127.357162
 11
70.297646
 21
-127.357162
  0
LINE
  8
0
 62
     4
 10
70.297646
 20
-124.157158
 11
71.797646
 21
-124.157158
  0
LINE
  8
0
  6
CENTER
 62
     2
 10
77.797646
 20
-124.007156
 11
72.797646
 21
-124.007156
  0
LINE
  8
0
 62
     4
 10
77.123154
 20
-124.307159
 11
73.472137
 21
-124.307159
  0
LINE
  8
0
 62
     4
 10
77.123154
 20
-123.707161
 11
73.472137
 21
-123.707161
  0
LINE
  8
0
 62
     4
 10
71.090538
 20
-126.464256
 11
72.504745
 21
-125.050049
  0
LINE
  8
0
 62
     4
 10
71.090538
 20
-125.050049
 11
72.504745
 21
-126.464256
  0
LINE
  8
0
 62
     4
 10
79.504753
 20
-125.050049
 11
78.090538
 21
-126.464264
  0
LINE
  8
0
 62
     4
 10
79.504753
 20
-126.464264
 11
78.090538
 21
-125.050049
  0
LINE
  8
0
 62
     4
 10
80.297646
 20
-102.557159
 11
80.297646
 21
-134.257156
  0
LINE
  8
0
 62
     4
 10
70.297646
 20
-102.557159
 11
70.297646
 21
-134.257156
  0
LINE
  8
0
  6
CENTER
 62
     2
 10
75.297646
 20
-136.042160
 11
75.297646
 21
-100.121109
  0
LINE
  8
0
 10
42.230145
 20
-133.585129
 11
44.355145
 21
-131.460129
  0
LINE
  8
0
 10
42.204842
 20
-131.489777
 11
44.352638
 21
-133.587616
  0
LINE
  8
0
 10
30.204844
 20
-110.524307
 11
32.352646
 21
-112.622162
  0
LINE
  8
0
 10
30.230146
 20
-112.619659
 11
32.355148
 21
-110.494659
  0
LINE
  8
0
 10
46.297646
 20
-135.057159
 11
46.297646
 21
-109.057159
  0
LINE
  8
0
 10
28.297646
 20
-135.057159
 11
28.297646
 21
-109.057159
  0
LINE
  8
0
 10
28.797646
 20
-108.557159
 11
45.797646
 21
-108.557159
  0
LINE
  8
0
 10
43.297646
 20
-129.357162
 11
45.797646
 21
-129.357162
  0
LINE
  8
0
 10
40.097645
 20
-135.057159
 11
40.097645
 21
-132.557159
  0
LINE
  8
0
 10
34.497646
 20
-111.557159
 11
34.497646
 21
-109.057159
  0
LINE
  8
0
 10
28.797646
 20
-114.757156
 11
31.297646
 21
-114.757156
  0
LINE
  8
0
  6
CENTER
 62
     2
 10
37.297646
 20
-137.557159
 11
37.297646
 21
-100.121109
  0
LINE
  8
0
 10
121.797646
 20
-135.557159
 11
121.797646
 21
-136.557159
  0
LINE
  8
0
 10
104.797646
 20
-136.557159
 11
121.797646
 21
-136.557159
  0
LINE
  8
0
 10
104.797646
 20
-135.557159
 11
104.797646
 21
-136.557159
  0
LINE
  8
0
 62
     4
 10
104.797646
 20
-135.557159
 11
121.797646
 21
-135.557159
  0
LINE
  8
0
 10
102.797646
 20
-135.557159
 11
102.797646
 21
-136.557159
  0
LINE
  8
0
 10
85.797646
 20
-136.557159
 11
102.797646
 21
-136.557159
  0
LINE
  8
0
 10
85.797646
 20
-135.557159
 11
85.797646
 21
-136.557159
  0
LINE
  8
0
 10
85.797646
 20
-135.557159
 11
102.797646
 21
-135.557159
  0
LINE
  8
0
 10
83.797646
 20
-135.557159
 11
83.797646
 21
-136.557159
  0
LINE
  8
0
 10
66.797646
 20
-136.557159
 11
83.797646
 21
-136.557159
  0
LINE
  8
0
 10
66.797646
 20
-135.557159
 11
66.797646
 21
-136.557159
  0
LINE
  8
0
 10
66.797646
 20
-135.557159
 11
83.797646
 21
-135.557159
  0
LINE
  8
0
 62
     4
 10
103.797646
 20
-132.357162
 11
122.797646
 21
-132.357162
  0
LINE
  8
0
 62
     4
 10
116.797646
 20
-132.357162
 11
116.797646
 21
-131.857162
  0
LINE
  8
0
 62
     4
 10
116.797646
 20
-131.857162
 11
122.797646
 21
-131.857162
  0
LINE
  8
0
 62
     4
 10
122.797646
 20
-132.357162
 11
122.797646
 21
-131.857162
  0
LINE
  8
0
 62
     4
 10
122.597649
 20
-130.687164
 11
122.597649
 21
-131.857162
  0
LINE
  8
0
 62
     4
 10
116.997643
 20
-130.687164
 11
116.997643
 21
-131.857162
  0
LINE
  8
0
 62
     4
 10
104.297646
 20
-135.557159
 11
104.797646
 21
-135.557159
  0
LINE
  8
0
 62
     4
 10
122.297646
 20
-132.357162
 11
122.297646
 21
-135.557159
  0
LINE
  8
0
 62
     4
 10
104.297646
 20
-132.357162
 11
104.297646
 21
-135.557159
  0
LINE
  8
0
 62
     4
 10
121.797646
 20
-135.557159
 11
122.297646
 21
-135.557159
  0
LINE
  8
0
  6
CENTER
 62
     2
 10
113.297646
 20
-128.607162
 11
113.297646
 21
-139.168350
  0
LINE
  8
0
 10
132.297638
 20
-136.557159
 11
132.297638
 21
-176.557159
  0
LINE
  8
0
 10
18.297646
 20
-136.557159
 11
132.297638
 21
-136.557159
  0
LINE
  8
0
 10
18.297646
 20
-136.557159
 11
18.297646
 21
-176.557159
  0
LINE
  8
0
  6
CENTER
 62
     2
 10
23.297646
 20
-180.505829
 11
23.297646
 21
-173.362610
  0
LINE
  8
0
 62
     4
 10
109.797646
 20
-132.357162
 11
109.797646
 21
-131.857162
  0
LINE
  8
0
 62
     4
 10
103.797646
 20
-132.357162
 11
103.797646
 21
-131.857162
  0
LINE
  8
0
 62
     4
 10
109.597649
 20
-130.687164
 11
109.597649
 21
-131.857162
  0
LINE
  8
0
 62
     4
 10
103.997643
 20
-130.687164
 11
103.997643
 21
-131.857162
  0
LINE
  8
0
 62
     4
 10
109.797646
 20
-131.857162
 11
103.797646
 21
-131.857162
  0
LINE
  8
0
  6
CENTER
 62
     2
 10
-142.172791
 20
54.782051
 11
-122.877388
 21
54.782051
  0
LINE
  8
0
 62
     4
 10
-86.537399
 20
-22.983978
 11
-86.537399
 21
-29.517952
  0
LINE
  8
0
 62
     4
 10
-87.037392
 20
-22.117954
 11
-86.537392
 21
-22.983980
  0
LINE
  8
0
 62
     4
 10
-86.537399
 20
-29.517956
 11
-86.037392
 21
-29.806633
  0
LINE
  8
0
 62
     4
 10
-86.037399
 20
-29.806625
 11
-86.037399
 21
-30.517952
  0
LINE
  8
0
 62
     4
 10
-92.337395
 20
-26.417953
 11
-90.752396
 21
-26.417953
  0
LINE
  8
0
 62
     4
 10
-92.337395
 20
-26.517952
 11
-92.337395
 21
-30.517952
  0
LINE
  8
0
 62
     4
 10
-87.537399
 20
-26.517952
 11
-89.322395
 21
-26.517952
  0
LINE
  8
0
 62
     4
 10
-87.537399
 20
-26.417953
 11
-87.537399
 21
-31.517952
  0
LINE
  8
0
  6
PHANTOM
 62
     4
 10
-87.537399
 20
-27.317955
 11
-87.537399
 21
-28.816566
  0
LINE
  8
0
 62
     4
 10
-87.237640
 20
-30.517954
 11
-87.537399
 21
-28.817951
  0
LINE
  8
0
 62
     4
 10
-92.837395
 20
-31.517952
 11
-90.752396
 21
-31.517952
  0
LINE
  8
0
 62
     4
 10
-91.637390
 20
-26.417953
 11
-91.637390
 21
-26.517952
  0
LINE
  8
0
 62
     4
 10
-92.837395
 20
-30.806625
 11
-92.837395
 21
-31.517952
  0
LINE
  8
0
 62
     4
 10
-92.337395
 20
-30.517950
 11
-92.837395
 21
-30.806625
  0
LINE
  8
0
 62
     4
 10
-87.237640
 20
-30.517952
 11
-86.037399
 21
-30.517952
  0
LINE
  8
0
 62
     4
 10
-87.037399
 20
-26.417953
 11
-87.037399
 21
-20.917953
  0
LINE
  8
0
 62
     4
 10
-92.337395
 20
-26.417953
 11
-92.337395
 21
-17.617950
  0
LINE
  8
0
 62
     4
 10
-87.037399
 20
-20.917953
 11
-75.137398
 21
-20.917953
  0
LINE
  8
0
 62
     4
 10
-106.137390
 20
-4.517952
 11
-105.337395
 21
-4.517952
  0
LINE
  8
0
 62
     4
 10
-105.337395
 20
-12.117950
 11
-106.137390
 21
-12.117950
  0
LINE
  8
0
 62
     4
 10
-105.337395
 20
-12.117950
 11
-105.337395
 21
-4.517952
  0
LINE
  8
0
 62
     4
 10
-106.837395
 20
-1.817947
 11
-106.837395
 21
-12.817947
  0
LINE
  8
0
 62
     4
 10
-106.137390
 20
-12.117950
 11
-106.137390
 21
-4.517952
  0
LINE
  8
0
 62
     4
 10
-96.737396
 20
-16.317947
 11
-96.737396
 21
-15.317947
  0
LINE
  8
0
 62
     4
 10
-96.837395
 20
-15.417953
 11
-96.837395
 21
-15.317947
  0
LINE
  8
0
 62
     4
 10
-99.337395
 20
-15.917953
 11
-97.337395
 21
-15.917953
  0
LINE
  8
0
 62
     4
 10
-101.054535
 20
-12.817954
 11
-100.437393
 21
-16.317953
  0
LINE
  8
0
 62
     4
 10
-99.937393
 20
-16.317947
 11
-99.937393
 21
-15.317947
  0
LINE
  8
0
 62
     4
 10
-99.837395
 20
-15.417953
 11
-99.837395
 21
-15.317947
  0
LINE
  8
0
 62
     4
 10
-99.937393
 20
-15.317947
 11
-96.737396
 21
-15.317947
  0
LINE
  8
0
 62
     4
 10
-106.837395
 20
-12.817947
 11
-101.054535
 21
-12.817947
  0
LINE
  8
0
 62
     4
 10
-76.337395
 20
-15.017952
 11
-86.537399
 21
-15.017952
  0
LINE
  8
0
 62
     4
 10
-100.437393
 20
-16.317947
 11
-93.746582
 21
-16.317947
  0
LINE
  8
0
 62
     4
 10
-76.337395
 20
-15.017952
 11
-76.337395
 21
-7.017952
  0
LINE
  8
0
 62
     4
 10
-92.337395
 20
-20.317947
 11
-92.437393
 21
-20.317947
  0
LINE
  8
0
 62
     4
 10
-92.935471
 20
-20.917953
 11
-92.437393
 21
-20.917953
  0
LINE
  8
0
 62
     4
 10
-92.437393
 20
-15.017952
 11
-92.437393
 21
-16.675690
  0
LINE
  8
0
 62
     4
 10
-93.746590
 20
-16.317947
 11
-92.935478
 21
-20.917953
  0
LINE
  8
0
 10
-107.637390
 20
-1.817947
 11
-100.543190
 21
-1.817947
  0
LINE
  8
0
 10
-108.137398
 20
-1.317947
 11
-107.637398
 21
-1.817948
  0
LINE
  8
0
 62
     1
 10
-86.997391
 20
-37.527954
 11
-92.997391
 21
-35.627953
  0
LINE
  8
0
 62
     1
 10
-86.997398
 20
-38.767948
 11
-92.997391
 21
-36.867947
  0
LINE
  8
0
 62
     4
 10
-90.752396
 20
-37.578865
 11
-90.752396
 21
-41.947952
  0
LINE
  8
0
 62
     4
 10
-89.322395
 20
-38.031700
 11
-89.322395
 21
-41.947952
  0
LINE
  8
0
 62
     4
 10
-89.637390
 20
-41.947952
 11
-89.637390
 21
-46.947952
  0
LINE
  8
0
 62
     4
 10
-90.437393
 20
-41.947952
 11
-90.437393
 21
-46.947952
  0
LINE
  8
0
 62
     4
 10
-89.322395
 20
-41.947952
 11
-90.752396
 21
-41.947952
  0
LINE
  8
0
 62
     4
 10
-89.637390
 20
-46.947952
 11
-90.437393
 21
-46.947952
  0
LINE
  8
0
 62
     4
 10
-89.322395
 20
-36.791702
 11
-89.322395
 21
-17.617950
  0
LINE
  8
0
 62
     4
 10
-90.752396
 20
-36.338867
 11
-90.752396
 21
-17.617950
  0
LINE
  8
0
 62
     4
 10
-74.837395
 20
12.582047
 11
-75.337395
 21
12.582047
  0
LINE
  8
0
 10
-75.337395
 20
23.482048
 11
-75.337395
 21
12.082047
  0
LINE
  8
0
 10
-108.137390
 20
12.582055
 11
-107.637390
 21
12.082054
  0
LINE
  8
0
 10
-107.637390
 20
12.082050
 11
-87.137390
 21
12.082050
  0
LINE
  8
0
 10
-75.737389
 20
23.882050
 11
-80.637390
 21
23.882050
  0
LINE
  8
0
 62
     4
 10
-93.746574
 20
-2.417947
 11
-92.935471
 21
-7.017952
  0
LINE
  8
0
 62
     4
 10
-92.437393
 20
-1.117950
 11
-92.437393
 21
-7.017952
  0
LINE
  8
0
 62
     4
 10
-92.935471
 20
-7.017952
 11
-92.437393
 21
-7.017952
  0
LINE
  8
0
 62
     4
 10
-92.337395
 20
-6.417953
 11
-92.437393
 21
-6.417953
  0
LINE
  8
0
 62
     4
 10
-76.337395
 20
-1.117950
 11
-76.337395
 21
11.382050
  0
LINE
  8
0
 62
     4
 10
-100.437393
 20
-2.417953
 11
-93.746574
 21
-2.417953
  0
LINE
  8
0
 62
     4
 10
-76.337395
 20
-1.117950
 11
-92.437393
 21
-1.117950
  0
LINE
  8
0
 62
     4
 10
-74.837395
 20
11.382050
 11
-76.337395
 21
11.382050
  0
LINE
  8
0
 10
-74.837395
 20
11.682052
 11
-75.137390
 21
11.382051
  0
LINE
  8
0
 62
     4
 10
-106.837395
 20
1.082050
 11
-101.054535
 21
1.082050
  0
LINE
  8
0
 62
     4
 10
-99.937393
 20
-1.417953
 11
-96.737396
 21
-1.417953
  0
LINE
  8
0
 62
     4
 10
-99.837395
 20
-1.517952
 11
-99.837395
 21
-1.417953
  0
LINE
  8
0
 62
     4
 10
-99.937393
 20
-2.417953
 11
-99.937393
 21
-1.417953
  0
LINE
  8
0
 62
     4
 10
-101.054535
 20
1.082047
 11
-100.437393
 21
-2.417954
  0
LINE
  8
0
 62
     4
 10
-99.337395
 20
-2.017952
 11
-97.337395
 21
-2.017952
  0
LINE
  8
0
 62
     4
 10
-96.837395
 20
-1.517952
 11
-96.837395
 21
-1.417953
  0
LINE
  8
0
 62
     4
 10
-96.737396
 20
-2.417953
 11
-96.737396
 21
-1.417953
  0
LINE
  8
0
 62
     4
 10
-106.137390
 20
1.782051
 11
-106.137390
 21
9.382050
  0
LINE
  8
0
 62
     4
 10
-106.837387
 20
12.082050
 11
-106.837387
 21
1.082050
  0
LINE
  8
0
 62
     4
 10
-105.337395
 20
1.782051
 11
-105.337395
 21
9.382050
  0
LINE
  8
0
 62
     4
 10
-105.337395
 20
1.782051
 11
-106.137390
 21
1.782051
  0
LINE
  8
0
 62
     4
 10
-106.137390
 20
9.382050
 11
-105.337387
 21
9.382050
  0
LINE
  8
0
 62
     4
 10
-74.837395
 20
-20.617950
 11
-74.837395
 21
12.582047
  0
LINE
  8
0
 62
     4
 10
-87.037392
 20
-7.017952
 11
-75.137390
 21
-7.017952
  0
LINE
  8
0
 62
     4
 10
-92.337395
 20
-12.517952
 11
-92.337395
 21
-1.117950
  0
LINE
  8
0
 62
     4
 10
-87.037399
 20
-12.517952
 11
-87.037399
 21
-7.017952
  0
LINE
  8
0
 62
     4
 10
-87.237640
 20
-16.617950
 11
-86.037399
 21
-16.617950
  0
LINE
  8
0
 62
     4
 10
-92.337395
 20
-16.617956
 11
-92.837395
 21
-16.906633
  0
LINE
  8
0
 62
     4
 10
-92.837395
 20
-16.906624
 11
-92.837395
 21
-17.617950
  0
LINE
  8
0
 62
     4
 10
-91.637390
 20
-12.517952
 11
-91.637390
 21
-12.617950
  0
LINE
  8
0
 62
     4
 10
-92.837395
 20
-17.617950
 11
-87.537399
 21
-17.617950
  0
LINE
  8
0
 62
     4
 10
-87.237640
 20
-16.617952
 11
-87.537392
 21
-14.917953
  0
LINE
  8
0
  6
PHANTOM
 62
     4
 10
-87.537399
 20
-13.417953
 11
-87.537399
 21
-14.916565
  0
LINE
  8
0
 62
     4
 10
-87.537399
 20
-12.517952
 11
-87.537399
 21
-17.617950
  0
LINE
  8
0
 62
     4
 10
-87.537399
 20
-12.617950
 11
-92.337395
 21
-12.617950
  0
LINE
  8
0
 62
     4
 10
-92.337395
 20
-12.617950
 11
-92.337395
 21
-16.617950
  0
LINE
  8
0
 62
     4
 10
-92.337395
 20
-12.517952
 11
-87.037399
 21
-12.517952
  0
LINE
  8
0
 62
     4
 10
-86.037399
 20
-15.906624
 11
-86.037399
 21
-16.617950
  0
LINE
  8
0
 62
     4
 10
-86.537392
 20
-15.617955
 11
-86.037392
 21
-15.906628
  0
LINE
  8
0
 62
     4
 10
-87.037384
 20
-8.217948
 11
-86.537384
 21
-9.083973
  0
LINE
  8
0
 62
     4
 10
-86.537392
 20
-9.083977
 11
-86.537392
 21
-15.617950
  0
LINE
  8
0
 10
-75.737389
 20
21.082047
 11
-80.737389
 21
21.082047
  0
LINE
  8
0
 10
-81.137390
 20
12.582050
 11
-87.137390
 21
12.582050
  0
LINE
  8
0
 10
-87.137390
 20
18.282047
 11
-87.137390
 21
12.082050
  0
LINE
  8
0
 10
-86.937393
 20
18.282047
 11
-86.937393
 21
16.739586
  0
LINE
  8
0
 10
-81.137390
 20
18.282047
 11
-87.137390
 21
18.282047
  0
LINE
  8
0
 10
-81.137390
 20
18.282047
 11
-81.137390
 21
12.082050
  0
LINE
  8
0
 10
-81.337395
 20
18.282047
 11
-81.337395
 21
16.739586
  0
LINE
  8
0
 10
-81.137390
 20
12.082050
 11
-75.337395
 21
12.082050
  0
LINE
  8
0
 62
     4
 10
-92.337395
 20
-15.017952
 11
-92.437393
 21
-15.017952
  0
LINE
  8
0
 62
     4
 10
-92.437393
 20
-17.617950
 11
-92.437393
 21
-20.917953
  0
LINE
  8
0
 62
     4
 10
-89.322395
 20
-26.417953
 11
-87.037399
 21
-26.417953
  0
LINE
  8
0
 62
     4
 10
-90.752396
 20
-26.517952
 11
-92.337395
 21
-26.517952
  0
LINE
  8
0
 62
     4
 10
-89.322395
 20
-31.517952
 11
-87.537399
 21
-31.517952
  0
LINE
  8
0
 10
-86.837387
 20
28.782047
 11
-81.337395
 21
28.782047
  0
LINE
  8
0
 10
-81.337395
 20
27.602047
 11
-81.337395
 21
28.782047
  0
LINE
  8
0
 10
-86.937393
 20
27.602047
 11
-86.937393
 21
28.782047
  0
LINE
  8
0
 10
-87.337387
 20
28.282047
 11
-87.337387
 21
25.882050
  0
LINE
  8
0
 10
-107.637390
 20
25.382050
 11
-81.637390
 21
25.382050
  0
LINE
  8
0
 10
-108.137390
 20
-1.317947
 11
-108.137390
 21
33.782051
  0
LINE
  8
0
 10
-81.137390
 20
33.782051
 11
-81.137390
 21
21.482048
  0
LINE
  8
0
 10
-102.137390
 20
97.482048
 11
-75.337387
 21
97.482048
  0
LINE
  8
0
 62
     4
 10
-121.647392
 20
8.282051
 11
-125.647392
 21
8.282051
  0
LINE
  8
0
 62
     4
 10
-122.147392
 20
8.282051
 11
-122.147392
 21
-1.717949
  0
LINE
  8
0
 62
     4
 10
-121.647392
 20
-4.717949
 11
-125.647392
 21
-4.717949
  0
LINE
  8
0
 62
     4
 10
-121.147392
 20
-1.717949
 11
-126.147392
 21
-1.717949
  0
LINE
  8
0
 62
     4
 10
-126.147392
 20
-1.717949
 11
-126.147392
 21
-4.217949
  0
LINE
  8
0
 62
     4
 10
-121.147392
 20
-1.717949
 11
-121.147392
 21
-4.217949
  0
LINE
  8
0
 62
     4
 10
-126.147400
 20
-4.217950
 11
-125.647400
 21
-4.717950
  0
LINE
  8
0
 62
     4
 10
-121.147400
 20
-4.217947
 11
-121.647400
 21
-4.717947
  0
LINE
  8
0
 62
     4
 10
-121.147392
 20
-4.217949
 11
-126.147392
 21
-4.217949
  0
LINE
  8
0
 62
     4
 10
-125.147392
 20
8.282051
 11
-125.147392
 21
-1.717949
  0
LINE
  8
0
 62
     4
 10
-125.647392
 20
12.282051
 11
-125.647392
 21
8.282051
  0
LINE
  8
0
 62
     4
 10
-121.647392
 20
12.282051
 11
-121.647392
 21
8.282051
  0
LINE
  8
0
  6
CENTER
 62
     2
 10
-123.637390
 20
19.800735
 11
-123.637390
 21
-6.627953
  0
LINE
  8
0
 62
     4
 10
-136.237396
 20
12.282051
 11
-148.037399
 21
12.282051
  0
LINE
  8
0
 62
     4
 10
-136.237396
 20
13.482052
 11
-148.037399
 21
13.482052
  0
LINE
  8
0
 62
     4
 10
-148.037399
 20
13.482052
 11
-148.037399
 21
12.282051
  0
LINE
  8
0
 62
     4
 10
-136.237396
 20
13.482052
 11
-136.237396
 21
12.282051
  0
LINE
  8
0
 62
     4
 10
-138.637390
 20
14.282051
 11
-138.637390
 21
13.482052
  0
LINE
  8
0
 62
     4
 10
-145.637390
 20
14.282051
 11
-145.637390
 21
13.482052
  0
LINE
  8
0
 62
     4
 10
-137.937393
 20
14.282051
 11
-146.337387
 21
14.282051
  0
LINE
  8
0
  6
CENTER
 62
     2
 10
-142.137390
 20
19.800735
 11
-142.137390
 21
10.792049
  0
LINE
  8
0
 62
     4
 10
-137.137390
 20
17.782051
 11
-137.137390
 21
15.082050
  0
LINE
  8
0
 62
     4
 10
-147.137390
 20
17.782051
 11
-147.137390
 21
15.082050
  0
LINE
  8
0
 62
     4
 10
-117.737396
 20
12.282051
 11
-129.537384
 21
12.282051
  0
LINE
  8
0
 62
     4
 10
-117.737396
 20
13.482048
 11
-129.537384
 21
13.482048
  0
LINE
  8
0
 62
     4
 10
-129.537384
 20
13.482052
 11
-129.537384
 21
12.282051
  0
LINE
  8
0
 62
     4
 10
-117.737396
 20
13.482048
 11
-117.737396
 21
12.282051
  0
LINE
  8
0
 62
     4
 10
-120.137390
 20
14.282051
 11
-120.137390
 21
13.482048
  0
LINE
  8
0
 62
     4
 10
-127.137390
 20
14.282051
 11
-127.137390
 21
13.482052
  0
LINE
  8
0
 62
     4
 10
-119.437393
 20
14.282051
 11
-127.837395
 21
14.282051
  0
LINE
  8
0
 62
     4
 10
-118.637390
 20
17.782051
 11
-118.637390
 21
15.082050
  0
LINE
  8
0
 62
     4
 10
-128.637390
 20
17.782051
 11
-128.637390
 21
15.082050
  0
LINE
  8
0
 10
-149.137390
 20
91.782051
 11
-149.137390
 21
23.282051
  0
LINE
  8
0
 10
-148.637390
 20
22.782053
 11
-149.137390
 21
22.282053
  0
LINE
  8
0
 10
-148.637390
 20
22.782049
 11
-149.137390
 21
23.282051
  0
LINE
  8
0
 10
-149.137390
 20
22.282051
 11
-149.137390
 21
17.782051
  0
LINE
  8
0
 10
-109.137390
 20
91.782051
 11
-109.137390
 21
89.282051
  0
LINE
  8
0
  6
CENTER
 62
     2
 10
-132.637390
 20
83.494034
 11
-132.637390
 21
26.672050
  0
LINE
  8
0
  6
CENTER
 62
     2
 10
-115.137390
 20
89.392052
 11
-115.137390
 21
82.172050
  0
LINE
  8
0
  6
CENTER
 62
     2
 10
-118.747391
 20
85.782051
 11
-111.737389
 21
85.782051
  0
LINE
  8
0
 62
     2
 10
-118.747391
 20
23.782051
 11
-111.307388
 21
23.782051
  0
LINE
  8
0
  6
CENTER
 62
     2
 10
-115.137390
 20
27.942051
 11
-115.137390
 21
19.972050
  0
LINE
  8
0
 10
-109.137390
 20
82.282051
 11
-109.137390
 21
75.782051
  0
LINE
  8
0
 10
-109.137390
 20
20.282051
 11
-109.137390
 21
17.782051
  0
LINE
  8
0
 10
-109.137390
 20
33.782051
 11
-109.137390
 21
27.282051
  0
LINE
  8
0
  6
CENTER
 62
     2
 10
-141.132355
 20
34.782051
 11
-122.877396
 21
34.782051
  0
LINE
  8
0
  6
CENTER
 62
     2
 10
-141.291824
 20
74.782051
 11
-122.877388
 21
74.782051
  0
LINE
  8
0
 10
-149.137390
 20
91.782051
 11
-109.137390
 21
91.782051
  0
LINE
  8
0
 10
-149.137390
 20
17.782051
 11
-109.137390
 21
17.782051
  0
LINE
  8
0
 10
-109.137390
 20
27.282047
 11
-108.137390
 21
27.282047
  0
LINE
  8
0
 10
-109.137390
 20
27.282047
 11
-109.137390
 21
20.282047
  0
LINE
  8
0
 10
-109.137390
 20
20.282047
 11
-108.137390
 21
20.282047
  0
LINE
  8
0
 10
-108.137390
 20
27.282047
 11
-108.137390
 21
20.282047
  0
LINE
  8
0
 10
-108.137390
 20
82.282051
 11
-108.137390
 21
89.282051
  0
LINE
  8
0
 10
-109.137390
 20
89.282051
 11
-108.137390
 21
89.282051
  0
LINE
  8
0
 10
-109.137390
 20
82.282051
 11
-109.137390
 21
89.282051
  0
LINE
  8
0
 10
-109.137390
 20
82.282051
 11
-108.137390
 21
82.282051
  0
LINE
  8
0
 10
-108.137390
 20
33.782051
 11
-108.137390
 21
75.782051
  0
LINE
  8
0
 10
-108.137390
 20
75.782051
 11
-109.137390
 21
75.782051
  0
LINE
  8
0
 10
-109.137390
 20
33.782051
 11
-109.137390
 21
75.782051
  0
LINE
  8
0
 10
-109.137390
 20
33.782051
 11
-108.137390
 21
33.782051
  0
LINE
  8
0
 10
-107.137390
 20
97.482048
 11
-107.137390
 21
96.982048
  0
LINE
  8
0
 10
-102.137390
 20
96.982048
 11
-107.137390
 21
96.982048
  0
LINE
  8
0
 10
-102.337387
 20
91.282051
 11
-102.337387
 21
92.824509
  0
LINE
  8
0
 10
-107.937393
 20
91.282051
 11
-107.937393
 21
92.824509
  0
LINE
  8
0
 10
-102.137390
 20
91.282051
 11
-108.137390
 21
91.282051
  0
LINE
  8
0
 10
-102.137390
 20
91.282051
 11
-102.137390
 21
97.482048
  0
LINE
  8
0
 62
     4
 10
-89.637390
 20
142.612045
 11
-90.437386
 21
142.612045
  0
LINE
  8
0
 62
     4
 10
-89.322388
 20
137.612045
 11
-90.752388
 21
137.612045
  0
LINE
  8
0
 62
     4
 10
-90.437386
 20
137.612045
 11
-90.437386
 21
142.612045
  0
LINE
  8
0
 62
     4
 10
-89.637390
 20
137.612045
 11
-89.637390
 21
142.612045
  0
LINE
  8
0
 62
     4
 10
-89.322388
 20
133.336517
 11
-89.322388
 21
137.612045
  0
LINE
  8
0
 62
     4
 10
-90.752388
 20
133.848923
 11
-90.752388
 21
137.612045
  0
LINE
  8
0
 62
     1
 10
-93.077385
 20
134.682053
 11
-87.077385
 21
132.532043
  0
LINE
  8
0
 62
     1
 10
-93.077385
 20
133.442047
 11
-87.077377
 21
131.292053
  0
LINE
  8
0
 62
     4
 10
-89.322388
 20
127.182053
 11
-89.322388
 21
132.096497
  0
LINE
  8
0
 62
     4
 10
-90.752388
 20
127.182053
 11
-90.752388
 21
132.608917
  0
LINE
  8
0
 10
-108.137390
 20
33.782051
 11
-81.137390
 21
33.782051
  0
LINE
  8
0
 10
-108.137390
 20
75.782051
 11
-81.137390
 21
75.782051
  0
LINE
  8
0
 10
-84.137390
 20
41.432049
 11
-81.137390
 21
41.432049
  0
LINE
  8
0
 10
-84.137390
 20
38.122047
 11
-81.137390
 21
38.122047
  0
LINE
  8
0
 10
-84.137390
 20
41.432049
 11
-84.137390
 21
38.122047
  0
LINE
  8
0
 10
-108.137390
 20
75.782051
 11
-108.137390
 21
33.782051
  0
LINE
  8
0
 10
-81.137390
 20
75.782051
 11
-81.137390
 21
33.782047
  0
LINE
  8
0
 62
     4
 10
-74.837387
 20
96.982048
 11
-75.337387
 21
96.982048
  0
LINE
  8
0
 10
-75.337387
 20
86.082047
 11
-75.337387
 21
97.482048
  0
LINE
  8
0
 10
-108.137390
 20
96.982048
 11
-107.637390
 21
97.482048
  0
LINE
  8
0
 10
-107.637390
 20
97.482048
 11
-106.837387
 21
97.482048
  0
LINE
  8
0
 10
-75.737389
 20
85.682045
 11
-80.637390
 21
85.682045
  0
LINE
  8
0
 62
     4
 10
-93.746567
 20
111.982048
 11
-92.935463
 21
116.582047
  0
LINE
  8
0
 62
     4
 10
-92.437393
 20
110.682053
 11
-92.437393
 21
116.582047
  0
LINE
  8
0
 62
     4
 10
-92.935471
 20
116.582047
 11
-92.437393
 21
116.582047
  0
LINE
  8
0
 62
     4
 10
-92.337387
 20
115.982048
 11
-92.437393
 21
115.982048
  0
LINE
  8
0
 62
     4
 10
-76.337387
 20
110.682053
 11
-76.337387
 21
98.182053
  0
LINE
  8
0
 62
     4
 10
-100.437393
 20
111.982048
 11
-93.746567
 21
111.982048
  0
LINE
  8
0
 62
     4
 10
-76.337387
 20
110.682053
 11
-92.437393
 21
110.682053
  0
LINE
  8
0
 62
     4
 10
-74.837387
 20
96.982048
 11
-74.837387
 21
97.882050
  0
LINE
  8
0
 62
     4
 10
-74.837387
 20
98.182053
 11
-76.337387
 21
98.182053
  0
LINE
  8
0
 62
     4
 10
-74.837387
 20
97.882042
 11
-75.137390
 21
98.182037
  0
LINE
  8
0
 62
     4
 10
-106.837387
 20
108.482048
 11
-101.054535
 21
108.482048
  0
LINE
  8
0
 62
     4
 10
-99.937393
 20
110.982048
 11
-96.737389
 21
110.982048
  0
LINE
  8
0
 62
     4
 10
-99.837387
 20
111.082047
 11
-99.837387
 21
110.982048
  0
LINE
  8
0
 62
     4
 10
-99.937393
 20
111.982048
 11
-99.937393
 21
110.982048
  0
LINE
  8
0
 62
     4
 10
-101.054535
 20
108.482048
 11
-100.437386
 21
111.982048
  0
LINE
  8
0
 62
     4
 10
-99.337387
 20
111.582047
 11
-97.337387
 21
111.582047
  0
LINE
  8
0
 62
     4
 10
-96.837387
 20
111.082047
 11
-96.837387
 21
110.982048
  0
LINE
  8
0
 62
     4
 10
-96.737389
 20
111.982048
 11
-96.737389
 21
110.982048
  0
LINE
  8
0
 62
     4
 10
-106.137390
 20
107.782043
 11
-106.137390
 21
100.182053
  0
LINE
  8
0
 62
     4
 10
-106.837387
 20
96.982048
 11
-106.837387
 21
108.482048
  0
LINE
  8
0
 62
     4
 10
-105.337387
 20
107.782043
 11
-105.337387
 21
100.182053
  0
LINE
  8
0
 62
     4
 10
-105.337387
 20
107.782043
 11
-106.137390
 21
107.782043
  0
LINE
  8
0
 62
     4
 10
-106.137390
 20
100.182053
 11
-105.337387
 21
100.182053
  0
LINE
  8
0
 62
     4
 10
-74.837387
 20
98.182053
 11
-74.837387
 21
116.282043
  0
LINE
  8
0
 62
     4
 10
-87.037384
 20
116.582047
 11
-75.137390
 21
116.582047
  0
LINE
  8
0
 62
     4
 10
-92.337387
 20
122.082047
 11
-92.337387
 21
110.682053
  0
LINE
  8
0
 62
     4
 10
-87.037384
 20
122.082047
 11
-87.037384
 21
116.582047
  0
LINE
  8
0
 62
     4
 10
-87.237633
 20
126.182053
 11
-86.037384
 21
126.182053
  0
LINE
  8
0
 62
     4
 10
-92.337395
 20
126.182045
 11
-92.837387
 21
126.470718
  0
LINE
  8
0
 62
     4
 10
-92.837387
 20
126.470718
 11
-92.837387
 21
127.182053
  0
LINE
  8
0
 62
     4
 10
-91.637390
 20
122.082047
 11
-91.637390
 21
122.182053
  0
LINE
  8
0
 62
     4
 10
-92.837387
 20
127.182053
 11
-87.537384
 21
127.182053
  0
LINE
  8
0
 62
     4
 10
-87.237633
 20
126.182037
 11
-87.537384
 21
124.482048
  0
LINE
  8
0
  6
PHANTOM
 62
     4
 10
-87.537384
 20
122.982048
 11
-87.537384
 21
124.480667
  0
LINE
  8
0
 62
     4
 10
-87.537384
 20
122.082047
 11
-87.537384
 21
127.182053
  0
LINE
  8
0
 62
     4
 10
-87.537384
 20
122.182053
 11
-92.337387
 21
122.182053
  0
LINE
  8
0
 62
     4
 10
-92.337387
 20
122.182053
 11
-92.337387
 21
126.182053
  0
LINE
  8
0
 62
     4
 10
-92.337387
 20
122.082047
 11
-87.037384
 21
122.082047
  0
LINE
  8
0
 62
     4
 10
-86.037384
 20
125.470718
 11
-86.037384
 21
126.182053
  0
LINE
  8
0
 62
     4
 10
-86.537384
 20
125.182060
 11
-86.037392
 21
125.470734
  0
LINE
  8
0
 62
     4
 10
-87.037376
 20
117.782051
 11
-86.537376
 21
118.648071
  0
LINE
  8
0
 62
     4
 10
-86.537384
 20
118.648071
 11
-86.537384
 21
125.182053
  0
LINE
  8
0
 10
-75.737389
 20
88.482048
 11
-80.737389
 21
88.482048
  0
LINE
  8
0
 10
-81.137390
 20
75.782051
 11
-81.137390
 21
88.082047
  0
LINE
  8
0
 10
-108.137390
 20
75.782051
 11
-108.137390
 21
96.982048
  0
LINE
  8
0
 10
-83.437393
 20
41.432049
 11
-83.437393
 21
38.122047
  0
LINE
  8
0
  6
CENTER
 62
     2
 10
-151.728912
 20
64.782051
 11
-146.268036
 21
64.782051
  0
LINE
  8
0
  6
CENTER
 62
     2
 10
34.297646
 20
88.482048
 11
40.297646
 21
88.482048
  0
LINE
  8
0
  6
CENTER
 62
     2
 10
53.297646
 20
88.482048
 11
59.297646
 21
88.482048
  0
LINE
  8
0
  6
CENTER
 62
     2
 10
72.297646
 20
88.482048
 11
78.297646
 21
88.482048
  0
LINE
  8
0
  6
CENTER
 62
     2
 10
91.297646
 20
88.482048
 11
97.297646
 21
88.482048
  0
LINE
  8
0
  6
CENTER
 62
     2
 10
72.297646
 20
21.082050
 11
78.297646
 21
21.082050
  0
LINE
  8
0
  6
CENTER
 62
     2
 10
91.297646
 20
7.182049
 11
97.297646
 21
7.182049
  0
LINE
  8
0
  6
CENTER
 62
     2
 10
107.147644
 20
19.800735
 11
107.147644
 21
10.314106
  0
LINE
  8
0
  6
CENTER
 62
     2
 10
115.147644
 20
19.800735
 11
115.147644
 21
10.314106
  0
LINE
  8
0
  6
CENTER
 62
     2
 10
50.147644
 20
19.800735
 11
50.147644
 21
10.314110
  0
LINE
  8
0
  6
CENTER
 62
     2
 10
58.147644
 20
19.800735
 11
58.147644
 21
10.314106
  0
LINE
  8
0
  6
CENTER
 62
     2
 10
39.147644
 20
19.800735
 11
39.147644
 21
10.314110
  0
LINE
  8
0
 62
     4
 10
32.657642
 20
8.282051
 11
32.657642
 21
-1.717949
  0
LINE
  8
0
 62
     4
 10
28.657642
 20
-4.217949
 11
33.657642
 21
-4.217949
  0
LINE
  8
0
 62
     4
 10
28.657642
 20
-4.217948
 11
29.157644
 21
-4.717948
  0
LINE
  8
0
 62
     4
 10
33.657642
 20
-4.217949
 11
33.157642
 21
-4.717949
  0
LINE
  8
0
 62
     4
 10
28.657642
 20
-1.717949
 11
28.657642
 21
-4.217949
  0
LINE
  8
0
 62
     4
 10
33.657642
 20
-1.717949
 11
33.657642
 21
-4.217949
  0
LINE
  8
0
 62
     4
 10
28.657642
 20
-1.717949
 11
33.657642
 21
-1.717949
  0
LINE
  8
0
 62
     4
 10
29.157642
 20
-4.717949
 11
33.157642
 21
-4.717949
  0
LINE
  8
0
 62
     4
 10
29.657644
 20
8.282051
 11
29.657644
 21
-1.717949
  0
LINE
  8
0
 62
     4
 10
29.157644
 20
8.282051
 11
33.157642
 21
8.282051
  0
LINE
  8
0
 62
     4
 10
33.157646
 20
12.282051
 11
33.157646
 21
8.282051
  0
LINE
  8
0
 62
     4
 10
29.157644
 20
12.282051
 11
29.157644
 21
8.282051
  0
LINE
  8
0
  6
CENTER
 62
     2
 10
31.147644
 20
19.800735
 11
31.147644
 21
-6.627953
  0
LINE
  8
0
 10
70.030487
 20
12.282051
 11
70.297646
 21
12.282051
  0
LINE
  8
0
 62
     4
 10
80.564804
 20
12.282051
 11
80.297646
 21
12.282051
  0
LINE
  8
0
 62
     4
 10
69.097641
 20
12.282051
 11
64.247643
 21
12.282051
  0
LINE
  8
0
 62
     4
 10
44.047646
 20
13.482052
 11
44.047646
 21
12.282051
  0
LINE
  8
0
 62
     4
 10
44.147644
 20
17.782051
 11
44.147644
 21
15.082050
  0
LINE
  8
0
 62
     4
 10
35.647644
 20
14.282051
 11
35.647644
 21
13.482052
  0
LINE
  8
0
 62
     4
 10
42.647644
 20
14.282051
 11
42.647644
 21
13.482052
  0
LINE
  8
0
 62
     4
 10
36.047646
 20
13.482052
 11
36.047646
 21
12.282051
  0
LINE
  8
0
 62
     4
 10
26.247644
 20
13.482052
 11
26.247644
 21
12.282051
  0
LINE
  8
0
 62
     4
 10
36.147644
 20
17.782051
 11
36.147644
 21
15.082050
  0
LINE
  8
0
 62
     4
 10
26.147644
 20
17.782051
 11
26.147644
 21
15.082050
  0
LINE
  8
0
 62
     4
 10
43.347645
 20
14.282051
 11
26.947643
 21
14.282051
  0
LINE
  8
0
 62
     4
 10
27.647644
 20
14.282051
 11
27.647644
 21
13.482052
  0
LINE
  8
0
 62
     4
 10
34.647644
 20
14.282051
 11
34.647644
 21
13.482052
  0
LINE
  8
0
 62
     4
 10
44.047646
 20
13.482052
 11
26.247644
 21
13.482052
  0
LINE
  8
0
 62
     4
 10
44.047646
 20
12.282051
 11
26.247644
 21
12.282051
  0
LINE
  8
0
 62
     4
 10
63.047646
 20
13.482048
 11
63.047646
 21
12.282051
  0
LINE
  8
0
 62
     4
 10
63.147644
 20
17.782051
 11
63.147644
 21
15.082050
  0
LINE
  8
0
 62
     4
 10
54.647644
 20
14.282051
 11
54.647644
 21
13.482052
  0
LINE
  8
0
 62
     4
 10
61.647644
 20
14.282051
 11
61.647644
 21
13.482048
  0
LINE
  8
0
 62
     4
 10
55.047646
 20
13.482052
 11
55.047646
 21
12.282051
  0
LINE
  8
0
 62
     4
 10
45.247643
 20
13.482052
 11
45.247643
 21
12.282051
  0
LINE
  8
0
 62
     4
 10
55.147644
 20
17.782051
 11
55.147644
 21
15.082050
  0
LINE
  8
0
 62
     4
 10
45.147644
 20
17.782051
 11
45.147644
 21
15.082050
  0
LINE
  8
0
 62
     4
 10
62.347645
 20
14.282051
 11
45.947643
 21
14.282051
  0
LINE
  8
0
 62
     4
 10
46.647644
 20
14.282051
 11
46.647644
 21
13.482052
  0
LINE
  8
0
 62
     4
 10
53.647644
 20
14.282051
 11
53.647644
 21
13.482052
  0
LINE
  8
0
 62
     4
 10
63.047646
 20
13.482048
 11
45.247643
 21
13.482048
  0
LINE
  8
0
 62
     4
 10
63.047646
 20
12.282051
 11
45.247643
 21
12.282051
  0
LINE
  8
0
 62
     4
 10
82.047646
 20
12.832050
 11
82.047646
 21
12.282047
  0
LINE
  8
0
 62
     4
 10
64.247643
 20
13.482048
 11
64.247643
 21
12.282051
  0
LINE
  8
0
 62
     4
 10
64.147644
 20
17.782051
 11
64.147644
 21
15.082050
  0
LINE
  8
0
 62
     4
 10
67.097641
 20
14.282051
 11
64.947647
 21
14.282051
  0
LINE
  8
0
 62
     4
 10
65.647644
 20
14.282051
 11
65.647644
 21
13.482048
  0
LINE
  8
0
 62
     4
 10
67.897644
 20
13.482048
 11
64.247643
 21
13.482048
  0
LINE
  8
0
 62
     4
 10
82.047646
 20
12.282047
 11
81.497643
 21
12.282047
  0
LINE
  8
0
 62
     4
 10
83.247643
 20
13.482048
 11
83.247643
 21
12.282047
  0
LINE
  8
0
 62
     4
 10
85.297646
 20
14.282047
 11
83.947647
 21
14.282047
  0
LINE
  8
0
 62
     4
 10
84.647644
 20
14.282047
 11
84.647644
 21
13.482048
  0
LINE
  8
0
 62
     4
 10
85.297646
 20
13.482048
 11
83.247643
 21
13.482048
  0
LINE
  8
0
 62
     4
 10
85.297646
 20
12.282047
 11
83.247643
 21
12.282047
  0
LINE
  8
0
 62
     4
 10
120.047646
 20
13.482048
 11
120.047646
 21
12.282047
  0
LINE
  8
0
 62
     4
 10
120.147644
 20
17.782047
 11
120.147644
 21
15.082047
  0
LINE
  8
0
 62
     4
 10
111.647644
 20
14.282047
 11
111.647644
 21
13.482048
  0
LINE
  8
0
 62
     4
 10
118.647644
 20
14.282047
 11
118.647644
 21
13.482048
  0
LINE
  8
0
 62
     4
 10
112.047646
 20
13.482048
 11
112.047646
 21
12.282047
  0
LINE
  8
0
 62
     4
 10
112.147644
 20
17.782047
 11
112.147644
 21
15.082047
  0
LINE
  8
0
 62
     4
 10
119.347641
 20
14.282047
 11
103.297646
 21
14.282047
  0
LINE
  8
0
 62
     4
 10
103.647644
 20
14.282047
 11
103.647644
 21
13.482048
  0
LINE
  8
0
 62
     4
 10
110.647644
 20
14.282047
 11
110.647644
 21
13.482048
  0
LINE
  8
0
 62
     4
 10
120.047646
 20
13.482048
 11
103.297646
 21
13.482048
  0
LINE
  8
0
 62
     4
 10
120.047646
 20
12.282047
 11
103.297646
 21
12.282047
  0
LINE
  8
0
 62
     2
 10
75.305634
 20
19.886349
 11
75.305634
 21
11.486351
  0
LINE
  8
0
 10
53.187645
 20
25.382050
 11
59.407642
 21
25.382050
  0
LINE
  8
0
 10
34.187645
 20
25.382050
 11
40.407646
 21
25.382050
  0
LINE
  8
0
 62
     4
 10
104.297646
 20
20.782047
 11
122.297646
 21
20.782047
  0
LINE
  8
0
 62
     4
 10
104.297646
 20
88.782051
 11
122.297646
 21
88.782051
  0
LINE
  8
0
 10
66.297646
 20
17.782051
 11
18.297644
 21
17.782051
  0
LINE
  8
0
 62
     4
 10
85.297646
 20
17.782047
 11
84.297646
 21
17.782047
  0
LINE
  8
0
 10
85.297646
 20
91.782051
 11
84.297646
 21
91.782051
  0
LINE
  8
0
 10
66.297646
 20
91.782051
 11
65.297646
 21
91.782051
  0
LINE
  8
0
 10
47.297646
 20
91.782051
 11
46.297646
 21
91.782051
  0
LINE
  8
0
 10
28.297646
 20
91.782051
 11
18.297646
 21
91.782051
  0
LINE
  8
0
 10
132.297638
 20
17.782047
 11
103.297646
 21
17.782047
  0
LINE
  8
0
 10
132.297638
 20
91.782043
 11
103.297646
 21
91.782043
  0
LINE
  8
0
 62
     4
 10
104.297646
 20
38.123734
 11
104.297646
 21
20.782047
  0
LINE
  8
0
 62
     4
 10
122.297646
 20
68.123734
 11
122.297646
 21
20.782047
  0
LINE
  8
0
 62
     4
 10
104.817741
 20
37.802151
 11
108.777542
 21
41.761944
  0
LINE
  8
0
 62
     4
 10
105.383430
 20
41.196259
 11
108.211845
 21
38.367832
  0
LINE
  8
0
 62
     4
 10
118.383430
 20
71.196259
 11
121.211861
 21
68.367836
  0
LINE
  8
0
 62
     4
 10
117.817741
 20
67.802139
 11
121.777534
 21
71.761932
  0
LINE
  8
0
 10
103.297646
 20
68.521095
 11
103.297646
 21
33.782051
  0
LINE
  8
0
 10
85.297646
 20
38.521099
 11
85.297646
 21
33.782051
  0
LINE
  8
0
 10
84.297646
 20
68.521095
 11
84.297646
 21
33.782051
  0
LINE
  8
0
 10
66.297646
 20
38.521099
 11
66.297646
 21
33.782051
  0
LINE
  8
0
 10
65.297646
 20
68.521103
 11
65.297646
 21
25.882050
  0
LINE
  8
0
 10
47.297646
 20
38.521099
 11
47.297646
 21
25.882050
  0
LINE
  8
0
 10
46.297646
 20
68.122047
 11
46.297646
 21
25.882050
  0
LINE
  8
0
 10
28.297646
 20
38.521103
 11
28.297646
 21
25.882050
  0
LINE
  8
0
 10
85.817749
 20
37.802151
 11
89.777542
 21
41.761951
  0
LINE
  8
0
 10
86.383430
 20
41.196266
 11
89.211861
 21
38.367836
  0
LINE
  8
0
 10
99.383430
 20
71.196259
 11
102.211853
 21
68.367836
  0
LINE
  8
0
 10
98.817749
 20
67.802147
 11
102.777550
 21
71.761948
  0
LINE
  8
0
 10
66.817749
 20
37.802151
 11
70.777534
 21
41.761948
  0
LINE
  8
0
 10
67.383430
 20
41.196262
 11
70.211861
 21
38.367836
  0
LINE
  8
0
 10
80.383430
 20
71.196259
 11
83.211861
 21
68.367836
  0
LINE
  8
0
 10
79.817749
 20
67.802147
 11
83.777542
 21
71.761948
  0
LINE
  8
0
 10
47.817745
 20
37.802151
 11
51.777542
 21
41.761948
  0
LINE
  8
0
 10
48.383430
 20
41.196262
 11
51.211861
 21
38.367836
  0
LINE
  8
0
 10
61.383427
 20
71.196266
 11
64.211861
 21
68.367836
  0
LINE
  8
0
 10
60.817745
 20
67.802147
 11
64.777542
 21
71.761948
  0
LINE
  8
0
 62
     4
 10
122.297646
 20
88.782043
 11
122.297646
 21
71.440361
  0
LINE
  8
0
 62
     4
 10
104.297646
 20
88.782051
 11
104.297646
 21
41.440361
  0
LINE
  8
0
  6
CENTER
 62
     2
 10
113.297646
 20
91.063499
 11
113.297646
 21
18.830803
  0
LINE
  8
0
 10
99.547646
 20
-1.317955
 11
89.047646
 21
-1.317955
  0
LINE
  8
0
 10
90.700119
 20
7.182049
 11
85.297638
 21
7.182049
  0
LINE
  8
0
 10
97.895164
 20
7.182049
 11
103.297646
 21
7.182049
  0
LINE
  8
0
 10
100.297646
 20
-1.817954
 11
103.297646
 21
1.182050
  0
LINE
  8
0
 10
85.297646
 20
1.182048
 11
88.297646
 21
-1.817952
  0
LINE
  8
0
 10
88.297646
 20
-1.817947
 11
88.747643
 21
-1.817947
  0
LINE
  8
0
 10
89.047646
 20
-1.317947
 11
89.047646
 21
-1.517952
  0
LINE
  8
0
 10
99.547646
 20
-1.317955
 11
99.547646
 21
-1.517952
  0
LINE
  8
0
 10
92.778587
 20
9.982048
 11
95.816704
 21
9.982048
  0
LINE
  8
0
 10
96.163116
 20
9.782047
 11
97.548759
 21
7.382049
  0
LINE
  8
0
 10
91.046539
 20
7.382049
 11
92.432175
 21
9.782048
  0
LINE
  8
0
 10
99.847641
 20
-1.817955
 11
100.297646
 21
-1.817955
  0
LINE
  8
0
 62
     4
 10
99.297646
 20
-2.217949
 11
89.297646
 21
-2.217949
  0
LINE
  8
0
 62
     4
 10
89.597641
 20
-20.917953
 11
98.997643
 21
-20.917953
  0
LINE
  8
0
 62
     4
 10
89.297646
 20
-2.517952
 11
99.297646
 21
-2.517952
  0
LINE
  8
0
 62
     4
 10
89.297646
 20
-1.317947
 11
89.297646
 21
-26.417953
  0
LINE
  8
0
 62
     4
 10
99.297646
 20
-1.317955
 11
99.297646
 21
-26.417953
  0
LINE
  8
0
 62
     4
 10
99.297646
 20
-26.417953
 11
96.797646
 21
-26.417953
  0
LINE
  8
0
 62
     4
 10
97.197639
 20
-20.917953
 11
97.197639
 21
-26.417953
  0
LINE
  8
0
 62
     4
 10
91.397644
 20
-20.917953
 11
91.397644
 21
-26.417953
  0
LINE
  8
0
 62
     1
 10
95.797646
 20
-17.917953
 11
95.797646
 21
-20.917953
  0
LINE
  8
0
 62
     1
 10
95.797646
 20
-17.917953
 11
92.797646
 21
-17.917953
  0
LINE
  8
0
 62
     1
 10
92.797646
 20
-17.917953
 11
92.797646
 21
-20.917953
  0
LINE
  8
0
 62
     4
 10
96.797646
 20
-22.017952
 11
91.797646
 21
-22.017952
  0
LINE
  8
0
 62
     4
 10
98.997643
 20
-31.517952
 11
89.597641
 21
-31.517952
  0
LINE
  8
0
 62
     4
 10
96.797646
 20
-30.517952
 11
91.797646
 21
-30.517952
  0
LINE
  8
0
 62
     4
 10
98.997643
 20
-26.517952
 11
98.997643
 21
-31.517952
  0
LINE
  8
0
 62
     4
 10
96.797646
 20
-22.017952
 11
96.797646
 21
-30.517952
  0
LINE
  8
0
 62
     4
 10
91.797646
 20
-29.806625
 11
96.797646
 21
-29.806625
  0
LINE
  8
0
 62
     4
 10
91.797646
 20
-29.517952
 11
96.797646
 21
-29.517952
  0
LINE
  8
0
 62
     4
 10
97.897644
 20
-26.517952
 11
97.897644
 21
-31.517952
  0
LINE
  8
0
 62
     4
 10
90.697639
 20
-26.517952
 11
90.697639
 21
-31.517952
  0
LINE
  8
0
 62
     4
 10
91.797646
 20
-22.017952
 11
91.797646
 21
-30.517952
  0
LINE
  8
0
 62
     4
 10
89.597641
 20
-26.517952
 11
89.597641
 21
-31.517952
  0
LINE
  8
0
 62
     4
 10
91.797646
 20
-26.417953
 11
89.297646
 21
-26.417953
  0
LINE
  8
0
 62
     4
 10
91.797646
 20
-22.883980
 11
96.797646
 21
-22.883980
  0
LINE
  8
0
 62
     4
 10
98.997643
 20
-26.517952
 11
96.797646
 21
-26.517952
  0
LINE
  8
0
 62
     4
 10
91.797646
 20
-26.517952
 11
89.597641
 21
-26.517952
  0
LINE
  8
0
 62
     4
 10
98.397644
 20
-26.517952
 11
98.397644
 21
-26.417953
  0
LINE
  8
0
 62
     4
 10
90.197639
 20
-26.517952
 11
90.197639
 21
-26.417953
  0
LINE
  8
0
 62
     4
 10
92.472641
 20
-31.517952
 11
92.472641
 21
-36.629288
  0
LINE
  8
0
 62
     4
 10
91.042641
 20
-31.517952
 11
91.042641
 21
-36.247948
  0
LINE
  8
0
 62
     1
 10
88.717644
 20
-35.627953
 11
99.815956
 21
-38.587502
  0
LINE
  8
0
 62
     1
 10
88.717636
 20
-36.867947
 11
99.815956
 21
-39.827499
  0
LINE
  8
0
 62
     4
 10
92.472641
 20
-37.869286
 11
92.472641
 21
-42.047951
  0
LINE
  8
0
 62
     4
 10
91.042641
 20
-37.487953
 11
91.042641
 21
-42.047951
  0
LINE
  8
0
 62
     4
 10
92.157639
 20
-42.047951
 11
92.157639
 21
-47.047951
  0
LINE
  8
0
 62
     4
 10
91.357643
 20
-42.047951
 11
91.357643
 21
-47.047951
  0
LINE
  8
0
 62
     4
 10
92.472641
 20
-42.047951
 11
91.042641
 21
-42.047951
  0
LINE
  8
0
 62
     4
 10
92.157639
 20
-47.047951
 11
91.357643
 21
-47.047951
  0
LINE
  8
0
 62
     4
 10
97.552643
 20
-31.517952
 11
97.552643
 21
-37.983948
  0
LINE
  8
0
 62
     4
 10
96.122643
 20
-31.517952
 11
96.122643
 21
-37.602615
  0
LINE
  8
0
 62
     4
 10
96.437645
 20
-47.047951
 11
97.237640
 21
-47.047951
  0
LINE
  8
0
 62
     4
 10
96.122643
 20
-42.047951
 11
97.552643
 21
-42.047951
  0
LINE
  8
0
 62
     4
 10
97.237640
 20
-42.047951
 11
97.237640
 21
-47.047951
  0
LINE
  8
0
 62
     4
 10
96.437645
 20
-42.047951
 11
96.437645
 21
-47.047951
  0
LINE
  8
0
 62
     4
 10
96.122643
 20
-38.842621
 11
96.122643
 21
-42.047951
  0
LINE
  8
0
 62
     4
 10
97.552643
 20
-39.223953
 11
97.552643
 21
-42.047951
  0
LINE
  8
0
 10
103.297646
 20
1.182049
 11
103.297646
 21
33.782051
  0
LINE
  8
0
 10
85.297638
 20
1.182049
 11
85.297638
 21
33.782051
  0
LINE
  8
0
 62
     4
 10
97.552650
 20
133.142059
 11
97.552650
 21
137.712051
  0
LINE
  8
0
 62
     4
 10
96.122650
 20
133.522049
 11
96.122650
 21
137.712051
  0
LINE
  8
0
 62
     4
 10
96.437645
 20
137.712051
 11
96.437645
 21
142.712051
  0
LINE
  8
0
 62
     4
 10
97.237648
 20
137.712051
 11
97.237648
 21
142.712051
  0
LINE
  8
0
 62
     4
 10
96.122650
 20
137.712051
 11
97.552650
 21
137.712051
  0
LINE
  8
0
 62
     4
 10
96.437645
 20
142.712051
 11
97.237648
 21
142.712051
  0
LINE
  8
0
 62
     4
 10
96.122650
 20
127.182053
 11
96.122650
 21
132.282043
  0
LINE
  8
0
 62
     4
 10
97.552650
 20
127.182053
 11
97.552650
 21
131.912048
  0
LINE
  8
0
 62
     4
 10
92.157646
 20
142.712051
 11
91.357651
 21
142.712051
  0
LINE
  8
0
 62
     4
 10
92.472649
 20
137.712051
 11
91.042648
 21
137.712051
  0
LINE
  8
0
 62
     4
 10
91.357651
 20
137.712051
 11
91.357651
 21
142.712051
  0
LINE
  8
0
 62
     4
 10
92.157646
 20
137.712051
 11
92.157646
 21
142.712051
  0
LINE
  8
0
 62
     4
 10
91.042648
 20
134.888046
 11
91.042648
 21
137.712051
  0
LINE
  8
0
 62
     4
 10
92.472649
 20
134.506714
 11
92.472649
 21
137.712051
  0
LINE
  8
0
 62
     1
 10
99.877647
 20
132.532043
 11
88.779335
 21
135.491592
  0
LINE
  8
0
 62
     1
 10
99.877647
 20
131.292053
 11
88.779335
 21
134.251602
  0
LINE
  8
0
 62
     4
 10
91.042648
 20
127.182053
 11
91.042648
 21
133.648041
  0
LINE
  8
0
 62
     4
 10
92.472649
 20
127.182053
 11
92.472649
 21
133.266724
  0
LINE
  8
0
 62
     4
 10
90.197647
 20
122.182053
 11
90.197647
 21
122.082047
  0
LINE
  8
0
 62
     4
 10
98.397644
 20
122.182053
 11
98.397644
 21
122.082047
  0
LINE
  8
0
 62
     4
 10
91.797646
 20
122.182053
 11
89.597649
 21
122.182053
  0
LINE
  8
0
 62
     4
 10
98.997650
 20
122.182053
 11
96.797646
 21
122.182053
  0
LINE
  8
0
 62
     4
 10
91.797646
 20
118.548073
 11
96.797646
 21
118.548073
  0
LINE
  8
0
 62
     4
 10
91.797646
 20
122.082047
 11
89.297646
 21
122.082047
  0
LINE
  8
0
 62
     4
 10
89.597649
 20
122.182053
 11
89.597649
 21
127.182053
  0
LINE
  8
0
 62
     4
 10
91.797646
 20
117.682053
 11
91.797646
 21
126.182053
  0
LINE
  8
0
 62
     4
 10
90.697647
 20
122.182053
 11
90.697647
 21
127.182053
  0
LINE
  8
0
 62
     4
 10
97.897644
 20
122.182053
 11
97.897644
 21
127.182053
  0
LINE
  8
0
 62
     4
 10
91.797646
 20
125.182053
 11
96.797646
 21
125.182053
  0
LINE
  8
0
 62
     4
 10
91.797646
 20
125.470718
 11
96.797646
 21
125.470718
  0
LINE
  8
0
 62
     4
 10
96.797646
 20
117.682053
 11
96.797646
 21
126.182053
  0
LINE
  8
0
 62
     4
 10
98.997650
 20
122.182053
 11
98.997650
 21
127.182053
  0
LINE
  8
0
 62
     4
 10
96.797646
 20
126.182053
 11
91.797646
 21
126.182053
  0
LINE
  8
0
 62
     4
 10
98.997650
 20
127.182053
 11
89.597649
 21
127.182053
  0
LINE
  8
0
 62
     4
 10
96.797646
 20
117.682053
 11
91.797646
 21
117.682053
  0
LINE
  8
0
 62
     1
 10
92.797646
 20
113.582047
 11
92.797646
 21
116.582047
  0
LINE
  8
0
 62
     1
 10
95.797646
 20
113.582047
 11
92.797646
 21
113.582047
  0
LINE
  8
0
 62
     1
 10
95.797646
 20
113.582047
 11
95.797646
 21
116.582047
  0
LINE
  8
0
 62
     4
 10
91.397644
 20
116.582047
 11
91.397644
 21
122.082047
  0
LINE
  8
0
 62
     4
 10
97.197647
 20
116.582047
 11
97.197647
 21
122.082047
  0
LINE
  8
0
 62
     4
 10
99.297646
 20
122.082047
 11
96.797646
 21
122.082047
  0
LINE
  8
0
 62
     4
 10
99.297646
 20
96.982048
 11
99.297646
 21
122.082047
  0
LINE
  8
0
 62
     4
 10
89.297646
 20
96.982048
 11
89.297646
 21
122.082047
  0
LINE
  8
0
 62
     4
 10
89.297646
 20
98.182053
 11
99.297646
 21
98.182053
  0
LINE
  8
0
 62
     4
 10
89.597649
 20
116.582047
 11
98.997650
 21
116.582047
  0
LINE
  8
0
 62
     4
 10
99.297646
 20
97.882050
 11
89.297646
 21
97.882050
  0
LINE
  8
0
 10
99.847649
 20
97.482048
 11
100.297646
 21
97.482048
  0
LINE
  8
0
 10
91.046532
 20
88.282043
 11
92.432175
 21
85.882050
  0
LINE
  8
0
 10
96.163116
 20
85.882042
 11
97.548759
 21
88.282051
  0
LINE
  8
0
 10
92.778587
 20
85.682053
 11
95.816704
 21
85.682053
  0
LINE
  8
0
 10
99.547646
 20
96.982048
 11
99.547646
 21
97.182053
  0
LINE
  8
0
 10
89.047646
 20
96.982048
 11
89.047646
 21
97.182053
  0
LINE
  8
0
 10
88.297646
 20
97.482048
 11
88.747650
 21
97.482048
  0
LINE
  8
0
 10
85.297646
 20
94.482048
 11
88.297638
 21
97.482040
  0
LINE
  8
0
 10
100.297646
 20
97.482048
 11
103.297646
 21
94.482048
  0
LINE
  8
0
 10
103.297646
 20
94.482048
 11
103.297646
 21
75.782051
  0
LINE
  8
0
 10
85.297646
 20
94.482048
 11
85.297646
 21
75.782051
  0
LINE
  8
0
 10
97.895164
 20
88.482048
 11
103.297646
 21
88.482048
  0
LINE
  8
0
 10
90.700127
 20
88.482048
 11
85.297646
 21
88.482048
  0
LINE
  8
0
 10
103.297646
 20
75.782051
 11
85.297646
 21
75.782051
  0
LINE
  8
0
 10
99.547646
 20
96.982048
 11
89.047646
 21
96.982048
  0
LINE
  8
0
 10
103.297646
 20
75.782051
 11
103.297646
 21
71.042999
  0
LINE
  8
0
 10
85.297646
 20
75.782051
 11
85.297646
 21
41.042999
  0
LINE
  8
0
 10
85.297646
 20
33.782051
 11
103.297646
 21
33.782051
  0
LINE
  8
0
  6
CENTER
 62
     2
 10
94.297646
 20
129.884369
 11
94.297646
 21
-33.372993
  0
LINE
  8
0
 10
85.297646
 20
19.882050
 11
103.297646
 21
19.882050
  0
LINE
  8
0
  6
CENTER
 62
     2
 10
75.297653
 20
129.884369
 11
75.297653
 21
-20.523293
  0
LINE
  8
0
 10
66.297646
 20
33.782051
 11
84.297646
 21
33.782051
  0
LINE
  8
0
 10
66.297646
 20
75.782051
 11
66.297646
 21
41.042999
  0
LINE
  8
0
 10
84.297646
 20
75.782051
 11
84.297646
 21
71.042999
  0
LINE
  8
0
 10
80.547646
 20
96.982048
 11
70.047646
 21
96.982048
  0
LINE
  8
0
 10
84.297646
 20
75.782051
 11
66.297646
 21
75.782051
  0
LINE
  8
0
 10
71.700127
 20
88.482048
 11
66.297646
 21
88.482048
  0
LINE
  8
0
 10
78.895172
 20
88.482048
 11
84.297646
 21
88.482048
  0
LINE
  8
0
 10
66.297646
 20
94.482048
 11
66.297646
 21
75.782051
  0
LINE
  8
0
 10
84.297646
 20
94.482048
 11
84.297646
 21
75.782051
  0
LINE
  8
0
 10
81.297646
 20
97.482048
 11
84.297646
 21
94.482048
  0
LINE
  8
0
 10
66.297638
 20
94.482040
 11
69.297646
 21
97.482048
  0
LINE
  8
0
 10
69.297646
 20
97.482048
 11
69.747650
 21
97.482048
  0
LINE
  8
0
 10
70.047646
 20
96.982048
 11
70.047646
 21
97.182053
  0
LINE
  8
0
 10
80.547646
 20
96.982048
 11
80.547646
 21
97.182053
  0
LINE
  8
0
 10
73.778587
 20
85.682053
 11
76.816711
 21
85.682053
  0
LINE
  8
0
 10
77.163116
 20
85.882042
 11
78.548759
 21
88.282051
  0
LINE
  8
0
 10
72.046539
 20
88.282051
 11
73.432175
 21
85.882050
  0
LINE
  8
0
 10
80.847641
 20
97.482048
 11
81.297646
 21
97.482048
  0
LINE
  8
0
 62
     4
 10
80.297646
 20
97.882050
 11
70.297646
 21
97.882050
  0
LINE
  8
0
 62
     4
 10
70.597649
 20
116.582047
 11
79.997650
 21
116.582047
  0
LINE
  8
0
 62
     4
 10
70.297646
 20
98.182053
 11
80.297646
 21
98.182053
  0
LINE
  8
0
 62
     4
 10
70.297646
 20
96.982048
 11
70.297646
 21
122.082047
  0
LINE
  8
0
 62
     4
 10
80.297646
 20
96.982048
 11
80.297646
 21
122.082047
  0
LINE
  8
0
 62
     4
 10
80.297653
 20
122.082047
 11
77.797653
 21
122.082047
  0
LINE
  8
0
 62
     4
 10
78.197647
 20
116.582047
 11
78.197647
 21
122.082047
  0
LINE
  8
0
 62
     4
 10
72.397644
 20
116.582047
 11
72.397644
 21
122.082047
  0
LINE
  8
0
 62
     1
 10
76.797646
 20
113.582047
 11
76.797646
 21
116.582047
  0
LINE
  8
0
 62
     1
 10
76.797646
 20
113.582047
 11
73.797646
 21
113.582047
  0
LINE
  8
0
 62
     1
 10
73.797646
 20
113.582047
 11
73.797646
 21
116.582047
  0
LINE
  8
0
 62
     4
 10
77.797646
 20
117.682053
 11
72.797646
 21
117.682053
  0
LINE
  8
0
 62
     4
 10
79.997650
 20
127.182053
 11
70.597649
 21
127.182053
  0
LINE
  8
0
 62
     4
 10
77.797653
 20
126.182053
 11
72.797653
 21
126.182053
  0
LINE
  8
0
 62
     4
 10
79.997650
 20
122.182053
 11
79.997650
 21
127.182053
  0
LINE
  8
0
 62
     4
 10
77.797646
 20
117.682053
 11
77.797646
 21
126.182053
  0
LINE
  8
0
 62
     4
 10
72.797653
 20
125.470726
 11
77.797653
 21
125.470726
  0
LINE
  8
0
 62
     4
 10
72.797653
 20
125.182053
 11
77.797653
 21
125.182053
  0
LINE
  8
0
 62
     4
 10
78.897644
 20
122.182053
 11
78.897644
 21
127.182053
  0
LINE
  8
0
 62
     4
 10
71.697647
 20
122.182053
 11
71.697647
 21
127.182053
  0
LINE
  8
0
 62
     4
 10
72.797646
 20
117.682053
 11
72.797646
 21
126.182053
  0
LINE
  8
0
 62
     4
 10
70.597649
 20
122.182053
 11
70.597649
 21
127.182053
  0
LINE
  8
0
 62
     4
 10
72.797653
 20
122.082047
 11
70.297653
 21
122.082047
  0
LINE
  8
0
 62
     4
 10
72.797646
 20
118.548080
 11
77.797646
 21
118.548080
  0
LINE
  8
0
 62
     4
 10
79.997650
 20
122.182053
 11
77.797653
 21
122.182053
  0
LINE
  8
0
 62
     4
 10
72.797653
 20
122.182053
 11
70.597649
 21
122.182053
  0
LINE
  8
0
 62
     4
 10
79.397644
 20
122.182053
 11
79.397644
 21
122.082047
  0
LINE
  8
0
 62
     4
 10
71.197647
 20
122.182053
 11
71.197647
 21
122.082047
  0
LINE
  8
0
 62
     4
 10
73.472649
 20
127.182053
 11
73.472649
 21
133.266724
  0
LINE
  8
0
 62
     4
 10
72.042648
 20
127.182053
 11
72.042648
 21
133.648041
  0
LINE
  8
0
 62
     1
 10
80.877647
 20
131.292068
 11
69.779335
 21
134.251617
  0
LINE
  8
0
 62
     1
 10
80.877647
 20
132.532043
 11
69.779335
 21
135.491592
  0
LINE
  8
0
 62
     4
 10
73.472649
 20
134.506714
 11
73.472649
 21
137.712051
  0
LINE
  8
0
 62
     4
 10
72.042648
 20
134.888046
 11
72.042648
 21
137.712051
  0
LINE
  8
0
 62
     4
 10
73.157646
 20
137.712051
 11
73.157646
 21
142.712051
  0
LINE
  8
0
 62
     4
 10
72.357651
 20
137.712051
 11
72.357651
 21
142.712051
  0
LINE
  8
0
 62
     4
 10
73.472649
 20
137.712051
 11
72.042648
 21
137.712051
  0
LINE
  8
0
 62
     4
 10
73.157654
 20
142.712051
 11
72.357651
 21
142.712051
  0
LINE
  8
0
 62
     4
 10
78.552643
 20
127.182053
 11
78.552643
 21
131.912048
  0
LINE
  8
0
 62
     4
 10
77.122650
 20
127.182053
 11
77.122650
 21
132.282043
  0
LINE
  8
0
 62
     4
 10
77.437653
 20
142.712051
 11
78.237648
 21
142.712051
  0
LINE
  8
0
 62
     4
 10
77.122650
 20
137.712051
 11
78.552643
 21
137.712051
  0
LINE
  8
0
 62
     4
 10
78.237648
 20
137.712051
 11
78.237648
 21
142.712051
  0
LINE
  8
0
 62
     4
 10
77.437653
 20
137.712051
 11
77.437653
 21
142.712051
  0
LINE
  8
0
 62
     4
 10
77.122650
 20
133.522049
 11
77.122650
 21
137.712051
  0
LINE
  8
0
 62
     4
 10
78.552643
 20
133.142059
 11
78.552643
 21
137.712051
  0
LINE
  8
0
 10
66.297646
 20
15.082050
 11
66.297646
 21
33.782051
  0
LINE
  8
0
 10
84.297646
 20
15.082050
 11
84.297646
 21
33.782051
  0
LINE
  8
0
 62
     4
 10
78.552643
 20
-25.323952
 11
78.552643
 21
-28.147949
  0
LINE
  8
0
 62
     4
 10
77.122643
 20
-24.942619
 11
77.122643
 21
-28.147949
  0
LINE
  8
0
 62
     4
 10
77.437637
 20
-28.147949
 11
77.437637
 21
-33.147949
  0
LINE
  8
0
 62
     4
 10
78.237640
 20
-28.147949
 11
78.237640
 21
-33.147949
  0
LINE
  8
0
 62
     4
 10
77.122643
 20
-28.147949
 11
78.552643
 21
-28.147949
  0
LINE
  8
0
 62
     4
 10
77.437637
 20
-33.147949
 11
78.237640
 21
-33.147949
  0
LINE
  8
0
 62
     4
 10
77.122643
 20
-17.617950
 11
77.122643
 21
-23.702614
  0
LINE
  8
0
 62
     4
 10
78.552643
 20
-17.617950
 11
78.552643
 21
-24.083954
  0
LINE
  8
0
 62
     4
 10
73.157639
 20
-33.147949
 11
72.357643
 21
-33.147949
  0
LINE
  8
0
 62
     4
 10
73.472641
 20
-28.147949
 11
72.042641
 21
-28.147949
  0
LINE
  8
0
 62
     4
 10
72.357643
 20
-28.147949
 11
72.357643
 21
-33.147949
  0
LINE
  8
0
 62
     4
 10
73.157639
 20
-28.147949
 11
73.157639
 21
-33.147949
  0
LINE
  8
0
 62
     4
 10
72.042648
 20
-23.587952
 11
72.042648
 21
-28.147949
  0
LINE
  8
0
 62
     4
 10
73.472641
 20
-23.969284
 11
73.472641
 21
-28.147949
  0
LINE
  8
0
 62
     1
 10
69.717644
 20
-22.967951
 11
80.815956
 21
-25.927500
  0
LINE
  8
0
 62
     1
 10
69.717644
 20
-21.727947
 11
80.815956
 21
-24.687498
  0
LINE
  8
0
 62
     4
 10
72.042648
 20
-17.617950
 11
72.042648
 21
-22.347954
  0
LINE
  8
0
 62
     4
 10
73.472641
 20
-17.617950
 11
73.472641
 21
-22.729286
  0
LINE
  8
0
 62
     4
 10
71.197647
 20
-12.617950
 11
71.197647
 21
-12.517952
  0
LINE
  8
0
 62
     4
 10
79.397644
 20
-12.617950
 11
79.397644
 21
-12.517952
  0
LINE
  8
0
 62
     4
 10
72.797638
 20
-12.617950
 11
70.597641
 21
-12.617950
  0
LINE
  8
0
 62
     4
 10
79.997643
 20
-12.617950
 11
77.797638
 21
-12.617950
  0
LINE
  8
0
 62
     4
 10
72.797638
 20
-8.983978
 11
77.797638
 21
-8.983978
  0
LINE
  8
0
 62
     4
 10
72.797638
 20
-12.517952
 11
70.297638
 21
-12.517952
  0
LINE
  8
0
 62
     4
 10
70.597641
 20
-12.617950
 11
70.597641
 21
-17.617950
  0
LINE
  8
0
 62
     4
 10
72.797638
 20
-8.117950
 11
72.797638
 21
-16.617950
  0
LINE
  8
0
 62
     4
 10
71.697647
 20
-12.617950
 11
71.697647
 21
-17.617950
  0
LINE
  8
0
 62
     4
 10
78.897644
 20
-12.617950
 11
78.897644
 21
-17.617950
  0
LINE
  8
0
 62
     4
 10
72.797638
 20
-15.617950
 11
77.797638
 21
-15.617950
  0
LINE
  8
0
 62
     4
 10
72.797638
 20
-15.906624
 11
77.797638
 21
-15.906624
  0
LINE
  8
0
 62
     4
 10
77.797638
 20
-8.117950
 11
77.797638
 21
-16.617950
  0
LINE
  8
0
 62
     4
 10
79.997643
 20
-12.617950
 11
79.997643
 21
-17.617950
  0
LINE
  8
0
 62
     4
 10
77.797638
 20
-16.617950
 11
72.797638
 21
-16.617950
  0
LINE
  8
0
 62
     4
 10
79.997643
 20
-17.617950
 11
70.597641
 21
-17.617950
  0
LINE
  8
0
 62
     4
 10
77.797638
 20
-8.117950
 11
72.797638
 21
-8.117950
  0
LINE
  8
0
 62
     1
 10
73.797638
 20
-4.017952
 11
73.797638
 21
-7.017952
  0
LINE
  8
0
 62
     1
 10
76.797638
 20
-4.017952
 11
73.797638
 21
-4.017952
  0
LINE
  8
0
 62
     1
 10
76.797638
 20
-4.017952
 11
76.797638
 21
-7.017952
  0
LINE
  8
0
 62
     4
 10
72.397644
 20
-7.017952
 11
72.397644
 21
-12.517952
  0
LINE
  8
0
 62
     4
 10
78.197647
 20
-7.017952
 11
78.197647
 21
-12.517952
  0
LINE
  8
0
 62
     4
 10
80.297638
 20
-12.517952
 11
77.797638
 21
-12.517952
  0
LINE
  8
0
 62
     4
 10
80.297646
 20
12.582050
 11
80.297646
 21
-12.517952
  0
LINE
  8
0
 62
     4
 10
70.297646
 20
12.582050
 11
70.297646
 21
-12.517952
  0
LINE
  8
0
 62
     4
 10
70.297646
 20
11.382050
 11
80.297646
 21
11.382050
  0
LINE
  8
0
 62
     4
 10
70.597641
 20
-7.017952
 11
79.997643
 21
-7.017952
  0
LINE
  8
0
 62
     4
 10
80.297646
 20
11.682049
 11
70.297646
 21
11.682049
  0
LINE
  8
0
 10
80.847641
 20
12.082050
 11
81.297646
 21
12.082050
  0
LINE
  8
0
 10
72.046532
 20
21.282047
 11
73.432175
 21
23.682047
  0
LINE
  8
0
 10
77.163109
 20
23.682047
 11
78.548744
 21
21.282045
  0
LINE
  8
0
 10
73.778580
 20
23.882050
 11
76.816704
 21
23.882050
  0
LINE
  8
0
 10
80.547646
 20
12.582050
 11
80.547646
 21
12.382050
  0
LINE
  8
0
 10
70.047646
 20
12.582050
 11
70.047646
 21
12.382050
  0
LINE
  8
0
 10
69.297646
 20
12.082050
 11
69.747643
 21
12.082050
  0
LINE
  8
0
 10
66.297646
 20
15.082051
 11
69.297646
 21
12.082048
  0
LINE
  8
0
 10
81.297638
 20
12.082051
 11
84.297646
 21
15.082050
  0
LINE
  8
0
 10
78.895164
 20
21.082050
 11
84.297646
 21
21.082050
  0
LINE
  8
0
 10
71.700119
 20
21.082050
 11
66.297646
 21
21.082050
  0
LINE
  8
0
 10
80.547646
 20
12.582050
 11
70.047646
 21
12.582050
  0
LINE
  8
0
  6
CENTER
 62
     2
 10
56.297649
 20
129.884369
 11
56.297649
 21
18.830807
  0
LINE
  8
0
 10
47.297646
 20
33.782051
 11
65.297646
 21
33.782051
  0
LINE
  8
0
 10
47.297646
 20
75.782051
 11
47.297646
 21
41.042999
  0
LINE
  8
0
 10
65.297646
 20
75.782051
 11
65.297646
 21
71.042999
  0
LINE
  8
0
 10
61.547646
 20
96.982048
 11
51.047646
 21
96.982048
  0
LINE
  8
0
 10
65.297646
 20
75.782051
 11
47.297646
 21
75.782051
  0
LINE
  8
0
 10
52.700127
 20
88.482048
 11
47.297646
 21
88.482048
  0
LINE
  8
0
 10
59.895168
 20
88.482048
 11
65.297646
 21
88.482048
  0
LINE
  8
0
 10
47.297646
 20
94.482048
 11
47.297646
 21
75.782051
  0
LINE
  8
0
 10
65.297646
 20
94.482048
 11
65.297646
 21
75.782051
  0
LINE
  8
0
 10
62.297646
 20
97.482048
 11
65.297646
 21
94.482048
  0
LINE
  8
0
 10
47.297642
 20
94.482040
 11
50.297646
 21
97.482048
  0
LINE
  8
0
 10
50.297646
 20
97.482056
 11
50.747646
 21
97.482056
  0
LINE
  8
0
 10
51.047646
 20
96.982056
 11
51.047646
 21
97.182053
  0
LINE
  8
0
 10
61.547646
 20
96.982048
 11
61.547646
 21
97.182053
  0
LINE
  8
0
 10
54.778587
 20
85.682053
 11
57.816708
 21
85.682053
  0
LINE
  8
0
 10
58.163116
 20
85.882050
 11
59.548759
 21
88.282051
  0
LINE
  8
0
 10
53.046532
 20
88.282051
 11
54.432175
 21
85.882050
  0
LINE
  8
0
 10
61.847645
 20
97.482048
 11
62.297646
 21
97.482048
  0
LINE
  8
0
 62
     4
 10
61.297646
 20
97.882050
 11
51.297646
 21
97.882050
  0
LINE
  8
0
 62
     4
 10
51.597649
 20
116.582047
 11
60.997646
 21
116.582047
  0
LINE
  8
0
 62
     4
 10
51.297646
 20
98.182053
 11
61.297646
 21
98.182053
  0
LINE
  8
0
 62
     4
 10
51.297646
 20
96.982056
 11
51.297646
 21
122.082047
  0
LINE
  8
0
 62
     4
 10
61.297646
 20
96.982048
 11
61.297646
 21
122.082047
  0
LINE
  8
0
 62
     4
 10
61.297649
 20
122.082047
 11
58.797649
 21
122.082047
  0
LINE
  8
0
 62
     4
 10
59.197647
 20
116.582047
 11
59.197647
 21
122.082047
  0
LINE
  8
0
 62
     4
 10
53.397648
 20
116.582047
 11
53.397648
 21
122.082047
  0
LINE
  8
0
 62
     1
 10
57.797646
 20
113.582047
 11
57.797646
 21
116.582047
  0
LINE
  8
0
 62
     1
 10
57.797646
 20
113.582047
 11
54.797646
 21
113.582047
  0
LINE
  8
0
 62
     1
 10
54.797646
 20
113.582047
 11
54.797646
 21
116.582047
  0
LINE
  8
0
 62
     4
 10
58.797646
 20
117.682053
 11
53.797646
 21
117.682053
  0
LINE
  8
0
 62
     4
 10
60.997646
 20
127.182053
 11
51.597649
 21
127.182053
  0
LINE
  8
0
 62
     4
 10
58.797649
 20
126.182053
 11
53.797646
 21
126.182053
  0
LINE
  8
0
 62
     4
 10
60.997646
 20
122.182053
 11
60.997646
 21
127.182053
  0
LINE
  8
0
 62
     4
 10
58.797646
 20
117.682053
 11
58.797646
 21
126.182053
  0
LINE
  8
0
 62
     4
 10
53.797646
 20
125.470726
 11
58.797649
 21
125.470726
  0
LINE
  8
0
 62
     4
 10
53.797646
 20
125.182053
 11
58.797649
 21
125.182053
  0
LINE
  8
0
 62
     4
 10
59.897648
 20
122.182053
 11
59.897648
 21
127.182053
  0
LINE
  8
0
 62
     4
 10
52.697647
 20
122.182053
 11
52.697647
 21
127.182053
  0
LINE
  8
0
 62
     4
 10
53.797646
 20
117.682053
 11
53.797646
 21
126.182053
  0
LINE
  8
0
 62
     4
 10
51.597649
 20
122.182053
 11
51.597649
 21
127.182053
  0
LINE
  8
0
 62
     4
 10
53.797646
 20
122.082047
 11
51.297646
 21
122.082047
  0
LINE
  8
0
 62
     4
 10
53.797646
 20
118.548080
 11
58.797646
 21
118.548080
  0
LINE
  8
0
 10
53.497643
 20
28.282051
 11
53.497643
 21
25.882050
  0
LINE
  8
0
 10
47.797646
 20
25.382050
 11
64.797646
 21
25.382050
  0
LINE
  8
0
 10
47.497643
 20
28.782051
 11
52.997643
 21
28.782051
  0
LINE
  8
0
 10
47.497643
 20
27.602051
 11
47.497643
 21
28.782051
  0
LINE
  8
0
 10
53.097645
 20
27.602051
 11
53.097645
 21
28.782051
  0
LINE
  8
0
 62
     4
 10
60.997646
 20
122.182053
 11
58.797649
 21
122.182053
  0
LINE
  8
0
 62
     4
 10
53.797646
 20
122.182053
 11
51.597649
 21
122.182053
  0
LINE
  8
0
 62
     4
 10
60.397648
 20
122.182053
 11
60.397648
 21
122.082047
  0
LINE
  8
0
 62
     4
 10
52.197647
 20
122.182053
 11
52.197647
 21
122.082047
  0
LINE
  8
0
 62
     4
 10
54.472649
 20
127.182053
 11
54.472649
 21
133.266724
  0
LINE
  8
0
 62
     4
 10
53.042648
 20
127.182053
 11
53.042648
 21
133.648041
  0
LINE
  8
0
 62
     1
 10
61.877647
 20
131.292053
 11
50.779335
 21
134.251602
  0
LINE
  8
0
 62
     1
 10
61.877647
 20
132.532059
 11
50.779335
 21
135.491608
  0
LINE
  8
0
 62
     4
 10
54.472649
 20
134.506714
 11
54.472649
 21
137.712051
  0
LINE
  8
0
 62
     4
 10
53.042648
 20
134.888062
 11
53.042648
 21
137.712051
  0
LINE
  8
0
 62
     4
 10
54.157646
 20
137.712051
 11
54.157646
 21
142.712051
  0
LINE
  8
0
 62
     4
 10
53.357651
 20
137.712051
 11
53.357651
 21
142.712051
  0
LINE
  8
0
 62
     4
 10
54.472649
 20
137.712051
 11
53.042648
 21
137.712051
  0
LINE
  8
0
 62
     4
 10
54.157646
 20
142.712051
 11
53.357651
 21
142.712051
  0
LINE
  8
0
 62
     4
 10
59.552647
 20
127.182053
 11
59.552647
 21
131.912048
  0
LINE
  8
0
 62
     4
 10
58.122646
 20
127.182053
 11
58.122646
 21
132.282043
  0
LINE
  8
0
 62
     4
 10
58.437649
 20
142.712051
 11
59.237648
 21
142.712051
  0
LINE
  8
0
 62
     4
 10
58.122646
 20
137.712051
 11
59.552647
 21
137.712051
  0
LINE
  8
0
 62
     4
 10
59.237648
 20
137.712051
 11
59.237648
 21
142.712051
  0
LINE
  8
0
 62
     4
 10
58.437649
 20
137.712051
 11
58.437649
 21
142.712051
  0
LINE
  8
0
 62
     4
 10
58.122646
 20
133.522049
 11
58.122646
 21
137.712051
  0
LINE
  8
0
 62
     4
 10
59.552647
 20
133.142059
 11
59.552647
 21
137.712051
  0
LINE
  8
0
  6
CENTER
 62
     2
 10
37.297646
 20
129.884369
 11
37.297646
 21
18.830807
  0
LINE
  8
0
 10
28.297646
 20
33.782051
 11
46.297646
 21
33.782051
  0
LINE
  8
0
 10
28.297646
 20
75.782051
 11
28.297646
 21
41.042999
  0
LINE
  8
0
 10
46.297646
 20
75.782051
 11
46.297646
 21
71.042999
  0
LINE
  8
0
 10
42.547646
 20
96.982056
 11
32.047646
 21
96.982056
  0
LINE
  8
0
 10
46.297646
 20
75.782051
 11
28.297646
 21
75.782051
  0
LINE
  8
0
 10
33.700127
 20
88.482048
 11
28.297646
 21
88.482048
  0
LINE
  8
0
 10
40.895164
 20
88.482048
 11
46.297646
 21
88.482048
  0
LINE
  8
0
 10
28.297646
 20
94.482056
 11
28.297646
 21
75.782051
  0
LINE
  8
0
 10
46.297646
 20
94.482048
 11
46.297646
 21
75.782051
  0
LINE
  8
0
 10
43.297642
 20
97.482048
 11
46.297642
 21
94.482040
  0
LINE
  8
0
 10
28.297642
 20
94.482048
 11
31.297644
 21
97.482048
  0
LINE
  8
0
 10
31.297646
 20
97.482056
 11
31.747646
 21
97.482056
  0
LINE
  8
0
 10
32.047646
 20
96.982056
 11
32.047646
 21
97.182053
  0
LINE
  8
0
 10
42.547646
 20
96.982056
 11
42.547646
 21
97.182053
  0
LINE
  8
0
 10
35.778587
 20
85.682053
 11
38.816704
 21
85.682053
  0
LINE
  8
0
 10
39.163120
 20
85.882050
 11
40.548756
 21
88.282051
  0
LINE
  8
0
 10
34.046535
 20
88.282051
 11
35.432178
 21
85.882050
  0
LINE
  8
0
 10
42.847649
 20
97.482056
 11
43.297646
 21
97.482056
  0
LINE
  8
0
 62
     4
 10
42.297646
 20
97.882050
 11
32.297646
 21
97.882050
  0
LINE
  8
0
 62
     4
 10
32.597649
 20
116.582047
 11
41.997650
 21
116.582047
  0
LINE
  8
0
 62
     4
 10
32.297646
 20
98.182053
 11
42.297646
 21
98.182053
  0
LINE
  8
0
 62
     4
 10
32.297646
 20
96.982056
 11
32.297646
 21
122.082047
  0
LINE
  8
0
 62
     4
 10
42.297646
 20
96.982056
 11
42.297646
 21
122.082047
  0
LINE
  8
0
 62
     4
 10
42.297646
 20
122.082047
 11
39.797646
 21
122.082047
  0
LINE
  8
0
 62
     4
 10
40.197647
 20
116.582047
 11
40.197647
 21
122.082047
  0
LINE
  8
0
 62
     4
 10
34.397648
 20
116.582047
 11
34.397648
 21
122.082047
  0
LINE
  8
0
 62
     1
 10
38.797646
 20
113.582047
 11
38.797646
 21
116.582047
  0
LINE
  8
0
 62
     1
 10
38.797646
 20
113.582047
 11
35.797646
 21
113.582047
  0
LINE
  8
0
 62
     1
 10
35.797646
 20
113.582047
 11
35.797646
 21
116.582047
  0
LINE
  8
0
 62
     4
 10
39.797646
 20
117.682053
 11
34.797646
 21
117.682053
  0
LINE
  8
0
 62
     4
 10
41.997650
 20
127.182053
 11
32.597649
 21
127.182053
  0
LINE
  8
0
 62
     4
 10
39.797646
 20
126.182053
 11
34.797646
 21
126.182053
  0
LINE
  8
0
 62
     4
 10
41.997650
 20
122.182053
 11
41.997650
 21
127.182053
  0
LINE
  8
0
 62
     4
 10
39.797646
 20
117.682053
 11
39.797646
 21
126.182053
  0
LINE
  8
0
 62
     4
 10
34.797646
 20
125.470726
 11
39.797646
 21
125.470726
  0
LINE
  8
0
 62
     4
 10
34.797646
 20
125.182053
 11
39.797646
 21
125.182053
  0
LINE
  8
0
 62
     4
 10
40.897648
 20
122.182053
 11
40.897648
 21
127.182053
  0
LINE
  8
0
 62
     4
 10
33.697647
 20
122.182053
 11
33.697647
 21
127.182053
  0
LINE
  8
0
 62
     4
 10
34.797646
 20
117.682053
 11
34.797646
 21
126.182053
  0
LINE
  8
0
 62
     4
 10
32.597649
 20
122.182053
 11
32.597649
 21
127.182053
  0
LINE
  8
0
 62
     4
 10
34.797646
 20
122.082047
 11
32.297646
 21
122.082047
  0
LINE
  8
0
 62
     4
 10
34.797646
 20
118.548080
 11
39.797646
 21
118.548080
  0
LINE
  8
0
 10
34.497643
 20
28.282051
 11
34.497643
 21
25.882050
  0
LINE
  8
0
 10
28.797644
 20
25.382050
 11
45.797646
 21
25.382050
  0
LINE
  8
0
 10
28.497644
 20
28.782051
 11
33.997643
 21
28.782051
  0
LINE
  8
0
 10
28.497644
 20
27.602051
 11
28.497644
 21
28.782051
  0
LINE
  8
0
 10
34.097645
 20
27.602051
 11
34.097645
 21
28.782051
  0
LINE
  8
0
 62
     4
 10
41.997650
 20
122.182053
 11
39.797646
 21
122.182053
  0
LINE
  8
0
 62
     4
 10
34.797646
 20
122.182053
 11
32.597649
 21
122.182053
  0
LINE
  8
0
 62
     4
 10
41.397648
 20
122.182053
 11
41.397648
 21
122.082047
  0
LINE
  8
0
 62
     4
 10
33.197647
 20
122.182053
 11
33.197647
 21
122.082047
  0
LINE
  8
0
 62
     4
 10
35.472649
 20
127.182053
 11
35.472649
 21
133.266724
  0
LINE
  8
0
 62
     4
 10
34.042648
 20
127.182053
 11
34.042648
 21
133.648041
  0
LINE
  8
0
 62
     1
 10
42.877647
 20
131.292053
 11
31.779335
 21
134.251602
  0
LINE
  8
0
 62
     1
 10
42.877647
 20
132.532059
 11
31.779333
 21
135.491608
  0
LINE
  8
0
 62
     4
 10
35.472649
 20
134.506714
 11
35.472649
 21
137.712051
  0
LINE
  8
0
 62
     4
 10
34.042648
 20
134.888062
 11
34.042648
 21
137.712051
  0
LINE
  8
0
 62
     4
 10
35.157646
 20
137.712051
 11
35.157646
 21
142.712051
  0
LINE
  8
0
 62
     4
 10
34.357647
 20
137.712051
 11
34.357647
 21
142.712051
  0
LINE
  8
0
 62
     4
 10
35.472649
 20
137.712051
 11
34.042648
 21
137.712051
  0
LINE
  8
0
 62
     4
 10
35.157646
 20
142.712051
 11
34.357647
 21
142.712051
  0
LINE
  8
0
 62
     4
 10
40.552650
 20
127.182053
 11
40.552650
 21
131.912048
  0
LINE
  8
0
 62
     4
 10
39.122646
 20
127.182053
 11
39.122646
 21
132.282043
  0
LINE
  8
0
 62
     4
 10
39.437649
 20
142.712051
 11
40.237648
 21
142.712051
  0
LINE
  8
0
 62
     4
 10
39.122650
 20
137.712051
 11
40.552650
 21
137.712051
  0
LINE
  8
0
 62
     4
 10
40.237648
 20
137.712051
 11
40.237648
 21
142.712051
  0
LINE
  8
0
 62
     4
 10
39.437649
 20
137.712051
 11
39.437649
 21
142.712051
  0
LINE
  8
0
 62
     4
 10
39.122650
 20
133.522049
 11
39.122650
 21
137.712051
  0
LINE
  8
0
 62
     4
 10
40.552650
 20
133.142059
 11
40.552650
 21
137.712051
  0
LINE
  8
0
 10
42.383434
 20
71.196266
 11
45.211861
 21
68.367836
  0
LINE
  8
0
 10
41.817753
 20
67.802155
 11
45.777546
 21
71.761940
  0
LINE
  8
0
 10
28.817745
 20
37.802151
 11
32.777542
 21
41.761948
  0
LINE
  8
0
 10
29.383429
 20
41.196266
 11
32.211857
 21
38.367836
  0
LINE
  8
0
  6
CENTER
 62
     2
 10
19.797646
 20
44.782051
 11
26.797646
 21
44.782051
  0
LINE
  8
0
  6
CENTER
 62
     2
 10
23.297646
 20
48.282051
 11
23.297646
 21
41.282051
  0
LINE
  8
0
  6
CENTER
 62
     2
 10
23.297646
 20
68.282051
 11
23.297646
 21
61.282051
  0
LINE
  8
0
  6
CENTER
 62
     2
 10
19.797646
 20
64.782051
 11
26.797646
 21
64.782051
  0
LINE
  8
0
 10
132.297638
 20
91.782043
 11
132.297638
 21
17.782047
  0
LINE
  8
0
  6
CENTER
 62
     2
 10
127.297646
 20
68.282051
 11
127.297646
 21
61.282047
  0
LINE
  8
0
  6
CENTER
 62
     2
 10
127.297646
 20
48.282047
 11
127.297646
 21
41.282047
  0
LINE
  8
0
  6
CENTER
 62
     2
 10
123.797646
 20
44.782047
 11
130.797638
 21
44.782047
  0
LINE
  8
0
  6
CENTER
 62
     2
 10
123.797646
 20
64.782051
 11
130.797638
 21
64.782051
  0
LINE
  8
0
 10
18.297646
 20
91.782051
 11
18.297646
 21
17.782051
  0
LINE
  8
0
  6
CENTER
 62
     2
 10
-113.114799
 20
39.782051
 11
-105.555588
 21
39.782051
  0
LINE
  8
0
  6
CENTER
 62
     2
 10
-113.114799
 20
69.782051
 11
-105.555588
 21
69.782051
  0
LINE
  8
0
 10
-271.250000
 20
15.000000
 11
-271.250000
 21
-185.000000
  0
LINE
  8
0
 10
-222.250000
 20
15.000000
 11
-222.250000
 21
-185.000000
  0
LINE
  8
0
 10
-189.250000
 20
15.000000
 11
-189.250000
 21
-185.000000
  0
LINE
  8
0
 10
-271.250000
 20
15.000000
 11
-159.250000
 21
15.000000
  0
LINE
  8
0
 10
-271.250000
 20
5.000000
 11
-159.250000
 21
5.000000
  0
LINE
  8
0
 10
-271.250000
 20
-5.000000
 11
-159.250000
 21
-5.000000
  0
LINE
  8
0
 10
-271.250000
 20
-15.000000
 11
-159.250000
 21
-15.000000
  0
LINE
  8
0
 10
-271.250000
 20
-25.000000
 11
-159.250000
 21
-25.000000
  0
LINE
  8
0
 10
-271.250000
 20
-35.000000
 11
-159.250000
 21
-35.000000
  0
LINE
  8
0
 10
-271.250000
 20
-45.000000
 11
-159.250000
 21
-45.000000
  0
LINE
  8
0
 10
-271.250000
 20
-55.000000
 11
-159.250000
 21
-55.000000
  0
LINE
  8
0
 10
-271.250000
 20
-65.000000
 11
-159.250000
 21
-65.000000
  0
LINE
  8
0
 10
-271.250000
 20
-75.000000
 11
-159.250000
 21
-75.000000
  0
LINE
  8
0
 10
-271.250000
 20
-85.000000
 11
-159.250000
 21
-85.000000
  0
LINE
  8
0
 10
-271.250000
 20
-95.000000
 11
-159.250000
 21
-95.000000
  0
LINE
  8
0
 10
-271.250000
 20
-105.000000
 11
-159.250000
 21
-105.000000
  0
LINE
  8
0
 10
-271.250000
 20
-115.000000
 11
-159.250000
 21
-115.000000
  0
LINE
  8
0
 10
-271.250000
 20
-125.000000
 11
-159.250000
 21
-125.000000
  0
LINE
  8
0
 10
-271.250000
 20
-135.000000
 11
-159.250000
 21
-135.000000
  0
LINE
  8
0
 10
-271.250000
 20
-145.000000
 11
-159.250000
 21
-145.000000
  0
LINE
  8
0
 10
-271.250000
 20
-155.000000
 11
-159.250000
 21
-155.000000
  0
LINE
  8
0
 10
-271.250000
 20
-165.000000
 11
-159.250000
 21
-165.000000
  0
LINE
  8
0
 10
-271.250000
 20
-175.000000
 11
-159.250000
 21
-175.000000
  0
LINE
  8
0
 10
-271.250000
 20
-185.000000
 11
-159.250000
 21
-185.000000
  0
LINE
  8
0
 10
-159.250000
 20
15.000000
 11
-159.250000
 21
-185.000000
  0
LINE
  8
0
 10
282.099854
 20
195.500000
 11
282.099854
 21
-195.000000
  0
LINE
  8
0
 10
-281.250000
 20
195.500000
 11
282.099854
 21
195.500000
  0
LINE
  8
0
 10
-281.250000
 20
195.500000
 11
-281.250000
 21
-195.000000
  0
LINE
  8
0
 10
-281.250000
 20
-195.000000
 11
282.099854
 21
-195.000000
  0
LINE
  8
0
 10
162.099976
 20
-175.000000
 11
162.099976
 21
-195.000000
  0
LINE
  8
0
 10
162.099976
 20
-175.000000
 11
282.099854
 21
-175.000000
  0
LINE
  8
0
 10
162.099976
 20
175.500000
 11
282.099854
 21
175.500000
  0
LINE
  8
0
 10
-281.250000
 20
175.500000
 11
-161.250000
 21
175.500000
  0
LINE
  8
0
 10
162.099976
 20
195.500000
 11
162.099976
 21
175.500000
  0
LINE
  8
0
 10
-161.250000
 20
195.500000
 11
-161.250000
 21
175.500000
  0
CIRCLE
  8
0
 62
     4
 10
31.297646
 20
-151.057159
 40
2.500000
  0
ARC
  8
0
 62
     4
 10
107.297646
 20
-151.057159
 40
4.999012
 50
348.577606
 51
11.422379
  0
ARC
  8
0
 62
     4
 10
115.297646
 20
-168.557175
 40
4.900002
 50
0.000000
 51
180.000000
  0
CIRCLE
  8
0
 62
     4
 10
115.297646
 20
-169.557175
 40
3.000000
  0
ARC
  8
0
 62
     4
 10
115.297646
 20
-169.557175
 40
4.999012
 50
348.577606
 51
11.422379
  0
ARC
  8
0
 62
     4
 10
115.297646
 20
-169.557175
 40
4.999012
 50
168.577621
 51
191.422379
  0
ARC
  8
0
 62
     4
 10
115.297646
 20
-170.557175
 40
4.900002
 50
180.000000
 51
0.000000
  0
CIRCLE
  8
0
 62
     4
 10
107.297646
 20
-151.057159
 40
3.000000
  0
ARC
  8
0
 62
     4
 10
107.297646
 20
-151.057159
 40
4.999012
 50
168.577621
 51
191.422379
  0
ARC
  8
0
 62
     4
 10
107.297646
 20
-152.057159
 40
4.900002
 50
180.000000
 51
0.000000
  0
ARC
  8
0
 62
     4
 10
107.297646
 20
-150.057159
 40
4.900002
 50
0.000000
 51
180.000000
  0
ARC
  8
0
 62
     4
 10
88.297646
 20
-151.057159
 40
4.999012
 50
348.577606
 51
11.422379
  0
ARC
  8
0
 62
     4
 10
96.297646
 20
-168.557175
 40
4.900002
 50
0.000000
 51
180.000000
  0
CIRCLE
  8
0
 62
     4
 10
96.297646
 20
-169.557175
 40
3.000000
  0
ARC
  8
0
 62
     4
 10
96.297646
 20
-169.557175
 40
4.999012
 50
348.577606
 51
11.422379
  0
ARC
  8
0
 62
     4
 10
96.297646
 20
-169.557175
 40
4.999012
 50
168.577621
 51
191.422379
  0
ARC
  8
0
 62
     4
 10
96.297646
 20
-170.557175
 40
4.900002
 50
180.000000
 51
0.000000
  0
CIRCLE
  8
0
 62
     4
 10
88.297646
 20
-151.057159
 40
3.000000
  0
ARC
  8
0
 62
     4
 10
88.297646
 20
-151.057159
 40
4.999012
 50
168.577621
 51
191.422379
  0
ARC
  8
0
 62
     4
 10
88.297646
 20
-152.057159
 40
4.900002
 50
180.000000
 51
0.000000
  0
ARC
  8
0
 62
     4
 10
88.297646
 20
-150.057159
 40
4.900002
 50
0.000000
 51
180.000000
  0
ARC
  8
0
 62
     4
 10
69.297646
 20
-151.057159
 40
4.999012
 50
348.577606
 51
11.422379
  0
ARC
  8
0
 62
     4
 10
77.297646
 20
-168.557175
 40
4.900002
 50
0.000000
 51
180.000000
  0
CIRCLE
  8
0
 62
     4
 10
77.297646
 20
-169.557175
 40
3.000000
  0
ARC
  8
0
 62
     4
 10
77.297646
 20
-169.557175
 40
4.999012
 50
348.577606
 51
11.422379
  0
ARC
  8
0
 62
     4
 10
77.297646
 20
-169.557175
 40
4.999012
 50
168.577621
 51
191.422379
  0
ARC
  8
0
 62
     4
 10
77.297646
 20
-170.557175
 40
4.900002
 50
180.000000
 51
0.000000
  0
CIRCLE
  8
0
 62
     4
 10
69.297646
 20
-151.057159
 40
3.000000
  0
ARC
  8
0
 62
     4
 10
69.297646
 20
-151.057159
 40
4.999012
 50
168.577621
 51
191.422379
  0
ARC
  8
0
 62
     4
 10
69.297646
 20
-152.057159
 40
4.900002
 50
180.000000
 51
0.000000
  0
ARC
  8
0
 62
     4
 10
69.297646
 20
-150.057159
 40
4.900002
 50
0.000000
 51
180.000000
  0
ARC
  8
0
 62
     4
 10
50.297646
 20
-151.057159
 40
4.999012
 50
348.577606
 51
11.422379
  0
ARC
  8
0
 62
     4
 10
58.297646
 20
-168.557175
 40
4.900002
 50
0.000000
 51
180.000000
  0
CIRCLE
  8
0
 62
     4
 10
58.297646
 20
-169.557175
 40
3.000000
  0
ARC
  8
0
 62
     4
 10
58.297646
 20
-169.557175
 40
4.999012
 50
348.577606
 51
11.422379
  0
ARC
  8
0
 62
     4
 10
58.297646
 20
-169.557175
 40
4.999012
 50
168.577621
 51
191.422379
  0
ARC
  8
0
 62
     4
 10
58.297646
 20
-170.557175
 40
4.900002
 50
180.000000
 51
0.000000
  0
CIRCLE
  8
0
 62
     4
 10
50.297646
 20
-151.057159
 40
3.000000
  0
ARC
  8
0
 62
     4
 10
50.297646
 20
-151.057159
 40
4.999012
 50
168.577621
 51
191.422379
  0
ARC
  8
0
 62
     4
 10
50.297646
 20
-152.057159
 40
4.900002
 50
180.000000
 51
0.000000
  0
ARC
  8
0
 62
     4
 10
50.297646
 20
-150.057159
 40
4.900002
 50
0.000000
 51
180.000000
  0
ARC
  8
0
 62
     4
 10
31.297646
 20
-151.057159
 40
4.999012
 50
348.577606
 51
11.422379
  0
ARC
  8
0
 62
     4
 10
31.297646
 20
-151.057159
 40
4.999011
 50
168.577621
 51
191.422379
  0
CIRCLE
  8
0
 62
     4
 10
31.297646
 20
-151.057159
 40
3.000000
  0
ARC
  8
0
 62
     4
 10
31.297646
 20
-152.057159
 40
4.900000
 50
180.000000
 51
0.000000
  0
ARC
  8
0
 62
     4
 10
31.297646
 20
-150.057159
 40
4.900002
 50
0.000000
 51
180.000000
  0
ARC
  8
0
 62
     4
 10
39.297646
 20
-169.557175
 40
4.999012
 50
348.577606
 51
11.422379
  0
ARC
  8
0
 62
     4
 10
39.297646
 20
-169.557175
 40
4.999012
 50
168.577621
 51
191.422379
  0
CIRCLE
  8
0
 62
     4
 10
39.297646
 20
-169.557175
 40
3.000000
  0
ARC
  8
0
 62
     4
 10
39.297646
 20
-170.557175
 40
4.900002
 50
180.000000
 51
0.000000
  0
ARC
  8
0
 62
     4
 10
39.297646
 20
-168.557175
 40
4.900002
 50
0.000000
 51
180.000000
  0
CIRCLE
  8
0
 10
50.297680
 20
-111.564117
 40
2.800000
  0
CIRCLE
  8
0
 10
62.297680
 20
-132.564117
 40
2.800000
  0
ARC
  8
0
 10
54.001160
 20
-109.060677
 40
0.503529
 50
90.399780
 51
179.599777
  0
ARC
  8
0
 10
47.801151
 20
-115.260666
 40
0.503522
 50
90.398918
 51
179.600647
  0
ARC
  8
0
 10
64.801132
 20
-128.860641
 40
0.496533
 50
269.597656
 51
0.401457
  0
ARC
  8
0
 10
62.301144
 20
-132.560654
 40
3.203493
 50
90.062561
 51
179.937500
  0
ARC
  8
0
 10
50.301140
 20
-111.560654
 40
3.196505
 50
269.937378
 51
0.062633
  0
ARC
  8
0
 10
64.794159
 20
-109.060638
 40
0.503491
 50
0.395903
 51
89.604095
  0
ARC
  8
0
 10
47.801163
 20
-109.060677
 40
0.503529
 50
90.400215
 51
179.599792
  0
ARC
  8
0
 10
58.547646
 20
-108.057159
 40
0.500000
 50
180.000000
 51
270.000000
  0
ARC
  8
0
 10
60.164227
 20
-108.057159
 40
0.500000
 50
180.000000
 51
270.000000
  0
ARC
  8
0
 10
54.047646
 20
-108.057159
 40
0.500000
 50
270.000000
 51
0.000000
  0
ARC
  8
0
 10
52.431065
 20
-108.057159
 40
0.500000
 50
270.000000
 51
0.000000
  0
ARC
  8
0
 10
57.647644
 20
-103.157158
 40
0.400002
 50
0.000000
 51
90.000000
  0
ARC
  8
0
 10
59.264225
 20
-103.157158
 40
0.400002
 50
0.000000
 51
90.000000
  0
ARC
  8
0
 10
54.947647
 20
-103.157158
 40
0.400002
 50
90.000000
 51
180.000000
  0
ARC
  8
0
 10
53.331062
 20
-103.157158
 40
0.400002
 50
90.000000
 51
180.000000
  0
ARC
  8
0
 10
47.697647
 20
-103.157158
 40
0.400002
 50
90.000000
 51
180.000000
  0
ARC
  8
0
 10
64.897644
 20
-103.157158
 40
0.400002
 50
0.000000
 51
90.000000
  0
ARC
  8
0
 10
51.597645
 20
-102.557159
 40
0.300003
 50
90.000000
 51
180.000000
  0
ARC
  8
0
 10
60.997646
 20
-102.557159
 40
0.299999
 50
0.000000
 51
90.000000
  0
ARC
  8
0
 10
58.601124
 20
-135.060638
 40
0.496533
 50
269.598541
 51
0.401451
  0
ARC
  8
0
 10
64.801117
 20
-135.060638
 40
0.496533
 50
269.598541
 51
0.401451
  0
ARC
  8
0
 10
47.794197
 20
-135.060608
 40
0.496563
 50
179.602097
 51
270.397919
  0
ARC
  8
0
 10
41.997646
 20
-102.557159
 40
0.299999
 50
0.000000
 51
90.000000
  0
ARC
  8
0
 10
32.597645
 20
-102.557159
 40
0.300003
 50
90.000000
 51
180.000000
  0
ARC
  8
0
 10
45.897644
 20
-103.157158
 40
0.400002
 50
0.000000
 51
90.000000
  0
ARC
  8
0
 10
28.697645
 20
-103.157158
 40
0.400002
 50
90.000000
 51
180.000000
  0
ARC
  8
0
 10
34.331062
 20
-103.157158
 40
0.400002
 50
90.000000
 51
180.000000
  0
ARC
  8
0
 10
35.947647
 20
-103.157158
 40
0.400002
 50
90.000000
 51
180.000000
  0
ARC
  8
0
 10
40.264229
 20
-103.157158
 40
0.400002
 50
0.000000
 51
90.000000
  0
ARC
  8
0
 10
38.647644
 20
-103.157158
 40
0.400002
 50
0.000000
 51
90.000000
  0
ARC
  8
0
 10
33.431065
 20
-108.057159
 40
0.500000
 50
270.000000
 51
0.000000
  0
ARC
  8
0
 10
35.047646
 20
-108.057159
 40
0.500000
 50
270.000000
 51
0.000000
  0
ARC
  8
0
 10
41.164227
 20
-108.057159
 40
0.500000
 50
180.000000
 51
270.000000
  0
ARC
  8
0
 10
39.547646
 20
-108.057159
 40
0.500000
 50
180.000000
 51
270.000000
  0
CIRCLE
  8
0
 62
     4
 10
97.797646
 20
-125.757156
 40
1.500000
  0
CIRCLE
  8
0
 62
     4
 10
90.797646
 20
-125.757156
 40
1.500000
  0
ARC
  8
0
 62
     4
 10
94.297646
 20
-124.007156
 40
0.800004
 50
202.024429
 51
337.975555
  0
ARC
  8
0
 62
     4
 10
94.297646
 20
-124.007156
 40
0.800004
 50
22.024433
 51
157.975571
  0
CIRCLE
  8
0
 62
     4
 10
94.297646
 20
-124.007156
 40
1.850000
  0
CIRCLE
  8
0
 62
     4
 10
94.297646
 20
-124.007156
 40
1.900000
  0
ARC
  8
0
 62
     4
 10
97.797646
 20
-125.757156
 40
1.599998
 50
90.000000
 51
270.000000
  0
ARC
  8
0
 62
     4
 10
90.797646
 20
-125.757156
 40
1.599998
 50
270.000000
 51
90.000000
  0
CIRCLE
  8
0
 62
     4
 10
94.297646
 20
-124.007156
 40
2.050000
  0
ARC
  8
0
 62
     4
 10
98.997643
 20
-102.557159
 40
0.300003
 50
0.000000
 51
90.000000
  0
ARC
  8
0
 62
     4
 10
89.597649
 20
-102.557159
 40
0.300003
 50
90.000000
 51
180.000000
  0
ARC
  8
0
 62
     4
 10
89.597649
 20
-114.757156
 40
0.300003
 50
90.000000
 51
180.000000
  0
ARC
  8
0
 62
     4
 10
98.997643
 20
-114.757156
 40
0.300003
 50
0.000000
 51
90.000000
  0
ARC
  8
0
 62
     4
 10
97.712364
 20
-118.357498
 40
0.199670
 50
269.794220
 51
3.542330
  0
ARC
  8
0
 62
     4
 10
95.961990
 20
-118.356491
 40
0.200668
 50
176.761200
 51
269.901978
  0
ARC
  8
0
 62
     4
 10
95.172363
 20
-118.357498
 40
0.199670
 50
269.794220
 51
3.542330
  0
ARC
  8
0
 62
     4
 10
93.421989
 20
-118.356491
 40
0.200668
 50
176.761200
 51
269.901978
  0
ARC
  8
0
 62
     4
 10
92.632362
 20
-118.357498
 40
0.199670
 50
269.794220
 51
3.542330
  0
ARC
  8
0
 62
     4
 10
90.881989
 20
-118.356491
 40
0.200668
 50
176.761200
 51
269.901978
  0
CIRCLE
  8
0
 62
     4
 10
91.757645
 20
-117.457161
 40
0.750000
  0
CIRCLE
  8
0
 62
     4
 10
96.837646
 20
-117.457161
 40
0.750000
  0
ARC
  8
0
 10
88.297646
 20
-114.557159
 40
3.000000
 50
270.000000
 51
289.471191
  0
ARC
  8
0
 10
100.297646
 20
-132.557159
 40
3.000000
 50
90.000000
 51
109.471199
  0
ARC
  8
0
 10
88.297646
 20
-114.557159
 40
3.000003
 50
70.528801
 51
90.000000
  0
ARC
  8
0
 10
88.597649
 20
-134.757156
 40
0.300003
 50
180.000000
 51
270.000000
  0
ARC
  8
0
 10
88.297646
 20
-114.557159
 40
2.800002
 50
69.075180
 51
290.924805
  0
ARC
  8
0
 10
100.297646
 20
-132.557159
 40
2.799999
 50
217.383133
 51
110.924820
  0
ARC
  8
0
 10
81.297646
 20
-132.557159
 40
2.799999
 50
217.383133
 51
110.924820
  0
ARC
  8
0
 10
69.297646
 20
-114.557159
 40
2.800002
 50
69.075180
 51
290.924805
  0
ARC
  8
0
 10
69.597641
 20
-134.757156
 40
0.300003
 50
180.000000
 51
270.000000
  0
ARC
  8
0
 10
69.297646
 20
-114.557159
 40
3.000003
 50
70.528801
 51
90.000000
  0
ARC
  8
0
 10
81.297646
 20
-132.557159
 40
3.000000
 50
90.000000
 51
109.471199
  0
ARC
  8
0
 10
69.297646
 20
-114.557159
 40
3.000000
 50
270.000000
 51
289.471191
  0
CIRCLE
  8
0
 62
     4
 10
77.837646
 20
-117.457161
 40
0.750000
  0
CIRCLE
  8
0
 62
     4
 10
72.757645
 20
-117.457161
 40
0.750000
  0
ARC
  8
0
 62
     4
 10
71.881989
 20
-118.356491
 40
0.200668
 50
176.761200
 51
269.901978
  0
ARC
  8
0
 62
     4
 10
73.632355
 20
-118.357498
 40
0.199670
 50
269.794220
 51
3.542330
  0
ARC
  8
0
 62
     4
 10
74.421989
 20
-118.356491
 40
0.200668
 50
176.761200
 51
269.901978
  0
ARC
  8
0
 62
     4
 10
76.172363
 20
-118.357498
 40
0.199670
 50
269.794220
 51
3.542330
  0
ARC
  8
0
 62
     4
 10
76.961990
 20
-118.356491
 40
0.200668
 50
176.761200
 51
269.901978
  0
ARC
  8
0
 62
     4
 10
78.712357
 20
-118.357498
 40
0.199670
 50
269.794220
 51
3.542330
  0
ARC
  8
0
 62
     4
 10
79.997650
 20
-114.757156
 40
0.300003
 50
0.000000
 51
90.000000
  0
ARC
  8
0
 62
     4
 10
70.597641
 20
-114.757156
 40
0.300003
 50
90.000000
 51
180.000000
  0
ARC
  8
0
 62
     4
 10
70.597641
 20
-102.557159
 40
0.300003
 50
90.000000
 51
180.000000
  0
ARC
  8
0
 62
     4
 10
79.997650
 20
-102.557159
 40
0.300003
 50
0.000000
 51
90.000000
  0
CIRCLE
  8
0
 62
     4
 10
75.297646
 20
-124.007156
 40
2.050000
  0
ARC
  8
0
 62
     4
 10
71.797646
 20
-125.757156
 40
1.599998
 50
270.000000
 51
90.000000
  0
ARC
  8
0
 62
     4
 10
78.797646
 20
-125.757156
 40
1.599998
 50
90.000000
 51
270.000000
  0
CIRCLE
  8
0
 62
     4
 10
75.297646
 20
-124.007156
 40
1.900000
  0
CIRCLE
  8
0
 62
     4
 10
75.297646
 20
-124.007156
 40
1.850000
  0
ARC
  8
0
 62
     4
 10
75.297646
 20
-124.007156
 40
0.800004
 50
22.024433
 51
157.975571
  0
ARC
  8
0
 62
     4
 10
75.297646
 20
-124.007156
 40
0.800004
 50
202.024429
 51
337.975555
  0
CIRCLE
  8
0
 62
     4
 10
71.797646
 20
-125.757156
 40
1.500000
  0
CIRCLE
  8
0
 62
     4
 10
78.797646
 20
-125.757156
 40
1.500000
  0
ARC
  8
0
 10
28.801161
 20
-109.060677
 40
0.503529
 50
90.399994
 51
179.599777
  0
ARC
  8
0
 10
45.794163
 20
-109.060638
 40
0.503495
 50
0.395900
 51
89.603661
  0
ARC
  8
0
 10
31.301140
 20
-111.560654
 40
3.196505
 50
269.937378
 51
0.062633
  0
ARC
  8
0
 10
43.301144
 20
-132.560654
 40
3.203493
 50
90.062561
 51
179.937500
  0
ARC
  8
0
 10
45.801132
 20
-128.860641
 40
0.496533
 50
269.597656
 51
0.401457
  0
ARC
  8
0
 10
28.801151
 20
-115.260666
 40
0.503522
 50
90.398918
 51
179.600647
  0
ARC
  8
0
 10
35.001160
 20
-109.060677
 40
0.503529
 50
90.399780
 51
179.599777
  0
CIRCLE
  8
0
 10
43.297680
 20
-132.564117
 40
2.800000
  0
CIRCLE
  8
0
 10
31.297680
 20
-111.564117
 40
2.800000
  0
ARC
  8
0
 10
39.601124
 20
-135.060638
 40
0.496533
 50
269.598541
 51
0.401451
  0
ARC
  8
0
 10
45.801125
 20
-135.060638
 40
0.496533
 50
269.598999
 51
0.401448
  0
ARC
  8
0
 10
28.794195
 20
-135.060608
 40
0.496562
 50
179.602097
 51
270.398132
  0
ARC
  8
0
 62
     4
 10
119.792648
 20
-134.464127
 40
5.005931
 50
60.500553
 51
119.499451
  0
ARC
  8
0
 62
     4
 10
121.929260
 20
-130.689316
 40
0.668384
 50
0.184432
 51
60.573273
  0
ARC
  8
0
 62
     4
 10
117.668564
 20
-130.685013
 40
0.670923
 50
120.539703
 51
180.183731
  0
ARC
  8
0
 62
     4
 10
108.926727
 20
-130.685013
 40
0.670925
 50
359.816254
 51
59.460293
  0
ARC
  8
0
 62
     4
 10
104.666031
 20
-130.689316
 40
0.668385
 50
119.426727
 51
179.815567
  0
ARC
  8
0
 62
     4
 10
106.802643
 20
-134.464127
 40
5.005931
 50
60.500553
 51
119.499451
  0
ARC
  8
0
 62
     4
 10
-75.137398
 20
-20.617950
 40
0.299999
 50
270.000000
 51
0.000000
  0
ARC
  8
0
 62
     4
 10
-97.337395
 20
-15.417953
 40
0.500000
 50
270.000000
 51
0.000000
  0
ARC
  8
0
 62
     4
 10
-99.337395
 20
-15.417953
 40
0.500000
 50
180.000000
 51
270.000000
  0
ARC
  8
0
 10
-75.737389
 20
23.482048
 40
0.400002
 50
0.000000
 51
90.000000
  0
ARC
  8
0
 10
-80.637390
 20
24.382050
 40
0.500000
 50
180.000000
 51
270.000000
  0
ARC
  8
0
 62
     4
 10
-99.337395
 20
-1.517952
 40
0.500000
 50
179.999985
 51
270.000000
  0
ARC
  8
0
 62
     4
 10
-97.337395
 20
-1.517952
 40
0.500000
 50
270.000000
 51
0.000000
  0
ARC
  8
0
 62
     4
 10
-75.137390
 20
-6.717949
 40
0.300000
 50
270.000000
 51
0.000000
  0
ARC
  8
0
 10
-75.737389
 20
20.682049
 40
0.400002
 50
0.000000
 51
90.000000
  0
ARC
  8
0
 10
-80.737389
 20
21.482048
 40
0.400002
 50
180.000000
 51
270.000000
  0
ARC
  8
0
 10
-84.137390
 20
20.882050
 40
5.000002
 50
235.944183
 51
304.055817
  0
ARC
  8
0
 10
-86.834961
 20
28.279621
 40
0.502432
 50
90.276672
 51
179.723328
  0
ARC
  8
0
 10
-81.634987
 20
29.279640
 40
0.497599
 50
269.722412
 51
0.277165
  0
ARC
  8
0
 10
-87.834984
 20
25.879642
 40
0.497599
 50
269.722412
 51
0.277165
  0
ARC
  8
0
 10
-84.137390
 20
31.382515
 40
5.006523
 50
240.570068
 51
299.429932
  0
ARC
  8
0
 10
-82.003433
 20
27.602833
 40
0.666041
 50
299.309204
 51
359.932739
  0
ARC
  8
0
 10
-86.263504
 20
27.607430
 40
0.673911
 50
180.457458
 51
240.300735
  0
ARC
  8
0
 10
-107.637390
 20
25.882050
 40
0.500000
 50
180.000000
 51
270.000000
  0
ARC
  8
0
 10
-81.637390
 20
25.882050
 40
0.500000
 50
270.000000
 51
0.000000
  0
ARC
  8
0
 62
     4
 10
-137.941895
 20
15.086559
 40
0.804521
 50
270.320587
 51
359.678955
  0
ARC
  8
0
 62
     4
 10
-146.341858
 20
15.077583
 40
0.795545
 50
179.678146
 51
270.321991
  0
ARC
  8
0
 62
     4
 10
-119.441902
 20
15.086559
 40
0.804521
 50
270.321106
 51
359.678955
  0
ARC
  8
0
 62
     4
 10
-127.841858
 20
15.077587
 40
0.795545
 50
179.678696
 51
270.321442
  0
CIRCLE
  8
0
 10
-132.637390
 20
74.782051
 40
5.722500
  0
CIRCLE
  8
0
 10
-132.637390
 20
54.782051
 40
5.722500
  0
CIRCLE
  8
0
 10
-132.637390
 20
34.782051
 40
5.722500
  0
CIRCLE
  8
0
 62
     2
 10
-132.637390
 20
74.782051
 40
6.578500
  0
CIRCLE
  8
0
 62
     2
 10
-132.637390
 20
54.782051
 40
6.578500
  0
CIRCLE
  8
0
 62
     2
 10
-132.637390
 20
34.782051
 40
6.578500
  0
CIRCLE
  8
0
 10
-115.137390
 20
85.782051
 40
2.066999
  0
CIRCLE
  8
0
 10
-115.137390
 20
23.782051
 40
2.066999
  0
CIRCLE
  8
0
 62
     2
 10
-115.137390
 20
85.782051
 40
2.500000
  0
CIRCLE
  8
0
 62
     2
 10
-115.137390
 20
23.782051
 40
2.500000
  0
ARC
  8
0
 10
-105.137390
 20
88.682053
 40
5.000002
 50
55.944176
 51
124.055824
  0
ARC
  8
0
 10
-75.737389
 20
86.082047
 40
0.400002
 50
270.000000
 51
0.000000
  0
ARC
  8
0
 10
-80.637390
 20
85.182053
 40
0.500000
 50
90.000000
 51
180.000000
  0
ARC
  8
0
 62
     4
 10
-99.337387
 20
111.082047
 40
0.500000
 50
90.000000
 51
180.000000
  0
ARC
  8
0
 62
     4
 10
-97.337387
 20
111.082047
 40
0.500000
 50
0.000000
 51
90.000000
  0
ARC
  8
0
 62
     4
 10
-75.137390
 20
116.282043
 40
0.300003
 50
0.000000
 51
90.000000
  0
ARC
  8
0
 10
-75.737389
 20
88.882050
 40
0.400002
 50
270.000000
 51
0.000000
  0
ARC
  8
0
 10
-80.737389
 20
88.082047
 40
0.400002
 50
90.000000
 51
180.000000
  0
ARC
  8
0
 10
-86.437393
 20
39.777046
 40
5.001750
 50
340.677551
 51
19.322435
  0
ARC
  8
0
 10
113.298927
 20
85.782356
 40
3.498717
 50
59.022316
 51
120.977684
  0
ARC
  8
0
 10
113.298920
 20
23.781738
 40
3.498718
 50
239.022339
 51
300.977661
  0
ARC
  8
0
 62
     4
 10
113.298920
 20
23.781738
 40
3.498718
 50
239.022339
 51
300.977661
  0
ARC
  8
0
 62
     4
 10
43.347649
 20
15.082047
 40
0.799995
 50
269.999725
 51
0.000342
  0
ARC
  8
0
 62
     4
 10
26.947647
 20
15.082054
 40
0.800003
 50
180.000198
 51
269.999725
  0
ARC
  8
0
 62
     4
 10
35.347656
 20
15.082039
 40
0.799988
 50
269.999176
 51
0.000888
  0
ARC
  8
0
 62
     4
 10
62.347649
 20
15.082047
 40
0.799995
 50
269.999725
 51
0.000342
  0
ARC
  8
0
 62
     4
 10
45.947647
 20
15.082054
 40
0.800003
 50
180.000198
 51
269.999725
  0
ARC
  8
0
 62
     4
 10
54.347656
 20
15.082039
 40
0.799988
 50
269.999176
 51
0.000888
  0
ARC
  8
0
 62
     4
 10
64.947647
 20
15.082054
 40
0.800003
 50
180.000198
 51
270.000000
  0
ARC
  8
0
 62
     4
 10
83.947647
 20
15.082050
 40
0.800003
 50
243.020569
 51
270.000000
  0
ARC
  8
0
 62
     4
 10
119.347649
 20
15.082043
 40
0.799995
 50
269.999451
 51
0.000342
  0
ARC
  8
0
 62
     4
 10
111.347656
 20
15.082035
 40
0.799988
 50
269.998901
 51
0.000888
  0
ARC
  8
0
 10
56.298927
 20
23.776768
 40
3.498722
 50
0.086490
 51
27.310921
  0
ARC
  8
0
 10
56.298923
 20
23.781742
 40
3.498720
 50
152.780640
 51
0.005060
  0
ARC
  8
0
 10
37.298927
 20
23.776768
 40
3.498722
 50
0.086490
 51
27.310921
  0
ARC
  8
0
 10
37.298923
 20
23.781742
 40
3.498720
 50
152.780640
 51
0.005060
  0
CIRCLE
  8
0
 62
     4
 10
106.797646
 20
39.782051
 40
3.000000
  0
CIRCLE
  8
0
 62
     4
 10
119.797646
 20
69.782051
 40
3.000000
  0
CIRCLE
  8
0
 62
     4
 10
106.797646
 20
39.782051
 40
2.799999
  0
CIRCLE
  8
0
 62
     4
 10
119.797646
 20
69.782051
 40
2.799999
  0
CIRCLE
  8
0
 10
87.797646
 20
39.782051
 40
2.799999
  0
CIRCLE
  8
0
 10
100.797646
 20
69.782051
 40
2.799999
  0
CIRCLE
  8
0
 10
68.797646
 20
39.782051
 40
2.799999
  0
CIRCLE
  8
0
 10
81.797646
 20
69.782051
 40
2.799999
  0
CIRCLE
  8
0
 10
49.797646
 20
39.782051
 40
2.799999
  0
CIRCLE
  8
0
 10
62.797646
 20
69.782051
 40
2.799999
  0
CIRCLE
  8
0
 10
94.297646
 20
7.182049
 40
2.000000
  0
ARC
  8
0
 10
88.747643
 20
-1.517952
 40
0.300000
 50
270.000000
 51
0.000000
  0
ARC
  8
0
 10
99.847641
 20
-1.517952
 40
0.300003
 50
180.000000
 51
270.000000
  0
ARC
  8
0
 10
90.700119
 20
7.582050
 40
0.400000
 50
270.000000
 51
330.000214
  0
ARC
  8
0
 10
92.778587
 20
9.582050
 40
0.400000
 50
90.000000
 51
150.000198
  0
ARC
  8
0
 10
95.816704
 20
9.582050
 40
0.400002
 50
29.999798
 51
90.000000
  0
ARC
  8
0
 10
97.895164
 20
7.582050
 40
0.400002
 50
209.999802
 51
270.000000
  0
CIRCLE
  8
0
 10
94.297646
 20
7.182049
 40
0.800000
  0
ARC
  8
0
 62
     4
 10
98.997643
 20
-20.617950
 40
0.299999
 50
270.000000
 51
0.000000
  0
ARC
  8
0
 62
     4
 10
89.597641
 20
-20.617950
 40
0.300003
 50
180.000000
 51
270.000000
  0
ARC
  8
0
 62
     4
 10
89.597649
 20
116.282043
 40
0.300003
 50
90.000000
 51
180.000000
  0
ARC
  8
0
 62
     4
 10
98.997650
 20
116.282043
 40
0.300003
 50
0.000000
 51
90.000000
  0
CIRCLE
  8
0
 10
94.297646
 20
88.482048
 40
0.800000
  0
ARC
  8
0
 10
97.895164
 20
88.082047
 40
0.400002
 50
90.000000
 51
150.000565
  0
ARC
  8
0
 10
95.816704
 20
86.082047
 40
0.400002
 50
270.000000
 51
330.000549
  0
ARC
  8
0
 10
92.778587
 20
86.082047
 40
0.400001
 50
209.999435
 51
270.000000
  0
ARC
  8
0
 10
90.700127
 20
88.082047
 40
0.400001
 50
29.999443
 51
90.000000
  0
ARC
  8
0
 10
99.847649
 20
97.182053
 40
0.300003
 50
90.000000
 51
180.000000
  0
ARC
  8
0
 10
88.747650
 20
97.182053
 40
0.300003
 50
0.000000
 51
90.000000
  0
CIRCLE
  8
0
 10
94.297646
 20
88.482048
 40
2.000000
  0
ARC
  8
0
 10
87.797180
 20
39.781914
 40
3.000469
 50
213.586884
 51
0.002622
  0
ARC
  8
0
 10
87.799942
 20
39.781364
 40
2.997704
 50
0.013124
 51
146.588455
  0
ARC
  8
0
 10
100.797646
 20
69.777046
 40
2.998170
 50
33.504539
 51
326.495453
  0
ARC
  8
0
 10
81.797638
 20
69.777046
 40
2.998170
 50
33.504539
 51
326.495453
  0
ARC
  8
0
 10
68.799942
 20
39.781364
 40
2.997704
 50
0.013124
 51
146.588455
  0
ARC
  8
0
 10
68.797180
 20
39.781914
 40
3.000469
 50
213.586884
 51
0.002622
  0
CIRCLE
  8
0
 10
75.297646
 20
88.482048
 40
2.000000
  0
ARC
  8
0
 10
69.747650
 20
97.182053
 40
0.300003
 50
0.000000
 51
90.000000
  0
ARC
  8
0
 10
80.847641
 20
97.182053
 40
0.300003
 50
90.000000
 51
180.000000
  0
ARC
  8
0
 10
71.700127
 20
88.082047
 40
0.400001
 50
29.999443
 51
90.000000
  0
ARC
  8
0
 10
73.778587
 20
86.082047
 40
0.400001
 50
209.999435
 51
270.000000
  0
ARC
  8
0
 10
76.816711
 20
86.082047
 40
0.400002
 50
270.000000
 51
330.000549
  0
ARC
  8
0
 10
78.895172
 20
88.082047
 40
0.400002
 50
90.000000
 51
150.000565
  0
CIRCLE
  8
0
 10
75.297646
 20
88.482048
 40
0.800000
  0
ARC
  8
0
 62
     4
 10
79.997650
 20
116.282051
 40
0.300003
 50
0.000000
 51
90.000000
  0
ARC
  8
0
 62
     4
 10
70.597649
 20
116.282051
 40
0.300003
 50
90.000000
 51
180.000000
  0
ARC
  8
0
 62
     4
 10
70.597641
 20
-6.717949
 40
0.300003
 50
180.000000
 51
270.000000
  0
ARC
  8
0
 62
     4
 10
79.997643
 20
-6.717949
 40
0.300000
 50
270.000000
 51
0.000000
  0
CIRCLE
  8
0
 10
75.297646
 20
21.082050
 40
0.800000
  0
ARC
  8
0
 10
78.895164
 20
21.482048
 40
0.400003
 50
209.999908
 51
270.000000
  0
ARC
  8
0
 10
76.816704
 20
23.482048
 40
0.400003
 50
29.999916
 51
90.000000
  0
ARC
  8
0
 10
73.778580
 20
23.482048
 40
0.400000
 50
90.000000
 51
150.000092
  0
ARC
  8
0
 10
71.700119
 20
21.482048
 40
0.400000
 50
270.000000
 51
330.000092
  0
ARC
  8
0
 10
80.847641
 20
12.382050
 40
0.300003
 50
180.000000
 51
270.000000
  0
ARC
  8
0
 10
69.747643
 20
12.382050
 40
0.300000
 50
270.000000
 51
0.000000
  0
CIRCLE
  8
0
 10
75.297646
 20
21.082050
 40
2.000000
  0
ARC
  8
0
 10
62.797642
 20
69.777046
 40
2.998173
 50
33.504501
 51
326.495514
  0
ARC
  8
0
 10
49.799938
 20
39.781364
 40
2.997707
 50
0.013124
 51
146.588409
  0
ARC
  8
0
 10
49.797176
 20
39.781914
 40
3.000466
 50
213.586929
 51
0.002622
  0
CIRCLE
  8
0
 10
56.297646
 20
88.482048
 40
2.000000
  0
ARC
  8
0
 10
50.747646
 20
97.182053
 40
0.299999
 50
0.000000
 51
90.000000
  0
ARC
  8
0
 10
61.847645
 20
97.182053
 40
0.300003
 50
90.000000
 51
180.000000
  0
ARC
  8
0
 10
52.700127
 20
88.082047
 40
0.399997
 50
29.999716
 51
90.000000
  0
ARC
  8
0
 10
54.778587
 20
86.082047
 40
0.399997
 50
209.999710
 51
270.000000
  0
ARC
  8
0
 10
57.816708
 20
86.082047
 40
0.400002
 50
270.000000
 51
330.000275
  0
ARC
  8
0
 10
59.895168
 20
88.082047
 40
0.400002
 50
90.000000
 51
150.000290
  0
CIRCLE
  8
0
 10
56.297646
 20
88.482048
 40
0.800000
  0
ARC
  8
0
 62
     4
 10
60.997646
 20
116.282051
 40
0.299999
 50
0.000000
 51
90.000000
  0
ARC
  8
0
 62
     4
 10
51.597649
 20
116.282051
 40
0.300003
 50
90.000000
 51
180.000000
  0
ARC
  8
0
 10
52.424210
 20
27.607166
 40
0.673455
 50
299.677094
 51
359.564606
  0
ARC
  8
0
 10
48.164135
 20
27.603096
 40
0.666489
 50
180.089859
 51
240.668137
  0
ARC
  8
0
 10
47.795540
 20
25.879948
 40
0.497899
 50
179.757904
 51
270.241882
  0
ARC
  8
0
 10
64.795059
 20
25.884632
 40
0.502589
 50
270.293976
 51
359.705597
  0
ARC
  8
0
 10
53.995537
 20
25.879944
 40
0.497899
 50
179.757690
 51
270.242310
  0
ARC
  8
0
 10
50.297646
 20
31.382519
 40
5.006523
 50
240.570068
 51
299.429932
  0
ARC
  8
0
 10
47.795540
 20
29.279945
 40
0.497899
 50
179.757690
 51
270.242310
  0
ARC
  8
0
 10
52.995525
 20
28.279930
 40
0.502125
 50
0.241800
 51
89.757980
  0
ARC
  8
0
 10
43.797642
 20
69.777054
 40
2.998173
 50
33.504501
 51
326.495514
  0
ARC
  8
0
 10
30.799938
 20
39.781364
 40
2.997707
 50
0.013124
 51
146.588425
  0
ARC
  8
0
 10
30.797176
 20
39.781914
 40
3.000468
 50
213.586914
 51
0.002622
  0
CIRCLE
  8
0
 10
37.297646
 20
88.482048
 40
2.000000
  0
ARC
  8
0
 10
31.747646
 20
97.182053
 40
0.299999
 50
0.000000
 51
90.000000
  0
ARC
  8
0
 10
42.847649
 20
97.182053
 40
0.300003
 50
90.000000
 51
180.000000
  0
ARC
  8
0
 10
33.700127
 20
88.082047
 40
0.399997
 50
29.999716
 51
90.000000
  0
ARC
  8
0
 10
35.778587
 20
86.082047
 40
0.399997
 50
209.999710
 51
270.000000
  0
ARC
  8
0
 10
38.816704
 20
86.082047
 40
0.400002
 50
270.000000
 51
330.000275
  0
ARC
  8
0
 10
40.895164
 20
88.082047
 40
0.400002
 50
90.000000
 51
150.000290
  0
CIRCLE
  8
0
 10
37.297646
 20
88.482048
 40
0.800000
  0
ARC
  8
0
 62
     4
 10
41.997650
 20
116.282051
 40
0.299999
 50
0.000000
 51
90.000000
  0
ARC
  8
0
 62
     4
 10
32.597649
 20
116.282051
 40
0.300003
 50
90.000000
 51
180.000000
  0
ARC
  8
0
 10
33.424210
 20
27.607166
 40
0.673455
 50
299.677094
 51
359.564606
  0
ARC
  8
0
 10
29.164135
 20
27.603096
 40
0.666491
 50
180.089859
 51
240.668289
  0
ARC
  8
0
 10
28.795540
 20
25.879948
 40
0.497901
 50
179.757904
 51
270.242096
  0
ARC
  8
0
 10
45.795063
 20
25.884632
 40
0.502589
 50
270.294403
 51
359.705597
  0
ARC
  8
0
 10
34.995537
 20
25.879944
 40
0.497899
 50
179.757690
 51
270.242310
  0
ARC
  8
0
 10
31.297646
 20
31.382519
 40
5.006523
 50
240.570068
 51
299.429932
  0
ARC
  8
0
 10
28.795540
 20
29.279945
 40
0.497899
 50
179.757690
 51
270.242310
  0
ARC
  8
0
 10
33.995525
 20
28.279930
 40
0.502125
 50
0.241800
 51
89.757980
  0
CIRCLE
  8
0
 10
43.797646
 20
69.782051
 40
2.799999
  0
CIRCLE
  8
0
 10
30.797646
 20
39.782051
 40
2.799999
  0
CIRCLE
  8
0
 10
23.300018
 20
44.786652
 40
2.100010
  0
CIRCLE
  8
0
 10
23.300020
 20
64.786758
 40
2.100010
  0
CIRCLE
  8
0
 10
127.300583
 20
44.786644
 40
2.100010
  0
CIRCLE
  8
0
 10
127.300583
 20
64.786751
 40
2.100010
  0
TEXT
  8
0
 10
-268.300018
 20
-74.669998
 40
6.300000
  1
G180M9AJ
 50
0.000000
 41
0.835422
 51
0.000000
  7
STANDARD
  0
TEXT
  8
0
 10
-268.300018
 20
-64.669998
 40
6.300000
  1
G180M8AJ
 50
0.000000
 41
0.835422
 51
0.000000
  7
STANDARD
  0
TEXT
  8
0
 10
-268.300018
 20
-54.670002
 40
6.300000
  1
G180M7AJ
 50
0.000000
 41
0.835422
 51
0.000000
  7
STANDARD
  0
TEXT
  8
0
 10
-268.300018
 20
-44.670002
 40
6.300000
  1
G180M6AJ
 50
0.000000
 41
0.835422
 51
0.000000
  7
STANDARD
  0
TEXT
  8
0
 10
-268.300018
 20
-34.670002
 40
6.300000
  1
G180M5AJ
 50
0.000000
 41
0.835422
 51
0.000000
  7
STANDARD
  0
TEXT
  8
0
 10
-268.300018
 20
-24.670000
 40
6.300000
  1
G180M4AJ
 50
0.000000
 41
0.835422
 51
0.000000
  7
STANDARD
  0
TEXT
  8
0
 10
-268.300018
 20
-14.670000
 40
6.300000
  1
G180M3AJ
 50
0.000000
 41
0.835422
 51
0.000000
  7
STANDARD
  0
TEXT
  8
0
 10
-268.300018
 20
-4.670000
 40
6.300000
  1
G180M2AJ
 50
0.000000
 41
0.835422
 51
0.000000
  7
STANDARD
  0
TEXT
  8
0
 10
-273.300018
 20
-94.669998
 40
6.300000
  1
G180M11AJ
 50
0.000000
 41
0.835422
 51
0.000000
  7
STANDARD
  0
TEXT
  8
0
 10
-273.300018
 20
-84.669998
 40
6.300000
  1
G180M10AJ
 50
0.000000
 41
0.835422
 51
0.000000
  7
STANDARD
  0
TEXT
  8
0
 10
-273.300018
 20
-184.669998
 40
6.300000
  1
G180M20AJ
 50
0.000000
 41
0.835422
 51
0.000000
  7
STANDARD
  0
TEXT
  8
0
 10
-273.300018
 20
-174.669998
 40
6.300000
  1
G180M19AJ
 50
0.000000
 41
0.835422
 51
0.000000
  7
STANDARD
  0
TEXT
  8
0
 10
-273.300018
 20
-164.669998
 40
6.300000
  1
G180M18AJ
 50
0.000000
 41
0.835422
 51
0.000000
  7
STANDARD
  0
TEXT
  8
0
 10
-273.300018
 20
-154.669998
 40
6.300000
  1
G180M17AJ
 50
0.000000
 41
0.835422
 51
0.000000
  7
STANDARD
  0
TEXT
  8
0
 10
-273.300018
 20
-144.669998
 40
6.300000
  1
G180M16AJ
 50
0.000000
 41
0.835422
 51
0.000000
  7
STANDARD
  0
TEXT
  8
0
 10
-273.300018
 20
-134.669998
 40
6.300000
  1
G180M15AJ
 50
0.000000
 41
0.835422
 51
0.000000
  7
STANDARD
  0
TEXT
  8
0
 10
-273.300018
 20
-124.669998
 40
6.300000
  1
G180M14AJ
 50
0.000000
 41
0.835422
 51
0.000000
  7
STANDARD
  0
TEXT
  8
0
 10
-273.300018
 20
-114.669998
 40
6.300000
  1
G180M13AJ
 50
0.000000
 41
0.835422
 51
0.000000
  7
STANDARD
  0
TEXT
  8
0
 10
-273.300018
 20
-104.669998
 40
6.300000
  1
G180M12AJ
 50
0.000000
 41
0.835422
 51
0.000000
  7
STANDARD
  0
TEXT
  8
0
 10
-215.849716
 20
-184.669998
 40
6.300000
  1
399
 50
0.000000
 41
1.052632
 51
0.000000
  7
STANDARD
  0
TEXT
  8
0
 10
-184.349716
 20
-184.669998
 40
6.300000
  1
389
 50
0.000000
 41
1.052632
 51
0.000000
  7
STANDARD
  0
TEXT
  8
0
 10
-259.999725
 20
17.830000
 40
6.300000
  1
DIMENSION LIST
 50
0.000000
 41
1.052632
 51
0.000000
  7
STANDARD
  0
TEXT
  8
0
 10
-184.349716
 20
-174.669998
 40
6.300000
  1
370
 50
0.000000
 41
1.052632
 51
0.000000
  7
STANDARD
  0
TEXT
  8
0
 10
-184.349716
 20
-164.669998
 40
6.300000
  1
351
 50
0.000000
 41
1.052632
 51
0.000000
  7
STANDARD
  0
TEXT
  8
0
 10
-184.349716
 20
-154.669998
 40
6.300000
  1
332
 50
0.000000
 41
1.052632
 51
0.000000
  7
STANDARD
  0
TEXT
  8
0
 10
-184.349716
 20
-144.669998
 40
6.300000
  1
313
 50
0.000000
 41
1.052632
 51
0.000000
  7
STANDARD
  0
TEXT
  8
0
 10
-184.349716
 20
-134.669998
 40
6.300000
  1
294
 50
0.000000
 41
1.052632
 51
0.000000
  7
STANDARD
  0
TEXT
  8
0
 10
-184.349716
 20
-124.669998
 40
6.300000
  1
275
 50
0.000000
 41
1.052632
 51
0.000000
  7
STANDARD
  0
TEXT
  8
0
 10
-184.349716
 20
-114.669998
 40
6.300000
  1
256
 50
0.000000
 41
1.052632
 51
0.000000
  7
STANDARD
  0
TEXT
  8
0
 10
-184.349716
 20
-104.669998
 40
6.300000
  1
237
 50
0.000000
 41
1.052632
 51
0.000000
  7
STANDARD
  0
TEXT
  8
0
 10
-184.349716
 20
-94.669998
 40
6.300000
  1
218
 50
0.000000
 41
1.052632
 51
0.000000
  7
STANDARD
  0
TEXT
  8
0
 10
-184.349716
 20
-84.669998
 40
6.300000
  1
199
 50
0.000000
 41
1.052632
 51
0.000000
  7
STANDARD
  0
TEXT
  8
0
 10
-184.349716
 20
-74.669998
 40
6.300000
  1
180
 50
0.000000
 41
1.052632
 51
0.000000
  7
STANDARD
  0
TEXT
  8
0
 10
-184.349716
 20
-64.669998
 40
6.300000
  1
161
 50
0.000000
 41
1.052632
 51
0.000000
  7
STANDARD
  0
TEXT
  8
0
 10
-184.349716
 20
-54.670002
 40
6.300000
  1
142
 50
0.000000
 41
1.052632
 51
0.000000
  7
STANDARD
  0
TEXT
  8
0
 10
-184.349716
 20
-44.670002
 40
6.300000
  1
123
 50
0.000000
 41
1.052632
 51
0.000000
  7
STANDARD
  0
TEXT
  8
0
 10
-184.349716
 20
-34.670002
 40
6.300000
  1
104
 50
0.000000
 41
1.052632
 51
0.000000
  7
STANDARD
  0
TEXT
  8
0
 10
-178.049713
 20
-24.670000
 40
6.300000
  1
85
 50
0.000000
 41
1.052632
 51
0.000000
  7
STANDARD
  0
TEXT
  8
0
 10
-178.049713
 20
-14.670001
 40
6.300000
  1
66
 50
0.000000
 41
1.052632
 51
0.000000
  7
STANDARD
  0
TEXT
  8
0
 10
-178.049713
 20
-4.670001
 40
6.300000
  1
47
 50
0.000000
 41
1.052632
 51
0.000000
  7
STANDARD
  0
TEXT
  8
0
 10
-215.849716
 20
-174.669998
 40
6.300000
  1
380
 50
0.000000
 41
1.052632
 51
0.000000
  7
STANDARD
  0
TEXT
  8
0
 10
-215.849716
 20
-164.669998
 40
6.300000
  1
361
 50
0.000000
 41
1.052632
 51
0.000000
  7
STANDARD
  0
TEXT
  8
0
 10
-215.849716
 20
-154.669998
 40
6.300000
  1
342
 50
0.000000
 41
1.052632
 51
0.000000
  7
STANDARD
  0
TEXT
  8
0
 10
-215.849716
 20
-144.669998
 40
6.300000
  1
323
 50
0.000000
 41
1.052632
 51
0.000000
  7
STANDARD
  0
TEXT
  8
0
 10
-215.849716
 20
-134.669998
 40
6.300000
  1
304
 50
0.000000
 41
1.052632
 51
0.000000
  7
STANDARD
  0
TEXT
  8
0
 10
-215.849716
 20
-124.669998
 40
6.300000
  1
285
 50
0.000000
 41
1.052632
 51
0.000000
  7
STANDARD
  0
TEXT
  8
0
 10
-215.849716
 20
-114.669998
 40
6.300000
  1
266
 50
0.000000
 41
1.052632
 51
0.000000
  7
STANDARD
  0
TEXT
  8
0
 10
-215.849716
 20
-104.669998
 40
6.300000
  1
247
 50
0.000000
 41
1.052632
 51
0.000000
  7
STANDARD
  0
TEXT
  8
0
 10
-215.849716
 20
-94.669998
 40
6.300000
  1
228
 50
0.000000
 41
1.052632
 51
0.000000
  7
STANDARD
  0
TEXT
  8
0
 10
-215.849716
 20
-84.669998
 40
6.300000
  1
209
 50
0.000000
 41
1.052632
 51
0.000000
  7
STANDARD
  0
TEXT
  8
0
 10
-215.849716
 20
-74.669998
 40
6.300000
  1
190
 50
0.000000
 41
1.052632
 51
0.000000
  7
STANDARD
  0
TEXT
  8
0
 10
-215.849716
 20
-64.669998
 40
6.300000
  1
171
 50
0.000000
 41
1.052632
 51
0.000000
  7
STANDARD
  0
TEXT
  8
0
 10
-215.849716
 20
-54.670002
 40
6.300000
  1
152
 50
0.000000
 41
1.052632
 51
0.000000
  7
STANDARD
  0
TEXT
  8
0
 10
-215.849716
 20
-44.670002
 40
6.300000
  1
133
 50
0.000000
 41
1.052632
 51
0.000000
  7
STANDARD
  0
TEXT
  8
0
 10
-215.849716
 20
-34.670002
 40
6.300000
  1
114
 50
0.000000
 41
1.052632
 51
0.000000
  7
STANDARD
  0
TEXT
  8
0
 10
-209.549713
 20
-24.670000
 40
6.300000
  1
95
 50
0.000000
 41
1.052632
 51
0.000000
  7
STANDARD
  0
TEXT
  8
0
 10
-209.549713
 20
-14.670001
 40
6.300000
  1
76
 50
0.000000
 41
1.052632
 51
0.000000
  7
STANDARD
  0
TEXT
  8
0
 10
-209.549713
 20
-4.670001
 40
6.300000
  1
57
 50
0.000000
 41
1.052632
 51
0.000000
  7
STANDARD
  0
TEXT
  8
0
 10
-178.049713
 20
5.329999
 40
6.300000
  1
P
 50
0.000000
 41
1.052632
 51
0.000000
  7
STANDARD
  0
TEXT
  8
0
 10
-208.049713
 20
5.329999
 40
6.300000
  1
L
 50
0.000000
 41
1.052632
 51
0.000000
  7
STANDARD
  0
TEXT
  8
0
 10
-259.999725
 20
5.329999
 40
6.300000
  1
TYPE
 50
0.000000
 41
1.052632
 51
0.000000
  7
STANDARD
  0
TEXT
  8
0
 10
196.250259
 20
180.830002
 40
6.300000
  1
Ver. 1.0
 50
0.000000
 41
1.052632
 51
0.000000
  7
STANDARD
  0
TEXT
  8
0
 10
167.564651
 20
-192.100006
 40
9.000000
  1
KOGANEI CORP.
 50
0.000000
 41
1.052632
 51
0.000000
  7
STANDARD
  0
TEXT
  8
0
 10
-256.549713
 20
180.830002
 40
6.300000
  1
G180 SERIES
 50
0.000000
 41
1.052632
 51
0.000000
  7
STANDARD
  0
TEXT
  8
0
 10
-270.049713
 20
155.830002
 40
6.300000
  1
MODEL:G180MAJ
 50
0.000000
 41
1.052632
 51
0.000000
  7
STANDARD
  0
LINE
  8
0
 62
     2
 10
113.297661
 20
-132.357162
 11
120.538849
 21
-119.815056
  0
LINE
  8
0
 62
     2
 10
120.538849
 20
-119.815056
 11
133.052536
 21
-119.815056
  0
LINE
  8
0
 62
     2
 10
113.297661
 20
-132.357162
 11
115.418983
 21
-130.235840
  0
LINE
  8
0
 62
     2
 10
113.297661
 20
-132.357162
 11
114.074120
 21
-129.459381
  0
TEXT
  8
0
 62
     2
 10
122.788536
 20
-118.815056
 40
3.200000
  1
-BP
 50
0.000000
 41
1.052632
 51
0.000000
  7
STANDARD
  0
LINE
  8
0
 62
     2
 10
56.297646
 20
-102.257164
 11
40.692814
 21
-75.228798
  0
LINE
  8
0
 62
     2
 10
40.692814
 20
-75.228798
 11
-4.767297
 21
-75.228798
  0
LINE
  8
0
 62
     2
 10
56.297646
 20
-102.257164
 11
55.521191
 21
-99.359383
  0
LINE
  8
0
 62
     2
 10
56.297646
 20
-102.257164
 11
54.176327
 21
-100.135841
  0
TEXT
  8
0
 62
     2
 10
-4.517297
 20
-74.228798
 40
3.200000
  1
GA180-4E1-PSL
 50
0.000000
 41
1.052632
 51
0.000000
  7
STANDARD
  0
LINE
  8
0
 62
     2
 10
75.297646
 20
-102.257164
 11
90.830841
 21
-75.352882
  0
LINE
  8
0
 62
     2
 10
90.830841
 20
-75.352882
 11
137.323624
 21
-75.352882
  0
LINE
  8
0
 62
     2
 10
75.297646
 20
-102.257164
 11
77.418968
 21
-100.135841
  0
LINE
  8
0
 62
     2
 10
75.297646
 20
-102.257164
 11
76.074104
 21
-99.359390
  0
TEXT
  8
0
 62
     2
 10
95.059624
 20
-74.352882
 40
3.200000
  1
GA180-4E2-PSL
 50
0.000000
 41
1.052632
 51
0.000000
  7
STANDARD
  0
LINE
  8
0
 62
     2
 10
94.297653
 20
-102.257164
 11
100.194191
 21
-92.044067
  0
LINE
  8
0
 62
     2
 10
100.194191
 20
-92.044067
 11
144.012177
 21
-92.044067
  0
LINE
  8
0
 62
     2
 10
94.297653
 20
-102.257164
 11
96.418976
 21
-100.135841
  0
LINE
  8
0
 62
     2
 10
94.297653
 20
-102.257164
 11
95.074112
 21
-99.359390
  0
TEXT
  8
0
 62
     2
 10
101.748177
 20
-91.044067
 40
3.200000
  1
GA183-4E2-PSL
 50
0.000000
 41
1.052632
 51
0.000000
  7
STANDARD
  0
LINE
  8
0
 62
     2
 10
36.635197
 20
-102.257156
 11
30.738661
 21
-92.044060
  0
LINE
  8
0
 62
     2
 10
30.738661
 20
-92.044060
 11
-6.823961
 21
-92.044060
  0
LINE
  8
0
 62
     2
 10
36.635197
 20
-102.257156
 11
35.858738
 21
-99.359383
  0
LINE
  8
0
 62
     2
 10
36.635197
 20
-102.257156
 11
34.513878
 21
-100.135834
  0
TEXT
  8
0
 62
     2
 10
-6.573961
 20
-91.044060
 40
3.200000
  1
GA180E1-PSL
 50
0.000000
 41
1.052632
 51
0.000000
  7
STANDARD
  0
TEXT
  8
0
 62
     2
 10
138.466125
 20
153.472717
 40
3.200000
  1
5
 50
0.000000
 41
1.052632
 51
0.000000
  7
STANDARD
  0
LINE
  8
0
 62
     2
 10
132.297653
 20
152.472717
 11
141.416138
 21
152.472717
  0
LINE
  8
0
 62
     2
 10
127.297646
 20
152.472717
 11
132.297653
 21
152.472717
  0
LINE
  8
0
 62
     2
 10
127.297646
 20
152.472717
 11
124.399872
 21
151.696259
  0
LINE
  8
0
 62
     2
 10
127.297646
 20
152.472717
 11
124.399872
 21
153.249176
  0
LINE
  8
0
 62
     2
 10
127.297646
 20
152.472717
 11
121.297646
 21
152.472717
  0
LINE
  8
0
 62
     2
 10
132.297653
 20
152.472717
 11
135.195435
 21
153.249176
  0
LINE
  8
0
 62
     2
 10
132.297653
 20
152.472717
 11
135.195435
 21
151.696259
  0
LINE
  8
0
 62
     2
 10
132.297653
 20
152.472717
 11
138.297653
 21
152.472717
  0
LINE
  8
0
 62
     2
 10
127.297646
 20
44.782051
 11
127.297646
 21
153.972717
  0
LINE
  8
0
 62
     2
 10
132.297653
 20
63.782051
 11
132.297653
 21
153.972717
  0
TEXT
  8
0
 62
     2
 10
73.490646
 20
163.364014
 40
3.200000
  1
L
 50
0.000000
 41
1.052632
 51
0.000000
  7
STANDARD
  0
LINE
  8
0
 62
     2
 10
18.297646
 20
162.364014
 11
132.297653
 21
162.364014
  0
LINE
  8
0
 62
     2
 10
18.297646
 20
162.364014
 11
21.195423
 21
163.140472
  0
LINE
  8
0
 62
     2
 10
18.297646
 20
162.364014
 11
21.195423
 21
161.587555
  0
LINE
  8
0
 62
     2
 10
132.297653
 20
162.364014
 11
129.399872
 21
161.587555
  0
LINE
  8
0
 62
     2
 10
132.297653
 20
162.364014
 11
129.399872
 21
163.140472
  0
LINE
  8
0
 62
     2
 10
18.297646
 20
91.782051
 11
18.297646
 21
163.864014
  0
LINE
  8
0
 62
     2
 10
132.297653
 20
91.782051
 11
132.297653
 21
163.864014
  0
TEXT
  8
0
 62
     2
 10
73.490646
 20
153.472717
 40
3.200000
  1
P
 50
0.000000
 41
1.052632
 51
0.000000
  7
STANDARD
  0
LINE
  8
0
 62
     2
 10
23.297646
 20
152.472717
 11
127.297646
 21
152.472717
  0
LINE
  8
0
 62
     2
 10
23.297646
 20
152.472717
 11
26.195423
 21
153.249176
  0
LINE
  8
0
 62
     2
 10
23.297646
 20
152.472717
 11
26.195423
 21
151.696259
  0
LINE
  8
0
 62
     2
 10
127.297646
 20
152.472717
 11
124.399872
 21
151.696259
  0
LINE
  8
0
 62
     2
 10
127.297646
 20
152.472717
 11
124.399872
 21
153.249176
  0
LINE
  8
0
 62
     2
 10
23.297646
 20
44.782051
 11
23.297646
 21
153.972717
  0
LINE
  8
0
 62
     2
 10
127.297646
 20
64.782051
 11
127.297646
 21
153.972717
  0
TEXT
  8
0
 62
     2
 10
18.990646
 20
153.472717
 40
3.200000
  1
5
 50
0.000000
 41
1.052632
 51
0.000000
  7
STANDARD
  0
LINE
  8
0
 62
     2
 10
18.297646
 20
152.472717
 11
23.297646
 21
152.472717
  0
LINE
  8
0
 62
     2
 10
18.297646
 20
152.472717
 11
15.399868
 21
151.696259
  0
LINE
  8
0
 62
     2
 10
18.297646
 20
152.472717
 11
15.399868
 21
153.249176
  0
LINE
  8
0
 62
     2
 10
18.297646
 20
152.472717
 11
12.297646
 21
152.472717
  0
LINE
  8
0
 62
     2
 10
23.297646
 20
152.472717
 11
26.195423
 21
153.249176
  0
LINE
  8
0
 62
     2
 10
23.297646
 20
152.472717
 11
26.195423
 21
151.696259
  0
LINE
  8
0
 62
     2
 10
23.297646
 20
152.472717
 11
29.297646
 21
152.472717
  0
LINE
  8
0
 62
     2
 10
18.297646
 20
63.782051
 11
18.297646
 21
153.972717
  0
LINE
  8
0
 62
     2
 10
23.297646
 20
64.782051
 11
23.297646
 21
153.972717
  0
ENDSEC
  0
EOF
