  0
SECTION
  2
HEADER
  0
ENDSEC
  0
SECTION
  2
TABLES
  0
TABLE
  2
LTYPE
 70
     4
  0
LTYPE
  2
CONTINUOUS
 70
    64
  3
Solid line
 72
    65
 73
     0
 40
0.000000
  0
LTYPE
  2
DASHED
 70
    64
  3
__ __ __ __ __ __ __ __ __ __ __ __ __ __ __
 72
    65
 73
     2
 40
3.500000
 49
2.000000
 49
-1.500000
  0
LTYPE
  2
CENTER
 70
    64
  3
____ _ ____ _ ____ _ ____ _ ____ _ ____ _ ____
 72
    65
 73
     4
 40
17.500000
 49
13.000000
 49
-1.500000
 49
1.500000
 49
-1.500000
  0
LTYPE
  2
PHANTOM
 70
    64
  3
_____ _ _ _____ _ _ _____ _ _ _____ _ _ ____  
 72
    65
 73
     6
 40
15.500000
 49
8.000000
 49
-1.500000
 49
1.500000
 49
-1.500000
 49
1.500000
 49
-1.500000
  0
LTYPE
  2
DASHED1
 70
    64
  3
__ __ __ __ __ __ __ __ __ __ __ __ __ __ __
 72
    65
 73
     2
 40
1.500000
 49
1.000000
 49
-0.500000
  0
LTYPE
  2
DASHED2
 70
    64
  3
__ __ __ __ __ __ __ __ __ __ __ __ __ __ __
 72
    65
 73
     2
 40
3.500000
 49
2.500000
 49
-1.000000
  0
LTYPE
  2
DASHED3
 70
    64
  3
__ __ __ __ __ __ __ __ __ __ __ __ __ __ __
 72
    65
 73
     2
 40
6.000000
 49
4.000000
 49
-2.000000
  0
LTYPE
  2
DASHED4
 70
    64
  3
__ __ __ __ __ __ __ __ __ __ __ __ __ __ __
 72
    65
 73
     2
 40
12.000000
 49
10.000000
 49
-2.000000
  0
LTYPE
  2
DASHED5
 70
    64
  3
__ __ __ __ __ __ __ __ __ __ __ __ __ __ __
 72
    65
 73
     2
 40
17.000000
 49
15.000000
 49
-2.000000
  0
LTYPE
  2
DASHED6
 70
    64
  3
__ __ __ __ __ __ __ __ __ __ __ __ __ __ __
 72
    65
 73
     2
 40
29.000000
 49
27.000000
 49
-2.000000
  0
LTYPE
  2
PHANTOM1
 70
    64
  3
_____ _ _ _____ _ _ _____ _ _ _____ _ _ ____  
 72
    65
 73
     6
 40
31.000000
 49
25.000000
 49
-1.500000
 49
1.000000
 49
-1.000000
 49
1.000000
 49
-1.500000
  0
LTYPE
  2
PHANTOM2
 70
    64
  3
_____ _ _ _____ _ _ _____ _ _ _____ _ _ ____  
 72
    65
 73
     6
 40
36.000000
 49
27.000000
 49
-1.500000
 49
2.500000
 49
-1.000000
 49
2.500000
 49
-1.500000
  0
LTYPE
  2
PHANTOM3
 70
    64
  3
_____ _ _ _____ _ _ _____ _ _ _____ _ _ ____  
 72
    65
 73
     6
 40
78.000000
 49
64.000000
 49
-2.000000
 49
4.000000
 49
-2.000000
 49
4.000000
 49
-2.000000
  0
LTYPE
  2
CENTER1
 70
    64
  3
____ _ ____ _ ____ _ ____ _ ____ _ ____ _ ____
 72
    65
 73
     4
 40
19.000000
 49
14.000000
 49
-1.000000
 49
3.000000
 49
-1.000000
  0
LTYPE
  2
CENTER2
 70
    64
  3
____ _ ____ _ ____ _ ____ _ ____ _ ____ _ ____
 72
    65
 73
     4
 40
28.500000
 49
25.000000
 49
-1.000000
 49
1.500000
 49
-1.000000
  0
LTYPE
  2
CENTER3
 70
    64
  3
____ _ ____ _ ____ _ ____ _ ____ _ ____ _ ____
 72
    65
 73
     4
 40
31.500000
 49
27.000000
 49
-1.000000
 49
2.500000
 49
-1.000000
  0
LTYPE
  2
CENTER4
 70
    64
  3
____ _ ____ _ ____ _ ____ _ ____ _ ____ _ ____
 72
    65
 73
     4
 40
50.000000
 49
45.000000
 49
-1.000000
 49
3.000000
 49
-1.000000
  0
LTYPE
  2
CENTER5
 70
    64
  3
____ _ ____ _ ____ _ ____ _ ____ _ ____ _ ____
 72
    65
 73
     4
 40
100.000000
 49
92.000000
 49
-2.000000
 49
4.000000
 49
-2.000000
  0
LTYPE
  2
SBK1
 70
    64
  3
______ _ _ _ ______ _ _ _ ______ _ _ _ _____  
 72
    65
 73
     8
 40
60.500000
 49
45.000000
 49
-2.000000
 49
2.500000
 49
-2.000000
 49
2.500000
 49
-2.000000
 49
2.500000
 49
-2.000000
  0
LTYPE
  2
SBK2
 70
    64
  3
______ _ _ _ ______ _ _ _ ______ _ _ _ _____  
 72
    65
 73
     8
 40
84.000000
 49
64.000000
 49
-2.000000
 49
4.000000
 49
-2.000000
 49
4.000000
 49
-2.000000
 49
4.000000
 49
-2.000000
  0
LTYPE
  2
STCH
 70
    64
  3
__ __ __ __ __ __ __ __ __ __ __ __ __ __ __
 72
    65
 73
     2
 40
3.000000
 49
1.000000
 49
-2.000000
  0
LTYPE
  2
MTCH
 70
    64
  3
_____ _ _ _____ _ _ _____ _ _ _____ _ _ ____  
 72
    65
 73
     6
 40
80.000000
 49
66.000000
 49
-2.000000
 49
4.000000
 49
-2.000000
 49
4.000000
 49
-2.000000
  0
ENDTAB
  0
TABLE
  2
LAYER
 70
     1
  0
LAYER
  2
0
 70
     0
 62
     7
  6
CONTINUOUS
  0
ENDTAB
  0
TABLE
  2
STYLE
 70
     1
  0
STYLE
  2
STANDARD
 70
     0
 40
0.000000
 41
1.000000
 50
0.000000
 71
     0
 42
0.200000
  3
txt
  4
BIGFONT
  0
ENDTAB
  0
TABLE
  2
VIEW
 70
     0
  0
ENDTAB
  0
ENDSEC
  0
SECTION
  2
BLOCKS
  0
ENDSEC
  0
SECTION
  2
ENTITIES
  0
LINE
  8
0
 62
     4
 10
-109.363327
 20
-12.611336
 11
-109.363327
 21
-7.500000
  0
LINE
  8
0
 62
     4
 10
-110.793335
 20
-12.230003
 11
-110.793335
 21
-7.500000
  0
LINE
  8
0
 62
     1
 10
-111.920555
 20
-11.929412
 11
-108.007812
 21
-12.972810
  0
LINE
  8
0
 62
     1
 10
-111.825180
 20
-13.194850
 11
-107.868073
 21
-14.250078
  0
LINE
  8
0
 62
     4
 10
-109.363327
 20
-18.029999
 11
-109.363327
 21
-13.851334
  0
LINE
  8
0
 62
     4
 10
-110.793335
 20
-18.029999
 11
-110.793335
 21
-13.470001
  0
LINE
  8
0
 62
     4
 10
-109.363327
 20
-18.029999
 11
-110.793335
 21
-18.029999
  0
LINE
  8
0
 62
     4
 10
-110.478333
 20
-23.029999
 11
-109.678329
 21
-23.029999
  0
LINE
  8
0
 62
     4
 10
-110.478333
 20
-18.029999
 11
-110.478333
 21
-23.029999
  0
LINE
  8
0
 62
     4
 10
-109.678329
 20
-18.029999
 11
-109.678329
 21
-23.029999
  0
LINE
  8
0
 62
     4
 10
-109.678329
 20
-21.400002
 11
-107.578331
 21
-21.400002
  0
LINE
  8
0
 62
     4
 10
-110.793335
 20
-16.400002
 11
-112.378326
 21
-16.400002
  0
LINE
  8
0
 62
     4
 10
-109.363327
 20
-16.300003
 11
-107.078331
 21
-16.300003
  0
LINE
  8
0
 62
     1
 10
-111.920555
 20
-25.729414
 11
-108.007797
 21
-26.772816
  0
LINE
  8
0
 62
     1
 10
-111.920547
 20
-26.969408
 11
-108.007805
 21
-28.012810
  0
LINE
  8
0
 62
     4
 10
-110.793335
 20
-27.270004
 11
-110.793335
 21
-31.830002
  0
LINE
  8
0
 62
     4
 10
-109.363327
 20
-27.651337
 11
-109.363327
 21
-31.830002
  0
LINE
  8
0
 62
     4
 10
-109.678329
 20
-31.830002
 11
-109.678329
 21
-36.830002
  0
LINE
  8
0
 62
     4
 10
-110.478333
 20
-31.830002
 11
-110.478333
 21
-36.830002
  0
LINE
  8
0
 62
     4
 10
-109.363327
 20
-31.830002
 11
-110.793335
 21
-31.830002
  0
LINE
  8
0
 62
     4
 10
-109.678329
 20
-36.830002
 11
-110.478333
 21
-36.830002
  0
LINE
  8
0
 62
     4
 10
-106.578331
 20
-12.866028
 11
-106.578331
 21
-19.400002
  0
LINE
  8
0
 62
     4
 10
-107.078331
 20
-12.000000
 11
-106.578331
 21
-12.866025
  0
LINE
  8
0
 62
     4
 10
-106.578339
 20
-19.400005
 11
-106.078331
 21
-19.688683
  0
LINE
  8
0
 62
     4
 10
-106.078331
 20
-19.688675
 11
-106.078331
 21
-20.400002
  0
LINE
  8
0
 62
     4
 10
-112.378326
 20
-16.300003
 11
-110.793335
 21
-16.300003
  0
LINE
  8
0
 62
     4
 10
-112.378326
 20
-16.400002
 11
-112.378326
 21
-20.400002
  0
LINE
  8
0
 62
     4
 10
-107.578331
 20
-16.400002
 11
-109.363327
 21
-16.400002
  0
LINE
  8
0
 62
     4
 10
-107.578331
 20
-16.300003
 11
-107.578331
 21
-21.400002
  0
LINE
  8
0
  6
PHANTOM
 62
     4
 10
-107.578331
 20
-17.200005
 11
-107.578331
 21
-18.698616
  0
LINE
  8
0
 62
     4
 10
-107.278572
 20
-20.400003
 11
-107.578331
 21
-18.700003
  0
LINE
  8
0
 62
     4
 10
-112.878326
 20
-21.400002
 11
-110.478333
 21
-21.400002
  0
LINE
  8
0
 62
     4
 10
-111.678329
 20
-16.300003
 11
-111.678329
 21
-16.400002
  0
LINE
  8
0
 62
     4
 10
-112.878326
 20
-20.688675
 11
-112.878326
 21
-21.400002
  0
LINE
  8
0
 62
     4
 10
-112.378326
 20
-20.400003
 11
-112.878326
 21
-20.688683
  0
LINE
  8
0
 62
     4
 10
-107.278572
 20
-20.400002
 11
-106.078331
 21
-20.400002
  0
LINE
  8
0
 62
     4
 10
-107.078331
 20
-16.300003
 11
-107.078331
 21
-10.800003
  0
LINE
  8
0
 62
     4
 10
-112.378326
 20
-16.300003
 11
-112.378326
 21
-7.500000
  0
LINE
  8
0
 62
     4
 10
-107.078331
 20
-10.800003
 11
-95.178329
 21
-10.800003
  0
LINE
  8
0
 62
     4
 10
-126.178329
 20
5.599998
 11
-125.378326
 21
5.599998
  0
LINE
  8
0
 62
     4
 10
-125.378326
 20
-2.000000
 11
-126.178329
 21
-2.000000
  0
LINE
  8
0
 62
     4
 10
-125.378326
 20
-2.000000
 11
-125.378326
 21
5.599998
  0
LINE
  8
0
 62
     4
 10
-126.878326
 20
8.299999
 11
-126.878326
 21
-2.700005
  0
LINE
  8
0
 62
     4
 10
-126.178329
 20
-2.000000
 11
-126.178329
 21
5.599998
  0
LINE
  8
0
 62
     4
 10
-116.778328
 20
-6.200005
 11
-116.778328
 21
-5.200005
  0
LINE
  8
0
 62
     4
 10
-116.878326
 20
-5.300003
 11
-116.878326
 21
-5.200005
  0
LINE
  8
0
 62
     4
 10
-119.378326
 20
-5.800003
 11
-117.378326
 21
-5.800003
  0
LINE
  8
0
 62
     4
 10
-121.095474
 20
-2.700006
 11
-120.478333
 21
-6.200005
  0
LINE
  8
0
 62
     4
 10
-119.978333
 20
-6.200005
 11
-119.978333
 21
-5.200005
  0
LINE
  8
0
 62
     4
 10
-119.878326
 20
-5.300003
 11
-119.878326
 21
-5.200005
  0
LINE
  8
0
 62
     4
 10
-119.978333
 20
-5.200005
 11
-116.778328
 21
-5.200005
  0
LINE
  8
0
 62
     4
 10
-126.878326
 20
-2.700005
 11
-121.095474
 21
-2.700005
  0
LINE
  8
0
 62
     4
 10
-96.378326
 20
-4.900002
 11
-106.578331
 21
-4.900002
  0
LINE
  8
0
 62
     4
 10
-120.478333
 20
-6.200005
 11
-113.787514
 21
-6.200005
  0
LINE
  8
0
 62
     4
 10
-96.378326
 20
-4.900002
 11
-96.378326
 21
3.099998
  0
LINE
  8
0
 62
     4
 10
-112.378326
 20
-10.200005
 11
-112.478333
 21
-10.200005
  0
LINE
  8
0
 62
     4
 10
-112.976410
 20
-10.800003
 11
-112.478333
 21
-10.800003
  0
LINE
  8
0
 62
     4
 10
-112.478333
 20
-4.900002
 11
-112.478333
 21
-6.557739
  0
LINE
  8
0
 62
     4
 10
-113.787506
 20
-6.199998
 11
-112.976402
 21
-10.800003
  0
LINE
  8
0
 10
-128.178345
 20
8.799997
 11
-127.678337
 21
8.299998
  0
LINE
  8
0
 10
-127.678329
 20
8.299999
 11
-120.584122
 21
8.299999
  0
LINE
  8
0
 10
-95.778328
 20
33.999996
 11
-103.678329
 21
33.999996
  0
LINE
  8
0
 10
-95.378326
 20
33.599998
 11
-95.378326
 21
22.199997
  0
LINE
  8
0
 10
-95.778328
 20
31.199997
 11
-103.778328
 21
31.199997
  0
LINE
  8
0
 62
     4
 10
-94.878326
 20
21.499996
 11
-94.878326
 21
7.599998
  0
LINE
  8
0
 10
-95.378326
 20
22.199997
 11
-104.178329
 21
22.199997
  0
LINE
  8
0
 62
     4
 10
-94.878326
 20
22.699997
 11
-94.878326
 21
21.799999
  0
LINE
  8
0
 62
     4
 10
-109.363327
 20
-26.411339
 11
-109.363327
 21
-21.400002
  0
LINE
  8
0
 62
     4
 10
-110.793335
 20
-26.029999
 11
-110.793335
 21
-21.400002
  0
LINE
  8
0
 62
     4
 10
-106.578331
 20
1.033974
 11
-106.578331
 21
-5.500000
  0
LINE
  8
0
 62
     4
 10
-107.078323
 20
1.899997
 11
-106.578323
 21
1.033972
  0
LINE
  8
0
 62
     4
 10
-106.578331
 20
-5.500008
 11
-106.078331
 21
-5.788680
  0
LINE
  8
0
 62
     4
 10
-106.078331
 20
-5.788681
 11
-106.078331
 21
-6.500000
  0
LINE
  8
0
 62
     4
 10
-112.378326
 20
-2.400002
 11
-107.078331
 21
-2.400002
  0
LINE
  8
0
 62
     4
 10
-112.378326
 20
-2.500000
 11
-112.378326
 21
-6.500000
  0
LINE
  8
0
 62
     4
 10
-107.578331
 20
-2.500000
 11
-112.378326
 21
-2.500000
  0
LINE
  8
0
 62
     4
 10
-107.578331
 20
-2.400002
 11
-107.578331
 21
-7.500000
  0
LINE
  8
0
  6
PHANTOM
 62
     4
 10
-107.578331
 20
-3.300003
 11
-107.578331
 21
-4.798615
  0
LINE
  8
0
 62
     4
 10
-107.278572
 20
-6.500004
 11
-107.578331
 21
-4.800002
  0
LINE
  8
0
 62
     4
 10
-112.878326
 20
-7.500000
 11
-107.578331
 21
-7.500000
  0
LINE
  8
0
 62
     4
 10
-111.678329
 20
-2.400002
 11
-111.678329
 21
-2.500000
  0
LINE
  8
0
 62
     4
 10
-112.878326
 20
-6.788681
 11
-112.878326
 21
-7.500000
  0
LINE
  8
0
 62
     4
 10
-112.378326
 20
-6.500002
 11
-112.878326
 21
-6.788675
  0
LINE
  8
0
 62
     4
 10
-107.278572
 20
-6.500000
 11
-106.078331
 21
-6.500000
  0
LINE
  8
0
 62
     4
 10
-107.078331
 20
-2.400002
 11
-107.078331
 21
3.099998
  0
LINE
  8
0
 62
     4
 10
-112.378326
 20
-2.400002
 11
-112.378326
 21
8.999996
  0
LINE
  8
0
 62
     4
 10
-107.078331
 20
3.099998
 11
-95.178329
 21
3.099998
  0
LINE
  8
0
 62
     4
 10
-94.878326
 20
-10.500000
 11
-94.878326
 21
21.499996
  0
LINE
  8
0
 62
     4
 10
-126.178329
 20
19.499996
 11
-125.378326
 21
19.499996
  0
LINE
  8
0
 62
     4
 10
-125.378326
 20
11.899998
 11
-126.178329
 21
11.899998
  0
LINE
  8
0
 62
     4
 10
-125.378326
 20
11.899998
 11
-125.378326
 21
19.499996
  0
LINE
  8
0
 62
     4
 10
-126.878326
 20
22.199997
 11
-126.878326
 21
11.199997
  0
LINE
  8
0
 62
     4
 10
-126.178329
 20
11.899998
 11
-126.178329
 21
19.499996
  0
LINE
  8
0
 62
     4
 10
-116.778328
 20
7.699997
 11
-116.778328
 21
8.699997
  0
LINE
  8
0
 62
     4
 10
-116.878326
 20
8.599998
 11
-116.878326
 21
8.699997
  0
LINE
  8
0
 62
     4
 10
-119.378326
 20
8.099998
 11
-117.378326
 21
8.099998
  0
LINE
  8
0
 62
     4
 10
-121.095474
 20
11.199997
 11
-120.478333
 21
7.699995
  0
LINE
  8
0
 62
     4
 10
-119.978333
 20
7.699997
 11
-119.978333
 21
8.699997
  0
LINE
  8
0
 62
     4
 10
-119.878326
 20
8.599998
 11
-119.878326
 21
8.699997
  0
LINE
  8
0
 62
     4
 10
-119.978333
 20
8.699997
 11
-116.778328
 21
8.699997
  0
LINE
  8
0
 62
     4
 10
-126.878326
 20
11.199997
 11
-121.095474
 21
11.199997
  0
LINE
  8
0
 62
     4
 10
-94.878326
 20
21.799997
 11
-95.178329
 21
21.499996
  0
LINE
  8
0
 62
     4
 10
-94.878326
 20
21.499996
 11
-96.378326
 21
21.499996
  0
LINE
  8
0
 62
     4
 10
-96.378326
 20
8.999996
 11
-112.478333
 21
8.999996
  0
LINE
  8
0
 62
     4
 10
-120.478333
 20
7.699997
 11
-113.787514
 21
7.699997
  0
LINE
  8
0
 62
     4
 10
-96.378326
 20
8.999996
 11
-96.378326
 21
21.499996
  0
LINE
  8
0
 62
     4
 10
-112.378326
 20
3.699997
 11
-112.478333
 21
3.699997
  0
LINE
  8
0
 62
     4
 10
-112.976410
 20
3.099998
 11
-112.478333
 21
3.099998
  0
LINE
  8
0
 62
     4
 10
-112.478333
 20
8.999996
 11
-112.478333
 21
3.099998
  0
LINE
  8
0
 62
     4
 10
-113.787514
 20
7.700002
 11
-112.976410
 21
3.099997
  0
LINE
  8
0
 10
-128.178329
 20
22.699999
 11
-127.678322
 21
22.199997
  0
LINE
  8
0
 10
-95.778328
 20
33.999996
 11
-103.678329
 21
33.999996
  0
LINE
  8
0
 10
-95.378326
 20
33.599998
 11
-95.378326
 21
22.199997
  0
LINE
  8
0
 62
     4
 10
-94.878326
 20
22.699997
 11
-95.378326
 21
22.699997
  0
LINE
  8
0
 10
-95.778328
 20
31.199997
 11
-103.778328
 21
31.199997
  0
LINE
  8
0
 10
-127.678329
 20
22.199997
 11
-110.178329
 21
22.199997
  0
LINE
  8
0
 10
-104.178329
 20
22.699997
 11
-110.178329
 21
22.699997
  0
LINE
  8
0
 10
-110.178329
 20
26.199997
 11
-110.178329
 21
22.199997
  0
LINE
  8
0
 10
-109.978333
 20
26.199997
 11
-109.978333
 21
24.657536
  0
LINE
  8
0
 10
-104.178329
 20
26.199997
 11
-110.178329
 21
26.199997
  0
LINE
  8
0
 10
-104.178329
 20
26.199997
 11
-104.178329
 21
22.199997
  0
LINE
  8
0
 10
-104.378326
 20
26.199997
 11
-104.378326
 21
24.657536
  0
LINE
  8
0
 10
-104.178329
 20
22.199997
 11
-95.378326
 21
22.199997
  0
LINE
  8
0
 62
     4
 10
-112.378326
 20
-4.900002
 11
-112.478333
 21
-4.900002
  0
LINE
  8
0
 62
     4
 10
-112.478333
 20
-7.500000
 11
-112.478333
 21
-10.800003
  0
LINE
  8
0
 10
-104.378326
 20
37.820000
 11
-104.378326
 21
39.000000
  0
LINE
  8
0
 10
-109.978333
 20
37.820000
 11
-109.978333
 21
39.000000
  0
LINE
  8
0
 10
-110.378326
 20
38.500000
 11
-110.378326
 21
34.499996
  0
LINE
  8
0
 10
-109.878326
 20
39.000000
 11
-104.678329
 21
39.000000
  0
LINE
  8
0
 10
-127.678329
 20
33.999996
 11
-104.678329
 21
33.999996
  0
LINE
  8
0
 10
-128.178329
 20
41.500000
 11
-128.178329
 21
22.699997
  0
LINE
  8
0
 10
-104.178329
 20
41.500000
 11
-104.178329
 21
31.599998
  0
LINE
  8
0
 10
-128.178329
 20
41.500000
 11
-128.178329
 21
8.799999
  0
LINE
  8
0
 10
-139.468323
 20
25.499996
 11
-130.178329
 21
25.499996
  0
LINE
  8
0
 10
-139.468323
 20
85.500000
 11
-130.178329
 21
85.500000
  0
LINE
  8
0
 10
-154.178329
 20
32.499996
 11
-154.178329
 21
41.299995
  0
LINE
  8
0
 10
-129.178329
 20
26.499996
 11
-129.178329
 21
29.299999
  0
LINE
  8
0
 10
-150.178329
 20
45.500000
 11
-150.178329
 21
65.500000
  0
LINE
  8
0
 10
-153.178329
 20
79.500000
 11
-145.678329
 21
79.500000
  0
LINE
  8
0
 10
-153.178329
 20
31.499996
 11
-145.678329
 21
31.499996
  0
LINE
  8
0
 10
-154.028336
 20
41.650002
 11
-150.178329
 21
45.500000
  0
LINE
  8
0
 10
-145.678329
 20
79.500000
 11
-139.818329
 21
85.360001
  0
LINE
  8
0
 10
-153.886353
 20
69.217644
 11
-150.178329
 21
65.499992
  0
LINE
  8
0
 10
-145.678329
 20
31.499994
 11
-139.818329
 21
25.650000
  0
LINE
  8
0
 10
-154.178329
 20
69.923843
 11
-154.178329
 21
74.000000
  0
LINE
  8
0
  6
CENTER
 62
     2
 10
-142.178329
 20
48.459999
 11
-142.178329
 21
62.855400
  0
LINE
  8
0
  6
CENTER
 62
     2
 10
-152.438324
 20
39.500000
 11
-139.178329
 21
39.500000
  0
LINE
  8
0
  6
CENTER
 62
     2
 10
-152.758331
 20
71.500000
 11
-139.698334
 21
71.500000
  0
LINE
  8
0
  6
CENTER
 62
     2
 10
-139.068329
 20
32.999996
 11
-130.728333
 21
32.999996
  0
LINE
  8
0
  6
CENTER
 62
     2
 10
-138.908325
 20
78.000000
 11
-130.418335
 21
78.000000
  0
LINE
  8
0
  6
CENTER
 62
     2
 10
-134.678329
 20
28.659996
 11
-134.678329
 21
37.159996
  0
LINE
  8
0
  6
CENTER
 62
     2
 10
-134.678329
 20
73.970001
 11
-134.678329
 21
82.470001
  0
LINE
  8
0
  6
CENTER
 62
     2
 10
-145.678329
 20
32.999996
 11
-145.678329
 21
77.279999
  0
LINE
  8
0
 10
-129.178329
 20
69.500000
 11
-129.178329
 21
74.699997
  0
LINE
  8
0
 10
-129.178329
 20
81.699997
 11
-129.178329
 21
84.500000
  0
LINE
  8
0
 10
-129.178329
 20
36.299999
 11
-129.178329
 21
41.500000
  0
LINE
  8
0
 10
-153.678329
 20
74.500000
 11
-154.178329
 21
74.000000
  0
LINE
  8
0
 10
-153.678329
 20
74.500000
 11
-154.178329
 21
75.000008
  0
LINE
  8
0
 10
-154.178329
 20
75.000000
 11
-154.178329
 21
78.500000
  0
LINE
  8
0
 10
-106.578331
 20
66.309998
 11
-106.578331
 21
62.679996
  0
LINE
  8
0
 10
-107.178329
 20
66.309998
 11
-107.178329
 21
62.679996
  0
LINE
  8
0
 10
-107.178329
 20
62.679996
 11
-104.178329
 21
62.679996
  0
LINE
  8
0
 10
-107.178329
 20
66.309998
 11
-104.178329
 21
66.309998
  0
LINE
  8
0
 10
-104.178329
 20
69.500000
 11
-104.178329
 21
41.500000
  0
LINE
  8
0
 10
-128.178329
 20
41.500000
 11
-104.178329
 21
41.500000
  0
LINE
  8
0
 10
-128.178329
 20
69.500000
 11
-128.178329
 21
41.500000
  0
LINE
  8
0
 62
     4
 10
-94.878326
 20
88.299995
 11
-95.378326
 21
88.299995
  0
LINE
  8
0
 10
-104.178329
 20
69.500000
 11
-128.178329
 21
69.500000
  0
LINE
  8
0
 10
-95.378326
 20
77.399994
 11
-95.378326
 21
88.799995
  0
LINE
  8
0
 10
-95.778328
 20
77.000000
 11
-103.678329
 21
77.000000
  0
LINE
  8
0
 10
-128.178329
 20
88.299988
 11
-127.678322
 21
88.799995
  0
LINE
  8
0
 10
-127.678329
 20
88.799995
 11
-126.878326
 21
88.799995
  0
LINE
  8
0
 62
     4
 10
-113.787521
 20
103.299995
 11
-112.976418
 21
107.899994
  0
LINE
  8
0
 62
     4
 10
-112.478333
 20
102.000000
 11
-112.478333
 21
107.899994
  0
LINE
  8
0
 62
     4
 10
-112.976410
 20
107.899994
 11
-112.478333
 21
107.899994
  0
LINE
  8
0
 62
     4
 10
-112.378326
 20
107.300003
 11
-112.478333
 21
107.300003
  0
LINE
  8
0
 62
     4
 10
-96.378326
 20
102.000000
 11
-96.378326
 21
89.500000
  0
LINE
  8
0
 62
     4
 10
-120.478333
 20
103.300003
 11
-113.787514
 21
103.300003
  0
LINE
  8
0
 62
     4
 10
-96.378326
 20
102.000000
 11
-112.478333
 21
102.000000
  0
LINE
  8
0
 62
     4
 10
-94.878326
 20
88.299995
 11
-94.878326
 21
89.199997
  0
LINE
  8
0
 62
     4
 10
-94.878326
 20
89.500000
 11
-96.378326
 21
89.500000
  0
LINE
  8
0
 62
     4
 10
-94.878319
 20
89.199989
 11
-95.178322
 21
89.499992
  0
LINE
  8
0
 62
     4
 10
-126.878326
 20
99.799995
 11
-121.095474
 21
99.799995
  0
LINE
  8
0
 62
     4
 10
-119.978333
 20
102.300003
 11
-116.778328
 21
102.300003
  0
LINE
  8
0
 62
     4
 10
-119.878326
 20
102.399994
 11
-119.878326
 21
102.300003
  0
LINE
  8
0
 62
     4
 10
-119.978333
 20
103.300003
 11
-119.978333
 21
102.300003
  0
LINE
  8
0
 62
     4
 10
-121.095474
 20
99.799995
 11
-120.478333
 21
103.299995
  0
LINE
  8
0
 62
     4
 10
-119.378326
 20
102.899994
 11
-117.378326
 21
102.899994
  0
LINE
  8
0
 62
     4
 10
-116.878326
 20
102.399994
 11
-116.878326
 21
102.300003
  0
LINE
  8
0
 62
     4
 10
-116.778328
 20
103.300003
 11
-116.778328
 21
102.300003
  0
LINE
  8
0
 62
     4
 10
-126.178329
 20
99.099998
 11
-126.178329
 21
91.500000
  0
LINE
  8
0
 62
     4
 10
-126.878326
 20
88.299995
 11
-126.878326
 21
99.799995
  0
LINE
  8
0
 62
     4
 10
-125.378326
 20
99.099998
 11
-125.378326
 21
91.500000
  0
LINE
  8
0
 62
     4
 10
-125.378326
 20
99.099998
 11
-126.178329
 21
99.099998
  0
LINE
  8
0
 62
     4
 10
-126.178329
 20
91.500000
 11
-125.378326
 21
91.500000
  0
LINE
  8
0
 62
     4
 10
-94.878326
 20
89.500000
 11
-94.878326
 21
107.599998
  0
LINE
  8
0
 62
     4
 10
-107.078331
 20
107.899994
 11
-95.178329
 21
107.899994
  0
LINE
  8
0
 62
     4
 10
-112.378326
 20
113.399994
 11
-112.378326
 21
102.000000
  0
LINE
  8
0
 62
     4
 10
-107.078331
 20
113.399994
 11
-107.078331
 21
107.899994
  0
LINE
  8
0
 62
     4
 10
-107.278572
 20
117.500000
 11
-106.078331
 21
117.500000
  0
LINE
  8
0
 62
     4
 10
-112.378334
 20
117.500000
 11
-112.878326
 21
117.788673
  0
LINE
  8
0
 62
     4
 10
-112.878326
 20
117.788673
 11
-112.878326
 21
118.500000
  0
LINE
  8
0
 62
     4
 10
-111.678329
 20
113.399994
 11
-111.678329
 21
113.500000
  0
LINE
  8
0
 62
     4
 10
-112.878326
 20
118.500000
 11
-107.578331
 21
118.500000
  0
LINE
  8
0
 62
     4
 10
-107.278572
 20
117.500000
 11
-107.578331
 21
115.800003
  0
LINE
  8
0
  6
PHANTOM
 62
     4
 10
-107.578331
 20
114.300003
 11
-107.578331
 21
115.798615
  0
LINE
  8
0
 62
     4
 10
-107.578331
 20
113.399994
 11
-107.578331
 21
118.500000
  0
LINE
  8
0
 62
     4
 10
-107.578331
 20
113.500000
 11
-112.378326
 21
113.500000
  0
LINE
  8
0
 62
     4
 10
-112.378326
 20
113.500000
 11
-112.378326
 21
117.500000
  0
LINE
  8
0
 62
     4
 10
-112.378326
 20
113.399994
 11
-107.078331
 21
113.399994
  0
LINE
  8
0
 62
     4
 10
-106.078331
 20
116.788673
 11
-106.078331
 21
117.500000
  0
LINE
  8
0
 62
     4
 10
-106.578323
 20
116.499992
 11
-106.078323
 21
116.788666
  0
LINE
  8
0
 62
     4
 10
-107.078323
 20
109.099998
 11
-106.578323
 21
109.966026
  0
LINE
  8
0
 62
     4
 10
-106.578331
 20
109.966019
 11
-106.578331
 21
116.500000
  0
LINE
  8
0
 10
-122.178329
 20
88.799995
 11
-95.378326
 21
88.799995
  0
LINE
  8
0
 10
-95.778328
 20
79.799995
 11
-103.778328
 21
79.799995
  0
LINE
  8
0
 10
-128.178329
 20
69.500000
 11
-128.178329
 21
88.299995
  0
LINE
  8
0
 10
-104.178329
 20
69.500000
 11
-104.178329
 21
79.399994
  0
LINE
  8
0
 10
-122.178329
 20
88.299995
 11
-127.078331
 21
88.299995
  0
LINE
  8
0
 10
-122.378326
 20
84.799995
 11
-122.378326
 21
86.342461
  0
LINE
  8
0
 10
-122.178329
 20
84.799995
 11
-122.178329
 21
88.799995
  0
LINE
  8
0
 10
-122.178329
 20
84.799995
 11
-128.178329
 21
84.799995
  0
LINE
  8
0
 10
-127.078331
 20
88.799995
 11
-127.078331
 21
88.299995
  0
LINE
  8
0
 10
-127.978333
 20
84.799995
 11
-127.978333
 21
86.342461
  0
LINE
  8
0
 62
     4
 10
-109.363327
 20
118.500000
 11
-109.363327
 21
123.129997
  0
LINE
  8
0
 62
     4
 10
-110.793335
 20
118.500000
 11
-110.793335
 21
123.511330
  0
LINE
  8
0
 62
     1
 10
-107.038330
 20
122.509995
 11
-113.038330
 21
124.109993
  0
LINE
  8
0
 62
     1
 10
-107.038330
 20
123.749992
 11
-113.038330
 21
125.349998
  0
LINE
  8
0
 62
     4
 10
-109.363327
 20
124.369995
 11
-109.363327
 21
128.929993
  0
LINE
  8
0
 62
     4
 10
-110.793335
 20
124.751328
 11
-110.793335
 21
128.929993
  0
LINE
  8
0
 62
     4
 10
-110.478333
 20
128.929993
 11
-110.478333
 21
133.929993
  0
LINE
  8
0
 62
     4
 10
-109.678329
 20
128.929993
 11
-109.678329
 21
133.929993
  0
LINE
  8
0
 62
     4
 10
-110.793335
 20
128.929993
 11
-109.363327
 21
128.929993
  0
LINE
  8
0
 62
     4
 10
-110.478333
 20
133.929993
 11
-109.678329
 21
133.929993
  0
LINE
  8
0
  6
CENTER
 62
     2
 10
-149.135040
 20
55.499996
 11
-135.829712
 21
55.499996
  0
LINE
  8
0
 10
-129.178329
 20
41.500000
 11
-128.178329
 21
41.500000
  0
LINE
  8
0
 10
-129.178329
 20
69.500000
 11
-129.178329
 21
41.500000
  0
LINE
  8
0
 10
-128.178329
 20
69.500000
 11
-128.178329
 21
41.500000
  0
LINE
  8
0
 10
-129.178329
 20
41.500000
 11
-128.178329
 21
41.500000
  0
LINE
  8
0
 10
-129.178329
 20
69.500000
 11
-128.178329
 21
69.500000
  0
LINE
  8
0
 10
-129.178329
 20
74.699997
 11
-128.178329
 21
74.699997
  0
LINE
  8
0
 10
-129.178329
 20
81.699997
 11
-129.178329
 21
74.699997
  0
LINE
  8
0
 10
-128.178329
 20
81.699997
 11
-128.178329
 21
74.699997
  0
LINE
  8
0
 10
-129.178329
 20
81.699997
 11
-128.178329
 21
81.699997
  0
LINE
  8
0
 10
-129.178329
 20
36.299999
 11
-128.178329
 21
36.299999
  0
LINE
  8
0
 10
-129.178329
 20
29.299999
 11
-129.178329
 21
36.299999
  0
LINE
  8
0
 10
-129.178329
 20
29.299999
 11
-128.178329
 21
29.299999
  0
LINE
  8
0
 10
-128.178329
 20
29.299994
 11
-127.678329
 21
30.679995
  0
LINE
  8
0
 10
-127.678329
 20
33.999996
 11
-127.678329
 21
30.679996
  0
LINE
  8
0
 10
-128.178329
 20
36.299999
 11
-128.178329
 21
34.499996
  0
LINE
  8
0
  6
CENTER
 62
     2
 10
-156.826523
 20
63.499996
 11
-149.498093
 21
63.499996
  0
LINE
  8
0
  6
CENTER
 62
     2
 10
-156.826523
 20
47.500000
 11
-149.045395
 21
47.500000
  0
LINE
  8
0
  6
CENTER
 62
     2
 10
114.926529
 20
-151.199997
 11
114.926529
 21
-156.199997
  0
LINE
  8
0
  6
CENTER
 62
     2
 10
25.929853
 20
-151.199997
 11
25.929853
 21
-156.199997
  0
LINE
  8
0
 10
109.426529
 20
-128.699997
 11
109.426529
 21
-127.699997
  0
LINE
  8
0
 10
95.426529
 20
-128.699997
 11
109.426529
 21
-128.699997
  0
LINE
  8
0
 10
95.426529
 20
-128.699997
 11
95.426529
 21
-127.699997
  0
LINE
  8
0
 62
     4
 10
95.426529
 20
-127.699997
 11
109.426529
 21
-127.699997
  0
LINE
  8
0
 10
56.429855
 20
-127.199997
 11
57.799862
 21
-127.699997
  0
LINE
  8
0
 10
57.799854
 20
-127.699997
 11
61.429855
 21
-127.699997
  0
LINE
  8
0
 10
61.429855
 20
-128.699997
 11
61.429855
 21
-127.699997
  0
LINE
  8
0
 10
47.429855
 20
-128.699997
 11
61.429855
 21
-128.699997
  0
LINE
  8
0
 10
47.429855
 20
-128.699997
 11
47.429855
 21
-127.699997
  0
LINE
  8
0
 10
47.429855
 20
-127.699997
 11
51.059853
 21
-127.699997
  0
LINE
  8
0
 10
52.429855
 20
-127.199997
 11
51.059856
 21
-127.699997
  0
LINE
  8
0
 10
52.429855
 20
-127.199997
 11
56.429855
 21
-127.199997
  0
LINE
  8
0
 10
40.429852
 20
-127.199997
 11
41.799862
 21
-127.700005
  0
LINE
  8
0
 10
41.799854
 20
-127.699997
 11
45.429855
 21
-127.699997
  0
LINE
  8
0
 10
45.429855
 20
-128.699997
 11
45.429855
 21
-127.699997
  0
LINE
  8
0
 10
31.429853
 20
-128.699997
 11
45.429855
 21
-128.699997
  0
LINE
  8
0
 10
31.429853
 20
-128.699997
 11
31.429853
 21
-127.699997
  0
LINE
  8
0
 10
31.429853
 20
-127.699997
 11
35.059853
 21
-127.699997
  0
LINE
  8
0
 10
36.429855
 20
-127.200005
 11
35.059853
 21
-127.700005
  0
LINE
  8
0
 10
36.429855
 20
-127.199997
 11
40.429855
 21
-127.199997
  0
LINE
  8
0
 10
45.429855
 20
-127.699997
 11
31.429853
 21
-127.699997
  0
LINE
  8
0
 10
61.429855
 20
-127.699997
 11
47.429855
 21
-127.699997
  0
LINE
  8
0
 10
79.326523
 20
-127.699997
 11
93.526527
 21
-127.699997
  0
LINE
  8
0
 10
63.326523
 20
-127.699997
 11
77.526527
 21
-127.699997
  0
LINE
  8
0
 10
33.429855
 20
-94.699997
 11
33.429855
 21
-94.899994
  0
LINE
  8
0
 10
43.429855
 20
-94.699997
 11
43.429855
 21
-94.899994
  0
LINE
  8
0
 10
49.429855
 20
-94.699997
 11
49.429855
 21
-94.899994
  0
LINE
  8
0
 10
59.429855
 20
-94.699997
 11
59.429855
 21
-94.899994
  0
LINE
  8
0
 10
59.129852
 20
-94.399994
 11
49.729855
 21
-94.399994
  0
LINE
  8
0
 10
43.129852
 20
-94.399994
 11
33.729855
 21
-94.399994
  0
LINE
  8
0
 10
47.329853
 20
-94.899994
 11
61.529854
 21
-94.899994
  0
LINE
  8
0
 10
56.179855
 20
-95.299995
 11
56.179855
 21
-103.199997
  0
LINE
  8
0
 10
57.796432
 20
-95.299995
 11
57.796432
 21
-103.199997
  0
LINE
  8
0
 10
52.679855
 20
-95.299995
 11
52.679855
 21
-103.199997
  0
LINE
  8
0
 10
51.063271
 20
-95.299995
 11
51.063271
 21
-103.199997
  0
LINE
  8
0
 10
61.929855
 20
-95.299995
 11
61.929855
 21
-104.199997
  0
LINE
  8
0
 10
46.929855
 20
-95.299995
 11
46.929855
 21
-104.199997
  0
LINE
  8
0
 10
31.329853
 20
-94.899994
 11
45.529854
 21
-94.899994
  0
LINE
  8
0
 10
40.179855
 20
-95.299995
 11
40.179855
 21
-103.199997
  0
LINE
  8
0
 10
41.796432
 20
-95.299995
 11
41.796432
 21
-103.199997
  0
LINE
  8
0
 10
36.679855
 20
-95.299995
 11
36.679855
 21
-103.199997
  0
LINE
  8
0
 10
35.063271
 20
-95.299995
 11
35.063271
 21
-103.199997
  0
LINE
  8
0
 10
45.929855
 20
-95.299995
 11
45.929855
 21
-104.199997
  0
LINE
  8
0
 10
30.929853
 20
-95.299995
 11
30.929853
 21
-104.199997
  0
LINE
  8
0
  6
CENTER
 62
     2
 10
86.426529
 20
-130.009995
 11
86.426529
 21
-92.264069
  0
LINE
  8
0
  6
CENTER
 62
     2
 10
70.426529
 20
-130.009995
 11
70.426529
 21
-92.264069
  0
LINE
  8
0
 10
64.426521
 20
-127.199997
 11
63.112587
 21
-127.637978
  0
LINE
  8
0
 10
71.926529
 20
-127.199997
 11
64.426529
 21
-127.199997
  0
LINE
  8
0
 10
71.926529
 20
-126.599998
 11
64.882423
 21
-126.599998
  0
LINE
  8
0
 10
62.926529
 20
-127.299995
 11
62.926529
 21
-95.299995
  0
LINE
  8
0
 10
77.926529
 20
-127.299995
 11
77.926529
 21
-95.299995
  0
LINE
  8
0
 10
75.426529
 20
-94.899994
 11
77.526527
 21
-94.899994
  0
LINE
  8
0
 10
65.426529
 20
-94.899994
 11
63.326523
 21
-94.899994
  0
LINE
  8
0
 10
77.926529
 20
-121.699997
 11
75.426529
 21
-121.699997
  0
LINE
  8
0
 10
71.926529
 20
-127.699997
 11
71.926529
 21
-126.399994
  0
LINE
  8
0
 10
65.426529
 20
-103.699997
 11
62.926529
 21
-103.699997
  0
LINE
  8
0
 10
65.426529
 20
-109.699997
 11
62.926529
 21
-109.699997
  0
LINE
  8
0
 10
65.426529
 20
-106.199997
 11
64.575729
 21
-105.349197
  0
LINE
  8
0
 10
76.277313
 20
-126.050797
 11
75.426514
 21
-125.199989
  0
LINE
  8
0
 10
64.575729
 20
-108.050789
 11
65.426521
 21
-107.199997
  0
LINE
  8
0
 10
75.426521
 20
-124.199997
 11
76.277321
 21
-123.349197
  0
LINE
  8
0
 10
65.176529
 20
-94.899994
 11
65.176529
 21
-103.699997
  0
LINE
  8
0
 10
75.676529
 20
-94.899994
 11
75.676529
 21
-121.699997
  0
LINE
  8
0
 10
65.176529
 20
-109.699997
 11
65.176529
 21
-126.599998
  0
LINE
  8
0
 10
76.426529
 20
-121.699997
 11
76.426529
 21
-94.899994
  0
LINE
  8
0
 10
64.426529
 20
-127.199997
 11
64.426529
 21
-109.699997
  0
LINE
  8
0
 10
64.426529
 20
-103.699997
 11
64.426529
 21
-94.899994
  0
LINE
  8
0
 62
     4
 10
65.726524
 20
-111.899994
 11
65.426529
 21
-111.899994
  0
LINE
  8
0
 62
     4
 10
65.726524
 20
-112.000000
 11
65.426529
 21
-112.000000
  0
LINE
  8
0
 62
     4
 10
72.926529
 20
-106.599998
 11
75.126526
 21
-106.599998
  0
LINE
  8
0
 62
     4
 10
72.926529
 20
-107.599998
 11
73.326523
 21
-107.599998
  0
LINE
  8
0
 62
     4
 10
67.926529
 20
-106.799995
 11
72.926529
 21
-106.799995
  0
LINE
  8
0
 62
     4
 10
67.926529
 20
-105.599998
 11
72.926529
 21
-105.599998
  0
LINE
  8
0
 62
     4
 10
66.726524
 20
-108.099998
 11
74.126526
 21
-108.099998
  0
LINE
  8
0
 62
     4
 10
65.726524
 20
-112.399994
 11
65.726524
 21
-107.099998
  0
LINE
  8
0
 62
     4
 10
75.126526
 20
-112.399994
 11
75.126526
 21
-107.099998
  0
LINE
  8
0
 62
     4
 10
65.726524
 20
-112.399994
 11
75.126526
 21
-112.399994
  0
LINE
  8
0
 62
     4
 10
67.336525
 20
-110.699997
 11
67.336525
 21
-111.199997
  0
LINE
  8
0
 62
     4
 10
68.436523
 20
-110.699997
 11
68.436523
 21
-111.199997
  0
LINE
  8
0
 62
     4
 10
66.936523
 20
-108.599998
 11
68.836525
 21
-108.599998
  0
LINE
  8
0
 62
     4
 10
67.010529
 20
-110.699997
 11
68.760529
 21
-110.699997
  0
LINE
  8
0
 62
     4
 10
67.336525
 20
-111.199997
 11
68.436523
 21
-111.199997
  0
LINE
  8
0
 62
     4
 10
71.676529
 20
-107.099998
 11
71.676529
 21
-108.099998
  0
LINE
  8
0
 62
     4
 10
69.176529
 20
-107.099998
 11
69.176529
 21
-108.099998
  0
LINE
  8
0
 62
     4
 10
65.726524
 20
-107.099998
 11
66.726524
 21
-107.099998
  0
LINE
  8
0
 62
     4
 10
66.726524
 20
-108.099998
 11
66.726524
 21
-107.099998
  0
LINE
  8
0
 62
     4
 10
75.126526
 20
-107.099998
 11
74.126526
 21
-107.099998
  0
LINE
  8
0
 62
     4
 10
74.126526
 20
-108.099998
 11
74.126526
 21
-107.099998
  0
LINE
  8
0
 62
     4
 10
68.836525
 20
-108.599998
 11
68.960526
 21
-110.487999
  0
LINE
  8
0
 62
     4
 10
66.810524
 20
-110.487999
 11
66.936523
 21
-108.599998
  0
LINE
  8
0
 62
     4
 10
69.476524
 20
-108.599998
 11
71.376526
 21
-108.599998
  0
LINE
  8
0
 62
     4
 10
69.350525
 20
-110.487999
 11
69.476524
 21
-108.599998
  0
LINE
  8
0
 62
     4
 10
69.550522
 20
-110.699997
 11
71.300522
 21
-110.699997
  0
LINE
  8
0
 62
     4
 10
69.876526
 20
-110.699997
 11
69.876526
 21
-111.199997
  0
LINE
  8
0
 62
     4
 10
69.876526
 20
-111.199997
 11
70.976524
 21
-111.199997
  0
LINE
  8
0
 62
     4
 10
70.976524
 20
-110.699997
 11
70.976524
 21
-111.199997
  0
LINE
  8
0
 62
     4
 10
71.376526
 20
-108.599991
 11
71.500526
 21
-110.487999
  0
LINE
  8
0
 62
     4
 10
70.026527
 20
-109.199997
 11
70.026527
 21
-110.000000
  0
LINE
  8
0
 62
     4
 10
70.826523
 20
-109.199997
 11
70.026527
 21
-109.199997
  0
LINE
  8
0
 62
     4
 10
70.826523
 20
-109.199997
 11
70.826523
 21
-110.000000
  0
LINE
  8
0
 62
     4
 10
70.826523
 20
-110.000000
 11
70.026527
 21
-110.000000
  0
LINE
  8
0
 62
     4
 10
72.016525
 20
-108.599998
 11
73.916527
 21
-108.599998
  0
LINE
  8
0
 62
     4
 10
71.890526
 20
-110.487999
 11
72.016525
 21
-108.599998
  0
LINE
  8
0
 62
     4
 10
72.090523
 20
-110.699997
 11
73.840523
 21
-110.699997
  0
LINE
  8
0
 62
     4
 10
72.416527
 20
-110.699997
 11
72.416527
 21
-111.199997
  0
LINE
  8
0
 62
     4
 10
72.416527
 20
-111.199997
 11
73.516525
 21
-111.199997
  0
LINE
  8
0
 62
     4
 10
73.516525
 20
-110.699997
 11
73.516525
 21
-111.199997
  0
LINE
  8
0
 62
     4
 10
73.916527
 20
-108.599998
 11
74.040520
 21
-110.487999
  0
LINE
  8
0
 62
     4
 10
67.926529
 20
-105.599998
 11
67.926529
 21
-108.099998
  0
LINE
  8
0
 62
     4
 10
72.926529
 20
-105.599998
 11
72.926529
 21
-108.099998
  0
LINE
  8
0
 62
     4
 10
67.526527
 20
-107.099998
 11
73.326523
 21
-107.099998
  0
LINE
  8
0
 62
     4
 10
73.326523
 20
-107.599998
 11
73.326523
 21
-106.599998
  0
LINE
  8
0
 62
     4
 10
67.526527
 20
-107.599998
 11
67.526527
 21
-106.599998
  0
LINE
  8
0
 62
     4
 10
67.526527
 20
-107.599998
 11
67.926529
 21
-107.599998
  0
LINE
  8
0
 62
     4
 10
65.726524
 20
-106.599998
 11
67.926529
 21
-106.599998
  0
LINE
  8
0
 62
     4
 10
75.126526
 20
-94.399994
 11
65.726524
 21
-94.399994
  0
LINE
  8
0
 62
     4
 10
75.426529
 20
-111.899994
 11
75.126526
 21
-111.899994
  0
LINE
  8
0
 62
     1
 10
71.926529
 20
-99.399994
 11
71.926529
 21
-94.399994
  0
LINE
  8
0
 62
     1
 10
68.926529
 20
-99.399994
 11
71.926529
 21
-99.399994
  0
LINE
  8
0
 62
     1
 10
68.926529
 20
-99.399994
 11
68.926529
 21
-94.399994
  0
LINE
  8
0
 62
     4
 10
73.226524
 20
-114.099998
 11
73.226524
 21
-115.599998
  0
LINE
  8
0
 62
     4
 10
74.726524
 20
-114.099998
 11
74.726524
 21
-115.599998
  0
LINE
  8
0
 62
     4
 10
73.226524
 20
-114.099998
 11
74.726524
 21
-114.099998
  0
LINE
  8
0
 62
     4
 10
73.226524
 20
-115.599998
 11
74.726524
 21
-115.599998
  0
LINE
  8
0
 62
     4
 10
68.032166
 20
-120.440819
 11
67.776527
 21
-119.999992
  0
LINE
  8
0
 62
     4
 10
73.076515
 20
-120.000000
 11
72.820892
 21
-120.440811
  0
LINE
  8
0
 62
     4
 10
69.282150
 20
-119.190811
 11
69.026527
 21
-118.750000
  0
LINE
  8
0
 62
     4
 10
67.776520
 20
-120.000000
 11
69.026520
 21
-118.749992
  0
LINE
  8
0
 62
     4
 10
69.282150
 20
-119.190804
 11
68.032150
 21
-120.440804
  0
LINE
  8
0
 62
     4
 10
71.570900
 20
-119.190819
 11
71.826523
 21
-118.750008
  0
LINE
  8
0
 62
     4
 10
75.426529
 20
-113.309181
 11
65.426529
 21
-113.309181
  0
LINE
  8
0
 62
     4
 10
71.570892
 20
-119.190811
 11
72.820892
 21
-120.440811
  0
LINE
  8
0
 62
     4
 10
75.426529
 20
-120.440811
 11
72.820892
 21
-120.440811
  0
LINE
  8
0
 62
     4
 10
68.032158
 20
-120.440811
 11
65.426529
 21
-120.440811
  0
LINE
  8
0
 62
     4
 10
69.282158
 20
-119.190811
 11
71.570892
 21
-119.190811
  0
LINE
  8
0
 62
     4
 10
75.426529
 20
-120.000000
 11
73.076523
 21
-120.000000
  0
LINE
  8
0
 62
     4
 10
73.076515
 20
-119.999992
 11
71.826523
 21
-118.750000
  0
LINE
  8
0
 62
     4
 10
69.026527
 20
-118.750000
 11
71.826523
 21
-118.750000
  0
LINE
  8
0
 62
     4
 10
67.776527
 20
-120.000000
 11
65.426529
 21
-120.000000
  0
LINE
  8
0
 62
     4
 10
65.426529
 20
-112.498077
 11
75.426529
 21
-112.498077
  0
LINE
  8
0
 62
     4
 10
75.426529
 20
-112.000000
 11
75.126526
 21
-112.000000
  0
LINE
  8
0
 62
     4
 10
73.926529
 20
-116.299995
 11
75.426529
 21
-116.299995
  0
LINE
  8
0
 62
     4
 10
75.426529
 20
-119.500000
 11
73.926529
 21
-119.500000
  0
LINE
  8
0
 62
     4
 10
66.926529
 20
-119.500000
 11
65.426529
 21
-119.500000
  0
LINE
  8
0
 62
     4
 10
65.426529
 20
-116.299995
 11
66.926529
 21
-116.299995
  0
LINE
  8
0
 62
     4
 10
65.426529
 20
-94.699997
 11
65.426529
 21
-126.399994
  0
LINE
  8
0
  6
CENTER
 62
     2
 10
72.926529
 20
-116.149994
 11
67.926529
 21
-116.149994
  0
LINE
  8
0
 62
     4
 10
75.426529
 20
-94.699997
 11
75.426529
 21
-126.399994
  0
LINE
  8
0
 62
     4
 10
72.252037
 20
-116.449997
 11
68.601013
 21
-116.449997
  0
LINE
  8
0
 62
     4
 10
70.426529
 20
-115.849998
 11
68.601013
 21
-115.849998
  0
LINE
  8
0
 62
     4
 10
72.252037
 20
-115.849998
 11
70.426529
 21
-115.849998
  0
LINE
  8
0
 62
     4
 10
66.219421
 20
-118.607101
 11
67.633629
 21
-117.192886
  0
LINE
  8
0
 62
     4
 10
66.219421
 20
-117.192886
 11
67.633629
 21
-118.607101
  0
LINE
  8
0
 62
     4
 10
74.633629
 20
-117.192879
 11
73.219414
 21
-118.607094
  0
LINE
  8
0
 62
     4
 10
74.633629
 20
-118.607094
 11
73.219421
 21
-117.192879
  0
LINE
  8
0
 62
     4
 10
75.426529
 20
-126.399994
 11
65.426529
 21
-126.399994
  0
LINE
  8
0
 10
80.426521
 20
-127.199989
 11
79.112587
 21
-127.637970
  0
LINE
  8
0
 10
87.926529
 20
-127.199997
 11
80.426529
 21
-127.199997
  0
LINE
  8
0
 10
87.926529
 20
-126.599998
 11
80.882423
 21
-126.599998
  0
LINE
  8
0
 10
78.926529
 20
-127.299995
 11
78.926529
 21
-95.299995
  0
LINE
  8
0
 10
93.926529
 20
-127.299995
 11
93.926529
 21
-95.299995
  0
LINE
  8
0
 10
91.426529
 20
-94.899994
 11
93.526527
 21
-94.899994
  0
LINE
  8
0
 10
81.426529
 20
-94.899994
 11
79.326523
 21
-94.899994
  0
LINE
  8
0
 10
93.926529
 20
-121.699997
 11
91.426529
 21
-121.699997
  0
LINE
  8
0
 10
87.926529
 20
-127.699997
 11
87.926529
 21
-126.399994
  0
LINE
  8
0
 10
81.426529
 20
-103.699997
 11
78.926529
 21
-103.699997
  0
LINE
  8
0
 10
81.426529
 20
-109.699997
 11
78.926529
 21
-109.699997
  0
LINE
  8
0
 10
81.426521
 20
-106.199997
 11
80.575714
 21
-105.349190
  0
LINE
  8
0
 10
92.277313
 20
-126.050789
 11
91.426521
 21
-125.199997
  0
LINE
  8
0
 10
80.575729
 20
-108.050797
 11
81.426521
 21
-107.199997
  0
LINE
  8
0
 10
91.426521
 20
-124.199997
 11
92.277313
 21
-123.349197
  0
LINE
  8
0
 10
81.176529
 20
-94.899994
 11
81.176529
 21
-103.699997
  0
LINE
  8
0
 10
91.676529
 20
-94.899994
 11
91.676529
 21
-121.699997
  0
LINE
  8
0
 10
81.176529
 20
-109.699997
 11
81.176529
 21
-126.599998
  0
LINE
  8
0
 10
92.426529
 20
-121.699997
 11
92.426529
 21
-94.899994
  0
LINE
  8
0
 10
80.426529
 20
-127.199997
 11
80.426529
 21
-109.699997
  0
LINE
  8
0
 10
80.426529
 20
-103.699997
 11
80.426529
 21
-94.899994
  0
LINE
  8
0
 62
     4
 10
81.726524
 20
-111.899994
 11
81.426529
 21
-111.899994
  0
LINE
  8
0
 62
     4
 10
81.726524
 20
-112.000000
 11
81.426529
 21
-112.000000
  0
LINE
  8
0
 62
     4
 10
88.926529
 20
-106.599998
 11
91.126526
 21
-106.599998
  0
LINE
  8
0
 62
     4
 10
88.926529
 20
-107.599998
 11
89.326523
 21
-107.599998
  0
LINE
  8
0
 62
     4
 10
83.926529
 20
-106.799995
 11
88.926529
 21
-106.799995
  0
LINE
  8
0
 62
     4
 10
83.926529
 20
-105.599998
 11
88.926529
 21
-105.599998
  0
LINE
  8
0
 62
     4
 10
82.726524
 20
-108.099998
 11
90.126526
 21
-108.099998
  0
LINE
  8
0
 62
     4
 10
81.726524
 20
-112.399994
 11
81.726524
 21
-107.099998
  0
LINE
  8
0
 62
     4
 10
91.126526
 20
-112.399994
 11
91.126526
 21
-107.099998
  0
LINE
  8
0
 62
     4
 10
81.726524
 20
-112.399994
 11
91.126526
 21
-112.399994
  0
LINE
  8
0
 62
     4
 10
83.336525
 20
-110.699997
 11
83.336525
 21
-111.199997
  0
LINE
  8
0
 62
     4
 10
84.436523
 20
-110.699997
 11
84.436523
 21
-111.199997
  0
LINE
  8
0
 62
     4
 10
82.936523
 20
-108.599998
 11
84.836525
 21
-108.599998
  0
LINE
  8
0
 62
     4
 10
83.010529
 20
-110.699997
 11
84.760529
 21
-110.699997
  0
LINE
  8
0
 62
     4
 10
83.336525
 20
-111.199997
 11
84.436523
 21
-111.199997
  0
LINE
  8
0
 62
     4
 10
87.676529
 20
-107.099998
 11
87.676529
 21
-108.099998
  0
LINE
  8
0
 62
     4
 10
85.176529
 20
-107.099998
 11
85.176529
 21
-108.099998
  0
LINE
  8
0
 62
     4
 10
81.726524
 20
-107.099998
 11
82.726524
 21
-107.099998
  0
LINE
  8
0
 62
     4
 10
82.726524
 20
-108.099998
 11
82.726524
 21
-107.099998
  0
LINE
  8
0
 62
     4
 10
91.126526
 20
-107.099998
 11
90.126526
 21
-107.099998
  0
LINE
  8
0
 62
     4
 10
90.126526
 20
-108.099998
 11
90.126526
 21
-107.099998
  0
LINE
  8
0
 62
     4
 10
84.836517
 20
-108.599998
 11
84.960518
 21
-110.487999
  0
LINE
  8
0
 62
     4
 10
82.810524
 20
-110.487999
 11
82.936523
 21
-108.599998
  0
LINE
  8
0
 62
     4
 10
85.476524
 20
-108.599998
 11
87.376526
 21
-108.599998
  0
LINE
  8
0
 62
     4
 10
85.350525
 20
-110.487991
 11
85.476524
 21
-108.599998
  0
LINE
  8
0
 62
     4
 10
85.550522
 20
-110.699997
 11
87.300522
 21
-110.699997
  0
LINE
  8
0
 62
     4
 10
85.876526
 20
-110.699997
 11
85.876526
 21
-111.199997
  0
LINE
  8
0
 62
     4
 10
85.876526
 20
-111.199997
 11
86.976524
 21
-111.199997
  0
LINE
  8
0
 62
     4
 10
86.976524
 20
-110.699997
 11
86.976524
 21
-111.199997
  0
LINE
  8
0
 62
     4
 10
87.376526
 20
-108.599998
 11
87.500526
 21
-110.487999
  0
LINE
  8
0
 62
     4
 10
86.026527
 20
-109.199997
 11
86.026527
 21
-110.000000
  0
LINE
  8
0
 62
     4
 10
86.826523
 20
-109.199997
 11
86.026527
 21
-109.199997
  0
LINE
  8
0
 62
     4
 10
86.826523
 20
-109.199997
 11
86.826523
 21
-110.000000
  0
LINE
  8
0
 62
     4
 10
86.826523
 20
-110.000000
 11
86.026527
 21
-110.000000
  0
LINE
  8
0
 62
     4
 10
88.016525
 20
-108.599998
 11
89.916527
 21
-108.599998
  0
LINE
  8
0
 62
     4
 10
87.890526
 20
-110.487999
 11
88.016525
 21
-108.599998
  0
LINE
  8
0
 62
     4
 10
88.090523
 20
-110.699997
 11
89.840523
 21
-110.699997
  0
LINE
  8
0
 62
     4
 10
88.416527
 20
-110.699997
 11
88.416527
 21
-111.199997
  0
LINE
  8
0
 62
     4
 10
88.416527
 20
-111.199997
 11
89.516525
 21
-111.199997
  0
LINE
  8
0
 62
     4
 10
89.516525
 20
-110.699997
 11
89.516525
 21
-111.199997
  0
LINE
  8
0
 62
     4
 10
89.916527
 20
-108.599991
 11
90.040527
 21
-110.487991
  0
LINE
  8
0
 62
     4
 10
83.926529
 20
-105.599998
 11
83.926529
 21
-108.099998
  0
LINE
  8
0
 62
     4
 10
88.926529
 20
-105.599998
 11
88.926529
 21
-108.099998
  0
LINE
  8
0
 62
     4
 10
83.526527
 20
-107.099998
 11
89.326523
 21
-107.099998
  0
LINE
  8
0
 62
     4
 10
89.326523
 20
-107.599998
 11
89.326523
 21
-106.599998
  0
LINE
  8
0
 62
     4
 10
83.526527
 20
-107.599998
 11
83.526527
 21
-106.599998
  0
LINE
  8
0
 62
     4
 10
83.526527
 20
-107.599998
 11
83.926529
 21
-107.599998
  0
LINE
  8
0
 62
     4
 10
81.726524
 20
-106.599998
 11
83.926529
 21
-106.599998
  0
LINE
  8
0
 62
     4
 10
91.126526
 20
-94.399994
 11
81.726524
 21
-94.399994
  0
LINE
  8
0
 62
     4
 10
91.426529
 20
-111.899994
 11
91.126526
 21
-111.899994
  0
LINE
  8
0
 62
     4
 10
87.926529
 20
-99.399994
 11
87.926529
 21
-94.399994
  0
LINE
  8
0
 62
     1
 10
84.926529
 20
-99.399994
 11
87.926529
 21
-99.399994
  0
LINE
  8
0
 62
     1
 10
84.926529
 20
-99.399994
 11
84.926529
 21
-94.399994
  0
LINE
  8
0
 62
     4
 10
89.226524
 20
-114.099998
 11
89.226524
 21
-115.599998
  0
LINE
  8
0
 62
     4
 10
90.726524
 20
-114.099998
 11
90.726524
 21
-115.599998
  0
LINE
  8
0
 62
     4
 10
89.226524
 20
-114.099998
 11
90.726524
 21
-114.099998
  0
LINE
  8
0
 62
     4
 10
89.226524
 20
-115.599998
 11
90.726524
 21
-115.599998
  0
LINE
  8
0
 62
     4
 10
84.032158
 20
-120.440819
 11
83.776527
 21
-119.999992
  0
LINE
  8
0
 62
     4
 10
89.076523
 20
-120.000000
 11
88.820900
 21
-120.440819
  0
LINE
  8
0
 62
     4
 10
85.282150
 20
-119.190804
 11
85.026520
 21
-118.749992
  0
LINE
  8
0
 62
     4
 10
83.776527
 20
-120.000000
 11
85.026535
 21
-118.750000
  0
LINE
  8
0
 62
     4
 10
85.282158
 20
-119.190811
 11
84.032158
 21
-120.440811
  0
LINE
  8
0
 62
     4
 10
87.570900
 20
-119.190819
 11
87.826530
 21
-118.750000
  0
LINE
  8
0
 62
     4
 10
91.426529
 20
-113.309181
 11
81.426529
 21
-113.309181
  0
LINE
  8
0
 62
     4
 10
87.570900
 20
-119.190811
 11
88.820892
 21
-120.440804
  0
LINE
  8
0
 62
     4
 10
91.426529
 20
-120.440811
 11
88.820892
 21
-120.440811
  0
LINE
  8
0
 62
     4
 10
84.032158
 20
-120.440811
 11
81.426529
 21
-120.440811
  0
LINE
  8
0
 62
     4
 10
85.282158
 20
-119.190811
 11
87.570892
 21
-119.190811
  0
LINE
  8
0
 62
     4
 10
91.426529
 20
-120.000000
 11
89.076523
 21
-120.000000
  0
LINE
  8
0
 62
     4
 10
89.076530
 20
-119.999992
 11
87.826523
 21
-118.749985
  0
LINE
  8
0
 62
     4
 10
85.026527
 20
-118.750000
 11
87.826523
 21
-118.750000
  0
LINE
  8
0
 62
     4
 10
83.776527
 20
-120.000000
 11
81.426529
 21
-120.000000
  0
LINE
  8
0
 62
     4
 10
81.426529
 20
-112.498077
 11
91.426529
 21
-112.498077
  0
LINE
  8
0
 62
     4
 10
91.426529
 20
-112.000000
 11
91.126526
 21
-112.000000
  0
LINE
  8
0
 62
     4
 10
89.926529
 20
-116.299995
 11
91.426529
 21
-116.299995
  0
LINE
  8
0
 62
     4
 10
91.426529
 20
-119.500000
 11
89.926529
 21
-119.500000
  0
LINE
  8
0
 62
     4
 10
82.926529
 20
-119.500000
 11
81.426529
 21
-119.500000
  0
LINE
  8
0
 62
     4
 10
81.426529
 20
-116.299995
 11
82.926529
 21
-116.299995
  0
LINE
  8
0
 62
     4
 10
81.426529
 20
-94.699997
 11
81.426529
 21
-126.399994
  0
LINE
  8
0
  6
CENTER
 62
     2
 10
88.926529
 20
-116.149994
 11
83.926529
 21
-116.149994
  0
LINE
  8
0
 62
     4
 10
91.426529
 20
-94.699997
 11
91.426529
 21
-126.399994
  0
LINE
  8
0
 62
     4
 10
88.252037
 20
-116.449997
 11
84.601013
 21
-116.449997
  0
LINE
  8
0
 62
     4
 10
86.426529
 20
-115.849998
 11
84.601013
 21
-115.849998
  0
LINE
  8
0
 62
     4
 10
88.252037
 20
-115.849998
 11
86.426529
 21
-115.849998
  0
LINE
  8
0
 62
     4
 10
82.219421
 20
-118.607101
 11
83.633636
 21
-117.192886
  0
LINE
  8
0
 62
     4
 10
82.219421
 20
-117.192886
 11
83.633636
 21
-118.607101
  0
LINE
  8
0
 62
     4
 10
90.633629
 20
-117.192894
 11
89.219414
 21
-118.607101
  0
LINE
  8
0
 62
     4
 10
90.633629
 20
-118.607101
 11
89.219414
 21
-117.192894
  0
LINE
  8
0
 62
     4
 10
91.426529
 20
-126.399994
 11
81.426529
 21
-126.399994
  0
LINE
  8
0
 10
57.873188
 20
-123.640114
 11
59.990688
 21
-125.757614
  0
LINE
  8
0
 10
57.875675
 20
-125.757607
 11
59.990673
 21
-123.642609
  0
LINE
  8
0
 10
41.873184
 20
-123.640114
 11
43.990685
 21
-125.757614
  0
LINE
  8
0
 10
41.875679
 20
-125.757614
 11
43.990677
 21
-123.642609
  0
LINE
  8
0
 10
48.873188
 20
-105.640114
 11
50.990681
 21
-107.757614
  0
LINE
  8
0
 10
48.875683
 20
-107.757614
 11
50.990685
 21
-105.642616
  0
LINE
  8
0
 10
32.869858
 20
-105.634995
 11
34.987350
 21
-107.752487
  0
LINE
  8
0
 10
32.872353
 20
-107.752495
 11
34.987358
 21
-105.637497
  0
LINE
  8
0
 10
61.929855
 20
-127.199997
 11
61.929855
 21
-104.199997
  0
LINE
  8
0
 10
46.929855
 20
-127.199997
 11
46.929855
 21
-104.199997
  0
LINE
  8
0
 10
47.429855
 20
-103.699997
 11
61.429855
 21
-103.699997
  0
LINE
  8
0
 10
55.729855
 20
-127.199997
 11
55.729855
 21
-124.699997
  0
LINE
  8
0
 10
58.929855
 20
-121.500000
 11
61.429855
 21
-121.500000
  0
LINE
  8
0
 10
53.129852
 20
-106.699997
 11
53.129852
 21
-104.199997
  0
LINE
  8
0
 10
47.429855
 20
-109.899994
 11
49.929855
 21
-109.899994
  0
LINE
  8
0
 10
45.929855
 20
-127.199997
 11
45.929855
 21
-104.199997
  0
LINE
  8
0
 10
30.929853
 20
-127.199997
 11
30.929853
 21
-104.199997
  0
LINE
  8
0
 10
31.429853
 20
-103.699997
 11
45.429855
 21
-103.699997
  0
LINE
  8
0
 10
39.729855
 20
-127.199997
 11
39.729855
 21
-124.699997
  0
LINE
  8
0
 10
42.929855
 20
-121.500000
 11
45.429855
 21
-121.500000
  0
LINE
  8
0
 10
37.129852
 20
-106.699997
 11
37.129852
 21
-104.199997
  0
LINE
  8
0
 10
31.429853
 20
-109.899994
 11
33.929855
 21
-109.899994
  0
LINE
  8
0
 10
93.429855
 20
-127.699997
 11
93.429855
 21
-128.699997
  0
LINE
  8
0
 10
79.429855
 20
-128.699997
 11
93.429855
 21
-128.699997
  0
LINE
  8
0
 10
79.429855
 20
-127.699997
 11
93.429855
 21
-127.699997
  0
LINE
  8
0
 10
79.429855
 20
-127.699997
 11
79.429855
 21
-128.699997
  0
LINE
  8
0
 10
77.429855
 20
-127.699997
 11
77.429855
 21
-128.699997
  0
LINE
  8
0
 10
63.429855
 20
-128.699997
 11
77.429855
 21
-128.699997
  0
LINE
  8
0
 10
63.429855
 20
-127.699997
 11
77.429855
 21
-127.699997
  0
LINE
  8
0
 10
63.429855
 20
-127.699997
 11
63.429855
 21
-128.699997
  0
LINE
  8
0
 10
118.426529
 20
-128.699997
 11
118.426529
 21
-153.699997
  0
LINE
  8
0
 10
22.429853
 20
-128.699997
 11
22.429853
 21
-153.699997
  0
LINE
  8
0
 62
     4
 10
109.426529
 20
-127.699997
 11
109.926529
 21
-127.699997
  0
LINE
  8
0
 62
     4
 10
95.426529
 20
-127.699997
 11
94.926529
 21
-127.699997
  0
LINE
  8
0
 62
     4
 10
110.526527
 20
-125.099998
 11
105.326530
 21
-125.099998
  0
LINE
  8
0
 62
     4
 10
105.676529
 20
-124.399994
 11
105.676529
 21
-125.099998
  0
LINE
  8
0
 62
     4
 10
110.176529
 20
-124.399994
 11
110.176529
 21
-125.099998
  0
LINE
  8
0
 62
     4
 10
99.526527
 20
-125.099998
 11
94.326530
 21
-125.099998
  0
LINE
  8
0
 62
     4
 10
94.676529
 20
-124.399994
 11
94.676529
 21
-125.099998
  0
LINE
  8
0
 62
     4
 10
99.176529
 20
-124.399994
 11
99.176529
 21
-125.099998
  0
LINE
  8
0
 62
     4
 10
105.326530
 20
-125.699997
 11
105.326530
 21
-125.099998
  0
LINE
  8
0
 62
     4
 10
110.526527
 20
-125.699997
 11
110.526527
 21
-125.099998
  0
LINE
  8
0
 62
     4
 10
94.326530
 20
-125.699997
 11
94.326530
 21
-125.099998
  0
LINE
  8
0
 62
     4
 10
99.526527
 20
-125.699997
 11
99.526527
 21
-125.099998
  0
LINE
  8
0
 62
     4
 10
109.926529
 20
-127.699997
 11
109.926529
 21
-125.699997
  0
LINE
  8
0
 62
     4
 10
94.926529
 20
-127.699997
 11
94.926529
 21
-125.699997
  0
LINE
  8
0
  6
CENTER
 62
     2
 10
102.426529
 20
-129.729996
 11
102.426529
 21
-123.559998
  0
LINE
  8
0
 62
     4
 10
94.326530
 20
-125.699997
 11
110.526527
 21
-125.699997
  0
LINE
  8
0
  6
CENTER
 62
     2
 10
54.429855
 20
-92.264069
 11
54.429855
 21
-130.290115
  0
LINE
  8
0
  6
CENTER
 62
     2
 10
38.429855
 20
-130.290115
 11
38.429855
 21
-92.264069
  0
LINE
  8
0
 10
22.429853
 20
-128.699997
 11
118.426529
 21
-128.699997
  0
LINE
  8
0
 10
22.429853
 20
-153.699997
 11
118.426529
 21
-153.699997
  0
LINE
  8
0
 10
22.429853
 20
-145.199997
 11
118.426529
 21
-145.199997
  0
LINE
  8
0
 10
22.429853
 20
-139.199997
 11
118.426529
 21
-139.199997
  0
LINE
  8
0
  6
CENTER
 62
     2
 10
35.429855
 20
79.800003
 11
41.429855
 21
79.800003
  0
LINE
  8
0
  6
CENTER
 62
     2
 10
51.429855
 20
79.800003
 11
57.429855
 21
79.800003
  0
LINE
  8
0
  6
CENTER
 62
     2
 10
67.429855
 20
79.800003
 11
73.429855
 21
79.800003
  0
LINE
  8
0
  6
CENTER
 62
     2
 10
83.429855
 20
79.800003
 11
89.429855
 21
79.800003
  0
LINE
  8
0
  6
CENTER
 62
     2
 10
67.429855
 20
31.200001
 11
73.429855
 21
31.200001
  0
LINE
  8
0
  6
CENTER
 62
     2
 10
83.429855
 20
17.299999
 11
89.429855
 21
17.299999
  0
LINE
  8
0
 10
51.149853
 20
34.000000
 11
57.709854
 21
34.000000
  0
LINE
  8
0
 10
35.149853
 20
34.000000
 11
41.709854
 21
34.000000
  0
LINE
  8
0
 10
78.929855
 20
29.000000
 11
77.929855
 21
29.000000
  0
LINE
  8
0
 10
46.929855
 20
82.000000
 11
45.929855
 21
82.000000
  0
LINE
  8
0
 10
62.929855
 20
82.000000
 11
61.929855
 21
82.000000
  0
LINE
  8
0
 10
78.929855
 20
82.000000
 11
77.929855
 21
82.000000
  0
LINE
  8
0
 62
     4
 10
106.364853
 20
44.934994
 11
109.494850
 21
48.064999
  0
LINE
  8
0
 62
     4
 10
106.974854
 20
47.455002
 11
108.884857
 21
45.544998
  0
LINE
  8
0
 62
     4
 10
95.364853
 20
62.934998
 11
98.494850
 21
66.065002
  0
LINE
  8
0
 62
     4
 10
95.974854
 20
65.455002
 11
97.884857
 21
63.545002
  0
LINE
  8
0
 10
93.929855
 20
44.917053
 11
93.929855
 21
41.500000
  0
LINE
  8
0
 10
78.929855
 20
62.904507
 11
78.929855
 21
41.500000
  0
LINE
  8
0
 10
77.929855
 20
44.917053
 11
77.929855
 21
41.500000
  0
LINE
  8
0
 10
62.929855
 20
62.904507
 11
62.929855
 21
41.500000
  0
LINE
  8
0
 10
61.929855
 20
44.917053
 11
61.929855
 21
34.500000
  0
LINE
  8
0
 10
46.929855
 20
62.904507
 11
46.929855
 21
34.500000
  0
LINE
  8
0
 10
45.929855
 20
44.917053
 11
45.929855
 21
34.500000
  0
LINE
  8
0
 10
30.929853
 20
62.904507
 11
30.929853
 21
34.500000
  0
LINE
  8
0
 10
94.434853
 20
46.035000
 11
94.134857
 21
46.035000
  0
LINE
  8
0
 10
94.154854
 20
46.205002
 11
94.464859
 21
46.205002
  0
LINE
  8
0
 10
94.154854
 20
46.805000
 11
94.464859
 21
46.805000
  0
LINE
  8
0
 10
90.364853
 20
44.934998
 11
93.494850
 21
48.065002
  0
LINE
  8
0
 10
90.974854
 20
47.454998
 11
92.884850
 21
45.545002
  0
LINE
  8
0
 10
83.434853
 20
64.035004
 11
83.134857
 21
64.035004
  0
LINE
  8
0
 10
83.154854
 20
64.205002
 11
83.464851
 21
64.205002
  0
LINE
  8
0
 10
83.154854
 20
64.805000
 11
83.464851
 21
64.805000
  0
LINE
  8
0
 10
79.364853
 20
62.934998
 11
82.494850
 21
66.064995
  0
LINE
  8
0
 10
79.974854
 20
65.455002
 11
81.884857
 21
63.545002
  0
LINE
  8
0
 10
78.434853
 20
46.035000
 11
78.134857
 21
46.035000
  0
LINE
  8
0
 10
78.154854
 20
46.205002
 11
78.464851
 21
46.205002
  0
LINE
  8
0
 10
78.154854
 20
46.805000
 11
78.464851
 21
46.805000
  0
LINE
  8
0
 10
74.364845
 20
44.934994
 11
77.494858
 21
48.064999
  0
LINE
  8
0
 10
74.974854
 20
47.454994
 11
76.884850
 21
45.545002
  0
LINE
  8
0
 10
67.434853
 20
64.035004
 11
67.134857
 21
64.035004
  0
LINE
  8
0
 10
67.154854
 20
64.205002
 11
67.464851
 21
64.205002
  0
LINE
  8
0
 10
67.154854
 20
64.805000
 11
67.464851
 21
64.805000
  0
LINE
  8
0
 10
63.364849
 20
62.934998
 11
66.494850
 21
66.065002
  0
LINE
  8
0
 10
63.974854
 20
65.455002
 11
65.884857
 21
63.544998
  0
LINE
  8
0
 10
62.434853
 20
46.035000
 11
62.134857
 21
46.035000
  0
LINE
  8
0
 10
62.154854
 20
46.205002
 11
62.464851
 21
46.205002
  0
LINE
  8
0
 10
62.154854
 20
46.805000
 11
62.464851
 21
46.805000
  0
LINE
  8
0
 10
58.364853
 20
44.935005
 11
61.494850
 21
48.064999
  0
LINE
  8
0
 10
58.974854
 20
47.454998
 11
60.884853
 21
45.544998
  0
LINE
  8
0
 10
51.434853
 20
64.035004
 11
51.134853
 21
64.035004
  0
LINE
  8
0
 10
51.154854
 20
64.205002
 11
51.464851
 21
64.205002
  0
LINE
  8
0
 10
51.154854
 20
64.805000
 11
51.464851
 21
64.805000
  0
LINE
  8
0
 10
47.364853
 20
62.935001
 11
50.494854
 21
66.065002
  0
LINE
  8
0
 10
47.974854
 20
65.455002
 11
49.884853
 21
63.544998
  0
LINE
  8
0
 10
46.434853
 20
46.035000
 11
46.134853
 21
46.035000
  0
LINE
  8
0
 10
46.154854
 20
46.205002
 11
46.464851
 21
46.205002
  0
LINE
  8
0
 10
46.154854
 20
46.805000
 11
46.464851
 21
46.805000
  0
LINE
  8
0
 10
42.364849
 20
44.935001
 11
45.494854
 21
48.064999
  0
LINE
  8
0
 10
42.974854
 20
47.455002
 11
44.884853
 21
45.544998
  0
LINE
  8
0
  6
CENTER
 62
     2
 10
38.429855
 20
136.275558
 11
38.429855
 21
30.900002
  0
LINE
  8
0
  6
CENTER
 62
     2
 10
86.429855
 20
136.375549
 11
86.429855
 21
-39.275558
  0
LINE
  8
0
 10
93.929855
 20
27.599998
 11
78.929855
 21
27.599998
  0
LINE
  8
0
 10
78.929855
 20
69.500000
 11
78.929855
 21
66.105492
  0
LINE
  8
0
 10
93.929855
 20
69.500000
 11
93.929855
 21
48.092949
  0
LINE
  8
0
 10
91.679855
 20
88.300003
 11
81.179855
 21
88.300003
  0
LINE
  8
0
 10
93.929855
 20
69.500000
 11
78.929855
 21
69.500000
  0
LINE
  8
0
 10
82.774597
 20
79.800003
 11
78.929855
 21
79.800003
  0
LINE
  8
0
 10
90.085114
 20
79.800003
 11
93.929855
 21
79.800003
  0
LINE
  8
0
 10
78.929855
 20
87.300003
 11
78.929855
 21
69.500000
  0
LINE
  8
0
 10
93.929855
 20
87.300003
 11
93.929855
 21
69.500000
  0
LINE
  8
0
 10
92.429848
 20
88.799995
 11
93.929848
 21
87.299995
  0
LINE
  8
0
 10
78.929855
 20
87.300003
 11
80.429855
 21
88.800003
  0
LINE
  8
0
 10
80.429855
 20
88.800003
 11
80.879852
 21
88.800003
  0
LINE
  8
0
 10
81.179855
 20
88.300003
 11
81.179855
 21
88.500000
  0
LINE
  8
0
 10
91.679855
 20
88.300003
 11
91.679855
 21
88.500000
  0
LINE
  8
0
 10
84.968529
 20
77.000000
 11
88.006645
 21
77.000000
  0
LINE
  8
0
 10
88.266457
 20
77.150002
 11
89.652100
 21
79.550003
  0
LINE
  8
0
 10
83.207611
 20
79.550003
 11
84.535515
 21
77.250000
  0
LINE
  8
0
 10
91.979858
 20
88.800003
 11
92.479858
 21
88.800003
  0
LINE
  8
0
 62
     4
 10
91.429855
 20
89.199997
 11
81.429855
 21
89.199997
  0
LINE
  8
0
 62
     4
 10
81.729851
 20
107.900002
 11
91.129852
 21
107.900002
  0
LINE
  8
0
 62
     4
 10
81.429855
 20
89.500000
 11
91.429855
 21
89.500000
  0
LINE
  8
0
 62
     4
 10
81.429855
 20
88.300003
 11
81.429855
 21
113.400002
  0
LINE
  8
0
 62
     4
 10
91.429855
 20
88.300003
 11
91.429855
 21
113.400002
  0
LINE
  8
0
 62
     4
 10
91.429855
 20
113.400002
 11
88.929855
 21
113.400002
  0
LINE
  8
0
 62
     4
 10
89.329857
 20
107.900002
 11
89.329857
 21
113.400002
  0
LINE
  8
0
 62
     4
 10
83.529854
 20
107.900002
 11
83.529854
 21
113.400002
  0
LINE
  8
0
 62
     1
 10
87.929855
 20
104.900002
 11
87.929855
 21
107.900002
  0
LINE
  8
0
 62
     1
 10
87.929855
 20
104.900002
 11
84.929855
 21
104.900002
  0
LINE
  8
0
 62
     1
 10
84.929855
 20
104.900002
 11
84.929855
 21
107.900002
  0
LINE
  8
0
 62
     4
 10
88.929855
 20
109.000000
 11
83.929855
 21
109.000000
  0
LINE
  8
0
 62
     4
 10
91.129852
 20
118.500000
 11
81.729851
 21
118.500000
  0
LINE
  8
0
 62
     4
 10
88.929855
 20
117.500000
 11
83.929855
 21
117.500000
  0
LINE
  8
0
 62
     4
 10
91.129852
 20
113.500000
 11
91.129852
 21
118.500000
  0
LINE
  8
0
 62
     4
 10
88.929855
 20
109.000000
 11
88.929855
 21
117.500000
  0
LINE
  8
0
 62
     4
 10
83.929855
 20
116.788673
 11
88.929855
 21
116.788673
  0
LINE
  8
0
 62
     4
 10
83.929855
 20
116.500000
 11
88.929855
 21
116.500000
  0
LINE
  8
0
 62
     4
 10
90.029854
 20
113.500000
 11
90.029854
 21
118.500000
  0
LINE
  8
0
 62
     4
 10
82.829857
 20
113.500000
 11
82.829857
 21
118.500000
  0
LINE
  8
0
 62
     4
 10
83.929855
 20
109.000000
 11
83.929855
 21
117.500000
  0
LINE
  8
0
 62
     4
 10
81.729851
 20
113.500000
 11
81.729851
 21
118.500000
  0
LINE
  8
0
 62
     4
 10
83.929855
 20
109.866028
 11
88.929855
 21
109.866028
  0
LINE
  8
0
 62
     4
 10
83.929855
 20
113.400002
 11
81.429855
 21
113.400002
  0
LINE
  8
0
 10
78.929855
 20
9.799999
 11
78.929855
 21
41.500000
  0
LINE
  8
0
 62
     4
 10
83.929855
 20
-16.300003
 11
81.429855
 21
-16.300003
  0
LINE
  8
0
 62
     4
 10
83.929855
 20
-12.666023
 11
88.929855
 21
-12.666023
  0
LINE
  8
0
 62
     4
 10
81.729851
 20
-16.400002
 11
81.729851
 21
-21.400002
  0
LINE
  8
0
 62
     4
 10
83.929855
 20
-11.900002
 11
83.929855
 21
-20.400002
  0
LINE
  8
0
 62
     4
 10
82.829857
 20
-16.400002
 11
82.829857
 21
-21.400002
  0
LINE
  8
0
  6
PHANTOM
 62
     4
 10
86.429855
 20
-12.666023
 11
85.179855
 21
-12.666023
  0
LINE
  8
0
 62
     4
 10
90.029854
 20
-16.400002
 11
90.029854
 21
-21.400002
  0
LINE
  8
0
  6
PHANTOM
 62
     4
 10
86.429855
 20
-12.666023
 11
87.679855
 21
-12.666023
  0
LINE
  8
0
 62
     4
 10
83.929855
 20
-19.400002
 11
88.929855
 21
-19.400002
  0
LINE
  8
0
 62
     4
 10
83.929855
 20
-19.688675
 11
88.929855
 21
-19.688675
  0
LINE
  8
0
 62
     4
 10
88.929855
 20
-11.900002
 11
88.929855
 21
-20.400002
  0
LINE
  8
0
 62
     4
 10
91.129852
 20
-16.400002
 11
91.129852
 21
-21.400002
  0
LINE
  8
0
 62
     4
 10
88.929855
 20
-20.400002
 11
83.929855
 21
-20.400002
  0
LINE
  8
0
 62
     4
 10
91.129852
 20
-21.400002
 11
81.729851
 21
-21.400002
  0
LINE
  8
0
 62
     4
 10
88.929855
 20
-11.800003
 11
83.929855
 21
-11.800003
  0
LINE
  8
0
 62
     1
 10
84.929855
 20
-7.800003
 11
84.929855
 21
-10.800003
  0
LINE
  8
0
 62
     1
 10
87.929855
 20
-7.800003
 11
84.929855
 21
-7.800003
  0
LINE
  8
0
 62
     1
 10
87.929855
 20
-7.800003
 11
87.929855
 21
-10.800003
  0
LINE
  8
0
 62
     4
 10
83.529854
 20
-10.800003
 11
83.529854
 21
-16.300003
  0
LINE
  8
0
 62
     4
 10
89.329857
 20
-10.800003
 11
89.329857
 21
-16.300003
  0
LINE
  8
0
 62
     4
 10
91.429855
 20
-16.300003
 11
88.929855
 21
-16.300003
  0
LINE
  8
0
 62
     4
 10
91.429855
 20
8.799999
 11
91.429855
 21
-16.300003
  0
LINE
  8
0
 62
     4
 10
81.429855
 20
8.799999
 11
81.429855
 21
-16.300003
  0
LINE
  8
0
 62
     4
 10
81.429855
 20
7.599998
 11
91.429855
 21
7.599998
  0
LINE
  8
0
 62
     4
 10
81.729851
 20
-10.800003
 11
91.129852
 21
-10.800003
  0
LINE
  8
0
 62
     4
 10
91.429855
 20
7.900002
 11
81.429855
 21
7.900002
  0
LINE
  8
0
 10
91.979858
 20
8.299999
 11
92.479858
 21
8.299999
  0
LINE
  8
0
 10
83.207611
 20
17.549997
 11
84.535515
 21
19.849998
  0
LINE
  8
0
 10
88.266457
 20
19.950005
 11
89.652100
 21
17.550001
  0
LINE
  8
0
 10
84.968529
 20
20.099998
 11
88.006645
 21
20.099998
  0
LINE
  8
0
 10
91.679855
 20
8.799999
 11
91.679855
 21
8.599998
  0
LINE
  8
0
 10
81.179855
 20
8.799999
 11
81.179855
 21
8.599998
  0
LINE
  8
0
 10
80.429855
 20
8.299999
 11
80.879852
 21
8.299999
  0
LINE
  8
0
 10
78.929855
 20
9.799998
 11
80.429848
 21
8.300003
  0
LINE
  8
0
 10
92.429848
 20
8.299999
 11
93.929848
 21
9.800001
  0
LINE
  8
0
 10
90.085114
 20
17.299999
 11
93.929855
 21
17.299999
  0
LINE
  8
0
 10
82.774597
 20
17.299999
 11
78.929855
 21
17.299999
  0
LINE
  8
0
 10
91.679855
 20
8.799999
 11
81.179855
 21
8.799999
  0
LINE
  8
0
 10
93.929855
 20
41.500000
 11
78.929855
 21
41.500000
  0
LINE
  8
0
 62
     4
 10
91.129852
 20
113.500000
 11
88.929855
 21
113.500000
  0
LINE
  8
0
 62
     4
 10
83.929855
 20
113.500000
 11
81.729851
 21
113.500000
  0
LINE
  8
0
 62
     4
 10
90.529854
 20
113.500000
 11
90.529854
 21
113.400002
  0
LINE
  8
0
 62
     4
 10
82.329857
 20
113.500000
 11
82.329857
 21
113.400002
  0
LINE
  8
0
 62
     4
 10
91.129852
 20
-16.400002
 11
88.929855
 21
-16.400002
  0
LINE
  8
0
 62
     4
 10
83.929855
 20
-16.400002
 11
81.729851
 21
-16.400002
  0
LINE
  8
0
 62
     4
 10
90.529854
 20
-16.400002
 11
90.529854
 21
-16.300003
  0
LINE
  8
0
 62
     4
 10
82.329857
 20
-16.400002
 11
82.329857
 21
-16.300003
  0
LINE
  8
0
 62
     4
 10
84.604851
 20
118.500000
 11
84.604851
 21
124.584671
  0
LINE
  8
0
 62
     4
 10
83.174850
 20
118.500000
 11
83.174850
 21
124.966003
  0
LINE
  8
0
 62
     1
 10
92.009857
 20
122.609993
 11
80.911537
 21
125.569542
  0
LINE
  8
0
 62
     1
 10
92.009850
 20
123.849998
 11
80.911537
 21
126.809547
  0
LINE
  8
0
 62
     4
 10
89.684853
 20
118.500000
 11
89.684853
 21
123.229996
  0
LINE
  8
0
 62
     4
 10
88.254852
 20
118.500000
 11
88.254852
 21
123.599998
  0
LINE
  8
0
 62
     4
 10
88.569855
 20
134.029999
 11
89.369850
 21
134.029999
  0
LINE
  8
0
 62
     4
 10
88.254852
 20
129.029999
 11
89.684853
 21
129.029999
  0
LINE
  8
0
 62
     4
 10
89.369850
 20
129.029999
 11
89.369850
 21
134.029999
  0
LINE
  8
0
 62
     4
 10
88.569855
 20
129.029999
 11
88.569855
 21
134.029999
  0
LINE
  8
0
 62
     4
 10
88.254852
 20
124.839996
 11
88.254852
 21
129.029999
  0
LINE
  8
0
 62
     4
 10
89.684853
 20
124.459999
 11
89.684853
 21
129.029999
  0
LINE
  8
0
 62
     4
 10
84.604851
 20
125.824661
 11
84.604851
 21
129.029999
  0
LINE
  8
0
 62
     4
 10
83.174850
 20
126.206001
 11
83.174850
 21
129.029999
  0
LINE
  8
0
 62
     4
 10
84.289856
 20
129.029999
 11
84.289856
 21
134.029999
  0
LINE
  8
0
 62
     4
 10
83.489853
 20
129.029999
 11
83.489853
 21
134.029999
  0
LINE
  8
0
 62
     4
 10
84.604851
 20
129.029999
 11
83.174850
 21
129.029999
  0
LINE
  8
0
 62
     4
 10
84.289856
 20
134.029999
 11
83.489853
 21
134.029999
  0
LINE
  8
0
 62
     4
 10
88.254852
 20
-21.400002
 11
88.254852
 21
-27.484665
  0
LINE
  8
0
 62
     4
 10
89.684853
 20
-21.400002
 11
89.684853
 21
-27.865997
  0
LINE
  8
0
 62
     4
 10
83.174850
 20
-21.400002
 11
83.174850
 21
-26.129997
  0
LINE
  8
0
 62
     4
 10
84.604851
 20
-21.400002
 11
84.604851
 21
-26.500000
  0
LINE
  8
0
 62
     4
 10
88.569855
 20
-36.930000
 11
89.369850
 21
-36.930000
  0
LINE
  8
0
 62
     4
 10
88.254852
 20
-31.930000
 11
89.684853
 21
-31.930000
  0
LINE
  8
0
 62
     4
 10
89.369850
 20
-31.930000
 11
89.369850
 21
-36.930000
  0
LINE
  8
0
 62
     4
 10
88.569855
 20
-31.930000
 11
88.569855
 21
-36.930000
  0
LINE
  8
0
 62
     4
 10
89.684853
 20
-29.106003
 11
89.684853
 21
-31.930000
  0
LINE
  8
0
 62
     4
 10
88.254852
 20
-28.724670
 11
88.254852
 21
-31.930000
  0
LINE
  8
0
 62
     4
 10
83.174850
 20
-27.360001
 11
83.174850
 21
-31.930000
  0
LINE
  8
0
 62
     4
 10
84.604851
 20
-27.739998
 11
84.604851
 21
-31.930000
  0
LINE
  8
0
 62
     4
 10
84.289856
 20
-31.930000
 11
84.289856
 21
-36.930000
  0
LINE
  8
0
 62
     4
 10
83.489853
 20
-31.930000
 11
83.489853
 21
-36.930000
  0
LINE
  8
0
 62
     4
 10
84.604851
 20
-31.930000
 11
83.174850
 21
-31.930000
  0
LINE
  8
0
 62
     4
 10
84.289856
 20
-36.930000
 11
83.489853
 21
-36.930000
  0
LINE
  8
0
 62
     1
 10
80.849854
 20
-26.750000
 11
91.948166
 21
-29.709553
  0
LINE
  8
0
 62
     1
 10
80.849854
 20
-25.509996
 11
91.948166
 21
-28.469547
  0
LINE
  8
0
  6
CENTER
 62
     2
 10
70.429855
 20
136.375549
 11
70.429855
 21
-25.375557
  0
LINE
  8
0
 10
77.929855
 20
41.500000
 11
62.929855
 21
41.500000
  0
LINE
  8
0
 10
62.929855
 20
69.500000
 11
62.929855
 21
66.105492
  0
LINE
  8
0
 10
77.929855
 20
69.500000
 11
77.929855
 21
48.092949
  0
LINE
  8
0
 10
75.679855
 20
88.300003
 11
65.179855
 21
88.300003
  0
LINE
  8
0
 10
77.929855
 20
69.500000
 11
62.929855
 21
69.500000
  0
LINE
  8
0
 10
66.774597
 20
79.800003
 11
62.929855
 21
79.800003
  0
LINE
  8
0
 10
74.085106
 20
79.800003
 11
77.929855
 21
79.800003
  0
LINE
  8
0
 10
62.929855
 20
87.300003
 11
62.929855
 21
69.500000
  0
LINE
  8
0
 10
77.929855
 20
87.300003
 11
77.929855
 21
69.500000
  0
LINE
  8
0
 10
76.429855
 20
88.800003
 11
77.929855
 21
87.300003
  0
LINE
  8
0
 10
62.929852
 20
87.300003
 11
64.429855
 21
88.799995
  0
LINE
  8
0
 10
64.429855
 20
88.800003
 11
64.879852
 21
88.800003
  0
LINE
  8
0
 10
65.179855
 20
88.300003
 11
65.179855
 21
88.500000
  0
LINE
  8
0
 10
75.679855
 20
88.300003
 11
75.679855
 21
88.500000
  0
LINE
  8
0
 10
68.968529
 20
77.000000
 11
72.006645
 21
77.000000
  0
LINE
  8
0
 10
72.266457
 20
77.149994
 11
73.652100
 21
79.550003
  0
LINE
  8
0
 10
67.207603
 20
79.550003
 11
68.535507
 21
77.250000
  0
LINE
  8
0
 10
75.979851
 20
88.800003
 11
76.479851
 21
88.800003
  0
LINE
  8
0
 62
     4
 10
75.429855
 20
89.199997
 11
65.429855
 21
89.199997
  0
LINE
  8
0
 62
     4
 10
65.729851
 20
107.900002
 11
75.129852
 21
107.900002
  0
LINE
  8
0
 62
     4
 10
65.429855
 20
89.500000
 11
75.429855
 21
89.500000
  0
LINE
  8
0
 62
     4
 10
65.429855
 20
88.300003
 11
65.429855
 21
113.400002
  0
LINE
  8
0
 62
     4
 10
75.429855
 20
88.300003
 11
75.429855
 21
113.400002
  0
LINE
  8
0
 62
     4
 10
75.429855
 20
113.400002
 11
72.929855
 21
113.400002
  0
LINE
  8
0
 62
     4
 10
73.329857
 20
107.900002
 11
73.329857
 21
113.400002
  0
LINE
  8
0
 62
     4
 10
67.529854
 20
107.900002
 11
67.529854
 21
113.400002
  0
LINE
  8
0
 62
     1
 10
71.929855
 20
104.900002
 11
71.929855
 21
107.900002
  0
LINE
  8
0
 62
     1
 10
71.929855
 20
104.900002
 11
68.929855
 21
104.900002
  0
LINE
  8
0
 62
     1
 10
68.929855
 20
104.900002
 11
68.929855
 21
107.900002
  0
LINE
  8
0
 62
     4
 10
72.929855
 20
109.000000
 11
67.929855
 21
109.000000
  0
LINE
  8
0
 62
     4
 10
75.129852
 20
118.500000
 11
65.729851
 21
118.500000
  0
LINE
  8
0
 62
     4
 10
72.929855
 20
117.500000
 11
67.929855
 21
117.500000
  0
LINE
  8
0
 62
     4
 10
75.129852
 20
113.500000
 11
75.129852
 21
118.500000
  0
LINE
  8
0
 62
     4
 10
72.929855
 20
109.000000
 11
72.929855
 21
117.500000
  0
LINE
  8
0
 62
     4
 10
67.929855
 20
116.788673
 11
72.929855
 21
116.788673
  0
LINE
  8
0
 62
     4
 10
67.929855
 20
116.500000
 11
72.929855
 21
116.500000
  0
LINE
  8
0
 62
     4
 10
74.029854
 20
113.500000
 11
74.029854
 21
118.500000
  0
LINE
  8
0
 62
     4
 10
66.829857
 20
113.500000
 11
66.829857
 21
118.500000
  0
LINE
  8
0
 62
     4
 10
67.929855
 20
109.000000
 11
67.929855
 21
117.500000
  0
LINE
  8
0
 62
     4
 10
65.729851
 20
113.500000
 11
65.729851
 21
118.500000
  0
LINE
  8
0
 62
     4
 10
67.929855
 20
109.866028
 11
72.929855
 21
109.866028
  0
LINE
  8
0
 62
     4
 10
67.929855
 20
113.400002
 11
65.429855
 21
113.400002
  0
LINE
  8
0
 10
62.929855
 20
23.700001
 11
62.929855
 21
41.500000
  0
LINE
  8
0
 10
77.929855
 20
23.700001
 11
77.929855
 21
41.500000
  0
LINE
  8
0
 62
     4
 10
67.929855
 20
-2.400002
 11
65.429855
 21
-2.400002
  0
LINE
  8
0
 62
     4
 10
67.929855
 20
1.133976
 11
72.929855
 21
1.133976
  0
LINE
  8
0
 62
     4
 10
65.729851
 20
-2.500000
 11
65.729851
 21
-7.500000
  0
LINE
  8
0
 62
     4
 10
67.929855
 20
2.000000
 11
67.929855
 21
-6.500000
  0
LINE
  8
0
 62
     4
 10
66.829857
 20
-2.500000
 11
66.829857
 21
-7.500000
  0
LINE
  8
0
  6
PHANTOM
 62
     4
 10
70.429855
 20
1.133976
 11
69.179855
 21
1.133976
  0
LINE
  8
0
 62
     4
 10
74.029854
 20
-2.500000
 11
74.029854
 21
-7.500000
  0
LINE
  8
0
 62
     4
 10
67.929855
 20
-5.500000
 11
72.929855
 21
-5.500000
  0
LINE
  8
0
 62
     4
 10
67.929855
 20
-5.788673
 11
72.929855
 21
-5.788673
  0
LINE
  8
0
 62
     4
 10
72.929855
 20
2.000000
 11
72.929855
 21
-6.500000
  0
LINE
  8
0
 62
     4
 10
75.129852
 20
-2.500000
 11
75.129852
 21
-7.500000
  0
LINE
  8
0
 62
     4
 10
72.929855
 20
-6.500000
 11
67.929855
 21
-6.500000
  0
LINE
  8
0
 62
     4
 10
75.129852
 20
-7.500000
 11
65.729851
 21
-7.500000
  0
LINE
  8
0
 62
     4
 10
72.929855
 20
2.000000
 11
67.929855
 21
2.000000
  0
LINE
  8
0
 62
     1
 10
68.929855
 20
6.099998
 11
68.929855
 21
3.099998
  0
LINE
  8
0
 62
     1
 10
71.929855
 20
6.099998
 11
68.929855
 21
6.099998
  0
LINE
  8
0
 62
     1
 10
71.929855
 20
6.099998
 11
71.929855
 21
3.099998
  0
LINE
  8
0
 62
     4
 10
67.529854
 20
3.099998
 11
67.529854
 21
-2.400002
  0
LINE
  8
0
 62
     4
 10
73.329857
 20
3.099998
 11
73.329857
 21
-2.400002
  0
LINE
  8
0
 62
     4
 10
75.429855
 20
-2.400002
 11
72.929855
 21
-2.400002
  0
LINE
  8
0
 62
     4
 10
75.429855
 20
22.700001
 11
75.429855
 21
-2.400002
  0
LINE
  8
0
 62
     4
 10
65.429855
 20
22.700001
 11
65.429855
 21
-2.400002
  0
LINE
  8
0
 62
     4
 10
65.429855
 20
21.500000
 11
75.429855
 21
21.500000
  0
LINE
  8
0
 62
     4
 10
65.729851
 20
3.099998
 11
75.129852
 21
3.099998
  0
LINE
  8
0
 62
     4
 10
75.429855
 20
21.799999
 11
65.429855
 21
21.799999
  0
LINE
  8
0
 10
75.979851
 20
22.200001
 11
76.479851
 21
22.200001
  0
LINE
  8
0
 10
67.207611
 20
31.449997
 11
68.535515
 21
33.749996
  0
LINE
  8
0
 10
72.266457
 20
33.850002
 11
73.652100
 21
31.450001
  0
LINE
  8
0
 10
68.968529
 20
34.000000
 11
72.006645
 21
34.000000
  0
LINE
  8
0
 10
75.679855
 20
22.700001
 11
75.679855
 21
22.500000
  0
LINE
  8
0
 10
65.179855
 20
22.700001
 11
65.179855
 21
22.500000
  0
LINE
  8
0
 10
64.429855
 20
22.200001
 11
64.879852
 21
22.200001
  0
LINE
  8
0
 10
62.929855
 20
23.699999
 11
64.429855
 21
22.200001
  0
LINE
  8
0
 10
76.429848
 20
22.200003
 11
77.929848
 21
23.700005
  0
LINE
  8
0
 10
74.085106
 20
31.200001
 11
77.929855
 21
31.200001
  0
LINE
  8
0
 10
66.774597
 20
31.200001
 11
62.929855
 21
31.200001
  0
LINE
  8
0
 10
75.679855
 20
22.700001
 11
65.179855
 21
22.700001
  0
LINE
  8
0
 62
     4
 10
75.129852
 20
-2.500000
 11
72.929855
 21
-2.500000
  0
LINE
  8
0
 62
     4
 10
67.929855
 20
-2.500000
 11
65.729851
 21
-2.500000
  0
LINE
  8
0
 62
     4
 10
75.129852
 20
113.500000
 11
72.929855
 21
113.500000
  0
LINE
  8
0
 62
     4
 10
67.929855
 20
113.500000
 11
65.729851
 21
113.500000
  0
LINE
  8
0
 62
     4
 10
74.529854
 20
113.500000
 11
74.529854
 21
113.400002
  0
LINE
  8
0
 62
     4
 10
66.329857
 20
113.500000
 11
66.329857
 21
113.400002
  0
LINE
  8
0
 62
     4
 10
74.529854
 20
-2.500000
 11
74.529854
 21
-2.400002
  0
LINE
  8
0
 62
     4
 10
66.329857
 20
-2.500000
 11
66.329857
 21
-2.400002
  0
LINE
  8
0
 62
     4
 10
68.604851
 20
118.500000
 11
68.604851
 21
124.584671
  0
LINE
  8
0
 62
     4
 10
67.174850
 20
118.500000
 11
67.174850
 21
124.966003
  0
LINE
  8
0
 62
     1
 10
76.009857
 20
122.610001
 11
64.911537
 21
125.569550
  0
LINE
  8
0
 62
     1
 10
76.009857
 20
123.849998
 11
64.911537
 21
126.809555
  0
LINE
  8
0
 62
     4
 10
68.604851
 20
125.824661
 11
68.604851
 21
129.029999
  0
LINE
  8
0
 62
     4
 10
67.174850
 20
126.206001
 11
67.174850
 21
129.029999
  0
LINE
  8
0
 62
     4
 10
68.289856
 20
129.029999
 11
68.289856
 21
134.029999
  0
LINE
  8
0
 62
     4
 10
67.489853
 20
129.029999
 11
67.489853
 21
134.029999
  0
LINE
  8
0
 62
     4
 10
68.604851
 20
129.029999
 11
67.174850
 21
129.029999
  0
LINE
  8
0
 62
     4
 10
68.289856
 20
134.029999
 11
67.489853
 21
134.029999
  0
LINE
  8
0
 62
     4
 10
73.684853
 20
118.500000
 11
73.684853
 21
123.229996
  0
LINE
  8
0
 62
     4
 10
72.254852
 20
118.500000
 11
72.254852
 21
123.599998
  0
LINE
  8
0
 62
     4
 10
72.569855
 20
134.029999
 11
73.369850
 21
134.029999
  0
LINE
  8
0
 62
     4
 10
72.254852
 20
129.029999
 11
73.684853
 21
129.029999
  0
LINE
  8
0
 62
     4
 10
73.369850
 20
129.029999
 11
73.369850
 21
134.029999
  0
LINE
  8
0
 62
     4
 10
72.569855
 20
129.029999
 11
72.569855
 21
134.029999
  0
LINE
  8
0
 62
     4
 10
72.254852
 20
124.839996
 11
72.254852
 21
129.029999
  0
LINE
  8
0
 62
     4
 10
73.684853
 20
124.459999
 11
73.684853
 21
129.029999
  0
LINE
  8
0
 62
     4
 10
72.254852
 20
-7.500000
 11
72.254852
 21
-13.584663
  0
LINE
  8
0
 62
     4
 10
73.684853
 20
-7.500000
 11
73.684853
 21
-13.966003
  0
LINE
  8
0
 62
     4
 10
67.174850
 20
-7.500000
 11
67.174850
 21
-12.230003
  0
LINE
  8
0
 62
     4
 10
68.604851
 20
-7.500000
 11
68.604851
 21
-12.599998
  0
LINE
  8
0
 62
     4
 10
67.174850
 20
-13.459999
 11
67.174850
 21
-18.029999
  0
LINE
  8
0
 62
     4
 10
68.604851
 20
-13.839996
 11
68.604851
 21
-18.029999
  0
LINE
  8
0
 62
     4
 10
68.289856
 20
-18.029999
 11
68.289856
 21
-23.029999
  0
LINE
  8
0
 62
     4
 10
67.489853
 20
-18.029999
 11
67.489853
 21
-23.029999
  0
LINE
  8
0
 62
     4
 10
68.604851
 20
-18.029999
 11
67.174850
 21
-18.029999
  0
LINE
  8
0
 62
     4
 10
68.289856
 20
-23.029999
 11
67.489853
 21
-23.029999
  0
LINE
  8
0
 62
     4
 10
72.569855
 20
-23.029999
 11
73.369850
 21
-23.029999
  0
LINE
  8
0
 62
     4
 10
72.254852
 20
-18.029999
 11
73.684853
 21
-18.029999
  0
LINE
  8
0
 62
     4
 10
73.369850
 20
-18.029999
 11
73.369850
 21
-23.029999
  0
LINE
  8
0
 62
     4
 10
72.569855
 20
-18.029999
 11
72.569855
 21
-23.029999
  0
LINE
  8
0
 62
     4
 10
73.684853
 20
-15.206001
 11
73.684853
 21
-18.029999
  0
LINE
  8
0
 62
     4
 10
72.254852
 20
-14.824669
 11
72.254852
 21
-18.029999
  0
LINE
  8
0
 62
     1
 10
64.849854
 20
-12.850002
 11
75.948174
 21
-15.809552
  0
LINE
  8
0
 62
     1
 10
64.849854
 20
-11.610001
 11
75.948166
 21
-14.569552
  0
LINE
  8
0
  6
CENTER
 62
     2
 10
54.429855
 20
136.275558
 11
54.429855
 21
30.900002
  0
LINE
  8
0
 10
61.929855
 20
41.500000
 11
46.929855
 21
41.500000
  0
LINE
  8
0
 10
46.929855
 20
69.500000
 11
46.929855
 21
66.105492
  0
LINE
  8
0
 10
61.929855
 20
69.500000
 11
61.929855
 21
48.092949
  0
LINE
  8
0
 10
59.679855
 20
88.300003
 11
49.179855
 21
88.300003
  0
LINE
  8
0
 10
61.929855
 20
69.500000
 11
46.929855
 21
69.500000
  0
LINE
  8
0
 10
50.774597
 20
79.800003
 11
46.929855
 21
79.800003
  0
LINE
  8
0
 10
58.085106
 20
79.800003
 11
61.929855
 21
79.800003
  0
LINE
  8
0
 10
46.929855
 20
87.300003
 11
46.929855
 21
69.500000
  0
LINE
  8
0
 10
61.929855
 20
87.300003
 11
61.929855
 21
69.500000
  0
LINE
  8
0
 10
60.429848
 20
88.799995
 11
61.929848
 21
87.299995
  0
LINE
  8
0
 10
46.929848
 20
87.300003
 11
48.429852
 21
88.800003
  0
LINE
  8
0
 10
48.429855
 20
88.800003
 11
48.879852
 21
88.800003
  0
LINE
  8
0
 10
49.179855
 20
88.300003
 11
49.179855
 21
88.500000
  0
LINE
  8
0
 10
59.679855
 20
88.300003
 11
59.679855
 21
88.500000
  0
LINE
  8
0
 10
52.968529
 20
77.000000
 11
56.006649
 21
77.000000
  0
LINE
  8
0
 10
56.266457
 20
77.150002
 11
57.652096
 21
79.549995
  0
LINE
  8
0
 10
51.207607
 20
79.550003
 11
52.535511
 21
77.250000
  0
LINE
  8
0
 10
59.979851
 20
88.800003
 11
60.479851
 21
88.800003
  0
LINE
  8
0
 62
     4
 10
59.429855
 20
89.199997
 11
49.429855
 21
89.199997
  0
LINE
  8
0
 62
     4
 10
49.729851
 20
107.900002
 11
59.129852
 21
107.900002
  0
LINE
  8
0
 62
     4
 10
49.429855
 20
89.500000
 11
59.429855
 21
89.500000
  0
LINE
  8
0
 62
     4
 10
49.429855
 20
88.300003
 11
49.429855
 21
113.400002
  0
LINE
  8
0
 62
     4
 10
59.429855
 20
88.300003
 11
59.429855
 21
113.400002
  0
LINE
  8
0
 62
     4
 10
59.429855
 20
113.400002
 11
56.929855
 21
113.400002
  0
LINE
  8
0
 62
     4
 10
57.329853
 20
107.900002
 11
57.329853
 21
113.400002
  0
LINE
  8
0
 62
     4
 10
51.529854
 20
107.900002
 11
51.529854
 21
113.400002
  0
LINE
  8
0
 62
     1
 10
55.929855
 20
104.900002
 11
55.929855
 21
107.900002
  0
LINE
  8
0
 62
     1
 10
55.929855
 20
104.900002
 11
52.929855
 21
104.900002
  0
LINE
  8
0
 62
     1
 10
52.929855
 20
104.900002
 11
52.929855
 21
107.900002
  0
LINE
  8
0
 62
     4
 10
56.929855
 20
109.000000
 11
51.929855
 21
109.000000
  0
LINE
  8
0
 62
     4
 10
59.129852
 20
118.500000
 11
49.729851
 21
118.500000
  0
LINE
  8
0
 62
     4
 10
56.929855
 20
117.500000
 11
51.929855
 21
117.500000
  0
LINE
  8
0
 62
     4
 10
59.129852
 20
113.500000
 11
59.129852
 21
118.500000
  0
LINE
  8
0
 62
     4
 10
56.929855
 20
109.000000
 11
56.929855
 21
117.500000
  0
LINE
  8
0
 62
     4
 10
51.929855
 20
116.788673
 11
56.929855
 21
116.788673
  0
LINE
  8
0
 62
     4
 10
51.929855
 20
116.500000
 11
56.929855
 21
116.500000
  0
LINE
  8
0
 62
     4
 10
58.029854
 20
113.500000
 11
58.029854
 21
118.500000
  0
LINE
  8
0
 62
     4
 10
50.829853
 20
113.500000
 11
50.829853
 21
118.500000
  0
LINE
  8
0
 62
     4
 10
51.929855
 20
109.000000
 11
51.929855
 21
117.500000
  0
LINE
  8
0
 62
     4
 10
49.729851
 20
113.500000
 11
49.729851
 21
118.500000
  0
LINE
  8
0
 62
     4
 10
51.929855
 20
109.866028
 11
56.929855
 21
109.866028
  0
LINE
  8
0
 62
     4
 10
51.929855
 20
113.400002
 11
49.429855
 21
113.400002
  0
LINE
  8
0
 10
47.429855
 20
34.000000
 11
61.429855
 21
34.000000
  0
LINE
  8
0
 10
47.429855
 20
39.000000
 11
52.629852
 21
39.000000
  0
LINE
  8
0
 10
52.729851
 20
37.830002
 11
52.729851
 21
39.000000
  0
LINE
  8
0
 10
53.129852
 20
38.500000
 11
53.129852
 21
34.500000
  0
LINE
  8
0
 10
47.129852
 20
37.830002
 11
47.129852
 21
39.000000
  0
LINE
  8
0
 62
     4
 10
59.129852
 20
113.500000
 11
56.929855
 21
113.500000
  0
LINE
  8
0
 62
     4
 10
51.929855
 20
113.500000
 11
49.729851
 21
113.500000
  0
LINE
  8
0
 62
     4
 10
58.529854
 20
113.500000
 11
58.529854
 21
113.400002
  0
LINE
  8
0
 62
     4
 10
50.329853
 20
113.500000
 11
50.329853
 21
113.400002
  0
LINE
  8
0
 62
     4
 10
52.604851
 20
118.500000
 11
52.604851
 21
124.584671
  0
LINE
  8
0
 62
     4
 10
51.174854
 20
118.500000
 11
51.174854
 21
124.966003
  0
LINE
  8
0
 62
     1
 10
60.009853
 20
122.609993
 11
48.911541
 21
125.569550
  0
LINE
  8
0
 62
     1
 10
60.009853
 20
123.850006
 11
48.911541
 21
126.809555
  0
LINE
  8
0
 62
     4
 10
52.604851
 20
125.824661
 11
52.604851
 21
129.029999
  0
LINE
  8
0
 62
     4
 10
51.174854
 20
126.206001
 11
51.174854
 21
129.029999
  0
LINE
  8
0
 62
     4
 10
52.289856
 20
129.029999
 11
52.289856
 21
134.029999
  0
LINE
  8
0
 62
     4
 10
51.489853
 20
129.029999
 11
51.489853
 21
134.029999
  0
LINE
  8
0
 62
     4
 10
52.604851
 20
129.029999
 11
51.174854
 21
129.029999
  0
LINE
  8
0
 62
     4
 10
52.289856
 20
134.029999
 11
51.489853
 21
134.029999
  0
LINE
  8
0
 62
     4
 10
57.684853
 20
118.500000
 11
57.684853
 21
123.229996
  0
LINE
  8
0
 62
     4
 10
56.254852
 20
118.500000
 11
56.254852
 21
123.599998
  0
LINE
  8
0
 62
     4
 10
56.569855
 20
134.029999
 11
57.369854
 21
134.029999
  0
LINE
  8
0
 62
     4
 10
56.254852
 20
129.029999
 11
57.684853
 21
129.029999
  0
LINE
  8
0
 62
     4
 10
57.369854
 20
129.029999
 11
57.369854
 21
134.029999
  0
LINE
  8
0
 62
     4
 10
56.569855
 20
129.029999
 11
56.569855
 21
134.029999
  0
LINE
  8
0
 62
     4
 10
56.254852
 20
124.839996
 11
56.254852
 21
129.029999
  0
LINE
  8
0
 62
     4
 10
57.684853
 20
124.459999
 11
57.684853
 21
129.029999
  0
LINE
  8
0
 10
45.929855
 20
41.500000
 11
30.929853
 21
41.500000
  0
LINE
  8
0
 10
45.929855
 20
69.500000
 11
45.929855
 21
48.092949
  0
LINE
  8
0
 10
43.679855
 20
88.300003
 11
33.179855
 21
88.300003
  0
LINE
  8
0
 10
45.929855
 20
69.500000
 11
30.929853
 21
69.500000
  0
LINE
  8
0
 10
34.774597
 20
79.800003
 11
30.929853
 21
79.800003
  0
LINE
  8
0
 10
42.085110
 20
79.800003
 11
45.929855
 21
79.800003
  0
LINE
  8
0
 10
30.929853
 20
87.300003
 11
30.929853
 21
69.500000
  0
LINE
  8
0
 10
45.929855
 20
87.300003
 11
45.929855
 21
69.500000
  0
LINE
  8
0
 10
44.429852
 20
88.799995
 11
45.929852
 21
87.300003
  0
LINE
  8
0
 10
30.929852
 20
87.300003
 11
32.429855
 21
88.800003
  0
LINE
  8
0
 10
32.429855
 20
88.800003
 11
32.879852
 21
88.800003
  0
LINE
  8
0
 10
33.179855
 20
88.300003
 11
33.179855
 21
88.500000
  0
LINE
  8
0
 10
43.679855
 20
88.300003
 11
43.679855
 21
88.500000
  0
LINE
  8
0
 10
36.968529
 20
77.000000
 11
40.006649
 21
77.000000
  0
LINE
  8
0
 10
40.266457
 20
77.150002
 11
41.652096
 21
79.550003
  0
LINE
  8
0
 10
35.207607
 20
79.550003
 11
36.535511
 21
77.250000
  0
LINE
  8
0
 10
43.979851
 20
88.800003
 11
44.479851
 21
88.800003
  0
LINE
  8
0
 62
     4
 10
43.429855
 20
89.199997
 11
33.429855
 21
89.199997
  0
LINE
  8
0
 62
     4
 10
33.729855
 20
107.900002
 11
43.129852
 21
107.900002
  0
LINE
  8
0
 62
     4
 10
33.429855
 20
89.500000
 11
43.429855
 21
89.500000
  0
LINE
  8
0
 62
     4
 10
33.429855
 20
88.300003
 11
33.429855
 21
113.400002
  0
LINE
  8
0
 62
     4
 10
43.429855
 20
88.300003
 11
43.429855
 21
113.400002
  0
LINE
  8
0
 62
     4
 10
43.429855
 20
113.400002
 11
40.929855
 21
113.400002
  0
LINE
  8
0
 62
     4
 10
41.329853
 20
107.900002
 11
41.329853
 21
113.400002
  0
LINE
  8
0
 62
     4
 10
35.529854
 20
107.900002
 11
35.529854
 21
113.400002
  0
LINE
  8
0
 62
     1
 10
39.929855
 20
104.900002
 11
39.929855
 21
107.900002
  0
LINE
  8
0
 62
     1
 10
39.929855
 20
104.900002
 11
36.929855
 21
104.900002
  0
LINE
  8
0
 62
     1
 10
36.929855
 20
104.900002
 11
36.929855
 21
107.900002
  0
LINE
  8
0
 62
     4
 10
36.289852
 20
134.029999
 11
35.489853
 21
134.029999
  0
LINE
  8
0
 62
     4
 10
36.604855
 20
129.029999
 11
35.174854
 21
129.029999
  0
LINE
  8
0
 62
     4
 10
35.489853
 20
129.029999
 11
35.489853
 21
134.029999
  0
LINE
  8
0
 62
     4
 10
36.289852
 20
129.029999
 11
36.289852
 21
134.029999
  0
LINE
  8
0
 62
     4
 10
35.174854
 20
126.206001
 11
35.174854
 21
129.029999
  0
LINE
  8
0
 62
     4
 10
36.604855
 20
125.824661
 11
36.604855
 21
129.029999
  0
LINE
  8
0
 62
     4
 10
36.604855
 20
118.500000
 11
36.604855
 21
124.584671
  0
LINE
  8
0
 62
     4
 10
35.174854
 20
118.500000
 11
35.174854
 21
124.966003
  0
LINE
  8
0
 62
     1
 10
44.009853
 20
122.610008
 11
32.911541
 21
125.569557
  0
LINE
  8
0
 62
     1
 10
44.009853
 20
123.849998
 11
32.911541
 21
126.809547
  0
LINE
  8
0
 62
     4
 10
41.684853
 20
124.459999
 11
41.684853
 21
129.029999
  0
LINE
  8
0
 62
     4
 10
40.254852
 20
124.839996
 11
40.254852
 21
129.029999
  0
LINE
  8
0
 62
     4
 10
40.569855
 20
129.029999
 11
40.569855
 21
134.029999
  0
LINE
  8
0
 62
     4
 10
41.369854
 20
129.029999
 11
41.369854
 21
134.029999
  0
LINE
  8
0
 62
     4
 10
40.254852
 20
129.029999
 11
41.684853
 21
129.029999
  0
LINE
  8
0
 62
     4
 10
40.569855
 20
134.029999
 11
41.369854
 21
134.029999
  0
LINE
  8
0
 62
     4
 10
41.684853
 20
118.500000
 11
41.684853
 21
123.229996
  0
LINE
  8
0
 62
     4
 10
40.254852
 20
118.500000
 11
40.254852
 21
123.599998
  0
LINE
  8
0
 62
     4
 10
40.929855
 20
109.000000
 11
35.929855
 21
109.000000
  0
LINE
  8
0
 62
     4
 10
43.129852
 20
118.500000
 11
33.729855
 21
118.500000
  0
LINE
  8
0
 62
     4
 10
40.929855
 20
117.500000
 11
35.929855
 21
117.500000
  0
LINE
  8
0
 62
     4
 10
43.129852
 20
113.500000
 11
43.129852
 21
118.500000
  0
LINE
  8
0
 62
     4
 10
40.929855
 20
109.000000
 11
40.929855
 21
117.500000
  0
LINE
  8
0
 62
     4
 10
35.929855
 20
116.788673
 11
40.929855
 21
116.788673
  0
LINE
  8
0
 62
     4
 10
35.929855
 20
116.500000
 11
40.929855
 21
116.500000
  0
LINE
  8
0
 62
     4
 10
42.029854
 20
113.500000
 11
42.029854
 21
118.500000
  0
LINE
  8
0
 62
     4
 10
34.829853
 20
113.500000
 11
34.829853
 21
118.500000
  0
LINE
  8
0
 62
     4
 10
35.929855
 20
109.000000
 11
35.929855
 21
117.500000
  0
LINE
  8
0
 62
     4
 10
33.729855
 20
113.500000
 11
33.729855
 21
118.500000
  0
LINE
  8
0
 62
     4
 10
35.929855
 20
109.866028
 11
40.929855
 21
109.866028
  0
LINE
  8
0
 62
     4
 10
35.929855
 20
113.400002
 11
33.429855
 21
113.400002
  0
LINE
  8
0
 10
31.429853
 20
34.000000
 11
45.429855
 21
34.000000
  0
LINE
  8
0
 10
31.429853
 20
39.000000
 11
36.629852
 21
39.000000
  0
LINE
  8
0
 10
36.729855
 20
37.830002
 11
36.729855
 21
39.000000
  0
LINE
  8
0
 10
37.129852
 20
38.500000
 11
37.129852
 21
34.500000
  0
LINE
  8
0
 10
31.129852
 20
37.830002
 11
31.129852
 21
39.000000
  0
LINE
  8
0
 10
31.364855
 20
62.935001
 11
34.494858
 21
66.065002
  0
LINE
  8
0
 10
31.974854
 20
65.455002
 11
33.884853
 21
63.544994
  0
LINE
  8
0
 10
35.434853
 20
64.035004
 11
35.134853
 21
64.035004
  0
LINE
  8
0
 10
35.154854
 20
64.205002
 11
35.464851
 21
64.205002
  0
LINE
  8
0
 10
35.154854
 20
64.805000
 11
35.464851
 21
64.805000
  0
LINE
  8
0
 10
30.929853
 20
69.500000
 11
30.929853
 21
66.105492
  0
LINE
  8
0
 62
     4
 10
43.129852
 20
113.500000
 11
40.929855
 21
113.500000
  0
LINE
  8
0
 62
     4
 10
35.929855
 20
113.500000
 11
33.729855
 21
113.500000
  0
LINE
  8
0
 62
     4
 10
42.529854
 20
113.500000
 11
42.529854
 21
113.400002
  0
LINE
  8
0
 62
     4
 10
34.329853
 20
113.500000
 11
34.329853
 21
113.400002
  0
LINE
  8
0
 62
     4
 10
109.929855
 20
44.838676
 11
109.929855
 21
30.500000
  0
LINE
  8
0
 62
     4
 10
94.929855
 20
62.838676
 11
94.929855
 21
30.500000
  0
LINE
  8
0
 62
     4
 10
94.929855
 20
80.500000
 11
94.929855
 21
66.161324
  0
LINE
  8
0
 62
     4
 10
109.929855
 20
80.500000
 11
109.929855
 21
48.161324
  0
LINE
  8
0
  6
CENTER
 62
     2
 10
102.429855
 20
82.691177
 11
102.429855
 21
27.883518
  0
LINE
  8
0
 10
93.929855
 20
9.799999
 11
93.929855
 21
41.500000
  0
LINE
  8
0
 62
     4
 10
78.929855
 20
23.900002
 11
78.929855
 21
23.400002
  0
LINE
  8
0
 10
22.429853
 20
85.500000
 11
30.929853
 21
85.500000
  0
LINE
  8
0
 10
22.429853
 20
85.500000
 11
22.429853
 21
25.500000
  0
LINE
  8
0
 10
93.929855
 20
85.500000
 11
118.429855
 21
85.500000
  0
LINE
  8
0
 10
118.429855
 20
85.500000
 11
118.429855
 21
25.500000
  0
LINE
  8
0
 10
93.929855
 20
25.500000
 11
118.429855
 21
25.500000
  0
LINE
  8
0
 10
22.429853
 20
25.500000
 11
62.929855
 21
25.500000
  0
LINE
  8
0
 62
     4
 10
94.929855
 20
80.500000
 11
109.929855
 21
80.500000
  0
LINE
  8
0
 62
     4
 10
94.929855
 20
30.500000
 11
109.929855
 21
30.500000
  0
LINE
  8
0
  6
CENTER
 62
     2
 10
102.429855
 20
82.691177
 11
102.429855
 21
27.883518
  0
LINE
  8
0
  6
CENTER
 62
     2
 10
111.429855
 20
63.500000
 11
118.429855
 21
63.500000
  0
LINE
  8
0
  6
CENTER
 62
     2
 10
111.429855
 20
47.500000
 11
118.429855
 21
47.500000
  0
LINE
  8
0
  6
CENTER
 62
     2
 10
114.929855
 20
51.000000
 11
114.929855
 21
45.000000
  0
LINE
  8
0
  6
CENTER
 62
     2
 10
114.929855
 20
67.000000
 11
114.929855
 21
60.000000
  0
LINE
  8
0
  6
CENTER
 62
     2
 10
22.429853
 20
63.500000
 11
29.429853
 21
63.500000
  0
LINE
  8
0
  6
CENTER
 62
     2
 10
22.429853
 20
47.500000
 11
29.429853
 21
47.500000
  0
LINE
  8
0
  6
CENTER
 62
     2
 10
25.929853
 20
51.000000
 11
25.929853
 21
44.000000
  0
LINE
  8
0
  6
CENTER
 62
     2
 10
25.929853
 20
67.000000
 11
25.929853
 21
60.000000
  0
LINE
  8
0
  6
CENTER
 62
     2
 10
37.969852
 20
60.500000
 11
45.009853
 21
60.500000
  0
LINE
  8
0
  6
CENTER
 62
     2
 10
41.429855
 20
63.790001
 11
41.429855
 21
57.169998
  0
LINE
  8
0
  6
CENTER
 62
     2
 10
53.959854
 20
60.500000
 11
60.909851
 21
60.500000
  0
LINE
  8
0
  6
CENTER
 62
     2
 10
57.429855
 20
64.089996
 11
57.429855
 21
56.320000
  0
LINE
  8
0
  6
CENTER
 62
     2
 10
69.959854
 20
60.500000
 11
76.909851
 21
60.500000
  0
LINE
  8
0
  6
CENTER
 62
     2
 10
73.429855
 20
64.089996
 11
73.429855
 21
56.320000
  0
LINE
  8
0
  6
CENTER
 62
     2
 10
85.959854
 20
60.500000
 11
92.909859
 21
60.500000
  0
LINE
  8
0
  6
CENTER
 62
     2
 10
89.429855
 20
64.089996
 11
89.429855
 21
56.320000
  0
LINE
  8
0
  6
CENTER
 62
     2
 10
80.109856
 20
50.500000
 11
87.059853
 21
50.500000
  0
LINE
  8
0
  6
CENTER
 62
     2
 10
83.429855
 20
53.939999
 11
83.429855
 21
46.989998
  0
LINE
  8
0
  6
CENTER
 62
     2
 10
64.109856
 20
50.500000
 11
71.059853
 21
50.500000
  0
LINE
  8
0
  6
CENTER
 62
     2
 10
67.429855
 20
53.939999
 11
67.429855
 21
46.989998
  0
LINE
  8
0
  6
CENTER
 62
     2
 10
48.109856
 20
50.500000
 11
55.059853
 21
50.500000
  0
LINE
  8
0
  6
CENTER
 62
     2
 10
51.429855
 20
53.939999
 11
51.429855
 21
46.989998
  0
LINE
  8
0
 10
99.791672
 20
80.500000
 11
105.068039
 21
80.500000
  0
LINE
  8
0
 10
99.791672
 20
30.500000
 11
105.068039
 21
30.500000
  0
LINE
  8
0
  6
CENTER
 62
     2
 10
-132.633759
 20
46.500000
 11
-124.842445
 21
46.500000
  0
LINE
  8
0
  6
CENTER
 62
     2
 10
-132.633759
 20
64.500000
 11
-124.842445
 21
64.500000
  0
LINE
  8
0
 10
162.099976
 20
-175.000000
 11
282.099854
 21
-175.000000
  0
LINE
  8
0
 10
162.099976
 20
-175.000000
 11
162.099976
 21
-195.000000
  0
LINE
  8
0
 10
282.099854
 20
195.500000
 11
282.099854
 21
-195.000000
  0
LINE
  8
0
 10
162.099976
 20
195.500000
 11
162.099976
 21
175.500000
  0
LINE
  8
0
 10
162.099976
 20
175.500000
 11
282.099854
 21
175.500000
  0
LINE
  8
0
 10
-161.250000
 20
195.500000
 11
-161.250000
 21
175.500000
  0
LINE
  8
0
 10
-281.250000
 20
175.500000
 11
-161.250000
 21
175.500000
  0
LINE
  8
0
 10
-281.250000
 20
195.500000
 11
-281.250000
 21
-195.000000
  0
LINE
  8
0
 10
-271.250000
 20
-25.000000
 11
-186.250000
 21
-25.000000
  0
LINE
  8
0
 10
-271.250000
 20
-33.000000
 11
-186.250000
 21
-33.000000
  0
LINE
  8
0
 10
-271.250000
 20
-41.000000
 11
-186.250000
 21
-41.000000
  0
LINE
  8
0
 10
-271.250000
 20
-49.000000
 11
-186.250000
 21
-49.000000
  0
LINE
  8
0
 10
-271.250000
 20
-57.000000
 11
-186.250000
 21
-57.000000
  0
LINE
  8
0
 10
-271.250000
 20
-65.000000
 11
-186.250000
 21
-65.000000
  0
LINE
  8
0
 10
-271.250000
 20
-73.000000
 11
-186.250000
 21
-73.000000
  0
LINE
  8
0
 10
-271.250000
 20
-81.000000
 11
-186.250000
 21
-81.000000
  0
LINE
  8
0
 10
-271.250000
 20
-89.000000
 11
-186.250000
 21
-89.000000
  0
LINE
  8
0
 10
-271.250000
 20
-97.000000
 11
-186.250000
 21
-97.000000
  0
LINE
  8
0
 10
-271.250000
 20
-105.000000
 11
-186.250000
 21
-105.000000
  0
LINE
  8
0
 10
-271.250000
 20
-113.000000
 11
-186.250000
 21
-113.000000
  0
LINE
  8
0
 10
-271.250000
 20
-121.000000
 11
-186.250000
 21
-121.000000
  0
LINE
  8
0
 10
-271.250000
 20
-129.000000
 11
-186.250000
 21
-129.000000
  0
LINE
  8
0
 10
-271.250000
 20
-137.000000
 11
-186.250000
 21
-137.000000
  0
LINE
  8
0
 10
-271.250000
 20
-145.000000
 11
-186.250000
 21
-145.000000
  0
LINE
  8
0
 10
-271.250000
 20
-153.000000
 11
-186.250000
 21
-153.000000
  0
LINE
  8
0
 10
-271.250000
 20
-161.000000
 11
-186.250000
 21
-161.000000
  0
LINE
  8
0
 10
-271.250000
 20
-169.000000
 11
-186.250000
 21
-169.000000
  0
LINE
  8
0
 10
-186.250000
 20
-25.000000
 11
-186.250000
 21
-185.000000
  0
LINE
  8
0
 10
-208.750000
 20
-25.000000
 11
-208.750000
 21
-185.000000
  0
LINE
  8
0
 10
-231.250000
 20
-25.000000
 11
-231.250000
 21
-185.000000
  0
LINE
  8
0
 10
-271.250000
 20
-177.000000
 11
-186.250000
 21
-177.000000
  0
LINE
  8
0
 10
-271.250000
 20
-25.000000
 11
-271.250000
 21
-185.000000
  0
LINE
  8
0
 10
-271.250000
 20
-185.000000
 11
-186.250000
 21
-185.000000
  0
LINE
  8
0
 10
-281.250000
 20
195.500000
 11
282.099854
 21
195.500000
  0
LINE
  8
0
 10
-281.250000
 20
-195.000000
 11
282.099854
 21
-195.000000
  0
ARC
  8
0
 10
-153.178329
 20
69.923843
 40
1.000000
 50
180.000000
 51
224.925812
  0
ARC
  8
0
 62
     4
 10
-95.178329
 20
-10.500000
 40
0.300000
 50
270.000000
 51
0.000000
  0
ARC
  8
0
 62
     4
 10
-117.378326
 20
-5.300003
 40
0.500000
 50
270.000000
 51
0.000000
  0
ARC
  8
0
 62
     4
 10
-119.378326
 20
-5.300003
 40
0.500000
 50
180.000000
 51
270.000000
  0
ARC
  8
0
 10
-103.778328
 20
31.599998
 40
0.400002
 50
180.000000
 51
270.000000
  0
ARC
  8
0
 10
-103.678329
 20
34.499996
 40
0.500000
 50
180.000000
 51
270.000000
  0
ARC
  8
0
 10
-95.778328
 20
30.799999
 40
0.400002
 50
0.000000
 51
90.000000
  0
ARC
  8
0
 10
-95.778328
 20
33.599998
 40
0.400002
 50
0.000000
 51
90.000000
  0
ARC
  8
0
 62
     4
 10
-95.178329
 20
3.399994
 40
0.300000
 50
270.000000
 51
0.000000
  0
ARC
  8
0
 62
     4
 10
-117.378326
 20
8.599998
 40
0.500000
 50
270.000000
 51
0.000000
  0
ARC
  8
0
 62
     4
 10
-119.378326
 20
8.599998
 40
0.500000
 50
180.000000
 51
270.000000
  0
ARC
  8
0
 10
-103.678329
 20
34.499996
 40
0.500000
 50
180.000000
 51
270.000000
  0
ARC
  8
0
 10
-95.778328
 20
33.599998
 40
0.400002
 50
0.000000
 51
90.000000
  0
ARC
  8
0
 10
-95.778328
 20
30.799999
 40
0.400002
 50
0.000000
 51
90.000000
  0
ARC
  8
0
 10
-103.778328
 20
31.599998
 40
0.400002
 50
180.000000
 51
270.000000
  0
ARC
  8
0
 10
-107.178329
 20
28.799999
 40
5.000002
 50
235.944183
 51
304.055817
  0
ARC
  8
0
 10
-105.048080
 20
37.822960
 40
0.669761
 50
299.495209
 51
359.746765
  0
ARC
  8
0
 10
-109.306114
 20
37.818588
 40
0.672220
 50
179.879700
 51
239.396973
  0
ARC
  8
0
 10
-107.183334
 20
41.600002
 40
5.008581
 50
240.517609
 51
299.482330
  0
ARC
  8
0
 10
-104.678329
 20
39.500000
 40
0.500000
 50
270.000000
 51
0.000000
  0
ARC
  8
0
 10
-110.878342
 20
34.500004
 40
0.500008
 50
270.000885
 51
359.999115
  0
ARC
  8
0
 10
-109.878342
 20
38.500008
 40
0.499992
 50
89.999123
 51
180.000870
  0
ARC
  8
0
 10
-104.678329
 20
34.500000
 40
0.500000
 50
270.000000
 51
0.000000
  0
ARC
  8
0
 10
-127.678329
 20
34.500000
 40
0.500000
 50
180.000000
 51
270.000000
  0
ARC
  8
0
 10
-130.178329
 20
26.499996
 40
1.000000
 50
270.000000
 51
0.000000
  0
ARC
  8
0
 10
-130.178329
 20
84.500000
 40
1.000000
 50
0.000000
 51
90.000000
  0
ARC
  8
0
 10
-139.462708
 20
25.996437
 40
0.496474
 50
224.250687
 51
269.351959
  0
ARC
  8
0
 10
-139.471313
 20
84.999962
 40
0.500047
 50
89.657318
 51
133.944778
  0
ARC
  8
0
 10
-153.678345
 20
41.292862
 40
0.500040
 50
134.421097
 51
179.182159
  0
ARC
  8
0
 10
-153.178329
 20
32.499996
 40
1.000000
 50
180.000000
 51
270.000000
  0
ARC
  8
0
 10
-153.178329
 20
78.500000
 40
1.000000
 50
90.000000
 51
180.000000
  0
CIRCLE
  8
0
 10
-134.678329
 20
78.000000
 40
1.750000
  0
CIRCLE
  8
0
 10
-134.678329
 20
32.999996
 40
1.750000
  0
CIRCLE
  8
0
 62
     2
 10
-134.678329
 20
32.999996
 40
2.500000
  0
CIRCLE
  8
0
 62
     2
 10
-134.678329
 20
78.000000
 40
2.500000
  0
CIRCLE
  8
0
 62
     2
 10
-145.678329
 20
39.500000
 40
4.863999
  0
CIRCLE
  8
0
 10
-145.678329
 20
39.500000
 40
4.283000
  0
CIRCLE
  8
0
 62
     2
 10
-142.178329
 20
55.499996
 40
4.863999
  0
CIRCLE
  8
0
 10
-142.178329
 20
55.499996
 40
4.283000
  0
CIRCLE
  8
0
 62
     2
 10
-145.678329
 20
71.500000
 40
4.863999
  0
CIRCLE
  8
0
 10
-145.678329
 20
71.500000
 40
4.283000
  0
ARC
  8
0
 10
-110.878342
 20
64.494995
 40
6.008216
 50
342.417053
 51
17.582977
  0
ARC
  8
0
 10
-95.778328
 20
77.399994
 40
0.400002
 50
270.000000
 51
0.000000
  0
ARC
  8
0
 10
-103.678329
 20
76.500000
 40
0.500000
 50
90.000000
 51
180.000000
  0
ARC
  8
0
 62
     4
 10
-119.378326
 20
102.399994
 40
0.500000
 50
90.000000
 51
180.000000
  0
ARC
  8
0
 62
     4
 10
-117.378326
 20
102.399994
 40
0.500000
 50
0.000000
 51
90.000000
  0
ARC
  8
0
 62
     4
 10
-95.178329
 20
107.599998
 40
0.300003
 50
0.000000
 51
90.000000
  0
ARC
  8
0
 10
-95.778328
 20
80.199997
 40
0.400002
 50
270.000000
 51
0.000000
  0
ARC
  8
0
 10
-103.778328
 20
79.399994
 40
0.400002
 50
90.000000
 51
180.000000
  0
ARC
  8
0
 10
-125.178329
 20
82.199997
 40
5.000002
 50
55.944176
 51
124.055824
  0
ARC
  8
0
 10
-127.678329
 20
34.499996
 40
0.500000
 50
180.000000
 51
270.000000
  0
ARC
  8
0
 10
59.129852
 20
-94.699997
 40
0.299999
 50
0.000000
 51
90.000000
  0
ARC
  8
0
 10
49.729855
 20
-94.699997
 40
0.300003
 50
90.000000
 51
180.000000
  0
ARC
  8
0
 10
43.129852
 20
-94.699997
 40
0.299999
 50
0.000000
 51
90.000000
  0
ARC
  8
0
 10
33.729855
 20
-94.699997
 40
0.300003
 50
90.000000
 51
180.000000
  0
ARC
  8
0
 10
61.529854
 20
-95.299995
 40
0.400002
 50
0.000000
 51
90.000000
  0
ARC
  8
0
 10
47.329853
 20
-95.299995
 40
0.400002
 50
90.000000
 51
180.000000
  0
ARC
  8
0
 10
57.396435
 20
-95.299995
 40
0.400002
 50
0.000000
 51
90.000000
  0
ARC
  8
0
 10
55.779854
 20
-95.299995
 40
0.400002
 50
0.000000
 51
90.000000
  0
ARC
  8
0
 10
51.463272
 20
-95.299995
 40
0.400002
 50
90.000000
 51
180.000000
  0
ARC
  8
0
 10
53.079853
 20
-95.299995
 40
0.400002
 50
90.000000
 51
180.000000
  0
ARC
  8
0
 10
50.563271
 20
-103.199997
 40
0.500000
 50
270.000000
 51
0.000000
  0
ARC
  8
0
 10
52.179855
 20
-103.199997
 40
0.500000
 50
270.000000
 51
0.000000
  0
ARC
  8
0
 10
58.296432
 20
-103.199997
 40
0.500000
 50
180.000000
 51
270.000000
  0
ARC
  8
0
 10
56.679855
 20
-103.199997
 40
0.500000
 50
180.000000
 51
270.000000
  0
ARC
  8
0
 10
45.529854
 20
-95.299995
 40
0.400002
 50
0.000000
 51
90.000000
  0
ARC
  8
0
 10
31.329853
 20
-95.299995
 40
0.400002
 50
90.000000
 51
180.000000
  0
ARC
  8
0
 10
41.396435
 20
-95.299995
 40
0.400002
 50
0.000000
 51
90.000000
  0
ARC
  8
0
 10
39.779854
 20
-95.299995
 40
0.400002
 50
0.000000
 51
90.000000
  0
ARC
  8
0
 10
35.463272
 20
-95.299995
 40
0.400002
 50
90.000000
 51
180.000000
  0
ARC
  8
0
 10
37.079853
 20
-95.299995
 40
0.400002
 50
90.000000
 51
180.000000
  0
ARC
  8
0
 10
34.563271
 20
-103.199997
 40
0.500000
 50
270.000000
 51
0.000000
  0
ARC
  8
0
 10
36.179855
 20
-103.199997
 40
0.500000
 50
270.000000
 51
0.000000
  0
ARC
  8
0
 10
42.296432
 20
-103.199997
 40
0.500000
 50
180.000000
 51
270.000000
  0
ARC
  8
0
 10
40.679855
 20
-103.199997
 40
0.500000
 50
180.000000
 51
270.000000
  0
ARC
  8
0
 10
65.926529
 20
-106.699997
 40
2.800002
 50
100.286552
 51
259.713440
  0
ARC
  8
0
 10
74.926529
 20
-124.699997
 40
2.799999
 50
217.383133
 51
79.713448
  0
ARC
  8
0
 10
63.326523
 20
-95.299995
 40
0.400002
 50
90.000000
 51
180.000000
  0
ARC
  8
0
 10
63.326523
 20
-127.299995
 40
0.400002
 50
180.000000
 51
270.000000
  0
ARC
  8
0
 10
77.526527
 20
-127.299995
 40
0.400002
 50
270.000000
 51
0.000000
  0
ARC
  8
0
 10
77.526527
 20
-95.299995
 40
0.400002
 50
0.000000
 51
90.000000
  0
CIRCLE
  8
0
 62
     4
 10
72.966522
 20
-109.599998
 40
0.750000
  0
CIRCLE
  8
0
 62
     4
 10
67.886528
 20
-109.599998
 40
0.750000
  0
ARC
  8
0
 62
     4
 10
67.010872
 20
-110.499329
 40
0.200668
 50
176.761200
 51
269.901978
  0
ARC
  8
0
 62
     4
 10
68.761238
 20
-110.500336
 40
0.199670
 50
269.794220
 51
3.542330
  0
ARC
  8
0
 62
     4
 10
69.550873
 20
-110.499329
 40
0.200668
 50
176.761200
 51
269.901978
  0
ARC
  8
0
 62
     4
 10
71.301239
 20
-110.500336
 40
0.199670
 50
269.794220
 51
3.542330
  0
ARC
  8
0
 62
     4
 10
72.090866
 20
-110.499329
 40
0.200668
 50
176.761200
 51
269.901978
  0
ARC
  8
0
 62
     4
 10
73.841240
 20
-110.500336
 40
0.199670
 50
269.794220
 51
3.542330
  0
ARC
  8
0
 62
     4
 10
75.126526
 20
-106.899994
 40
0.300003
 50
0.000000
 51
90.000000
  0
ARC
  8
0
 62
     4
 10
65.726524
 20
-106.899994
 40
0.300003
 50
90.000000
 51
180.000000
  0
ARC
  8
0
 62
     4
 10
65.726524
 20
-94.699997
 40
0.300003
 50
90.000000
 51
180.000000
  0
ARC
  8
0
 62
     4
 10
75.126526
 20
-94.699997
 40
0.300003
 50
0.000000
 51
90.000000
  0
CIRCLE
  8
0
 62
     4
 10
70.426529
 20
-116.149994
 40
2.050000
  0
ARC
  8
0
 62
     4
 10
66.926529
 20
-117.899994
 40
1.599998
 50
270.000000
 51
90.000000
  0
ARC
  8
0
 62
     4
 10
73.926529
 20
-117.899994
 40
1.599998
 50
90.000000
 51
270.000000
  0
CIRCLE
  8
0
 62
     4
 10
70.426529
 20
-116.149994
 40
1.900000
  0
CIRCLE
  8
0
 62
     4
 10
70.426529
 20
-116.149994
 40
1.850000
  0
ARC
  8
0
 62
     4
 10
70.426529
 20
-116.149994
 40
0.800004
 50
22.024433
 51
157.975571
  0
ARC
  8
0
 62
     4
 10
70.426529
 20
-116.149994
 40
0.800004
 50
202.024429
 51
337.975555
  0
CIRCLE
  8
0
 62
     4
 10
66.926529
 20
-117.899994
 40
1.500000
  0
CIRCLE
  8
0
 62
     4
 10
73.926529
 20
-117.899994
 40
1.500000
  0
ARC
  8
0
 10
81.926529
 20
-106.699997
 40
2.800002
 50
100.286552
 51
259.713440
  0
ARC
  8
0
 10
90.926529
 20
-124.699997
 40
2.799999
 50
217.383133
 51
79.713448
  0
ARC
  8
0
 10
79.326523
 20
-95.299995
 40
0.400002
 50
90.000000
 51
180.000000
  0
ARC
  8
0
 10
79.326523
 20
-127.299995
 40
0.400002
 50
180.000000
 51
270.000000
  0
ARC
  8
0
 10
93.526527
 20
-127.299995
 40
0.400002
 50
270.000000
 51
0.000000
  0
ARC
  8
0
 10
93.526527
 20
-95.299995
 40
0.400002
 50
0.000000
 51
90.000000
  0
CIRCLE
  8
0
 62
     4
 10
88.966522
 20
-109.599998
 40
0.750000
  0
CIRCLE
  8
0
 62
     4
 10
83.886528
 20
-109.599998
 40
0.750000
  0
ARC
  8
0
 62
     4
 10
83.010872
 20
-110.499329
 40
0.200668
 50
176.761200
 51
269.901978
  0
ARC
  8
0
 62
     4
 10
84.761238
 20
-110.500336
 40
0.199670
 50
269.794220
 51
3.542330
  0
ARC
  8
0
 62
     4
 10
85.550873
 20
-110.499329
 40
0.200668
 50
176.761200
 51
269.901978
  0
ARC
  8
0
 62
     4
 10
87.301239
 20
-110.500336
 40
0.199670
 50
269.794220
 51
3.542330
  0
ARC
  8
0
 62
     4
 10
88.090866
 20
-110.499329
 40
0.200668
 50
176.761200
 51
269.901978
  0
ARC
  8
0
 62
     4
 10
89.841240
 20
-110.500336
 40
0.199670
 50
269.794220
 51
3.542330
  0
ARC
  8
0
 62
     4
 10
91.126526
 20
-106.899994
 40
0.300003
 50
0.000000
 51
90.000000
  0
ARC
  8
0
 62
     4
 10
81.726524
 20
-106.899994
 40
0.300003
 50
90.000000
 51
180.000000
  0
ARC
  8
0
 62
     4
 10
81.726524
 20
-94.699997
 40
0.300003
 50
90.000000
 51
180.000000
  0
ARC
  8
0
 62
     4
 10
91.126526
 20
-94.699997
 40
0.300003
 50
0.000000
 51
90.000000
  0
CIRCLE
  8
0
 62
     4
 10
86.426529
 20
-116.149994
 40
2.050000
  0
ARC
  8
0
 62
     4
 10
82.926529
 20
-117.899994
 40
1.599998
 50
270.000000
 51
90.000000
  0
ARC
  8
0
 62
     4
 10
89.926529
 20
-117.899994
 40
1.599998
 50
90.000000
 51
270.000000
  0
CIRCLE
  8
0
 62
     4
 10
86.426529
 20
-116.149994
 40
1.900000
  0
CIRCLE
  8
0
 62
     4
 10
86.426529
 20
-116.149994
 40
1.850000
  0
ARC
  8
0
 62
     4
 10
86.426529
 20
-116.149994
 40
0.800004
 50
22.024433
 51
157.975571
  0
ARC
  8
0
 62
     4
 10
86.426529
 20
-116.149994
 40
0.800004
 50
202.024429
 51
337.975555
  0
CIRCLE
  8
0
 62
     4
 10
82.926529
 20
-117.899994
 40
1.500000
  0
CIRCLE
  8
0
 62
     4
 10
89.926529
 20
-117.899994
 40
1.500000
  0
ARC
  8
0
 10
47.431580
 20
-104.201721
 40
0.501727
 50
90.197342
 51
179.803101
  0
ARC
  8
0
 10
61.431458
 20
-104.198395
 40
0.498400
 50
359.815826
 51
90.184189
  0
ARC
  8
0
 10
58.931580
 20
-124.701721
 40
3.201722
 50
90.030853
 51
179.969147
  0
ARC
  8
0
 10
49.931580
 20
-106.701721
 40
3.198281
 50
269.969116
 51
0.030889
  0
ARC
  8
0
 10
61.431580
 20
-121.001724
 40
0.498279
 50
269.801727
 51
0.198267
  0
ARC
  8
0
 10
47.431580
 20
-110.401718
 40
0.501727
 50
90.196907
 51
179.803101
  0
ARC
  8
0
 10
53.631577
 20
-104.201721
 40
0.501727
 50
90.196907
 51
179.803101
  0
CIRCLE
  8
0
 10
49.933182
 20
-106.700119
 40
2.799999
  0
ARC
  8
0
 10
55.231575
 20
-127.201721
 40
0.498279
 50
269.801727
 51
0.198267
  0
ARC
  8
0
 10
61.431572
 20
-127.201721
 40
0.498279
 50
269.802185
 51
0.198265
  0
ARC
  8
0
 10
47.431461
 20
-127.198387
 40
0.501609
 50
180.183884
 51
269.816559
  0
CIRCLE
  8
0
 10
58.933182
 20
-124.700119
 40
2.799999
  0
ARC
  8
0
 10
31.431580
 20
-104.201721
 40
0.501727
 50
90.197121
 51
179.803101
  0
ARC
  8
0
 10
45.431458
 20
-104.198395
 40
0.498400
 50
359.815826
 51
90.184189
  0
ARC
  8
0
 10
42.931580
 20
-124.701721
 40
3.201722
 50
90.030853
 51
179.969147
  0
ARC
  8
0
 10
33.931576
 20
-106.701721
 40
3.198281
 50
269.969116
 51
0.030889
  0
ARC
  8
0
 10
45.431576
 20
-121.001724
 40
0.498279
 50
269.801727
 51
0.198267
  0
ARC
  8
0
 10
31.431578
 20
-110.401718
 40
0.501727
 50
90.196907
 51
179.803101
  0
ARC
  8
0
 10
37.631577
 20
-104.201721
 40
0.501727
 50
90.196907
 51
179.803101
  0
CIRCLE
  8
0
 10
33.933182
 20
-106.700119
 40
2.799999
  0
ARC
  8
0
 10
39.231575
 20
-127.201721
 40
0.498279
 50
269.801727
 51
0.198267
  0
ARC
  8
0
 10
45.431572
 20
-127.201721
 40
0.498279
 50
269.802185
 51
0.198265
  0
ARC
  8
0
 10
31.431461
 20
-127.198387
 40
0.501610
 50
180.183884
 51
269.816345
  0
CIRCLE
  8
0
 10
42.933182
 20
-124.700119
 40
2.799999
  0
ARC
  8
0
 62
     4
 10
98.375160
 20
-124.400185
 40
0.801369
 50
0.013637
 51
73.964317
  0
ARC
  8
0
 62
     4
 10
96.926529
 20
-129.400116
 40
6.006927
 50
73.858406
 51
106.141594
  0
ARC
  8
0
 62
     4
 10
95.482124
 20
-124.403366
 40
0.805610
 50
106.262459
 51
179.760162
  0
ARC
  8
0
 62
     4
 10
106.482124
 20
-124.403366
 40
0.805610
 50
106.262459
 51
179.760162
  0
ARC
  8
0
 62
     4
 10
109.375160
 20
-124.400185
 40
0.801369
 50
0.013637
 51
73.964317
  0
ARC
  8
0
 62
     4
 10
107.926529
 20
-129.400116
 40
6.006927
 50
73.858406
 51
106.141594
  0
ARC
  8
0
 10
54.429855
 20
32.799999
 40
3.492620
 50
159.904755
 51
20.095249
  0
ARC
  8
0
 10
38.429855
 20
32.799999
 40
3.492620
 50
159.904755
 51
20.095249
  0
CIRCLE
  8
0
 62
     4
 10
107.929855
 20
46.500000
 40
2.600000
  0
CIRCLE
  8
0
 62
     4
 10
96.929855
 20
64.500000
 40
2.600000
  0
ARC
  8
0
 10
91.924858
 20
46.504997
 40
2.557656
 50
6.735992
 51
353.264008
  0
CIRCLE
  8
0
 10
91.924858
 20
46.504997
 40
2.250000
  0
ARC
  8
0
 10
80.924850
 20
64.504997
 40
2.557657
 50
6.736077
 51
353.263916
  0
CIRCLE
  8
0
 10
80.924850
 20
64.504997
 40
2.250000
  0
ARC
  8
0
 10
75.924850
 20
46.504997
 40
2.557656
 50
6.735992
 51
353.264008
  0
CIRCLE
  8
0
 10
75.924850
 20
46.504997
 40
2.250000
  0
ARC
  8
0
 10
64.924850
 20
64.504997
 40
2.557657
 50
6.736077
 51
353.263916
  0
CIRCLE
  8
0
 10
64.924850
 20
64.504997
 40
2.250000
  0
ARC
  8
0
 10
59.924850
 20
46.504997
 40
2.557656
 50
6.735992
 51
353.264008
  0
CIRCLE
  8
0
 10
59.924850
 20
46.504997
 40
2.250000
  0
ARC
  8
0
 10
48.924854
 20
64.504997
 40
2.557657
 50
6.736077
 51
353.263916
  0
CIRCLE
  8
0
 10
48.924854
 20
64.504997
 40
2.250000
  0
ARC
  8
0
 10
43.924854
 20
46.504997
 40
2.557656
 50
6.735992
 51
353.264008
  0
CIRCLE
  8
0
 10
43.924854
 20
46.504997
 40
2.250000
  0
ARC
  8
0
 10
80.927788
 20
64.499184
 40
2.702069
 50
222.318954
 51
0.017310
  0
ARC
  8
0
 10
80.931137
 20
64.499496
 40
2.698715
 50
0.010691
 51
137.865158
  0
ARC
  8
0
 10
91.929855
 20
46.495003
 40
2.700781
 50
42.223721
 51
317.776276
  0
CIRCLE
  8
0
 10
86.429855
 20
79.800003
 40
0.800000
  0
CIRCLE
  8
0
 10
86.429855
 20
79.800003
 40
2.000000
  0
ARC
  8
0
 10
80.879852
 20
88.500000
 40
0.300003
 50
0.000000
 51
90.000000
  0
ARC
  8
0
 10
91.979858
 20
88.500000
 40
0.300003
 50
90.000000
 51
180.000000
  0
ARC
  8
0
 10
82.774597
 20
79.300003
 40
0.500001
 50
29.999931
 51
90.000000
  0
ARC
  8
0
 10
84.968529
 20
77.500000
 40
0.500001
 50
209.999924
 51
270.000000
  0
ARC
  8
0
 10
90.085114
 20
79.300003
 40
0.500000
 50
90.000000
 51
150.000076
  0
ARC
  8
0
 10
88.006645
 20
77.300003
 40
0.300003
 50
270.000000
 51
330.000122
  0
ARC
  8
0
 62
     4
 10
91.129852
 20
107.599998
 40
0.300003
 50
0.000000
 51
90.000000
  0
ARC
  8
0
 62
     4
 10
81.729851
 20
107.599998
 40
0.300003
 50
90.000000
 51
180.000000
  0
ARC
  8
0
 62
     4
 10
81.729851
 20
-10.500000
 40
0.300003
 50
180.000000
 51
270.000000
  0
ARC
  8
0
 62
     4
 10
91.129852
 20
-10.500000
 40
0.300000
 50
270.000000
 51
0.000000
  0
ARC
  8
0
 10
88.006645
 20
19.799999
 40
0.300003
 50
29.999577
 51
90.000000
  0
ARC
  8
0
 10
90.085114
 20
17.799999
 40
0.500001
 50
209.999924
 51
270.000000
  0
ARC
  8
0
 10
84.968529
 20
19.599998
 40
0.500000
 50
90.000000
 51
150.000076
  0
ARC
  8
0
 10
82.774597
 20
17.799999
 40
0.500000
 50
270.000000
 51
330.000061
  0
ARC
  8
0
 10
91.979858
 20
8.599998
 40
0.300003
 50
180.000000
 51
270.000000
  0
ARC
  8
0
 10
80.879852
 20
8.599998
 40
0.300000
 50
270.000000
 51
0.000000
  0
CIRCLE
  8
0
 10
86.429855
 20
17.299999
 40
2.000000
  0
CIRCLE
  8
0
 10
86.429855
 20
17.299999
 40
0.800000
  0
ARC
  8
0
 10
64.927788
 20
64.499184
 40
2.702069
 50
222.318954
 51
0.017310
  0
ARC
  8
0
 10
64.931137
 20
64.499496
 40
2.698715
 50
0.010691
 51
137.865158
  0
ARC
  8
0
 10
75.929848
 20
46.495003
 40
2.700781
 50
42.223721
 51
317.776276
  0
CIRCLE
  8
0
 10
70.429855
 20
79.800003
 40
0.800000
  0
CIRCLE
  8
0
 10
70.429855
 20
79.800003
 40
2.000000
  0
ARC
  8
0
 10
64.879852
 20
88.500000
 40
0.300003
 50
0.000000
 51
90.000000
  0
ARC
  8
0
 10
75.979851
 20
88.500000
 40
0.300003
 50
90.000000
 51
180.000000
  0
ARC
  8
0
 10
66.774597
 20
79.300003
 40
0.500001
 50
29.999931
 51
90.000000
  0
ARC
  8
0
 10
68.968529
 20
77.500000
 40
0.500001
 50
209.999924
 51
270.000000
  0
ARC
  8
0
 10
74.085106
 20
79.300003
 40
0.500000
 50
90.000000
 51
150.000076
  0
ARC
  8
0
 10
72.006645
 20
77.300003
 40
0.300003
 50
270.000000
 51
330.000122
  0
ARC
  8
0
 62
     4
 10
75.129852
 20
107.599998
 40
0.300003
 50
0.000000
 51
90.000000
  0
ARC
  8
0
 62
     4
 10
65.729851
 20
107.599998
 40
0.300003
 50
90.000000
 51
180.000000
  0
ARC
  8
0
 62
     4
 10
65.729851
 20
3.400002
 40
0.300003
 50
180.000000
 51
270.000000
  0
ARC
  8
0
 62
     4
 10
75.129852
 20
3.400002
 40
0.300000
 50
270.000000
 51
0.000000
  0
ARC
  8
0
 10
72.006645
 20
33.700001
 40
0.300004
 50
29.999891
 51
90.000000
  0
ARC
  8
0
 10
74.085106
 20
31.700001
 40
0.500001
 50
209.999924
 51
270.000000
  0
ARC
  8
0
 10
68.968529
 20
33.500000
 40
0.500000
 50
90.000000
 51
150.000076
  0
ARC
  8
0
 10
66.774597
 20
31.700001
 40
0.500000
 50
270.000000
 51
330.000061
  0
ARC
  8
0
 10
75.979851
 20
22.500000
 40
0.300003
 50
180.000000
 51
270.000000
  0
ARC
  8
0
 10
64.879852
 20
22.500000
 40
0.299999
 50
270.000000
 51
0.000000
  0
CIRCLE
  8
0
 10
70.429855
 20
31.200001
 40
2.000000
  0
CIRCLE
  8
0
 10
70.429855
 20
31.200001
 40
0.800000
  0
ARC
  8
0
 10
48.927788
 20
64.499184
 40
2.702069
 50
222.318954
 51
0.017310
  0
ARC
  8
0
 10
48.931137
 20
64.499496
 40
2.698715
 50
0.010691
 51
137.865158
  0
ARC
  8
0
 10
59.929848
 20
46.495003
 40
2.700784
 50
42.223667
 51
317.776337
  0
CIRCLE
  8
0
 10
54.429855
 20
79.800003
 40
0.800000
  0
CIRCLE
  8
0
 10
54.429855
 20
79.800003
 40
2.000000
  0
ARC
  8
0
 10
48.879852
 20
88.500000
 40
0.299999
 50
0.000000
 51
90.000000
  0
ARC
  8
0
 10
59.979851
 20
88.500000
 40
0.300003
 50
90.000000
 51
180.000000
  0
ARC
  8
0
 10
50.774597
 20
79.300003
 40
0.500001
 50
29.999931
 51
90.000000
  0
ARC
  8
0
 10
52.968529
 20
77.500000
 40
0.500001
 50
209.999924
 51
270.000000
  0
ARC
  8
0
 10
58.085106
 20
79.300003
 40
0.500000
 50
90.000000
 51
150.000076
  0
ARC
  8
0
 10
56.006649
 20
77.300003
 40
0.300003
 50
270.000000
 51
329.999756
  0
ARC
  8
0
 62
     4
 10
59.129852
 20
107.599998
 40
0.299999
 50
0.000000
 51
90.000000
  0
ARC
  8
0
 62
     4
 10
49.729851
 20
107.599998
 40
0.300003
 50
90.000000
 51
180.000000
  0
ARC
  8
0
 10
61.429855
 20
34.500000
 40
0.500000
 50
270.000000
 51
0.000000
  0
ARC
  8
0
 10
47.429855
 20
34.500000
 40
0.500000
 50
180.000000
 51
270.000000
  0
ARC
  8
0
 10
47.429855
 20
39.500000
 40
0.500000
 50
180.000000
 51
270.000000
  0
ARC
  8
0
 10
49.934853
 20
41.600006
 40
4.999875
 50
240.461227
 51
299.538757
  0
ARC
  8
0
 10
47.795227
 20
37.830391
 40
0.665375
 50
180.033829
 51
240.724457
  0
ARC
  8
0
 10
52.062004
 20
37.826103
 40
0.667860
 50
300.388977
 51
0.334137
  0
ARC
  8
0
 10
53.629852
 20
34.500000
 40
0.500000
 50
180.000000
 51
270.000427
  0
ARC
  8
0
 10
52.629852
 20
38.500000
 40
0.500000
 50
0.000437
 51
90.000000
  0
ARC
  8
0
 10
32.927784
 20
64.499184
 40
2.702069
 50
222.318954
 51
0.017310
  0
ARC
  8
0
 10
32.931137
 20
64.499496
 40
2.698715
 50
0.010691
 51
137.865189
  0
ARC
  8
0
 10
43.929848
 20
46.495003
 40
2.700784
 50
42.223667
 51
317.776337
  0
CIRCLE
  8
0
 10
38.429855
 20
79.800003
 40
0.800000
  0
CIRCLE
  8
0
 10
38.429855
 20
79.800003
 40
2.000000
  0
ARC
  8
0
 10
32.879852
 20
88.500000
 40
0.299999
 50
0.000000
 51
90.000000
  0
ARC
  8
0
 10
43.979851
 20
88.500000
 40
0.300003
 50
90.000000
 51
180.000000
  0
ARC
  8
0
 10
34.774597
 20
79.300003
 40
0.500001
 50
29.999931
 51
90.000000
  0
ARC
  8
0
 10
36.968529
 20
77.500000
 40
0.500001
 50
209.999924
 51
270.000000
  0
ARC
  8
0
 10
42.085110
 20
79.300003
 40
0.500000
 50
90.000000
 51
150.000076
  0
ARC
  8
0
 10
40.006649
 20
77.300003
 40
0.300003
 50
270.000000
 51
329.999756
  0
ARC
  8
0
 62
     4
 10
43.129852
 20
107.599998
 40
0.299999
 50
0.000000
 51
90.000000
  0
ARC
  8
0
 62
     4
 10
33.729855
 20
107.599998
 40
0.300003
 50
90.000000
 51
180.000000
  0
ARC
  8
0
 10
45.429855
 20
34.500000
 40
0.500000
 50
270.000000
 51
0.000000
  0
ARC
  8
0
 10
31.429853
 20
34.500000
 40
0.500000
 50
180.000000
 51
270.000000
  0
ARC
  8
0
 10
31.429853
 20
39.500000
 40
0.500000
 50
180.000000
 51
270.000000
  0
ARC
  8
0
 10
33.934853
 20
41.600006
 40
4.999875
 50
240.461227
 51
299.538757
  0
ARC
  8
0
 10
31.795227
 20
37.830391
 40
0.665373
 50
180.033829
 51
240.724457
  0
ARC
  8
0
 10
36.062004
 20
37.826103
 40
0.667860
 50
300.388977
 51
0.334137
  0
ARC
  8
0
 10
37.629852
 20
34.500000
 40
0.500000
 50
180.000000
 51
270.000427
  0
ARC
  8
0
 10
36.629852
 20
38.500000
 40
0.500000
 50
0.000437
 51
90.000000
  0
CIRCLE
  8
0
 10
32.924854
 20
64.504997
 40
2.250000
  0
ARC
  8
0
 10
32.924854
 20
64.504997
 40
2.557657
 50
6.736077
 51
353.263916
  0
CIRCLE
  8
0
 62
     4
 10
107.933167
 20
46.500000
 40
2.250000
  0
CIRCLE
  8
0
 62
     4
 10
96.933167
 20
64.500000
 40
2.250000
  0
CIRCLE
  8
0
 10
114.933167
 20
47.500000
 40
2.099999
  0
CIRCLE
  8
0
 10
114.933167
 20
63.500000
 40
2.099999
  0
CIRCLE
  8
0
 10
25.933182
 20
47.500000
 40
2.099999
  0
CIRCLE
  8
0
 10
25.933182
 20
63.500000
 40
2.099999
  0
CIRCLE
  8
0
 62
     2
 10
41.429855
 20
60.499989
 40
2.500000
  0
CIRCLE
  8
0
 10
41.429855
 20
60.499989
 40
1.750000
  0
CIRCLE
  8
0
 10
57.429855
 20
60.499989
 40
1.750000
  0
CIRCLE
  8
0
 62
     2
 10
57.429855
 20
60.499989
 40
2.500000
  0
CIRCLE
  8
0
 10
73.429855
 20
60.499989
 40
1.750000
  0
CIRCLE
  8
0
 62
     2
 10
73.429855
 20
60.499989
 40
2.500000
  0
CIRCLE
  8
0
 10
89.429855
 20
60.499989
 40
1.750000
  0
CIRCLE
  8
0
 62
     2
 10
89.429855
 20
60.499989
 40
2.500000
  0
CIRCLE
  8
0
 10
83.429855
 20
50.500004
 40
1.750000
  0
CIRCLE
  8
0
 62
     2
 10
83.429855
 20
50.500004
 40
2.500000
  0
CIRCLE
  8
0
 10
67.429855
 20
50.500004
 40
1.750000
  0
CIRCLE
  8
0
 62
     2
 10
67.429855
 20
50.500004
 40
2.500000
  0
CIRCLE
  8
0
 10
51.429855
 20
50.500004
 40
1.750000
  0
CIRCLE
  8
0
 62
     2
 10
51.429855
 20
50.500004
 40
2.500000
  0
ARC
  8
0
 10
102.429855
 20
78.199997
 40
3.500004
 50
41.082344
 51
138.917648
  0
ARC
  8
0
 10
102.429855
 20
32.799999
 40
3.500003
 50
221.082321
 51
318.917694
  0
TEXT
  8
0
 10
-271.742187
 20
-184.050003
 40
4.500000
  1
G110M20FE
 50
0.000000
 41
1.052632
 51
0.000000
  7
STANDARD
  0
TEXT
  8
0
 10
-271.742187
 20
-176.050003
 40
4.500000
  1
G110M19FE
 50
0.000000
 41
1.052632
 51
0.000000
  7
STANDARD
  0
TEXT
  8
0
 10
-271.742187
 20
-168.050003
 40
4.500000
  1
G110M18FE
 50
0.000000
 41
1.052632
 51
0.000000
  7
STANDARD
  0
TEXT
  8
0
 10
-271.742187
 20
-160.050003
 40
4.500000
  1
G110M17FE
 50
0.000000
 41
1.052632
 51
0.000000
  7
STANDARD
  0
TEXT
  8
0
 10
-271.742187
 20
-152.050003
 40
4.500000
  1
G110M16FE
 50
0.000000
 41
1.052632
 51
0.000000
  7
STANDARD
  0
TEXT
  8
0
 10
-271.742187
 20
-144.050003
 40
4.500000
  1
G110M15FE
 50
0.000000
 41
1.052632
 51
0.000000
  7
STANDARD
  0
TEXT
  8
0
 10
-271.742187
 20
-136.050003
 40
4.500000
  1
G110M14FE
 50
0.000000
 41
1.052632
 51
0.000000
  7
STANDARD
  0
TEXT
  8
0
 10
-271.742187
 20
-128.050003
 40
4.500000
  1
G110M13FE
 50
0.000000
 41
1.052632
 51
0.000000
  7
STANDARD
  0
TEXT
  8
0
 10
-271.742187
 20
-120.050003
 40
4.500000
  1
G110M12FE
 50
0.000000
 41
1.052632
 51
0.000000
  7
STANDARD
  0
TEXT
  8
0
 10
-271.742187
 20
-112.050003
 40
4.500000
  1
G110M11FE
 50
0.000000
 41
1.052632
 51
0.000000
  7
STANDARD
  0
TEXT
  8
0
 10
-271.742187
 20
-104.050003
 40
4.500000
  1
G110M10FE
 50
0.000000
 41
1.052632
 51
0.000000
  7
STANDARD
  0
TEXT
  8
0
 10
-267.492187
 20
-96.050003
 40
4.500000
  1
G110M9FE
 50
0.000000
 41
1.052632
 51
0.000000
  7
STANDARD
  0
TEXT
  8
0
 10
-267.492187
 20
-88.050003
 40
4.500000
  1
G110M8FE
 50
0.000000
 41
1.052632
 51
0.000000
  7
STANDARD
  0
TEXT
  8
0
 10
-267.492187
 20
-80.050003
 40
4.500000
  1
G110M7FE
 50
0.000000
 41
1.052632
 51
0.000000
  7
STANDARD
  0
TEXT
  8
0
 10
-267.492187
 20
-72.050003
 40
4.500000
  1
G110M6FE
 50
0.000000
 41
1.052632
 51
0.000000
  7
STANDARD
  0
TEXT
  8
0
 10
-267.492187
 20
-64.050003
 40
4.500000
  1
G110M5FE
 50
0.000000
 41
1.052632
 51
0.000000
  7
STANDARD
  0
TEXT
  8
0
 10
-267.492187
 20
-56.049999
 40
4.500000
  1
G110M4FE
 50
0.000000
 41
1.052632
 51
0.000000
  7
STANDARD
  0
TEXT
  8
0
 10
-267.492187
 20
-48.049999
 40
4.500000
  1
G110M3FE
 50
0.000000
 41
1.052632
 51
0.000000
  7
STANDARD
  0
TEXT
  8
0
 10
-261.907349
 20
-22.955858
 40
4.500000
  1
DIMENSION LIST
 50
0.000000
 41
1.052632
 51
0.000000
  7
STANDARD
  0
TEXT
  8
0
 10
-203.392654
 20
-184.050003
 40
4.500000
  1
329
 50
0.000000
 41
1.052632
 51
0.000000
  7
STANDARD
  0
TEXT
  8
0
 10
-226.892654
 20
-184.050003
 40
4.500000
  1
336
 50
0.000000
 41
1.052632
 51
0.000000
  7
STANDARD
  0
TEXT
  8
0
 10
-226.892654
 20
-176.050003
 40
4.500000
  1
320
 50
0.000000
 41
1.052632
 51
0.000000
  7
STANDARD
  0
TEXT
  8
0
 10
-203.392654
 20
-176.050003
 40
4.500000
  1
313
 50
0.000000
 41
1.052632
 51
0.000000
  7
STANDARD
  0
TEXT
  8
0
 10
-226.892654
 20
-168.050003
 40
4.500000
  1
304
 50
0.000000
 41
1.052632
 51
0.000000
  7
STANDARD
  0
TEXT
  8
0
 10
-203.392654
 20
-168.050003
 40
4.500000
  1
297
 50
0.000000
 41
1.052632
 51
0.000000
  7
STANDARD
  0
TEXT
  8
0
 10
-226.892654
 20
-160.050003
 40
4.500000
  1
288
 50
0.000000
 41
1.052632
 51
0.000000
  7
STANDARD
  0
TEXT
  8
0
 10
-203.392654
 20
-160.050003
 40
4.500000
  1
281
 50
0.000000
 41
1.052632
 51
0.000000
  7
STANDARD
  0
TEXT
  8
0
 10
-226.892654
 20
-152.050003
 40
4.500000
  1
272
 50
0.000000
 41
1.052632
 51
0.000000
  7
STANDARD
  0
TEXT
  8
0
 10
-203.392654
 20
-152.050003
 40
4.500000
  1
265
 50
0.000000
 41
1.052632
 51
0.000000
  7
STANDARD
  0
TEXT
  8
0
 10
-226.892654
 20
-144.050003
 40
4.500000
  1
256
 50
0.000000
 41
1.052632
 51
0.000000
  7
STANDARD
  0
TEXT
  8
0
 10
-203.392654
 20
-144.050003
 40
4.500000
  1
249
 50
0.000000
 41
1.052632
 51
0.000000
  7
STANDARD
  0
TEXT
  8
0
 10
-226.892654
 20
-136.050003
 40
4.500000
  1
240
 50
0.000000
 41
1.052632
 51
0.000000
  7
STANDARD
  0
TEXT
  8
0
 10
-203.392654
 20
-136.050003
 40
4.500000
  1
233
 50
0.000000
 41
1.052632
 51
0.000000
  7
STANDARD
  0
TEXT
  8
0
 10
-226.892654
 20
-128.050003
 40
4.500000
  1
224
 50
0.000000
 41
1.052632
 51
0.000000
  7
STANDARD
  0
TEXT
  8
0
 10
-203.392654
 20
-128.050003
 40
4.500000
  1
217
 50
0.000000
 41
1.052632
 51
0.000000
  7
STANDARD
  0
TEXT
  8
0
 10
-226.892654
 20
-120.050003
 40
4.500000
  1
208
 50
0.000000
 41
1.052632
 51
0.000000
  7
STANDARD
  0
TEXT
  8
0
 10
-203.392654
 20
-120.050003
 40
4.500000
  1
201
 50
0.000000
 41
1.052632
 51
0.000000
  7
STANDARD
  0
TEXT
  8
0
 10
-226.892654
 20
-112.050003
 40
4.500000
  1
192
 50
0.000000
 41
1.052632
 51
0.000000
  7
STANDARD
  0
TEXT
  8
0
 10
-203.392654
 20
-112.050003
 40
4.500000
  1
185
 50
0.000000
 41
1.052632
 51
0.000000
  7
STANDARD
  0
TEXT
  8
0
 10
-226.892654
 20
-104.050003
 40
4.500000
  1
176
 50
0.000000
 41
1.052632
 51
0.000000
  7
STANDARD
  0
TEXT
  8
0
 10
-203.392654
 20
-104.050003
 40
4.500000
  1
169
 50
0.000000
 41
1.052632
 51
0.000000
  7
STANDARD
  0
TEXT
  8
0
 10
-226.892654
 20
-96.050003
 40
4.500000
  1
160
 50
0.000000
 41
1.052632
 51
0.000000
  7
STANDARD
  0
TEXT
  8
0
 10
-203.392654
 20
-96.050003
 40
4.500000
  1
153
 50
0.000000
 41
1.052632
 51
0.000000
  7
STANDARD
  0
TEXT
  8
0
 10
-226.892654
 20
-88.050003
 40
4.500000
  1
144
 50
0.000000
 41
1.052632
 51
0.000000
  7
STANDARD
  0
TEXT
  8
0
 10
-203.392654
 20
-88.050003
 40
4.500000
  1
137
 50
0.000000
 41
1.052632
 51
0.000000
  7
STANDARD
  0
TEXT
  8
0
 10
-226.892654
 20
-80.050003
 40
4.500000
  1
128
 50
0.000000
 41
1.052632
 51
0.000000
  7
STANDARD
  0
TEXT
  8
0
 10
-203.392654
 20
-80.050003
 40
4.500000
  1
121
 50
0.000000
 41
1.052632
 51
0.000000
  7
STANDARD
  0
TEXT
  8
0
 10
-226.892654
 20
-72.050003
 40
4.500000
  1
112
 50
0.000000
 41
1.052632
 51
0.000000
  7
STANDARD
  0
TEXT
  8
0
 10
-203.392654
 20
-72.050003
 40
4.500000
  1
105
 50
0.000000
 41
1.052632
 51
0.000000
  7
STANDARD
  0
TEXT
  8
0
 10
-222.142654
 20
-64.050003
 40
4.500000
  1
96
 50
0.000000
 41
1.052632
 51
0.000000
  7
STANDARD
  0
TEXT
  8
0
 10
-198.642654
 20
-64.050003
 40
4.500000
  1
89
 50
0.000000
 41
1.052632
 51
0.000000
  7
STANDARD
  0
TEXT
  8
0
 10
-222.142654
 20
-56.049999
 40
4.500000
  1
80
 50
0.000000
 41
1.052632
 51
0.000000
  7
STANDARD
  0
TEXT
  8
0
 10
-198.642654
 20
-56.049999
 40
4.500000
  1
73
 50
0.000000
 41
1.052632
 51
0.000000
  7
STANDARD
  0
TEXT
  8
0
 10
-222.142654
 20
-48.049999
 40
4.500000
  1
64
 50
0.000000
 41
1.052632
 51
0.000000
  7
STANDARD
  0
TEXT
  8
0
 10
-198.642654
 20
-48.049999
 40
4.500000
  1
57
 50
0.000000
 41
1.052632
 51
0.000000
  7
STANDARD
  0
TEXT
  8
0
 10
-267.492187
 20
-40.049999
 40
4.500000
  1
G110M2FE
 50
0.000000
 41
1.052632
 51
0.000000
  7
STANDARD
  0
TEXT
  8
0
 10
-222.142654
 20
-40.049999
 40
4.500000
  1
48
 50
0.000000
 41
1.052632
 51
0.000000
  7
STANDARD
  0
TEXT
  8
0
 10
-198.642654
 20
-40.049999
 40
4.500000
  1
41
 50
0.000000
 41
1.052632
 51
0.000000
  7
STANDARD
  0
TEXT
  8
0
 10
-222.392654
 20
-32.049999
 40
4.500000
  1
L
 50
0.000000
 41
1.052632
 51
0.000000
  7
STANDARD
  0
TEXT
  8
0
 10
-198.892654
 20
-32.049999
 40
4.500000
  1
P
 50
0.000000
 41
1.052632
 51
0.000000
  7
STANDARD
  0
TEXT
  8
0
 10
-258.492187
 20
-32.049999
 40
4.500000
  1
TYPE
 50
0.000000
 41
1.052632
 51
0.000000
  7
STANDARD
  0
TEXT
  8
0
 10
196.250259
 20
180.830002
 40
6.300000
  1
Ver. 1.0
 50
0.000000
 41
1.052632
 51
0.000000
  7
STANDARD
  0
TEXT
  8
0
 10
167.564651
 20
-192.100006
 40
9.000000
  1
KOGANEI CORP.
 50
0.000000
 41
1.052632
 51
0.000000
  7
STANDARD
  0
TEXT
  8
0
 10
-256.549713
 20
180.830002
 40
6.300000
  1
G110 SERIES
 50
0.000000
 41
1.052632
 51
0.000000
  7
STANDARD
  0
TEXT
  8
0
 10
-270.049713
 20
155.830002
 40
6.300000
  1
MODEL:G110M5FE
 50
0.000000
 41
1.052632
 51
0.000000
  7
STANDARD
  0
TEXT
  8
0
 62
     2
 10
68.622856
 20
155.484482
 40
3.200000
  1
P
 50
0.000000
 41
1.052632
 51
0.000000
  7
STANDARD
  0
LINE
  8
0
 62
     2
 10
25.929853
 20
154.484482
 11
114.929855
 21
154.484482
  0
LINE
  8
0
 62
     2
 10
25.929853
 20
154.484482
 11
28.827631
 21
155.260941
  0
LINE
  8
0
 62
     2
 10
25.929853
 20
154.484482
 11
28.827631
 21
153.708023
  0
LINE
  8
0
 62
     2
 10
114.929855
 20
154.484482
 11
112.032082
 21
153.708023
  0
LINE
  8
0
 62
     2
 10
114.929855
 20
154.484482
 11
112.032082
 21
155.260941
  0
LINE
  8
0
 62
     2
 10
25.929853
 20
65.000000
 11
25.929853
 21
155.984482
  0
LINE
  8
0
 62
     2
 10
114.929855
 20
65.000000
 11
114.929855
 21
155.984482
  0
TEXT
  8
0
 62
     2
 10
68.622856
 20
164.544830
 40
3.200000
  1
L
 50
0.000000
 41
1.052632
 51
0.000000
  7
STANDARD
  0
LINE
  8
0
 62
     2
 10
22.429853
 20
163.544830
 11
118.429855
 21
163.544830
  0
LINE
  8
0
 62
     2
 10
22.429853
 20
163.544830
 11
25.327631
 21
164.321289
  0
LINE
  8
0
 62
     2
 10
22.429853
 20
163.544830
 11
25.327631
 21
162.768372
  0
LINE
  8
0
 62
     2
 10
118.429855
 20
163.544830
 11
115.532082
 21
162.768372
  0
LINE
  8
0
 62
     2
 10
118.429855
 20
163.544830
 11
115.532082
 21
164.321289
  0
LINE
  8
0
 62
     2
 10
22.429853
 20
82.000000
 11
22.429853
 21
165.044830
  0
LINE
  8
0
 62
     2
 10
118.429855
 20
82.000000
 11
118.429855
 21
165.044830
  0
LINE
  8
0
 62
     2
 10
38.429855
 20
-94.400002
 11
29.181786
 21
-78.381874
  0
LINE
  8
0
 62
     2
 10
29.181786
 20
-78.381874
 11
-18.413305
 21
-78.381874
  0
LINE
  8
0
 62
     2
 10
38.429855
 20
-94.400002
 11
37.653397
 21
-91.502228
  0
LINE
  8
0
 62
     2
 10
38.429855
 20
-94.400002
 11
36.308537
 21
-92.278679
  0
TEXT
  8
0
 62
     2
 10
-18.163305
 20
-77.381874
 40
3.200000
  1
Ｇ１１０Ｅ１－ＰＳＬ　　Ｇ１１０Ｅ１－１１－ＰＳＬ
 50
0.000000
 41
0.833333
 51
0.000000
  7
STANDARD
  0
LINE
  8
0
 62
     2
 10
54.429855
 20
-94.400002
 11
36.693474
 21
-63.679687
  0
LINE
  8
0
 62
     2
 10
36.693474
 20
-63.679687
 11
-3.863603
 21
-63.679687
  0
LINE
  8
0
 62
     2
 10
54.429855
 20
-94.400002
 11
53.653397
 21
-91.502228
  0
LINE
  8
0
 62
     2
 10
54.429855
 20
-94.400002
 11
52.308537
 21
-92.278679
  0
TEXT
  8
0
 62
     2
 10
-3.613603
 20
-62.679687
 40
3.200000
  1
Ｇ１１０－４Ｅ１－ＰＳＬ
 50
0.000000
 41
0.833333
 51
0.000000
  7
STANDARD
  0
LINE
  8
0
 62
     2
 10
70.426521
 20
-94.400002
 11
88.162895
 21
-63.679687
  0
LINE
  8
0
 62
     2
 10
88.162895
 20
-63.679687
 11
130.982361
 21
-63.679691
  0
LINE
  8
0
 62
     2
 10
70.426521
 20
-94.400002
 11
72.547844
 21
-92.278679
  0
LINE
  8
0
 62
     2
 10
70.426521
 20
-94.400002
 11
71.202980
 21
-91.502228
  0
TEXT
  8
0
 62
     2
 10
91.918358
 20
-62.679691
 40
3.200000
  1
Ｇ１１０－４Ｅ２－ＰＳＬ
 50
0.000000
 41
0.833333
 51
0.000000
  7
STANDARD
  0
LINE
  8
0
 62
     2
 10
86.426529
 20
-94.400002
 11
95.674591
 21
-78.381882
  0
LINE
  8
0
 62
     2
 10
95.674591
 20
-78.381882
 11
136.741318
 21
-78.381882
  0
LINE
  8
0
 62
     2
 10
86.426529
 20
-94.400002
 11
88.547852
 21
-92.278679
  0
LINE
  8
0
 62
     2
 10
86.426529
 20
-94.400002
 11
87.202988
 21
-91.502228
  0
TEXT
  8
0
 62
     2
 10
97.677322
 20
-77.381882
 40
3.200000
  1
Ｇ１１３－４Ｅ２－ＰＳＬ
 50
0.000000
 41
0.833333
 51
0.000000
  7
STANDARD
  0
LINE
  8
0
 62
     2
 10
102.426521
 20
-125.699997
 11
120.713547
 21
-94.025940
  0
LINE
  8
0
 62
     2
 10
120.713547
 20
-94.025940
 11
134.482620
 21
-94.025940
  0
LINE
  8
0
 62
     2
 10
102.426521
 20
-125.699997
 11
104.547844
 21
-123.578674
  0
LINE
  8
0
 62
     2
 10
102.426521
 20
-125.699997
 11
103.202980
 21
-122.802223
  0
TEXT
  8
0
 62
     2
 10
124.218620
 20
-93.025940
 40
3.200000
  1
-BP
 50
0.000000
 41
1.052632
 51
0.000000
  7
STANDARD
  0
ENDSEC
  0
EOF
