  0
SECTION
  2
HEADER
  0
ENDSEC
  0
SECTION
  2
TABLES
  0
TABLE
  2
LTYPE
 70
     4
  0
LTYPE
  2
CONTINUOUS
 70
    64
  3
Solid line
 72
    65
 73
     0
 40
0.000000
  0
LTYPE
  2
DASHED
 70
    64
  3
__ __ __ __ __ __ __ __ __ __ __ __ __ __ __
 72
    65
 73
     2
 40
3.500000
 49
2.000000
 49
-1.500000
  0
LTYPE
  2
CENTER
 70
    64
  3
____ _ ____ _ ____ _ ____ _ ____ _ ____ _ ____
 72
    65
 73
     4
 40
17.500000
 49
13.000000
 49
-1.500000
 49
1.500000
 49
-1.500000
  0
LTYPE
  2
PHANTOM
 70
    64
  3
_____ _ _ _____ _ _ _____ _ _ _____ _ _ ____  
 72
    65
 73
     6
 40
15.500000
 49
8.000000
 49
-1.500000
 49
1.500000
 49
-1.500000
 49
1.500000
 49
-1.500000
  0
LTYPE
  2
DASHED1
 70
    64
  3
__ __ __ __ __ __ __ __ __ __ __ __ __ __ __
 72
    65
 73
     2
 40
1.500000
 49
1.000000
 49
-0.500000
  0
LTYPE
  2
DASHED2
 70
    64
  3
__ __ __ __ __ __ __ __ __ __ __ __ __ __ __
 72
    65
 73
     2
 40
3.500000
 49
2.500000
 49
-1.000000
  0
LTYPE
  2
DASHED3
 70
    64
  3
__ __ __ __ __ __ __ __ __ __ __ __ __ __ __
 72
    65
 73
     2
 40
6.000000
 49
4.000000
 49
-2.000000
  0
LTYPE
  2
DASHED4
 70
    64
  3
__ __ __ __ __ __ __ __ __ __ __ __ __ __ __
 72
    65
 73
     2
 40
12.000000
 49
10.000000
 49
-2.000000
  0
LTYPE
  2
DASHED5
 70
    64
  3
__ __ __ __ __ __ __ __ __ __ __ __ __ __ __
 72
    65
 73
     2
 40
17.000000
 49
15.000000
 49
-2.000000
  0
LTYPE
  2
DASHED6
 70
    64
  3
__ __ __ __ __ __ __ __ __ __ __ __ __ __ __
 72
    65
 73
     2
 40
29.000000
 49
27.000000
 49
-2.000000
  0
LTYPE
  2
PHANTOM1
 70
    64
  3
_____ _ _ _____ _ _ _____ _ _ _____ _ _ ____  
 72
    65
 73
     6
 40
31.000000
 49
25.000000
 49
-1.500000
 49
1.000000
 49
-1.000000
 49
1.000000
 49
-1.500000
  0
LTYPE
  2
PHANTOM2
 70
    64
  3
_____ _ _ _____ _ _ _____ _ _ _____ _ _ ____  
 72
    65
 73
     6
 40
36.000000
 49
27.000000
 49
-1.500000
 49
2.500000
 49
-1.000000
 49
2.500000
 49
-1.500000
  0
LTYPE
  2
PHANTOM3
 70
    64
  3
_____ _ _ _____ _ _ _____ _ _ _____ _ _ ____  
 72
    65
 73
     6
 40
78.000000
 49
64.000000
 49
-2.000000
 49
4.000000
 49
-2.000000
 49
4.000000
 49
-2.000000
  0
LTYPE
  2
CENTER1
 70
    64
  3
____ _ ____ _ ____ _ ____ _ ____ _ ____ _ ____
 72
    65
 73
     4
 40
19.000000
 49
14.000000
 49
-1.000000
 49
3.000000
 49
-1.000000
  0
LTYPE
  2
CENTER2
 70
    64
  3
____ _ ____ _ ____ _ ____ _ ____ _ ____ _ ____
 72
    65
 73
     4
 40
28.500000
 49
25.000000
 49
-1.000000
 49
1.500000
 49
-1.000000
  0
LTYPE
  2
CENTER3
 70
    64
  3
____ _ ____ _ ____ _ ____ _ ____ _ ____ _ ____
 72
    65
 73
     4
 40
31.500000
 49
27.000000
 49
-1.000000
 49
2.500000
 49
-1.000000
  0
LTYPE
  2
CENTER4
 70
    64
  3
____ _ ____ _ ____ _ ____ _ ____ _ ____ _ ____
 72
    65
 73
     4
 40
50.000000
 49
45.000000
 49
-1.000000
 49
3.000000
 49
-1.000000
  0
LTYPE
  2
CENTER5
 70
    64
  3
____ _ ____ _ ____ _ ____ _ ____ _ ____ _ ____
 72
    65
 73
     4
 40
100.000000
 49
92.000000
 49
-2.000000
 49
4.000000
 49
-2.000000
  0
LTYPE
  2
SBK1
 70
    64
  3
______ _ _ _ ______ _ _ _ ______ _ _ _ _____  
 72
    65
 73
     8
 40
60.500000
 49
45.000000
 49
-2.000000
 49
2.500000
 49
-2.000000
 49
2.500000
 49
-2.000000
 49
2.500000
 49
-2.000000
  0
LTYPE
  2
SBK2
 70
    64
  3
______ _ _ _ ______ _ _ _ ______ _ _ _ _____  
 72
    65
 73
     8
 40
84.000000
 49
64.000000
 49
-2.000000
 49
4.000000
 49
-2.000000
 49
4.000000
 49
-2.000000
 49
4.000000
 49
-2.000000
  0
LTYPE
  2
STCH
 70
    64
  3
__ __ __ __ __ __ __ __ __ __ __ __ __ __ __
 72
    65
 73
     2
 40
3.000000
 49
1.000000
 49
-2.000000
  0
LTYPE
  2
MTCH
 70
    64
  3
_____ _ _ _____ _ _ _____ _ _ _____ _ _ ____  
 72
    65
 73
     6
 40
80.000000
 49
66.000000
 49
-2.000000
 49
4.000000
 49
-2.000000
 49
4.000000
 49
-2.000000
  0
ENDTAB
  0
TABLE
  2
LAYER
 70
     1
  0
LAYER
  2
0
 70
     0
 62
     7
  6
CONTINUOUS
  0
ENDTAB
  0
TABLE
  2
STYLE
 70
     1
  0
STYLE
  2
STANDARD
 70
     0
 40
0.000000
 41
1.000000
 50
0.000000
 71
     0
 42
0.200000
  3
txt
  4
BIGFONT
  0
ENDTAB
  0
TABLE
  2
VIEW
 70
     0
  0
ENDTAB
  0
ENDSEC
  0
SECTION
  2
BLOCKS
  0
ENDSEC
  0
SECTION
  2
ENTITIES
  0
LINE
  8
0
  6
CENTER
 62
     2
 10
-25.965916
 20
-67.817230
 11
4.353586
 21
-67.817230
  0
LINE
  8
0
 62
     4
 10
-17.946497
 20
-62.817230
 11
-23.946497
 21
-62.817230
  0
LINE
  8
0
 62
     4
 10
-17.946497
 20
-72.817230
 11
-23.946497
 21
-72.817230
  0
LINE
  8
0
  6
CENTER
 62
     1
 10
-19.726027
 20
-71.317230
 11
-24.469629
 21
-71.317230
  0
LINE
  8
0
  6
CENTER
 62
     1
 10
-21.946497
 20
-61.862648
 11
-21.946497
 21
-73.771812
  0
LINE
  8
0
  6
CENTER
 62
     1
 10
-19.726027
 20
-64.317230
 11
-24.469629
 21
-64.317230
  0
LINE
  8
0
 62
     4
 10
-23.946497
 20
-62.817230
 11
-23.946497
 21
-72.817230
  0
LINE
  8
0
 10
-17.946497
 20
-62.817230
 11
1.653503
 21
-62.817230
  0
LINE
  8
0
 10
-17.946497
 20
-72.817230
 11
1.653503
 21
-72.817230
  0
LINE
  8
0
 10
1.653503
 20
-72.817230
 11
1.653503
 21
-62.817230
  0
LINE
  8
0
 10
-2.946497
 20
-72.817230
 11
-2.946497
 21
-62.817230
  0
LINE
  8
0
 10
-6.446497
 20
-72.817230
 11
-6.446497
 21
-62.817230
  0
LINE
  8
0
 10
-17.246498
 20
-71.817230
 11
-17.246498
 21
-63.817230
  0
LINE
  8
0
 10
-15.146497
 20
-71.817230
 11
-15.146497
 21
-63.817230
  0
LINE
  8
0
 10
-16.946497
 20
-72.117233
 11
-15.446497
 21
-72.117233
  0
LINE
  8
0
 10
-15.146497
 20
-68.163895
 11
-16.246498
 21
-68.163895
  0
LINE
  8
0
 10
-15.146497
 20
-68.017227
 11
-17.246498
 21
-68.017227
  0
LINE
  8
0
 10
-15.146497
 20
-67.617233
 11
-17.246498
 21
-67.617233
  0
LINE
  8
0
 10
-15.146497
 20
-67.470566
 11
-16.246498
 21
-67.470566
  0
LINE
  8
0
 10
-15.146497
 20
-65.517227
 11
-16.246498
 21
-65.517227
  0
LINE
  8
0
 10
-15.146497
 20
-70.117233
 11
-16.246498
 21
-70.117233
  0
LINE
  8
0
 10
-16.246498
 20
-70.517227
 11
-16.246498
 21
-68.090561
  0
LINE
  8
0
 10
-16.446497
 20
-64.917229
 11
-17.246498
 21
-64.917229
  0
LINE
  8
0
 10
-16.446497
 20
-70.717232
 11
-17.246498
 21
-70.717232
  0
LINE
  8
0
 10
-16.246498
 20
-67.543900
 11
-16.246498
 21
-65.117233
  0
LINE
  8
0
 10
-16.246498
 20
-67.543900
 11
-17.246498
 21
-67.543900
  0
LINE
  8
0
 10
-16.246498
 20
-68.090561
 11
-17.246498
 21
-68.090561
  0
LINE
  8
0
 10
-16.946497
 20
-63.517231
 11
-15.446497
 21
-63.517231
  0
LINE
  8
0
 10
-17.946497
 20
-72.817230
 11
-17.946497
 21
-62.817230
  0
LINE
  8
0
  6
CENTER
 62
     2
 10
-19.433399
 20
-64.317230
 11
-13.905825
 21
-64.317230
  0
LINE
  8
0
  6
CENTER
 62
     2
 10
-19.433399
 20
-71.317230
 11
-13.905825
 21
-71.317230
  0
LINE
  8
0
 10
-3.526497
 20
56.582775
 11
-3.526497
 21
55.782772
  0
LINE
  8
0
 10
-3.526497
 20
56.582775
 11
-4.326496
 21
56.582775
  0
LINE
  8
0
 10
-4.326496
 20
56.582775
 11
-4.326496
 21
55.782772
  0
LINE
  8
0
 10
-3.526497
 20
55.782772
 11
-4.326496
 21
55.782772
  0
LINE
  8
0
 10
-1.926497
 20
53.682774
 11
-1.926497
 21
53.282772
  0
LINE
  8
0
 10
-2.426497
 20
59.882774
 11
-2.426497
 21
52.482773
  0
LINE
  8
0
 10
-6.726497
 20
60.882774
 11
-1.426497
 21
60.882774
  0
LINE
  8
0
 10
-6.726497
 20
51.482773
 11
-1.426497
 21
51.482773
  0
LINE
  8
0
 10
-6.726497
 20
60.882774
 11
-6.726497
 21
51.482773
  0
LINE
  8
0
 10
0.073503
 20
53.682774
 11
-2.426497
 21
53.682774
  0
LINE
  8
0
 10
-5.026497
 20
59.272774
 11
-5.526497
 21
59.272774
  0
LINE
  8
0
 10
-5.026497
 20
58.172775
 11
-5.526497
 21
58.172775
  0
LINE
  8
0
 10
0.073503
 20
58.682774
 11
-2.426497
 21
58.682774
  0
LINE
  8
0
 10
-1.426497
 20
58.682774
 11
-1.426497
 21
53.682774
  0
LINE
  8
0
 10
-1.126497
 20
58.682774
 11
-1.126497
 21
53.682774
  0
LINE
  8
0
 10
-2.926497
 20
59.672775
 11
-2.926497
 21
57.772774
  0
LINE
  8
0
 10
-5.026497
 20
59.598774
 11
-5.026497
 21
57.848774
  0
LINE
  8
0
 10
-5.526497
 20
59.272774
 11
-5.526497
 21
58.172775
  0
LINE
  8
0
 10
-1.426497
 20
54.932774
 11
-2.426497
 21
54.932774
  0
LINE
  8
0
 10
-1.426497
 20
57.432774
 11
-2.426497
 21
57.432774
  0
LINE
  8
0
 10
-1.926497
 20
54.932774
 11
-1.926497
 21
57.432774
  0
LINE
  8
0
 10
-1.426497
 20
60.882774
 11
-1.426497
 21
59.882774
  0
LINE
  8
0
 10
-2.426497
 20
59.882774
 11
-1.426497
 21
59.882774
  0
LINE
  8
0
 10
-1.426497
 20
51.482773
 11
-1.426497
 21
52.482773
  0
LINE
  8
0
 10
-2.426497
 20
52.482773
 11
-1.426497
 21
52.482773
  0
LINE
  8
0
 10
-2.926497
 20
57.772770
 11
-4.814497
 21
57.648769
  0
LINE
  8
0
 10
-4.814497
 20
59.798775
 11
-2.926496
 21
59.672775
  0
LINE
  8
0
 10
-2.926497
 20
57.132774
 11
-2.926497
 21
55.232773
  0
LINE
  8
0
 10
-4.814497
 20
57.258774
 11
-2.926497
 21
57.132774
  0
LINE
  8
0
 10
-5.026497
 20
57.058773
 11
-5.026497
 21
55.308773
  0
LINE
  8
0
 10
-5.026497
 20
56.732773
 11
-5.526497
 21
56.732773
  0
LINE
  8
0
 10
-5.526497
 20
56.732773
 11
-5.526497
 21
55.632774
  0
LINE
  8
0
 10
-5.026497
 20
55.632774
 11
-5.526497
 21
55.632774
  0
LINE
  8
0
 10
-2.926497
 20
55.232773
 11
-4.814496
 21
55.108772
  0
LINE
  8
0
 10
-2.926497
 20
54.592773
 11
-2.926497
 21
52.692772
  0
LINE
  8
0
 10
-4.814497
 20
54.718773
 11
-2.926497
 21
54.592773
  0
LINE
  8
0
 10
-5.026497
 20
54.518772
 11
-5.026497
 21
52.768772
  0
LINE
  8
0
 10
-5.026497
 20
54.192772
 11
-5.526497
 21
54.192772
  0
LINE
  8
0
 10
-5.526497
 20
54.192772
 11
-5.526497
 21
53.092773
  0
LINE
  8
0
 10
-5.026497
 20
53.092773
 11
-5.526497
 21
53.092773
  0
LINE
  8
0
 10
-2.926498
 20
52.692772
 11
-4.814497
 21
52.568775
  0
LINE
  8
0
 10
0.073503
 20
58.682774
 11
0.073503
 21
53.682774
  0
LINE
  8
0
 10
-17.046497
 20
51.182774
 11
-17.046497
 21
61.182774
  0
LINE
  8
0
 10
-16.746498
 20
51.182774
 11
-16.746498
 21
61.182774
  0
LINE
  8
0
 10
-17.946497
 20
51.182774
 11
1.353502
 21
51.182774
  0
LINE
  8
0
 10
-17.946497
 20
61.182774
 11
1.353502
 21
61.182774
  0
LINE
  8
0
 62
     2
 10
0.153503
 20
57.682774
 11
1.653503
 21
57.682774
  0
LINE
  8
0
 62
     2
 10
0.153503
 20
54.682774
 11
1.653503
 21
54.682774
  0
LINE
  8
0
 62
     2
 10
0.153503
 20
57.682774
 11
0.153503
 21
54.682774
  0
LINE
  8
0
 10
1.653503
 20
60.882774
 11
1.653503
 21
51.482773
  0
LINE
  8
0
 10
-0.946497
 20
60.882774
 11
-0.946497
 21
59.082775
  0
LINE
  8
0
 10
-1.926497
 20
59.082775
 11
-1.926497
 21
58.682774
  0
LINE
  8
0
 10
-1.926497
 20
59.082775
 11
-0.946497
 21
59.082775
  0
LINE
  8
0
 10
-1.926497
 20
53.282772
 11
-0.946497
 21
53.282772
  0
LINE
  8
0
 10
-0.946497
 20
53.282772
 11
-0.946497
 21
51.482773
  0
LINE
  8
0
  6
CENTER
 62
     2
 10
-25.965916
 20
56.182774
 11
4.353586
 21
56.182774
  0
LINE
  8
0
 62
     4
 10
-23.946497
 20
51.182774
 11
-23.946497
 21
61.182774
  0
LINE
  8
0
  6
CENTER
 62
     1
 10
-19.726027
 20
52.682774
 11
-24.469629
 21
52.682774
  0
LINE
  8
0
  6
CENTER
 62
     1
 10
-21.946497
 20
50.228191
 11
-21.946497
 21
62.137356
  0
LINE
  8
0
  6
CENTER
 62
     1
 10
-19.726027
 20
59.682774
 11
-24.469629
 21
59.682774
  0
LINE
  8
0
 62
     4
 10
-17.946497
 20
51.182774
 11
-23.946497
 21
51.182774
  0
LINE
  8
0
 62
     4
 10
-17.946497
 20
61.182774
 11
-23.946497
 21
61.182774
  0
LINE
  8
0
 10
-17.946497
 20
51.182774
 11
-17.946497
 21
61.182774
  0
LINE
  8
0
  6
CENTER
 62
     2
 10
-19.105665
 20
59.682774
 11
-15.454535
 21
59.682774
  0
LINE
  8
0
  6
CENTER
 62
     2
 10
-19.105665
 20
52.682774
 11
-15.454535
 21
52.682774
  0
LINE
  8
0
  6
CENTER
 62
     2
 10
61.053501
 20
-30.602232
 11
61.053501
 21
17.102287
  0
LINE
  8
0
 10
66.053497
 20
-28.817226
 11
56.053501
 21
-28.817226
  0
LINE
  8
0
 10
65.260605
 20
-21.024332
 11
63.846394
 21
-19.610117
  0
LINE
  8
0
 10
65.260605
 20
-19.610119
 11
63.846394
 21
-21.024332
  0
LINE
  8
0
 10
56.846394
 20
-19.610119
 11
58.260609
 21
-21.024332
  0
LINE
  8
0
 10
56.846394
 20
-21.024334
 11
58.260609
 21
-19.610119
  0
LINE
  8
0
 10
62.879013
 20
-18.267227
 11
61.053501
 21
-18.267227
  0
LINE
  8
0
 10
61.053501
 20
-18.267227
 11
59.227989
 21
-18.267227
  0
LINE
  8
0
 10
62.879013
 20
-18.867226
 11
59.227989
 21
-18.867226
  0
LINE
  8
0
 10
66.053497
 20
9.182774
 11
66.053497
 21
-28.817226
  0
LINE
  8
0
  6
CENTER
 62
     2
 10
63.553501
 20
-18.567226
 11
58.553501
 21
-18.567226
  0
LINE
  8
0
 10
56.053501
 20
9.182774
 11
56.053501
 21
-28.817226
  0
LINE
  8
0
 10
56.053501
 20
-18.717226
 11
57.553501
 21
-18.717226
  0
LINE
  8
0
 10
57.553501
 20
-21.917227
 11
56.053501
 21
-21.917227
  0
LINE
  8
0
 10
66.053497
 20
-21.917227
 11
64.553497
 21
-21.917227
  0
LINE
  8
0
 10
64.553497
 20
-18.717226
 11
66.053497
 21
-18.717226
  0
LINE
  8
0
 10
66.053497
 20
-14.417227
 11
56.053501
 21
-14.417227
  0
LINE
  8
0
 10
56.053501
 20
-14.915305
 11
66.053497
 21
-14.915305
  0
LINE
  8
0
 10
58.403500
 20
-22.417227
 11
56.053501
 21
-22.417227
  0
LINE
  8
0
 10
59.653500
 20
-21.167227
 11
62.453503
 21
-21.167227
  0
LINE
  8
0
 10
63.703503
 20
-22.417227
 11
62.453503
 21
-21.167227
  0
LINE
  8
0
 10
66.053497
 20
-22.417227
 11
63.703503
 21
-22.417227
  0
LINE
  8
0
 10
59.909130
 20
-21.608044
 11
62.197872
 21
-21.608044
  0
LINE
  8
0
 10
58.659130
 20
-22.858044
 11
56.053501
 21
-22.858044
  0
LINE
  8
0
 10
66.053497
 20
-22.858044
 11
63.447872
 21
-22.858044
  0
LINE
  8
0
 10
62.197872
 20
-21.608044
 11
63.447872
 21
-22.858044
  0
LINE
  8
0
 10
66.053497
 20
-15.726409
 11
56.053501
 21
-15.726409
  0
LINE
  8
0
 10
62.197872
 20
-21.608044
 11
62.453503
 21
-21.167225
  0
LINE
  8
0
 10
59.909130
 20
-21.608044
 11
58.659130
 21
-22.858044
  0
LINE
  8
0
 10
58.403500
 20
-22.417227
 11
59.653500
 21
-21.167227
  0
LINE
  8
0
 10
59.909130
 20
-21.608044
 11
59.653500
 21
-21.167227
  0
LINE
  8
0
 10
63.703503
 20
-22.417227
 11
63.447872
 21
-22.858044
  0
LINE
  8
0
 10
58.659130
 20
-22.858047
 11
58.403500
 21
-22.417229
  0
LINE
  8
0
 62
     2
 10
59.553501
 20
-1.817226
 11
62.553501
 21
-1.817226
  0
LINE
  8
0
 62
     2
 10
59.553501
 20
-1.817226
 11
59.553501
 21
3.182774
  0
LINE
  8
0
 62
     2
 10
62.553501
 20
-1.817226
 11
62.553501
 21
3.182774
  0
LINE
  8
0
 10
56.053501
 20
-14.317226
 11
66.053497
 21
-14.317226
  0
LINE
  8
0
 10
63.953503
 20
3.182774
 11
63.953503
 21
9.182774
  0
LINE
  8
0
 10
58.153500
 20
3.182774
 11
58.153500
 21
9.182774
  0
LINE
  8
0
 10
58.153500
 20
6.782772
 11
58.553501
 21
6.782772
  0
LINE
  8
0
 10
58.153500
 20
8.316750
 11
58.553501
 21
8.316750
  0
LINE
  8
0
 10
66.053497
 20
3.182774
 11
56.053501
 21
3.182774
  0
LINE
  8
0
 10
66.053497
 20
9.182774
 11
63.553501
 21
9.182774
  0
LINE
  8
0
 10
63.553501
 20
4.782772
 11
58.553501
 21
4.782772
  0
LINE
  8
0
 10
65.753502
 20
14.282772
 11
56.353500
 21
14.282772
  0
LINE
  8
0
 10
64.653503
 20
9.282772
 11
65.753502
 21
9.282772
  0
LINE
  8
0
 10
63.553501
 20
13.282772
 11
58.553501
 21
13.282772
  0
LINE
  8
0
 10
65.753502
 20
9.282772
 11
65.753502
 21
14.282772
  0
LINE
  8
0
 10
63.553501
 20
4.782772
 11
63.553501
 21
13.282772
  0
LINE
  8
0
 10
58.553501
 20
12.571449
 11
63.553501
 21
12.571449
  0
LINE
  8
0
 10
58.553501
 20
12.282772
 11
63.553501
 21
12.282772
  0
LINE
  8
0
 10
65.153503
 20
9.182774
 11
65.153503
 21
9.282772
  0
LINE
  8
0
 10
64.653503
 20
9.182774
 11
64.653503
 21
14.282772
  0
LINE
  8
0
 10
57.453503
 20
9.182774
 11
57.453503
 21
14.282772
  0
LINE
  8
0
 10
56.953503
 20
9.182774
 11
56.953503
 21
9.282772
  0
LINE
  8
0
 10
58.553501
 20
4.782772
 11
58.553501
 21
13.282772
  0
LINE
  8
0
 10
56.353500
 20
9.282772
 11
56.353500
 21
14.282772
  0
LINE
  8
0
 10
57.453503
 20
9.282772
 11
56.353500
 21
9.282772
  0
LINE
  8
0
 10
58.553501
 20
5.648800
 11
63.553501
 21
5.648800
  0
LINE
  8
0
 10
63.553501
 20
6.782772
 11
63.953503
 21
6.782772
  0
LINE
  8
0
 10
63.553501
 20
8.316750
 11
63.953503
 21
8.316750
  0
LINE
  8
0
 10
58.553501
 20
9.182774
 11
56.053501
 21
9.182774
  0
LINE
  8
0
 10
57.798500
 20
14.282772
 11
57.798500
 21
20.748775
  0
LINE
  8
0
 10
59.228500
 20
14.282772
 11
59.228500
 21
20.367439
  0
LINE
  8
0
 10
62.878502
 20
14.282772
 11
62.878502
 21
19.394108
  0
LINE
  8
0
 10
64.308502
 20
14.282772
 11
64.308502
 21
19.012775
  0
LINE
  8
0
 10
63.193501
 20
29.812775
 11
63.993500
 21
29.812775
  0
LINE
  8
0
 10
62.878502
 20
24.812775
 11
64.308502
 21
24.812775
  0
LINE
  8
0
 10
63.993500
 20
24.812775
 11
63.993500
 21
29.812775
  0
LINE
  8
0
 10
63.193501
 20
24.812775
 11
63.193501
 21
29.812775
  0
LINE
  8
0
 10
62.878502
 20
20.634106
 11
62.878502
 21
24.812775
  0
LINE
  8
0
 10
64.308502
 20
20.252773
 11
64.308502
 21
24.812775
  0
LINE
  8
0
 10
57.798500
 20
24.812775
 11
59.228500
 21
24.812775
  0
LINE
  8
0
 10
59.228500
 20
21.607441
 11
59.228500
 21
24.812775
  0
LINE
  8
0
 10
57.798500
 20
21.988773
 11
57.798500
 21
24.812775
  0
LINE
  8
0
 10
58.913502
 20
24.812775
 11
58.913502
 21
29.812775
  0
LINE
  8
0
 10
58.113503
 20
24.812775
 11
58.113503
 21
29.812775
  0
LINE
  8
0
 10
58.913502
 20
29.812775
 11
58.113503
 21
29.812775
  0
LINE
  8
0
 62
     2
 10
66.633499
 20
18.392773
 11
55.535183
 21
21.352325
  0
LINE
  8
0
 62
     2
 10
66.633499
 20
19.632774
 11
55.535187
 21
22.592325
  0
LINE
  8
0
 10
56.053501
 20
-28.817226
 11
66.053497
 21
-28.817226
  0
LINE
  8
0
 62
     4
 10
56.053501
 20
-28.817226
 11
56.053501
 21
-29.817226
  0
LINE
  8
0
 62
     4
 10
66.053497
 20
-28.817226
 11
66.053497
 21
-29.817226
  0
LINE
  8
0
 62
     4
 10
66.053497
 20
-29.817226
 11
56.053501
 21
-29.817226
  0
LINE
  8
0
  6
CENTER
 62
     2
 10
61.053501
 20
-30.602232
 11
61.053501
 21
10.634506
  0
LINE
  8
0
  6
CENTER
 62
     2
 10
57.553501
 20
-30.602232
 11
57.553501
 21
-27.465729
  0
LINE
  8
0
  6
CENTER
 62
     2
 10
64.553497
 20
-30.602232
 11
64.553497
 21
-27.465729
  0
LINE
  8
0
 10
-74.946495
 20
2.682774
 11
-74.946495
 21
2.182774
  0
LINE
  8
0
 10
-80.946495
 20
2.682774
 11
-80.946495
 21
2.182774
  0
LINE
  8
0
 10
-74.946495
 20
2.182774
 11
-80.946495
 21
2.182774
  0
LINE
  8
0
 10
-74.946495
 20
2.682774
 11
-80.946495
 21
2.682774
  0
LINE
  8
0
 10
-72.946495
 20
3.182774
 11
-82.946495
 21
3.182774
  0
LINE
  8
0
 10
-82.946495
 20
9.182774
 11
-72.946495
 21
9.182774
  0
LINE
  8
0
 10
-82.646492
 20
9.282772
 11
-73.246498
 21
9.282772
  0
LINE
  8
0
 10
-82.646492
 20
13.282772
 11
-73.246498
 21
13.282772
  0
LINE
  8
0
 10
-82.646492
 20
13.571449
 11
-73.246498
 21
13.571449
  0
LINE
  8
0
 10
-82.646492
 20
14.282772
 11
-73.246498
 21
14.282772
  0
LINE
  8
0
 10
-74.691498
 20
14.282772
 11
-74.691498
 21
17.972374
  0
LINE
  8
0
 10
-76.121498
 20
14.282772
 11
-76.121498
 21
18.364128
  0
LINE
  8
0
 62
     2
 10
-83.526505
 20
20.392775
 11
-72.428177
 21
17.352324
  0
LINE
  8
0
 62
     2
 10
-83.526497
 20
21.632771
 11
-72.428169
 21
18.592321
  0
LINE
  8
0
 10
-75.806496
 20
29.812775
 11
-75.006493
 21
29.812775
  0
LINE
  8
0
 10
-75.006493
 20
24.812775
 11
-75.006493
 21
29.812775
  0
LINE
  8
0
 10
-75.806496
 20
24.812775
 11
-75.806496
 21
29.812775
  0
LINE
  8
0
 10
-74.691498
 20
19.212372
 11
-74.691498
 21
24.812775
  0
LINE
  8
0
 10
-76.121498
 20
19.604130
 11
-76.121498
 21
24.812775
  0
LINE
  8
0
 10
-74.691498
 20
24.812775
 11
-76.121498
 21
24.812775
  0
LINE
  8
0
 10
-79.771492
 20
14.282772
 11
-79.771492
 21
19.394108
  0
LINE
  8
0
 10
-81.201492
 20
14.282772
 11
-81.201492
 21
19.755825
  0
LINE
  8
0
 10
-81.201492
 20
20.995827
 11
-81.201492
 21
24.812775
  0
LINE
  8
0
 10
-79.771492
 20
20.604069
 11
-79.771492
 21
24.812775
  0
LINE
  8
0
 10
-80.086494
 20
24.812775
 11
-80.086494
 21
29.812775
  0
LINE
  8
0
 10
-80.886497
 20
24.812775
 11
-80.886497
 21
29.812775
  0
LINE
  8
0
 10
-79.771492
 20
24.812775
 11
-81.201492
 21
24.812775
  0
LINE
  8
0
 10
-80.086494
 20
29.812775
 11
-80.886497
 21
29.812775
  0
LINE
  8
0
 10
-82.646492
 20
9.282772
 11
-82.646492
 21
14.282772
  0
LINE
  8
0
 10
-73.246498
 20
9.282772
 11
-73.246498
 21
14.282772
  0
LINE
  8
0
 10
-82.046494
 20
9.182774
 11
-82.046494
 21
9.282772
  0
LINE
  8
0
 10
-73.846497
 20
9.182774
 11
-73.846497
 21
9.282772
  0
LINE
  8
0
 10
-82.946495
 20
-11.817226
 11
-82.946495
 21
9.182774
  0
LINE
  8
0
 10
-72.946495
 20
-11.817226
 11
-72.946495
 21
9.182774
  0
LINE
  8
0
 62
     4
 10
-82.946495
 20
-29.817226
 11
-72.946495
 21
-29.817226
  0
LINE
  8
0
  6
CENTER
 62
     1
 10
-77.946495
 20
-31.423004
 11
-77.946495
 21
-15.300899
  0
LINE
  8
0
 62
     4
 10
-82.946495
 20
-11.817226
 11
-72.946495
 21
-11.817226
  0
LINE
  8
0
  6
CENTER
 62
     1
 10
-80.431099
 20
-23.817226
 11
-75.462036
 21
-23.817226
  0
LINE
  8
0
  6
CENTER
 62
     1
 10
-80.431099
 20
-17.817226
 11
-75.462036
 21
-17.817226
  0
LINE
  8
0
 62
     4
 10
-72.946495
 20
-11.817226
 11
-72.946495
 21
-29.817226
  0
LINE
  8
0
 62
     4
 10
-82.946495
 20
-11.817226
 11
-82.946495
 21
-29.817226
  0
LINE
  8
0
  6
CENTER
 62
     2
 10
-81.446495
 20
-31.423004
 11
-81.446495
 21
-28.442677
  0
LINE
  8
0
  6
CENTER
 62
     2
 10
-74.446495
 20
-31.423004
 11
-74.446495
 21
-28.442677
  0
LINE
  8
0
  6
CENTER
 62
     2
 10
-19.455814
 20
-20.317226
 11
-15.915641
 21
-20.317226
  0
LINE
  8
0
 10
-16.746498
 20
3.182774
 11
-16.746498
 21
1.682774
  0
LINE
  8
0
 62
     2
 10
-0.941496
 20
18.292772
 11
-6.941497
 21
19.892773
  0
LINE
  8
0
 62
     2
 10
-0.941497
 20
19.532772
 11
-6.941497
 21
21.132772
  0
LINE
  8
0
 10
-3.266497
 20
20.152775
 11
-3.266497
 21
24.712772
  0
LINE
  8
0
 10
-4.696497
 20
20.534107
 11
-4.696497
 21
24.712772
  0
LINE
  8
0
 10
-3.581497
 20
24.712772
 11
-3.581497
 21
29.712772
  0
LINE
  8
0
 10
-4.381496
 20
24.712772
 11
-4.381496
 21
29.712772
  0
LINE
  8
0
 10
-3.266497
 20
24.712772
 11
-4.696497
 21
24.712772
  0
LINE
  8
0
 10
-3.581497
 20
29.712772
 11
-4.381496
 21
29.712772
  0
LINE
  8
0
 10
-3.266497
 20
14.282772
 11
-3.266497
 21
18.912773
  0
LINE
  8
0
 10
-4.696497
 20
14.282772
 11
-4.696497
 21
19.294106
  0
LINE
  8
0
 10
-4.246496
 20
-14.317226
 11
1.653503
 21
-14.317226
  0
LINE
  8
0
 10
-0.946497
 20
3.182774
 11
-0.946497
 21
9.182774
  0
LINE
  8
0
 10
-6.246497
 20
3.182774
 11
-6.246497
 21
9.182774
  0
LINE
  8
0
 10
-0.946497
 20
9.182774
 11
-6.246497
 21
9.182774
  0
LINE
  8
0
 10
-0.946497
 20
3.182774
 11
1.353502
 21
3.182774
  0
LINE
  8
0
 10
-6.246496
 20
13.282772
 11
-6.746497
 21
13.571447
  0
LINE
  8
0
 10
-6.746497
 20
13.571449
 11
-6.746497
 21
14.282772
  0
LINE
  8
0
 10
-0.446496
 20
12.282774
 11
0.053501
 21
12.571447
  0
LINE
  8
0
 10
0.053503
 20
12.571449
 11
0.053503
 21
13.282772
  0
LINE
  8
0
 10
-0.946496
 20
4.882774
 11
-0.446496
 21
5.748800
  0
LINE
  8
0
 10
-6.746497
 20
14.282772
 11
-1.446497
 21
14.282772
  0
LINE
  8
0
 10
-0.446497
 20
5.748798
 11
-0.446497
 21
12.282772
  0
LINE
  8
0
 10
-1.146497
 20
13.282772
 11
-1.446497
 21
11.581388
  0
LINE
  8
0
  6
PHANTOM
 10
-1.446497
 20
10.082775
 11
-1.446497
 21
11.581390
  0
LINE
  8
0
 10
-1.146498
 20
13.282772
 11
-0.946497
 21
13.282772
  0
LINE
  8
0
 10
-1.446497
 20
9.182774
 11
-1.446497
 21
14.282772
  0
LINE
  8
0
 10
-1.446497
 20
9.282772
 11
-6.246497
 21
9.282772
  0
LINE
  8
0
 10
-0.946497
 20
13.282772
 11
0.053503
 21
13.282772
  0
LINE
  8
0
 10
-6.246497
 20
9.282772
 11
-6.246497
 21
13.282772
  0
LINE
  8
0
 10
-5.546497
 20
9.182774
 11
-5.546497
 21
9.282772
  0
LINE
  8
0
 10
-2.446497
 20
9.182774
 11
-2.446497
 21
9.282772
  0
LINE
  8
0
 10
1.653503
 20
2.882774
 11
1.653503
 21
-14.317226
  0
LINE
  8
0
 10
-3.346497
 20
-21.317226
 11
-3.346497
 21
-19.317226
  0
LINE
  8
0
 10
-3.846497
 20
-18.817226
 11
-3.946497
 21
-18.817226
  0
LINE
  8
0
 10
-3.846497
 20
-21.817226
 11
-3.946497
 21
-21.817226
  0
LINE
  8
0
 10
-2.946497
 20
-21.917227
 11
-3.946497
 21
-21.917227
  0
LINE
  8
0
 10
-2.946497
 20
-18.717226
 11
-3.946497
 21
-18.717226
  0
LINE
  8
0
 10
-3.946497
 20
-21.917227
 11
-3.946497
 21
-18.717226
  0
LINE
  8
0
 10
-4.246496
 20
1.682774
 11
-4.246496
 21
-14.417227
  0
LINE
  8
0
 10
-2.946497
 20
-22.417227
 11
-2.946497
 21
-15.726409
  0
LINE
  8
0
 10
-4.246496
 20
-14.417227
 11
1.653503
 21
-14.417227
  0
LINE
  8
0
 10
-2.946498
 20
-15.726409
 11
1.653503
 21
-14.915305
  0
LINE
  8
0
 10
1.653503
 20
-14.915305
 11
1.653503
 21
-14.417227
  0
LINE
  8
0
 10
1.053503
 20
-14.317226
 11
1.053503
 21
-14.417227
  0
LINE
  8
0
 10
-6.446498
 20
-23.034370
 11
-2.946497
 21
-22.417227
  0
LINE
  8
0
 10
-6.446497
 20
-28.817226
 11
-6.446497
 21
-23.034370
  0
LINE
  8
0
 10
-4.246496
 20
1.682774
 11
-16.746498
 21
1.682774
  0
LINE
  8
0
 10
-16.746498
 20
3.182774
 11
-6.246497
 21
3.182774
  0
LINE
  8
0
 10
-17.946497
 20
-28.817226
 11
-6.446497
 21
-28.817226
  0
LINE
  8
0
 62
     4
 10
-17.946497
 20
-28.817226
 11
-17.946497
 21
-29.817226
  0
LINE
  8
0
 62
     4
 10
-17.946497
 20
-29.817226
 11
-23.946497
 21
-29.817226
  0
LINE
  8
0
 62
     4
 10
-23.946497
 20
-11.817226
 11
-23.946497
 21
-29.817226
  0
LINE
  8
0
 62
     4
 10
-17.946497
 20
-11.817226
 11
-23.946497
 21
-11.817226
  0
LINE
  8
0
 10
-3.346497
 20
-21.317226
 11
-3.346497
 21
-19.317226
  0
LINE
  8
0
 10
-3.846497
 20
-18.817226
 11
-3.946497
 21
-18.817226
  0
LINE
  8
0
 10
-3.846497
 20
-21.817226
 11
-3.946497
 21
-21.817226
  0
LINE
  8
0
 10
-2.946497
 20
-21.917227
 11
-3.946497
 21
-21.917227
  0
LINE
  8
0
 10
-2.946497
 20
-18.717226
 11
-3.946497
 21
-18.717226
  0
LINE
  8
0
 10
-3.946497
 20
-21.917227
 11
-3.946497
 21
-18.717226
  0
LINE
  8
0
 10
-14.746497
 20
-28.117226
 11
-14.746497
 21
-27.317226
  0
LINE
  8
0
 10
-7.146497
 20
-27.317226
 11
-7.146497
 21
-28.117226
  0
LINE
  8
0
 10
-7.146497
 20
-27.317226
 11
-14.746497
 21
-27.317226
  0
LINE
  8
0
 10
-2.946497
 20
-22.417227
 11
-2.946497
 21
-15.726409
  0
LINE
  8
0
 10
-17.946497
 20
3.182774
 11
-17.946497
 21
-28.817226
  0
LINE
  8
0
 10
-17.946497
 20
3.182774
 11
-17.046497
 21
3.182774
  0
LINE
  8
0
 10
-7.146497
 20
-28.117226
 11
-14.746497
 21
-28.117226
  0
LINE
  8
0
 10
-2.946498
 20
-15.726409
 11
1.653503
 21
-14.915305
  0
LINE
  8
0
 10
-17.046497
 20
3.182774
 11
-16.746496
 21
2.882773
  0
LINE
  8
0
  6
CENTER
 62
     2
 10
-10.946497
 20
-30.602232
 11
-10.946497
 21
5.285049
  0
LINE
  8
0
  6
CENTER
 62
     1
 10
-21.946497
 20
-31.423004
 11
-21.946497
 21
-28.155436
  0
LINE
  8
0
 10
-138.399994
 20
94.500000
 11
138.350006
 21
94.500000
  0
LINE
  8
0
 10
138.350006
 20
94.500000
 11
138.350006
 21
-94.800003
  0
LINE
  8
0
 10
-138.399994
 20
-94.800003
 11
138.350006
 21
-94.800003
  0
LINE
  8
0
 10
-138.399994
 20
94.500000
 11
-138.399994
 21
-94.800003
  0
LINE
  8
0
 10
73.350006
 20
-84.800003
 11
138.350006
 21
-84.800003
  0
LINE
  8
0
 10
-138.399994
 20
84.500000
 11
-73.399994
 21
84.500000
  0
LINE
  8
0
 10
73.350006
 20
84.500000
 11
138.350006
 21
84.500000
  0
LINE
  8
0
 10
73.350006
 20
-84.800003
 11
73.350006
 21
-94.800003
  0
LINE
  8
0
 10
73.350006
 20
94.500000
 11
73.350006
 21
84.500000
  0
LINE
  8
0
 10
-73.399994
 20
94.500000
 11
-73.399994
 21
84.500000
  0
CIRCLE
  8
0
 62
     4
 10
-21.946497
 20
-71.317230
 40
1.100000
  0
CIRCLE
  8
0
 62
     4
 10
-21.946497
 20
-64.317230
 40
1.100000
  0
ARC
  8
0
 10
-15.446497
 20
-63.817230
 40
0.300000
 50
0.000000
 51
90.000000
  0
ARC
  8
0
 10
-16.946497
 20
-63.817230
 40
0.299999
 50
90.000000
 51
180.000000
  0
ARC
  8
0
 10
-15.446497
 20
-71.817230
 40
0.300003
 50
270.000000
 51
0.000000
  0
ARC
  8
0
 10
-16.946497
 20
-71.817230
 40
0.299999
 50
180.000000
 51
270.000000
  0
ARC
  8
0
 10
-16.446497
 20
-70.517227
 40
0.199997
 50
270.000000
 51
0.000000
  0
ARC
  8
0
 10
-16.446497
 20
-65.117233
 40
0.200001
 50
0.000000
 51
90.000000
  0
CIRCLE
  8
0
 10
-3.926497
 20
53.642773
 40
0.300000
  0
CIRCLE
  8
0
 10
-3.926497
 20
53.642773
 40
0.700000
  0
CIRCLE
  8
0
 10
-3.926497
 20
58.722775
 40
0.300000
  0
CIRCLE
  8
0
 10
-3.926497
 20
58.722775
 40
0.700000
  0
ARC
  8
0
 10
-4.825832
 20
59.598431
 40
0.200665
 50
86.761551
 51
179.901978
  0
ARC
  8
0
 10
-4.826832
 20
57.848061
 40
0.199666
 50
179.795303
 51
273.541840
  0
ARC
  8
0
 10
-4.825832
 20
57.058430
 40
0.200665
 50
86.761551
 51
179.901978
  0
ARC
  8
0
 10
-4.826832
 20
55.308060
 40
0.199666
 50
179.795303
 51
273.541840
  0
ARC
  8
0
 10
-4.825832
 20
54.518429
 40
0.200665
 50
86.761551
 51
179.901978
  0
ARC
  8
0
 10
-4.826832
 20
52.768059
 40
0.199666
 50
179.795303
 51
273.541840
  0
ARC
  8
0
 10
1.353502
 20
51.482773
 40
0.299999
 50
270.000000
 51
0.000000
  0
ARC
  8
0
 10
1.353502
 20
60.882774
 40
0.300000
 50
0.000000
 51
90.000000
  0
ARC
  8
0
 10
-1.246496
 20
60.882774
 40
0.300000
 50
0.000000
 51
90.000000
  0
ARC
  8
0
 10
-5.946497
 20
60.882774
 40
0.299999
 50
90.000000
 51
180.000000
  0
ARC
  8
0
 10
-1.246496
 20
51.482773
 40
0.299999
 50
270.000000
 51
0.000000
  0
ARC
  8
0
 10
-5.946497
 20
51.482773
 40
0.300000
 50
180.000000
 51
270.000000
  0
CIRCLE
  8
0
 62
     4
 10
-21.946497
 20
52.682774
 40
1.100000
  0
CIRCLE
  8
0
 62
     4
 10
-21.946497
 20
59.682774
 40
1.100000
  0
CIRCLE
  8
0
 10
64.553497
 20
-20.317226
 40
1.500000
  0
CIRCLE
  8
0
 10
57.553501
 20
-20.317226
 40
1.500000
  0
ARC
  8
0
 10
61.053501
 20
-18.567226
 40
0.799999
 50
202.024277
 51
337.975708
  0
ARC
  8
0
 10
61.053501
 20
-18.567226
 40
0.799999
 50
22.024282
 51
157.975723
  0
CIRCLE
  8
0
 10
61.053501
 20
-18.567226
 40
1.850000
  0
CIRCLE
  8
0
 10
61.053501
 20
-18.567226
 40
1.900000
  0
ARC
  8
0
 10
64.553497
 20
-20.317226
 40
1.600000
 50
90.000000
 51
270.000000
  0
ARC
  8
0
 10
57.553501
 20
-20.317226
 40
1.600000
 50
270.000000
 51
90.000000
  0
CIRCLE
  8
0
 10
61.053501
 20
-18.567226
 40
2.050000
  0
CIRCLE
  8
0
 62
     4
 10
-77.946495
 20
-23.817226
 40
1.500000
  0
CIRCLE
  8
0
 62
     4
 10
-77.946495
 20
-23.817226
 40
1.200000
  0
CIRCLE
  8
0
 62
     4
 10
-77.946495
 20
-17.817226
 40
1.500000
  0
CIRCLE
  8
0
 62
     4
 10
-77.946495
 20
-17.817226
 40
1.200000
  0
ARC
  8
0
 10
1.353502
 20
2.882774
 40
0.300000
 50
0.000000
 51
90.000000
  0
ARC
  8
0
 10
-3.846497
 20
-21.317226
 40
0.500000
 50
270.000000
 51
0.000000
  0
ARC
  8
0
 10
-3.846497
 20
-19.317226
 40
0.500000
 50
0.000000
 51
90.000000
  0
ARC
  8
0
 10
-3.846497
 20
-21.317226
 40
0.500000
 50
270.000000
 51
0.000000
  0
ARC
  8
0
 10
-3.846497
 20
-19.317226
 40
0.500000
 50
0.000000
 51
90.000000
  0
TEXT
  8
0
 10
76.207352
 20
-92.850006
 40
4.500000
  1
KOGANEI CORP.
 50
0.000000
 41
1.052632
 51
0.000000
  7
STANDARD
  0
TEXT
  8
0
 10
92.842865
 20
87.620003
 40
3.200000
  1
Ver. 1.0
 50
0.000000
 41
1.052632
 51
0.000000
  7
STANDARD
  0
TEXT
  8
0
 10
-123.707138
 20
87.620003
 40
3.200000
  1
G010 SERIES
 50
0.000000
 41
1.052632
 51
0.000000
  7
STANDARD
  0
TEXT
  8
0
 10
-130.207001
 20
72.620003
 40
3.200000
  1
MODEL:G010E1-21-PS
 50
0.000000
 41
1.052632
 51
0.000000
  7
STANDARD
  0
ENDSEC
  0
EOF
