  0
SECTION
  2
HEADER
  0
ENDSEC
  0
SECTION
  2
TABLES
  0
TABLE
  2
LTYPE
 70
     4
  0
LTYPE
  2
CONTINUOUS
 70
    64
  3
Solid line
 72
    65
 73
     0
 40
0.000000
  0
LTYPE
  2
DASHED
 70
    64
  3
__ __ __ __ __ __ __ __ __ __ __ __ __ __ __
 72
    65
 73
     2
 40
3.500000
 49
2.000000
 49
-1.500000
  0
LTYPE
  2
CENTER
 70
    64
  3
____ _ ____ _ ____ _ ____ _ ____ _ ____ _ ____
 72
    65
 73
     4
 40
17.500000
 49
13.000000
 49
-1.500000
 49
1.500000
 49
-1.500000
  0
LTYPE
  2
PHANTOM
 70
    64
  3
_____ _ _ _____ _ _ _____ _ _ _____ _ _ ____  
 72
    65
 73
     6
 40
15.500000
 49
8.000000
 49
-1.500000
 49
1.500000
 49
-1.500000
 49
1.500000
 49
-1.500000
  0
LTYPE
  2
DASHED1
 70
    64
  3
__ __ __ __ __ __ __ __ __ __ __ __ __ __ __
 72
    65
 73
     2
 40
1.500000
 49
1.000000
 49
-0.500000
  0
LTYPE
  2
DASHED2
 70
    64
  3
__ __ __ __ __ __ __ __ __ __ __ __ __ __ __
 72
    65
 73
     2
 40
3.500000
 49
2.500000
 49
-1.000000
  0
LTYPE
  2
DASHED3
 70
    64
  3
__ __ __ __ __ __ __ __ __ __ __ __ __ __ __
 72
    65
 73
     2
 40
6.000000
 49
4.000000
 49
-2.000000
  0
LTYPE
  2
DASHED4
 70
    64
  3
__ __ __ __ __ __ __ __ __ __ __ __ __ __ __
 72
    65
 73
     2
 40
12.000000
 49
10.000000
 49
-2.000000
  0
LTYPE
  2
DASHED5
 70
    64
  3
__ __ __ __ __ __ __ __ __ __ __ __ __ __ __
 72
    65
 73
     2
 40
17.000000
 49
15.000000
 49
-2.000000
  0
LTYPE
  2
DASHED6
 70
    64
  3
__ __ __ __ __ __ __ __ __ __ __ __ __ __ __
 72
    65
 73
     2
 40
29.000000
 49
27.000000
 49
-2.000000
  0
LTYPE
  2
PHANTOM1
 70
    64
  3
_____ _ _ _____ _ _ _____ _ _ _____ _ _ ____  
 72
    65
 73
     6
 40
31.000000
 49
25.000000
 49
-1.500000
 49
1.000000
 49
-1.000000
 49
1.000000
 49
-1.500000
  0
LTYPE
  2
PHANTOM2
 70
    64
  3
_____ _ _ _____ _ _ _____ _ _ _____ _ _ ____  
 72
    65
 73
     6
 40
36.000000
 49
27.000000
 49
-1.500000
 49
2.500000
 49
-1.000000
 49
2.500000
 49
-1.500000
  0
LTYPE
  2
PHANTOM3
 70
    64
  3
_____ _ _ _____ _ _ _____ _ _ _____ _ _ ____  
 72
    65
 73
     6
 40
78.000000
 49
64.000000
 49
-2.000000
 49
4.000000
 49
-2.000000
 49
4.000000
 49
-2.000000
  0
LTYPE
  2
CENTER1
 70
    64
  3
____ _ ____ _ ____ _ ____ _ ____ _ ____ _ ____
 72
    65
 73
     4
 40
19.000000
 49
14.000000
 49
-1.000000
 49
3.000000
 49
-1.000000
  0
LTYPE
  2
CENTER2
 70
    64
  3
____ _ ____ _ ____ _ ____ _ ____ _ ____ _ ____
 72
    65
 73
     4
 40
28.500000
 49
25.000000
 49
-1.000000
 49
1.500000
 49
-1.000000
  0
LTYPE
  2
CENTER3
 70
    64
  3
____ _ ____ _ ____ _ ____ _ ____ _ ____ _ ____
 72
    65
 73
     4
 40
31.500000
 49
27.000000
 49
-1.000000
 49
2.500000
 49
-1.000000
  0
LTYPE
  2
CENTER4
 70
    64
  3
____ _ ____ _ ____ _ ____ _ ____ _ ____ _ ____
 72
    65
 73
     4
 40
50.000000
 49
45.000000
 49
-1.000000
 49
3.000000
 49
-1.000000
  0
LTYPE
  2
CENTER5
 70
    64
  3
____ _ ____ _ ____ _ ____ _ ____ _ ____ _ ____
 72
    65
 73
     4
 40
100.000000
 49
92.000000
 49
-2.000000
 49
4.000000
 49
-2.000000
  0
LTYPE
  2
SBK1
 70
    64
  3
______ _ _ _ ______ _ _ _ ______ _ _ _ _____  
 72
    65
 73
     8
 40
60.500000
 49
45.000000
 49
-2.000000
 49
2.500000
 49
-2.000000
 49
2.500000
 49
-2.000000
 49
2.500000
 49
-2.000000
  0
LTYPE
  2
SBK2
 70
    64
  3
______ _ _ _ ______ _ _ _ ______ _ _ _ _____  
 72
    65
 73
     8
 40
84.000000
 49
64.000000
 49
-2.000000
 49
4.000000
 49
-2.000000
 49
4.000000
 49
-2.000000
 49
4.000000
 49
-2.000000
  0
LTYPE
  2
STCH
 70
    64
  3
__ __ __ __ __ __ __ __ __ __ __ __ __ __ __
 72
    65
 73
     2
 40
3.000000
 49
1.000000
 49
-2.000000
  0
LTYPE
  2
MTCH
 70
    64
  3
_____ _ _ _____ _ _ _____ _ _ _____ _ _ ____  
 72
    65
 73
     6
 40
80.000000
 49
66.000000
 49
-2.000000
 49
4.000000
 49
-2.000000
 49
4.000000
 49
-2.000000
  0
ENDTAB
  0
TABLE
  2
LAYER
 70
     1
  0
LAYER
  2
0
 70
     0
 62
     7
  6
CONTINUOUS
  0
ENDTAB
  0
TABLE
  2
STYLE
 70
     1
  0
STYLE
  2
STANDARD
 70
     0
 40
0.000000
 41
1.000000
 50
0.000000
 71
     0
 42
0.200000
  3
txt
  4
BIGFONT
  0
ENDTAB
  0
TABLE
  2
VIEW
 70
     0
  0
ENDTAB
  0
ENDSEC
  0
SECTION
  2
BLOCKS
  0
ENDSEC
  0
SECTION
  2
ENTITIES
  0
LINE
  8
0
 10
7.653503
 20
-62.817230
 11
7.653503
 21
-72.817230
  0
LINE
  8
0
 10
7.753504
 20
-63.117229
 11
7.753504
 21
-72.517227
  0
LINE
  8
0
 10
7.753504
 20
-71.917229
 11
7.653503
 21
-71.917229
  0
LINE
  8
0
 10
7.753504
 20
-63.717232
 11
7.653503
 21
-63.717232
  0
LINE
  8
0
 10
12.253504
 20
-63.117229
 11
7.753504
 21
-63.117229
  0
LINE
  8
0
 10
18.604044
 20
-65.957230
 11
22.683504
 21
-65.957230
  0
LINE
  8
0
 10
18.988356
 20
-64.527229
 11
22.683504
 21
-64.527229
  0
LINE
  8
0
 10
12.253504
 20
-64.527229
 11
17.958357
 21
-64.527229
  0
LINE
  8
0
 10
12.253504
 20
-65.957230
 11
17.574045
 21
-65.957230
  0
LINE
  8
0
 10
22.683504
 20
-64.917229
 11
27.683504
 21
-64.917229
  0
LINE
  8
0
 10
22.683504
 20
-65.717232
 11
27.683504
 21
-65.717232
  0
LINE
  8
0
 10
22.683504
 20
-64.597229
 11
22.683504
 21
-66.027229
  0
LINE
  8
0
 10
27.683504
 20
-64.917229
 11
27.683504
 21
-65.717232
  0
LINE
  8
0
 10
17.238794
 20
-71.037231
 11
22.683504
 21
-71.037231
  0
LINE
  8
0
 10
17.623106
 20
-69.607231
 11
22.683504
 21
-69.607231
  0
LINE
  8
0
 10
12.253504
 20
-69.607231
 11
16.593107
 21
-69.607231
  0
LINE
  8
0
 10
12.253504
 20
-71.037231
 11
16.208796
 21
-71.037231
  0
LINE
  8
0
 10
22.683504
 20
-70.717232
 11
27.683504
 21
-70.717232
  0
LINE
  8
0
 10
22.683504
 20
-69.917229
 11
27.683504
 21
-69.917229
  0
LINE
  8
0
 10
22.683504
 20
-71.037231
 11
22.683504
 21
-69.607231
  0
LINE
  8
0
 10
27.683504
 20
-70.717232
 11
27.683504
 21
-69.917229
  0
LINE
  8
0
 62
     2
 10
15.908793
 20
-72.153511
 11
18.273012
 21
-63.356411
  0
LINE
  8
0
 62
     2
 10
16.938797
 20
-72.153519
 11
19.303015
 21
-63.356415
  0
LINE
  8
0
 10
11.542177
 20
-63.117229
 11
11.542177
 21
-72.517227
  0
LINE
  8
0
 10
11.253504
 20
-63.117229
 11
11.253504
 21
-72.517227
  0
LINE
  8
0
 10
12.253504
 20
-72.517227
 11
7.753504
 21
-72.517227
  0
LINE
  8
0
 10
12.253504
 20
-63.117229
 11
12.253504
 21
-72.517227
  0
LINE
  8
0
 10
1.653503
 20
-72.817230
 11
1.653503
 21
-62.817230
  0
LINE
  8
0
 10
-2.946497
 20
-72.817230
 11
-2.946497
 21
-62.817230
  0
LINE
  8
0
 10
-6.446497
 20
-72.817230
 11
-6.446497
 21
-62.817230
  0
LINE
  8
0
 10
2.653503
 20
-62.817230
 11
2.653503
 21
-72.817230
  0
LINE
  8
0
 10
-17.946497
 20
-62.817230
 11
7.653503
 21
-62.817230
  0
LINE
  8
0
 10
-17.946497
 20
-72.817230
 11
7.653503
 21
-72.817230
  0
LINE
  8
0
 10
-17.246498
 20
-71.817230
 11
-17.246498
 21
-63.817230
  0
LINE
  8
0
 10
-15.146497
 20
-71.817230
 11
-15.146497
 21
-63.817230
  0
LINE
  8
0
 10
-16.946497
 20
-72.117233
 11
-15.446497
 21
-72.117233
  0
LINE
  8
0
 10
-15.146497
 20
-68.163895
 11
-16.246498
 21
-68.163895
  0
LINE
  8
0
 10
-15.146497
 20
-68.017227
 11
-17.246498
 21
-68.017227
  0
LINE
  8
0
 10
-15.146497
 20
-67.617233
 11
-17.246498
 21
-67.617233
  0
LINE
  8
0
 10
-15.146497
 20
-67.470566
 11
-16.246498
 21
-67.470566
  0
LINE
  8
0
 10
-15.146497
 20
-65.517227
 11
-16.246498
 21
-65.517227
  0
LINE
  8
0
 10
-15.146497
 20
-70.117233
 11
-16.246498
 21
-70.117233
  0
LINE
  8
0
 10
-16.246498
 20
-70.517227
 11
-16.246498
 21
-68.090561
  0
LINE
  8
0
 10
-16.446497
 20
-64.917229
 11
-17.246498
 21
-64.917229
  0
LINE
  8
0
 10
-16.446497
 20
-70.717232
 11
-17.246498
 21
-70.717232
  0
LINE
  8
0
 10
-16.246498
 20
-67.543900
 11
-16.246498
 21
-65.117233
  0
LINE
  8
0
 10
-16.246498
 20
-67.543900
 11
-17.246498
 21
-67.543900
  0
LINE
  8
0
 10
-16.246498
 20
-68.090561
 11
-17.246498
 21
-68.090561
  0
LINE
  8
0
 10
-16.946497
 20
-63.517231
 11
-15.446497
 21
-63.517231
  0
LINE
  8
0
  6
CENTER
 62
     2
 10
-19.167526
 20
-64.317230
 11
-14.793394
 21
-64.317230
  0
LINE
  8
0
  6
CENTER
 62
     2
 10
-19.167526
 20
-71.317230
 11
-14.793394
 21
-71.317230
  0
LINE
  8
0
  6
CENTER
 62
     2
 10
-25.965916
 20
-67.817230
 11
14.156343
 21
-67.817230
  0
LINE
  8
0
  6
CENTER
 62
     2
 10
-25.965916
 20
-67.817230
 11
4.353586
 21
-67.817230
  0
LINE
  8
0
 62
     4
 10
-17.946497
 20
-62.817230
 11
-23.946497
 21
-62.817230
  0
LINE
  8
0
 62
     4
 10
-17.946497
 20
-72.817230
 11
-23.946497
 21
-72.817230
  0
LINE
  8
0
  6
CENTER
 62
     1
 10
-19.726027
 20
-71.317230
 11
-24.469629
 21
-71.317230
  0
LINE
  8
0
  6
CENTER
 62
     1
 10
-21.946497
 20
-61.862648
 11
-21.946497
 21
-73.771812
  0
LINE
  8
0
  6
CENTER
 62
     1
 10
-19.726027
 20
-64.317230
 11
-24.469629
 21
-64.317230
  0
LINE
  8
0
 62
     4
 10
-23.946497
 20
-62.817230
 11
-23.946497
 21
-72.817230
  0
LINE
  8
0
 10
-17.946497
 20
-72.817230
 11
-17.946497
 21
-62.817230
  0
LINE
  8
0
 10
-17.946497
 20
51.182774
 11
-17.946497
 21
61.182774
  0
LINE
  8
0
 10
27.783503
 20
58.322773
 11
27.783503
 21
59.122772
  0
LINE
  8
0
 10
22.783503
 20
58.007774
 11
22.783503
 21
59.437775
  0
LINE
  8
0
 10
22.783503
 20
59.122772
 11
27.783503
 21
59.122772
  0
LINE
  8
0
 10
22.783503
 20
58.322773
 11
27.783503
 21
58.322773
  0
LINE
  8
0
 10
18.604837
 20
58.007774
 11
22.783503
 21
58.007774
  0
LINE
  8
0
 10
18.223501
 20
59.437775
 11
22.783503
 21
59.437775
  0
LINE
  8
0
 10
12.253504
 20
59.437775
 11
16.983503
 21
59.437775
  0
LINE
  8
0
 10
12.253504
 20
58.007774
 11
17.364836
 21
58.007774
  0
LINE
  8
0
 10
22.783503
 20
52.927773
 11
22.783503
 21
54.357773
  0
LINE
  8
0
 10
19.578169
 20
54.357773
 11
22.783503
 21
54.357773
  0
LINE
  8
0
 10
19.959501
 20
52.927773
 11
22.783503
 21
52.927773
  0
LINE
  8
0
 10
22.783503
 20
54.042774
 11
27.783503
 21
54.042774
  0
LINE
  8
0
 10
22.783503
 20
53.242775
 11
27.783503
 21
53.242775
  0
LINE
  8
0
 10
27.783503
 20
54.042774
 11
27.783503
 21
53.242775
  0
LINE
  8
0
 10
12.253504
 20
54.357773
 11
18.338171
 21
54.357773
  0
LINE
  8
0
 10
12.253504
 20
52.927773
 11
18.719503
 21
52.927773
  0
LINE
  8
0
 62
     2
 10
16.363501
 20
61.762775
 11
19.323051
 21
50.664459
  0
LINE
  8
0
 62
     2
 10
17.603502
 20
61.762775
 11
20.563053
 21
50.664459
  0
LINE
  8
0
 10
-17.046497
 20
51.182774
 11
-17.046497
 21
61.182774
  0
LINE
  8
0
 10
-17.946497
 20
51.182774
 11
-17.946497
 21
61.182774
  0
LINE
  8
0
 10
1.753504
 20
60.882774
 11
1.753504
 21
51.482773
  0
LINE
  8
0
 10
-16.746498
 20
61.182774
 11
-16.746498
 21
51.182774
  0
LINE
  8
0
 10
-17.946497
 20
61.182774
 11
7.253504
 21
61.182774
  0
LINE
  8
0
 10
-17.946497
 20
51.182774
 11
7.253504
 21
51.182774
  0
LINE
  8
0
 10
7.253504
 20
51.182774
 11
7.253504
 21
53.682774
  0
LINE
  8
0
 10
1.753504
 20
53.282772
 11
7.253504
 21
53.282772
  0
LINE
  8
0
 10
1.753504
 20
59.082775
 11
7.253504
 21
59.082775
  0
LINE
  8
0
 62
     2
 10
-1.246496
 20
57.682774
 11
-1.246496
 21
54.682774
  0
LINE
  8
0
 62
     2
 10
-1.246496
 20
54.682774
 11
1.753504
 21
54.682774
  0
LINE
  8
0
 62
     2
 10
-1.246496
 20
57.682774
 11
1.753504
 21
57.682774
  0
LINE
  8
0
 10
2.753504
 20
53.682774
 11
2.753504
 21
58.682774
  0
LINE
  8
0
 10
12.253504
 20
51.482773
 11
12.253504
 21
60.882774
  0
LINE
  8
0
 10
11.253504
 20
53.682774
 11
11.253504
 21
58.682774
  0
LINE
  8
0
 10
7.253504
 20
51.482773
 11
12.253504
 21
51.482773
  0
LINE
  8
0
 10
2.753504
 20
53.682774
 11
11.253504
 21
53.682774
  0
LINE
  8
0
 10
10.542177
 20
58.682774
 11
10.542177
 21
53.682774
  0
LINE
  8
0
 10
10.253504
 20
58.682774
 11
10.253504
 21
53.682774
  0
LINE
  8
0
  6
PHANTOM
 10
3.619528
 20
56.182774
 11
3.619528
 21
54.932774
  0
LINE
  8
0
 10
7.253504
 20
52.582775
 11
12.253504
 21
52.582775
  0
LINE
  8
0
  6
PHANTOM
 10
3.619528
 20
56.182774
 11
3.619528
 21
57.432774
  0
LINE
  8
0
 10
7.253504
 20
59.782772
 11
12.253504
 21
59.782772
  0
LINE
  8
0
 10
2.753504
 20
58.682774
 11
11.253504
 21
58.682774
  0
LINE
  8
0
 10
7.253504
 20
60.882774
 11
12.253504
 21
60.882774
  0
LINE
  8
0
 10
3.619528
 20
58.682774
 11
3.619528
 21
53.682774
  0
LINE
  8
0
 10
7.253504
 20
58.682774
 11
7.253504
 21
61.182774
  0
LINE
  8
0
  6
CENTER
 62
     2
 10
-29.484428
 20
56.182774
 11
13.581057
 21
56.182774
  0
LINE
  8
0
  6
CENTER
 62
     2
 10
-19.535662
 20
52.682846
 11
-15.414713
 21
52.682877
  0
LINE
  8
0
  6
CENTER
 62
     2
 10
-19.535717
 20
59.682846
 11
-15.414768
 21
59.682877
  0
LINE
  8
0
 62
     4
 10
-23.946497
 20
51.182774
 11
-23.946497
 21
61.182774
  0
LINE
  8
0
  6
CENTER
 62
     1
 10
-19.318899
 20
52.682774
 11
-24.469629
 21
52.682774
  0
LINE
  8
0
  6
CENTER
 62
     1
 10
-21.946497
 20
50.228191
 11
-21.946497
 21
62.137356
  0
LINE
  8
0
  6
CENTER
 62
     1
 10
-19.726027
 20
59.682774
 11
-24.469629
 21
59.682774
  0
LINE
  8
0
 62
     4
 10
-17.946497
 20
51.182774
 11
-23.946497
 21
51.182774
  0
LINE
  8
0
 62
     4
 10
-17.946497
 20
61.182774
 11
-23.946497
 21
61.182774
  0
LINE
  8
0
 10
-17.946497
 20
51.182774
 11
-17.946497
 21
61.182774
  0
LINE
  8
0
 10
56.353500
 20
-14.317226
 11
56.053501
 21
-14.317226
  0
LINE
  8
0
 10
56.353500
 20
-14.417227
 11
56.053501
 21
-14.417227
  0
LINE
  8
0
 10
63.553501
 20
-9.017227
 11
65.753502
 21
-9.017227
  0
LINE
  8
0
 10
63.553501
 20
-10.017227
 11
63.953503
 21
-10.017227
  0
LINE
  8
0
 10
58.553501
 20
-9.217226
 11
63.553501
 21
-9.217226
  0
LINE
  8
0
 10
58.553501
 20
-8.017227
 11
63.553501
 21
-8.017227
  0
LINE
  8
0
 10
57.353500
 20
-10.517227
 11
64.753502
 21
-10.517227
  0
LINE
  8
0
 10
56.353500
 20
-14.817226
 11
56.353500
 21
-9.517227
  0
LINE
  8
0
 10
65.753502
 20
-14.817226
 11
65.753502
 21
-9.517227
  0
LINE
  8
0
 10
56.353500
 20
-14.817226
 11
65.753502
 21
-14.817226
  0
LINE
  8
0
 10
57.963501
 20
-13.117226
 11
57.963501
 21
-13.617226
  0
LINE
  8
0
 10
59.063499
 20
-13.117226
 11
59.063499
 21
-13.617226
  0
LINE
  8
0
 10
57.563499
 20
-11.017227
 11
59.463501
 21
-11.017227
  0
LINE
  8
0
 10
57.637501
 20
-13.117226
 11
59.387501
 21
-13.117226
  0
LINE
  8
0
 10
57.963501
 20
-13.617226
 11
59.063499
 21
-13.617226
  0
LINE
  8
0
 10
62.303501
 20
-9.517227
 11
62.303501
 21
-10.517227
  0
LINE
  8
0
 10
59.803501
 20
-9.517227
 11
59.803501
 21
-10.517227
  0
LINE
  8
0
 10
56.353500
 20
-9.517227
 11
57.353500
 21
-9.517227
  0
LINE
  8
0
 10
57.353500
 20
-10.517227
 11
57.353500
 21
-9.517227
  0
LINE
  8
0
 10
65.753502
 20
-9.517227
 11
64.753502
 21
-9.517227
  0
LINE
  8
0
 10
64.753502
 20
-10.517227
 11
64.753502
 21
-9.517227
  0
LINE
  8
0
 10
59.463497
 20
-11.017227
 11
59.587498
 21
-12.905227
  0
LINE
  8
0
 10
57.437500
 20
-12.905228
 11
57.563499
 21
-11.017225
  0
LINE
  8
0
 10
60.103500
 20
-11.017227
 11
62.003502
 21
-11.017227
  0
LINE
  8
0
 10
59.977501
 20
-12.905227
 11
60.103500
 21
-11.017226
  0
LINE
  8
0
 10
60.177502
 20
-13.117226
 11
61.927502
 21
-13.117226
  0
LINE
  8
0
 10
60.503502
 20
-13.117226
 11
60.503502
 21
-13.617226
  0
LINE
  8
0
 10
60.503502
 20
-13.617226
 11
61.603500
 21
-13.617226
  0
LINE
  8
0
 10
61.603500
 20
-13.117226
 11
61.603500
 21
-13.617226
  0
LINE
  8
0
 10
62.003502
 20
-11.017225
 11
62.127502
 21
-12.905227
  0
LINE
  8
0
 10
60.653500
 20
-11.617226
 11
60.653500
 21
-12.417227
  0
LINE
  8
0
 10
61.453503
 20
-11.617226
 11
60.653500
 21
-11.617226
  0
LINE
  8
0
 10
61.453503
 20
-11.617226
 11
61.453503
 21
-12.417227
  0
LINE
  8
0
 10
61.453503
 20
-12.417227
 11
60.653500
 21
-12.417227
  0
LINE
  8
0
 10
62.643501
 20
-11.017227
 11
64.543503
 21
-11.017227
  0
LINE
  8
0
 10
62.517502
 20
-12.905227
 11
62.643501
 21
-11.017226
  0
LINE
  8
0
 10
62.717503
 20
-13.117226
 11
64.467499
 21
-13.117226
  0
LINE
  8
0
 10
63.043503
 20
-13.117226
 11
63.043503
 21
-13.617226
  0
LINE
  8
0
 10
63.043503
 20
-13.617226
 11
64.143501
 21
-13.617226
  0
LINE
  8
0
 10
64.143501
 20
-13.117226
 11
64.143501
 21
-13.617226
  0
LINE
  8
0
 10
64.543503
 20
-11.017226
 11
64.667503
 21
-12.905229
  0
LINE
  8
0
 10
58.553501
 20
-8.017227
 11
58.553501
 21
-10.517227
  0
LINE
  8
0
 10
63.553501
 20
-8.017227
 11
63.553501
 21
-10.517227
  0
LINE
  8
0
 10
58.153500
 20
-9.517227
 11
63.953503
 21
-9.517227
  0
LINE
  8
0
 10
63.953503
 20
-10.017227
 11
63.953503
 21
-9.017227
  0
LINE
  8
0
 10
58.153500
 20
-10.017227
 11
58.153500
 21
-9.017227
  0
LINE
  8
0
 10
58.153500
 20
-10.017227
 11
58.553501
 21
-10.017227
  0
LINE
  8
0
 10
56.353500
 20
-9.017227
 11
58.553501
 21
-9.017227
  0
LINE
  8
0
 10
66.053497
 20
-14.317226
 11
65.753502
 21
-14.317226
  0
LINE
  8
0
 10
58.659130
 20
-22.858047
 11
58.403500
 21
-22.417229
  0
LINE
  8
0
 10
63.703503
 20
-22.417227
 11
63.447872
 21
-22.858044
  0
LINE
  8
0
 10
59.909130
 20
-21.608044
 11
59.653500
 21
-21.167227
  0
LINE
  8
0
 10
58.403500
 20
-22.417227
 11
59.653500
 21
-21.167227
  0
LINE
  8
0
 10
59.909130
 20
-21.608044
 11
58.659130
 21
-22.858044
  0
LINE
  8
0
 10
62.197872
 20
-21.608044
 11
62.453503
 21
-21.167225
  0
LINE
  8
0
 10
66.053497
 20
-15.726409
 11
56.053501
 21
-15.726409
  0
LINE
  8
0
 10
62.197872
 20
-21.608044
 11
63.447872
 21
-22.858044
  0
LINE
  8
0
 10
66.053497
 20
-22.858044
 11
63.447872
 21
-22.858044
  0
LINE
  8
0
 10
58.659130
 20
-22.858044
 11
56.053501
 21
-22.858044
  0
LINE
  8
0
 10
59.909130
 20
-21.608044
 11
62.197872
 21
-21.608044
  0
LINE
  8
0
 10
66.053497
 20
-22.417227
 11
63.703503
 21
-22.417227
  0
LINE
  8
0
 10
63.703503
 20
-22.417227
 11
62.453503
 21
-21.167227
  0
LINE
  8
0
 10
59.653500
 20
-21.167227
 11
62.453503
 21
-21.167227
  0
LINE
  8
0
 10
58.403500
 20
-22.417227
 11
56.053501
 21
-22.417227
  0
LINE
  8
0
 10
56.053501
 20
-14.915305
 11
66.053497
 21
-14.915305
  0
LINE
  8
0
 10
66.053497
 20
-14.417227
 11
65.753502
 21
-14.417227
  0
LINE
  8
0
 10
64.553497
 20
-18.717226
 11
66.053497
 21
-18.717226
  0
LINE
  8
0
 10
66.053497
 20
-21.917227
 11
64.553497
 21
-21.917227
  0
LINE
  8
0
 10
57.553501
 20
-21.917227
 11
56.053501
 21
-21.917227
  0
LINE
  8
0
 10
56.053501
 20
-18.717226
 11
57.553501
 21
-18.717226
  0
LINE
  8
0
  6
CENTER
 62
     2
 10
63.553501
 20
-18.567226
 11
58.553501
 21
-18.567226
  0
LINE
  8
0
 10
62.879013
 20
-18.867226
 11
59.227989
 21
-18.867226
  0
LINE
  8
0
 10
61.053501
 20
-18.267227
 11
59.227989
 21
-18.267227
  0
LINE
  8
0
 10
62.879013
 20
-18.267227
 11
61.053501
 21
-18.267227
  0
LINE
  8
0
 10
56.846394
 20
-21.024334
 11
58.260609
 21
-19.610119
  0
LINE
  8
0
 10
56.846394
 20
-19.610119
 11
58.260609
 21
-21.024332
  0
LINE
  8
0
 10
65.260605
 20
-19.610119
 11
63.846394
 21
-21.024332
  0
LINE
  8
0
 10
65.260605
 20
-21.024332
 11
63.846394
 21
-19.610117
  0
LINE
  8
0
 10
65.753502
 20
8.182774
 11
56.353500
 21
8.182774
  0
LINE
  8
0
 62
     2
 10
59.553501
 20
3.182774
 11
62.553501
 21
3.182774
  0
LINE
  8
0
 62
     2
 10
59.553501
 20
3.182774
 11
59.553501
 21
8.182774
  0
LINE
  8
0
 62
     2
 10
62.553501
 20
3.182774
 11
62.553501
 21
8.182774
  0
LINE
  8
0
 10
66.053497
 20
7.882774
 11
66.053497
 21
-28.817226
  0
LINE
  8
0
 10
56.053501
 20
7.882774
 11
56.053501
 21
-28.817226
  0
LINE
  8
0
  6
CENTER
 62
     2
 10
61.053501
 20
-30.602232
 11
61.053501
 21
10.914738
  0
LINE
  8
0
 10
56.053501
 20
-28.817226
 11
66.053497
 21
-28.817226
  0
LINE
  8
0
 62
     4
 10
56.053501
 20
-28.817226
 11
56.053501
 21
-29.817226
  0
LINE
  8
0
 62
     4
 10
66.053497
 20
-28.817226
 11
66.053497
 21
-29.817226
  0
LINE
  8
0
 62
     4
 10
66.053497
 20
-29.817226
 11
56.053501
 21
-29.817226
  0
LINE
  8
0
  6
CENTER
 62
     2
 10
61.053501
 20
-30.602232
 11
61.053501
 21
10.634506
  0
LINE
  8
0
  6
CENTER
 62
     2
 10
57.553501
 20
-30.602232
 11
57.553501
 21
-27.465729
  0
LINE
  8
0
  6
CENTER
 62
     2
 10
64.553497
 20
-30.602232
 11
64.553497
 21
-27.465729
  0
LINE
  8
0
 10
-74.946495
 20
7.682774
 11
-74.946495
 21
7.182774
  0
LINE
  8
0
 10
-72.946495
 20
-11.817226
 11
-72.946495
 21
8.182774
  0
LINE
  8
0
 10
-80.946495
 20
7.682774
 11
-80.946495
 21
7.182774
  0
LINE
  8
0
 10
-82.946495
 20
-11.817226
 11
-82.946495
 21
8.182774
  0
LINE
  8
0
 10
-74.946495
 20
7.182774
 11
-80.946495
 21
7.182774
  0
LINE
  8
0
 10
-74.946495
 20
7.682774
 11
-80.946495
 21
7.682774
  0
LINE
  8
0
 10
-72.946495
 20
8.182774
 11
-82.946495
 21
8.182774
  0
LINE
  8
0
 62
     4
 10
-82.946495
 20
-29.817226
 11
-72.946495
 21
-29.817226
  0
LINE
  8
0
  6
CENTER
 62
     1
 10
-77.946495
 20
-31.423004
 11
-77.946495
 21
-15.300899
  0
LINE
  8
0
 62
     4
 10
-82.946495
 20
-11.817226
 11
-72.946495
 21
-11.817226
  0
LINE
  8
0
  6
CENTER
 62
     1
 10
-80.431099
 20
-23.817226
 11
-75.462036
 21
-23.817226
  0
LINE
  8
0
  6
CENTER
 62
     1
 10
-80.431099
 20
-17.817226
 11
-75.462036
 21
-17.817226
  0
LINE
  8
0
 62
     4
 10
-72.946495
 20
-11.817226
 11
-72.946495
 21
-29.817226
  0
LINE
  8
0
 62
     4
 10
-82.946495
 20
-11.817226
 11
-82.946495
 21
-29.817226
  0
LINE
  8
0
  6
CENTER
 62
     2
 10
-81.446495
 20
-31.423004
 11
-81.446495
 21
-28.442677
  0
LINE
  8
0
  6
CENTER
 62
     2
 10
-74.446495
 20
-31.423004
 11
-74.446495
 21
-28.442677
  0
LINE
  8
0
 10
1.053503
 20
-14.617227
 11
1.053503
 21
-14.717226
  0
LINE
  8
0
 10
1.053503
 20
-14.617227
 11
1.053503
 21
-14.717226
  0
LINE
  8
0
 10
-6.446498
 20
-23.034370
 11
-2.946497
 21
-22.417227
  0
LINE
  8
0
 10
1.053503
 20
-14.617227
 11
1.053503
 21
-14.717226
  0
LINE
  8
0
 10
1.653503
 20
-15.215304
 11
1.653503
 21
-14.717226
  0
LINE
  8
0
 10
-2.946496
 20
-16.026409
 11
1.653503
 21
-15.215305
  0
LINE
  8
0
 10
-4.246496
 20
-14.717226
 11
1.653503
 21
-14.717226
  0
LINE
  8
0
 10
-2.946497
 20
-22.417227
 11
-2.946497
 21
-16.026409
  0
LINE
  8
0
 10
-3.946497
 20
-21.917227
 11
-3.946497
 21
-18.717226
  0
LINE
  8
0
 10
-2.946497
 20
-18.717226
 11
-3.946497
 21
-18.717226
  0
LINE
  8
0
 10
-2.946497
 20
-21.917227
 11
-3.946497
 21
-21.917227
  0
LINE
  8
0
 10
-3.846497
 20
-21.817226
 11
-3.946497
 21
-21.817226
  0
LINE
  8
0
 10
-3.846497
 20
-18.817226
 11
-3.946497
 21
-18.817226
  0
LINE
  8
0
 10
-3.346497
 20
-21.317226
 11
-3.346497
 21
-19.317226
  0
LINE
  8
0
 10
-6.446497
 20
-28.817226
 11
-6.446497
 21
-23.034370
  0
LINE
  8
0
 10
11.253504
 20
-14.617228
 11
11.542178
 21
-15.117226
  0
LINE
  8
0
 10
11.542177
 20
-15.117227
 11
12.253504
 21
-15.117227
  0
LINE
  8
0
 10
7.153503
 20
-13.917227
 11
7.253504
 21
-13.917227
  0
LINE
  8
0
 10
7.253504
 20
-14.617227
 11
11.253504
 21
-14.617227
  0
LINE
  8
0
 10
7.153503
 20
-14.617227
 11
-4.246496
 21
-14.617227
  0
LINE
  8
0
 10
27.683504
 20
-12.717226
 11
27.683504
 21
-11.917227
  0
LINE
  8
0
 10
22.683504
 20
-13.032227
 11
22.683504
 21
-11.602226
  0
LINE
  8
0
 10
22.683504
 20
-11.917227
 11
27.683504
 21
-11.917227
  0
LINE
  8
0
 10
22.683504
 20
-12.717226
 11
27.683504
 21
-12.717226
  0
LINE
  8
0
 10
18.504835
 20
-13.032227
 11
22.683504
 21
-13.032227
  0
LINE
  8
0
 10
18.123503
 20
-11.602226
 11
22.683504
 21
-11.602226
  0
LINE
  8
0
 10
12.253504
 20
-13.032227
 11
17.264837
 21
-13.032227
  0
LINE
  8
0
 10
12.253504
 20
-11.602226
 11
16.883505
 21
-11.602226
  0
LINE
  8
0
 10
7.153503
 20
-9.317226
 11
1.653503
 21
-9.317226
  0
LINE
  8
0
 10
3.719528
 20
-8.817226
 11
10.253504
 21
-8.817226
  0
LINE
  8
0
 10
10.253504
 20
-8.817227
 11
10.542179
 21
-8.317226
  0
LINE
  8
0
 10
10.542177
 20
-8.317226
 11
11.253504
 21
-8.317226
  0
LINE
  8
0
 10
11.253505
 20
-9.517470
 11
9.553503
 21
-9.817226
  0
LINE
  8
0
  6
PHANTOM
 10
8.053503
 20
-9.817226
 11
9.552118
 21
-9.817226
  0
LINE
  8
0
 10
7.153503
 20
-9.817226
 11
12.253504
 21
-9.817226
  0
LINE
  8
0
 10
11.253504
 20
-9.517471
 11
11.253504
 21
-8.317226
  0
LINE
  8
0
 10
2.853504
 20
-9.317226
 11
3.719527
 21
-8.817227
  0
LINE
  8
0
 10
1.653503
 20
-9.317226
 11
1.653503
 21
7.882774
  0
LINE
  8
0
 10
7.153503
 20
-14.617227
 11
7.153503
 21
-9.317226
  0
LINE
  8
0
 10
7.253504
 20
-9.817226
 11
7.253504
 21
-14.617227
  0
LINE
  8
0
 10
12.253504
 20
-15.117227
 11
12.253504
 21
-9.817226
  0
LINE
  8
0
 62
     2
 10
16.536524
 20
-10.301057
 11
17.641550
 21
-14.444907
  0
LINE
  8
0
 62
     2
 10
17.711279
 20
-10.056390
 11
18.836802
 21
-14.277099
  0
LINE
  8
0
 10
-4.246496
 20
1.682774
 11
-4.246496
 21
-14.717226
  0
LINE
  8
0
 10
-16.746498
 20
1.682774
 11
-4.246496
 21
1.682774
  0
LINE
  8
0
 10
1.353502
 20
8.182774
 11
-16.746498
 21
8.182774
  0
LINE
  8
0
 10
-16.746498
 20
8.182774
 11
-16.746498
 21
1.682774
  0
LINE
  8
0
  6
CENTER
 62
     2
 10
-10.946497
 20
-30.602232
 11
-10.946497
 21
9.771526
  0
LINE
  8
0
  6
CENTER
 62
     2
 10
-19.455814
 20
-20.317226
 11
-15.915641
 21
-20.317226
  0
LINE
  8
0
 10
-16.746498
 20
3.182774
 11
-16.746498
 21
1.682774
  0
LINE
  8
0
 10
-4.246496
 20
1.682774
 11
-16.746498
 21
1.682774
  0
LINE
  8
0
 10
-17.946497
 20
-28.817226
 11
-6.446497
 21
-28.817226
  0
LINE
  8
0
 62
     4
 10
-17.946497
 20
-28.817226
 11
-17.946497
 21
-29.817226
  0
LINE
  8
0
 62
     4
 10
-17.946497
 20
-29.817226
 11
-23.946497
 21
-29.817226
  0
LINE
  8
0
 62
     4
 10
-23.946497
 20
-11.817226
 11
-23.946497
 21
-29.817226
  0
LINE
  8
0
 62
     4
 10
-17.946497
 20
-11.817226
 11
-23.946497
 21
-11.817226
  0
LINE
  8
0
 10
-14.746497
 20
-28.117226
 11
-14.746497
 21
-27.317226
  0
LINE
  8
0
 10
-7.146497
 20
-27.317226
 11
-7.146497
 21
-28.117226
  0
LINE
  8
0
 10
-7.146497
 20
-27.317226
 11
-14.746497
 21
-27.317226
  0
LINE
  8
0
 10
-17.946497
 20
3.182774
 11
-17.946497
 21
-28.817226
  0
LINE
  8
0
 10
-17.946497
 20
3.182774
 11
-17.046497
 21
3.182774
  0
LINE
  8
0
 10
-7.146497
 20
-28.117226
 11
-14.746497
 21
-28.117226
  0
LINE
  8
0
 10
-17.046497
 20
3.182774
 11
-16.746496
 21
2.882773
  0
LINE
  8
0
  6
CENTER
 62
     2
 10
-10.946497
 20
-30.602232
 11
-10.946497
 21
5.285049
  0
LINE
  8
0
  6
CENTER
 62
     1
 10
-21.946497
 20
-31.423004
 11
-21.946497
 21
-28.155436
  0
LINE
  8
0
 10
-138.399994
 20
94.500000
 11
138.350006
 21
94.500000
  0
LINE
  8
0
 10
138.350006
 20
94.500000
 11
138.350006
 21
-94.800003
  0
LINE
  8
0
 10
-138.399994
 20
-94.800003
 11
138.350006
 21
-94.800003
  0
LINE
  8
0
 10
-138.399994
 20
94.500000
 11
-138.399994
 21
-94.800003
  0
LINE
  8
0
 10
73.350006
 20
-84.800003
 11
138.350006
 21
-84.800003
  0
LINE
  8
0
 10
-138.399994
 20
84.500000
 11
-73.399994
 21
84.500000
  0
LINE
  8
0
 10
73.350006
 20
84.500000
 11
138.350006
 21
84.500000
  0
LINE
  8
0
 10
73.350006
 20
-84.800003
 11
73.350006
 21
-94.800003
  0
LINE
  8
0
 10
73.350006
 20
94.500000
 11
73.350006
 21
84.500000
  0
LINE
  8
0
 10
-73.399994
 20
94.500000
 11
-73.399994
 21
84.500000
  0
ARC
  8
0
 10
-15.446497
 20
-63.817230
 40
0.300000
 50
0.000000
 51
90.000000
  0
ARC
  8
0
 10
-16.946497
 20
-63.817230
 40
0.299999
 50
90.000000
 51
180.000000
  0
ARC
  8
0
 10
-15.446497
 20
-71.817230
 40
0.300003
 50
270.000000
 51
0.000000
  0
ARC
  8
0
 10
-16.946497
 20
-71.817230
 40
0.299999
 50
180.000000
 51
270.000000
  0
ARC
  8
0
 10
-16.446497
 20
-70.517227
 40
0.199997
 50
270.000000
 51
0.000000
  0
ARC
  8
0
 10
-16.446497
 20
-65.117233
 40
0.200001
 50
0.000000
 51
90.000000
  0
CIRCLE
  8
0
 62
     4
 10
-21.946497
 20
-71.317230
 40
1.100000
  0
CIRCLE
  8
0
 62
     4
 10
-21.946497
 20
-64.317230
 40
1.100000
  0
ARC
  8
0
 10
1.453503
 20
51.482773
 40
0.299999
 50
270.000000
 51
0.000000
  0
ARC
  8
0
 10
1.453503
 20
60.882774
 40
0.300000
 50
0.000000
 51
90.000000
  0
CIRCLE
  8
0
 62
     4
 10
-21.946497
 20
52.682774
 40
1.100000
  0
CIRCLE
  8
0
 62
     4
 10
-21.946497
 20
59.682774
 40
1.100000
  0
CIRCLE
  8
0
 10
63.593502
 20
-12.017227
 40
0.750000
  0
CIRCLE
  8
0
 10
58.513500
 20
-12.017227
 40
0.750000
  0
ARC
  8
0
 10
57.637844
 20
-12.916563
 40
0.200665
 50
176.761688
 51
269.901978
  0
ARC
  8
0
 10
59.388214
 20
-12.917561
 40
0.199666
 50
269.795288
 51
3.541851
  0
ARC
  8
0
 10
60.177845
 20
-12.916563
 40
0.200665
 50
176.761688
 51
269.901978
  0
ARC
  8
0
 10
61.928215
 20
-12.917561
 40
0.199666
 50
269.795288
 51
3.541851
  0
ARC
  8
0
 10
62.717846
 20
-12.916563
 40
0.200665
 50
176.761688
 51
269.901978
  0
ARC
  8
0
 10
64.468216
 20
-12.917561
 40
0.199666
 50
269.794189
 51
3.541784
  0
ARC
  8
0
 10
65.753502
 20
-9.317226
 40
0.300003
 50
0.000000
 51
90.000000
  0
ARC
  8
0
 10
56.353500
 20
-9.317226
 40
0.300000
 50
90.000000
 51
180.000000
  0
CIRCLE
  8
0
 10
61.053501
 20
-18.567226
 40
2.050000
  0
ARC
  8
0
 10
57.553501
 20
-20.317226
 40
1.600000
 50
270.000000
 51
90.000000
  0
ARC
  8
0
 10
64.553497
 20
-20.317226
 40
1.600000
 50
90.000000
 51
270.000000
  0
CIRCLE
  8
0
 10
61.053501
 20
-18.567226
 40
1.900000
  0
CIRCLE
  8
0
 10
61.053501
 20
-18.567226
 40
1.850000
  0
ARC
  8
0
 10
61.053501
 20
-18.567226
 40
0.799999
 50
22.024282
 51
157.975723
  0
ARC
  8
0
 10
61.053501
 20
-18.567226
 40
0.799999
 50
202.024277
 51
337.975708
  0
CIRCLE
  8
0
 10
57.553501
 20
-20.317226
 40
1.500000
  0
CIRCLE
  8
0
 10
64.553497
 20
-20.317226
 40
1.500000
  0
ARC
  8
0
 10
56.353500
 20
7.882774
 40
0.300000
 50
90.000000
 51
180.000000
  0
ARC
  8
0
 10
65.753502
 20
7.882774
 40
0.300003
 50
0.000000
 51
90.000000
  0
CIRCLE
  8
0
 62
     4
 10
-77.946495
 20
-23.817226
 40
1.500000
  0
CIRCLE
  8
0
 62
     4
 10
-77.946495
 20
-23.817226
 40
1.200000
  0
CIRCLE
  8
0
 62
     4
 10
-77.946495
 20
-17.817226
 40
1.500000
  0
CIRCLE
  8
0
 62
     4
 10
-77.946495
 20
-17.817226
 40
1.200000
  0
ARC
  8
0
 10
-3.846497
 20
-19.317226
 40
0.500000
 50
0.000000
 51
90.000000
  0
ARC
  8
0
 10
-3.846497
 20
-21.317226
 40
0.500000
 50
270.000000
 51
0.000000
  0
ARC
  8
0
 10
1.353502
 20
7.882774
 40
0.300000
 50
0.000000
 51
90.000000
  0
TEXT
  8
0
 10
76.207352
 20
-92.850006
 40
4.500000
  1
KOGANEI CORP.
 50
0.000000
 41
1.052632
 51
0.000000
  7
STANDARD
  0
TEXT
  8
0
 10
92.842865
 20
87.620003
 40
3.200000
  1
Ver. 1.0
 50
0.000000
 41
1.052632
 51
0.000000
  7
STANDARD
  0
TEXT
  8
0
 10
-123.707138
 20
87.620003
 40
3.200000
  1
G010 SERIES
 50
0.000000
 41
1.052632
 51
0.000000
  7
STANDARD
  0
TEXT
  8
0
 10
-130.207001
 20
72.620003
 40
3.200000
  1
MODEL:G010E1-21-PL(AC200)
 50
0.000000
 41
1.052632
 51
0.000000
  7
STANDARD
  0
LINE
  8
0
 10
63.565498
 20
-12.766705
 11
64.342979
 21
-11.989228
  0
LINE
  8
0
 10
63.049904
 20
-12.533946
 11
64.110222
 21
-11.473629
  0
LINE
  8
0
 10
62.843937
 20
-11.991556
 11
63.567829
 21
-11.267667
  0
LINE
  8
0
 10
58.345543
 20
-12.748178
 11
59.244450
 21
-11.849271
  0
LINE
  8
0
 10
57.898647
 20
-12.446717
 11
58.942986
 21
-11.402379
  0
LINE
  8
0
 10
57.795059
 20
-11.801953
 11
58.298225
 21
-11.298786
  0
ENDSEC
  0
EOF
